  0
SECTION
  2
HEADER
  9
$ACADVER
  1
AC1015
  9
$ACADMAINTVER
 70
    20
  9
$DWGCODEPAGE
  3
ANSI_932
  9
$INSBASE
 10
0.0
 20
0.0
 30
0.0
  9
$EXTMIN
 10
0.0
 20
0.0
 30
0.0
  9
$EXTMAX
 10
4200.0
 20
2970.0
 30
0.0
  9
$LIMMIN
 10
0.0
 20
0.0
  9
$LIMMAX
 10
12.0
 20
9.0
  9
$ORTHOMODE
 70
     0
  9
$REGENMODE
 70
     1
  9
$FILLMODE
 70
     1
  9
$QTEXTMODE
 70
     0
  9
$MIRRTEXT
 70
     0
  9
$LTSCALE
 40
10.0
  9
$ATTMODE
 70
     1
  9
$TEXTSIZE
 40
0.0
  9
$TRACEWID
 40
0.05
  9
$TEXTSTYLE
  7
STANDARD
  9
$CLAYER
  8
0
  9
$CELTYPE
  6
CONTINUOUS
  9
$CECOLOR
 62
   256
  9
$CELTSCALE
 40
1.0
  9
$DISPSILH
 70
     0
  9
$DIMSCALE
 40
1.0
  9
$DIMASZ
 40
0.18
  9
$DIMEXO
 40
0.0625
  9
$DIMDLI
 40
0.38
  9
$DIMRND
 40
0.0
  9
$DIMDLE
 40
0.0
  9
$DIMEXE
 40
0.18
  9
$DIMTP
 40
0.0
  9
$DIMTM
 40
0.0
  9
$DIMTXT
 40
0.18
  9
$DIMCEN
 40
0.09
  9
$DIMTSZ
 40
0.0
  9
$DIMTOL
 70
     0
  9
$DIMLIM
 70
     0
  9
$DIMTIH
 70
     1
  9
$DIMTOH
 70
     1
  9
$DIMSE1
 70
     0
  9
$DIMSE2
 70
     0
  9
$DIMTAD
 70
     0
  9
$DIMZIN
 70
     0
  9
$DIMBLK
  1

  9
$DIMASO
 70
     1
  9
$DIMSHO
 70
     1
  9
$DIMPOST
  1

  9
$DIMAPOST
  1

  9
$DIMALT
 70
     0
  9
$DIMALTD
 70
     2
  9
$DIMALTF
 40
25.4
  9
$DIMLFAC
 40
1.0
  9
$DIMTOFL
 70
     0
  9
$DIMTVP
 40
0.0
  9
$DIMTIX
 70
     0
  9
$DIMSOXD
 70
     0
  9
$DIMSAH
 70
     0
  9
$DIMBLK1
  1

  9
$DIMBLK2
  1

  9
$DIMSTYLE
  2
Standard
  9
$DIMCLRD
 70
     0
  9
$DIMCLRE
 70
     0
  9
$DIMCLRT
 70
     0
  9
$DIMTFAC
 40
1.0
  9
$DIMGAP
 40
0.09
  9
$DIMJUST
 70
     0
  9
$DIMSD1
 70
     0
  9
$DIMSD2
 70
     0
  9
$DIMTOLJ
 70
     1
  9
$DIMTZIN
 70
     0
  9
$DIMALTZ
 70
     0
  9
$DIMALTTZ
 70
     0
  9
$DIMUPT
 70
     0
  9
$DIMDEC
 70
     4
  9
$DIMTDEC
 70
     4
  9
$DIMALTU
 70
     2
  9
$DIMALTTD
 70
     2
  9
$DIMTXSTY
  7
STANDARD
  9
$DIMAUNIT
 70
     0
  9
$DIMADEC
 70
     0
  9
$DIMALTRND
 40
0.0
  9
$DIMAZIN
 70
     0
  9
$DIMDSEP
 70
    46
  9
$DIMATFIT
 70
     3
  9
$DIMFRAC
 70
     0
  9
$DIMLDRBLK
  1

  9
$DIMLUNIT
 70
     2
  9
$DIMLWD
 70
    -2
  9
$DIMLWE
 70
    -2
  9
$DIMTMOVE
 70
     0
  9
$LUNITS
 70
     2
  9
$LUPREC
 70
     4
  9
$SKETCHINC
 40
0.1
  9
$FILLETRAD
 40
0.0
  9
$AUNITS
 70
     0
  9
$AUPREC
 70
     0
  9
$MENU
  1
.
  9
$ELEVATION
 40
0.0
  9
$PELEVATION
 40
0.0
  9
$THICKNESS
 40
0.0
  9
$LIMCHECK
 70
     0
  9
$CHAMFERA
 40
0.0
  9
$CHAMFERB
 40
0.0
  9
$CHAMFERC
 40
0.0
  9
$CHAMFERD
 40
0.0
  9
$SKPOLY
 70
     0
  9
$TDCREATE
 40
2459640.786689815
  9
$TDUCREATE
 40
2459640.411689815
  9
$TDUPDATE
 40
2459640.786898148
  9
$TDUUPDATE
 40
2459640.411898149
  9
$TDINDWG
 40
0.0002083333
  9
$TDUSRTIMER
 40
0.0002083333
  9
$USRTIMER
 70
     1
  9
$ANGBASE
 50
0.0
  9
$ANGDIR
 70
     0
  9
$PDMODE
 70
     0
  9
$PDSIZE
 40
5.0
  9
$PLINEWID
 40
0.0
  9
$SPLFRAME
 70
     0
  9
$SPLINETYPE
 70
     6
  9
$SPLINESEGS
 70
     8
  9
$HANDSEED
  5
34F
  9
$SURFTAB1
 70
     6
  9
$SURFTAB2
 70
     6
  9
$SURFTYPE
 70
     6
  9
$SURFU
 70
     6
  9
$SURFV
 70
     6
  9
$UCSBASE
  2

  9
$UCSNAME
  2

  9
$UCSORG
 10
0.0
 20
0.0
 30
0.0
  9
$UCSXDIR
 10
1.0
 20
0.0
 30
0.0
  9
$UCSYDIR
 10
0.0
 20
1.0
 30
0.0
  9
$UCSORTHOREF
  2

  9
$UCSORTHOVIEW
 70
     0
  9
$UCSORGTOP
 10
0.0
 20
0.0
 30
0.0
  9
$UCSORGBOTTOM
 10
0.0
 20
0.0
 30
0.0
  9
$UCSORGLEFT
 10
0.0
 20
0.0
 30
0.0
  9
$UCSORGRIGHT
 10
0.0
 20
0.0
 30
0.0
  9
$UCSORGFRONT
 10
0.0
 20
0.0
 30
0.0
  9
$UCSORGBACK
 10
0.0
 20
0.0
 30
0.0
  9
$PUCSBASE
  2

  9
$PUCSNAME
  2

  9
$PUCSORG
 10
0.0
 20
0.0
 30
0.0
  9
$PUCSXDIR
 10
1.0
 20
0.0
 30
0.0
  9
$PUCSYDIR
 10
0.0
 20
1.0
 30
0.0
  9
$PUCSORTHOREF
  2

  9
$PUCSORTHOVIEW
 70
     0
  9
$PUCSORGTOP
 10
0.0
 20
0.0
 30
0.0
  9
$PUCSORGBOTTOM
 10
0.0
 20
0.0
 30
0.0
  9
$PUCSORGLEFT
 10
0.0
 20
0.0
 30
0.0
  9
$PUCSORGRIGHT
 10
0.0
 20
0.0
 30
0.0
  9
$PUCSORGFRONT
 10
0.0
 20
0.0
 30
0.0
  9
$PUCSORGBACK
 10
0.0
 20
0.0
 30
0.0
  9
$USERI1
 70
     0
  9
$USERI2
 70
     0
  9
$USERI3
 70
     0
  9
$USERI4
 70
     0
  9
$USERI5
 70
     0
  9
$USERR1
 40
0.0
  9
$USERR2
 40
0.0
  9
$USERR3
 40
0.0
  9
$USERR4
 40
0.0
  9
$USERR5
 40
0.0
  9
$WORLDVIEW
 70
     1
  9
$SHADEDGE
 70
     3
  9
$SHADEDIF
 70
    70
  9
$TILEMODE
 70
     1
  9
$MAXACTVP
 70
    64
  9
$PINSBASE
 10
0.0
 20
0.0
 30
0.0
  9
$PLIMCHECK
 70
     0
  9
$PEXTMIN
 10
1.000000000000000E+20
 20
1.000000000000000E+20
 30
1.000000000000000E+20
  9
$PEXTMAX
 10
-1.000000000000000E+20
 20
-1.000000000000000E+20
 30
-1.000000000000000E+20
  9
$PLIMMIN
 10
0.0
 20
0.0
  9
$PLIMMAX
 10
12.0
 20
9.0
  9
$UNITMODE
 70
     0
  9
$VISRETAIN
 70
     1
  9
$PLINEGEN
 70
     0
  9
$PSLTSCALE
 70
     1
  9
$TREEDEPTH
 70
  3020
  9
$CMLSTYLE
  2
Standard
  9
$CMLJUST
 70
     0
  9
$CMLSCALE
 40
1.0
  9
$PROXYGRAPHICS
 70
     1
  9
$MEASUREMENT
 70
     0
  9
$CELWEIGHT
370
    -1
  9
$ENDCAPS
280
     0
  9
$JOINSTYLE
280
     0
  9
$LWDISPLAY
290
     0
  9
$INSUNITS
 70
     0
  9
$HYPERLINKBASE
  1

  9
$STYLESHEET
  1

  9
$XEDIT
290
     1
  9
$CEPSNTYPE
380
     0
  9
$PSTYLEMODE
290
     1
  9
$FINGERPRINTGUID
  2
{728795F5-7E3A-4841-97A6-DEDB79A277A8}
  9
$VERSIONGUID
  2
{8E3174CF-5F2F-C548-9DE0-F7C107D36F6E}
  9
$EXTNAMES
290
     1
  9
$PSVPSCALE
 40
0.0
  9
$OLESTARTUP
290
     0
  0
ENDSEC
  0
SECTION
  2
CLASSES
  0
CLASS
  1
ACDBDICTIONARYWDFLT
  2
AcDbDictionaryWithDefault
  3
ObjectDBX Classes
 90
        0
280
     0
281
     0
  0
CLASS
  1
MATERIAL
  2
AcDbMaterial
  3
ObjectDBX Classes
 90
     1153
280
     0
281
     0
  0
CLASS
  1
VISUALSTYLE
  2
AcDbVisualStyle
  3
ObjectDBX Classes
 90
     4095
280
     0
281
     0
  0
CLASS
  1
SCALE
  2
AcDbScale
  3
ObjectDBX Classes
 90
     1153
280
     0
281
     0
  0
CLASS
  1
TABLESTYLE
  2
AcDbTableStyle
  3
ObjectDBX Classes
 90
     4095
280
     0
281
     0
  0
CLASS
  1
MLEADERSTYLE
  2
AcDbMLeaderStyle
  3
ACDB_MLEADERSTYLE_CLASS
 90
     4095
280
     0
281
     0
  0
CLASS
  1
ACDBSECTIONVIEWSTYLE
  2
AcDbSectionViewStyle
  3
ObjectDBX Classes
 90
     1025
280
     0
281
     0
  0
CLASS
  1
ACDBDETAILVIEWSTYLE
  2
AcDbDetailViewStyle
  3
ObjectDBX Classes
 90
     1025
280
     0
281
     0
  0
CLASS
  1
DICTIONARYVAR
  2
AcDbDictionaryVar
  3
ObjectDBX Classes
 90
        0
280
     0
281
     0
  0
CLASS
  1
CELLSTYLEMAP
  2
AcDbCellStyleMap
  3
ObjectDBX Classes
 90
     1152
280
     0
281
     0
  0
CLASS
  1
ACDBPLACEHOLDER
  2
AcDbPlaceHolder
  3
ObjectDBX Classes
 90
        0
280
     0
281
     0
  0
CLASS
  1
LAYOUT
  2
AcDbLayout
  3
ObjectDBX Classes
 90
        0
280
     0
281
     0
  0
ENDSEC
  0
SECTION
  2
TABLES
  0
TABLE
  2
VPORT
  5
8
330
0
100
AcDbSymbolTable
 70
     1
  0
VPORT
  5
8B
330
8
100
AcDbSymbolTableRecord
100
AcDbViewportTableRecord
  2
*Active
 70
     0
 10
0.0
 20
0.0
 11
1.0
 21
1.0
 12
2843.819251670339
 22
874.727243049876
 13
0.0
 23
0.0
 14
1.0
 24
1.0
 15
0.0
 25
0.0
 16
0.0
 26
0.0
 36
1.0
 17
0.0
 27
0.0
 37
0.0
 40
3911.901404921085
 41
2.288647342995169
 42
50.0
 43
0.0
 44
0.0
 50
0.0
 51
0.0
 71
     0
 72
   100
 73
     1
 74
     0
 75
     1
 76
     0
 77
     0
 78
     0
281
     0
 65
     1
110
0.0
120
0.0
130
0.0
111
1.0
121
0.0
131
0.0
112
0.0
122
1.0
132
0.0
 79
     0
146
0.0
1001
ACAD_NAV_VCDISPLAY
1070
     3
  0
ENDTAB
  0
TABLE
  2
LTYPE
  5
5
330
0
100
AcDbSymbolTable
 70
     9
  0
LTYPE
  5
5A
330
5
100
AcDbSymbolTableRecord
100
AcDbLinetypeTableRecord
  2
ByBlock
 70
     0
  3

 72
    65
 73
     0
 40
0.0
  0
LTYPE
  5
5B
330
5
100
AcDbSymbolTableRecord
100
AcDbLinetypeTableRecord
  2
ByLayer
 70
     0
  3

 72
    65
 73
     0
 40
0.0
  0
LTYPE
  5
5C
330
5
100
AcDbSymbolTableRecord
100
AcDbLinetypeTableRecord
  2
CONTINUOUS
 70
     0
  3
SolidLine
 72
    65
 73
     0
 40
0.0
  0
LTYPE
  5
73
330
5
100
AcDbSymbolTableRecord
100
AcDbLinetypeTableRecord
  2
DOT
 70
     0
  3
--  --  --  --  --  --  --  --     
 72
    65
 73
     2
 40
3.0
 49
1.0
 74
     0
 49
-2.0
 74
     0
  0
LTYPE
  5
74
330
5
100
AcDbSymbolTableRecord
100
AcDbLinetypeTableRecord
  2
DASHED
 70
     0
  3
----    ----    ----    ----    
 72
    65
 73
     2
 40
5.0
 49
2.0
 74
     0
 49
-3.0
 74
     0
  0
LTYPE
  5
75
330
5
100
AcDbSymbolTableRecord
100
AcDbLinetypeTableRecord
  2
DASHED2
 70
     0
  3
------  ------  ------  ------ 
 72
    65
 73
     2
 40
10.0
 49
4.0
 74
     0
 49
-6.0
 74
     0
  0
LTYPE
  5
76
330
5
100
AcDbSymbolTableRecord
100
AcDbLinetypeTableRecord
  2
CENTER
 70
     0
  3
----- - ----- - ----- - ----- - 
 72
    65
 73
     4
 40
10.0
 49
6.0
 74
     0
 49
-3.0
 74
     0
 49
1.0
 74
     0
 49
-3.0
 74
     0
  0
LTYPE
  5
77
330
5
100
AcDbSymbolTableRecord
100
AcDbLinetypeTableRecord
  2
CENTER2
 70
     0
  3
----------  --  ----------  -- 
 72
    65
 73
     4
 40
17.0
 49
12.0
 74
     0
 49
-5.0
 74
     0
 49
2.0
 74
     0
 49
-5.0
 74
     0
  0
LTYPE
  5
78
330
5
100
AcDbSymbolTableRecord
100
AcDbLinetypeTableRecord
  2
PHANTOM
 70
     0
  3
--- - - --- - - --- - - --- - -
 72
    65
 73
     6
 40
13.0
 49
5.0
 74
     0
 49
-3.0
 74
     0
 49
1.0
 74
     0
 49
-3.0
 74
     0
 49
1.0
 74
     0
 49
-3.0
 74
     0
  0
LTYPE
  5
79
330
5
100
AcDbSymbolTableRecord
100
AcDbLinetypeTableRecord
  2
PHANTOM2
 70
     0
  3
--------  -  -  --------  -  -
 72
    65
 73
     6
 40
20.0
 49
6.0
 74
     0
 49
-5.0
 74
     0
 49
2.0
 74
     0
 49
-5.0
 74
     0
 49
2.0
 74
     0
 49
-5.0
 74
     0
  0
LTYPE
  5
7A
330
5
100
AcDbSymbolTableRecord
100
AcDbLinetypeTableRecord
  2
HIDDEN
 70
     0
  3
-   -   -   -   -   -   -   -   
 72
    65
 73
     2
 40
3.0
 49
0.5
 74
     0
 49
-2.5
 74
     0
  0
ENDTAB
  0
TABLE
  2
LAYER
  5
2
330
0
100
AcDbSymbolTable
 70
    10
  0
LAYER
  5
54
102
{ACAD_XDICTIONARY
360
2EF
102
}
330
2
100
AcDbSymbolTableRecord
100
AcDbLayerTableRecord
  2
0
 70
     0
 62
     7
  6
CONTINUOUS
370
    -3
390
F
  0
LAYER
  5
7F
102
{ACAD_XDICTIONARY
360
2F1
102
}
330
2
100
AcDbSymbolTableRecord
100
AcDbLayerTableRecord
  2
2-0
 70
     0
 62
     7
  6
CONTINUOUS
370
    -3
390
F
  0
LAYER
  5
80
102
{ACAD_XDICTIONARY
360
2F3
102
}
330
2
100
AcDbSymbolTableRecord
100
AcDbLayerTableRecord
  2
4-0
 70
     0
 62
    -7
  6
CONTINUOUS
370
    -3
390
F
  0
LAYER
  5
81
102
{ACAD_XDICTIONARY
360
2F5
102
}
330
2
100
AcDbSymbolTableRecord
100
AcDbLayerTableRecord
  2
5-0
 70
     0
 62
    -7
  6
CONTINUOUS
370
    -3
390
F
  0
LAYER
  5
82
102
{ACAD_XDICTIONARY
360
2F7
102
}
330
2
100
AcDbSymbolTableRecord
100
AcDbLayerTableRecord
  2
6-0
 70
     0
 62
     7
  6
CONTINUOUS
370
    -3
390
F
  0
LAYER
  5
83
102
{ACAD_XDICTIONARY
360
2F9
102
}
330
2
100
AcDbSymbolTableRecord
100
AcDbLayerTableRecord
  2
8-0
 70
     0
 62
     7
  6
CONTINUOUS
370
    -3
390
F
  0
LAYER
  5
84
102
{ACAD_XDICTIONARY
360
2FB
102
}
330
2
100
AcDbSymbolTableRecord
100
AcDbLayerTableRecord
  2
9-0
 70
     0
 62
     1
  6
CONTINUOUS
370
    -3
390
F
  0
LAYER
  5
85
102
{ACAD_XDICTIONARY
360
2FD
102
}
330
2
100
AcDbSymbolTableRecord
100
AcDbLayerTableRecord
  2
A-0
 70
     0
 62
     6
  6
CENTER
370
    -3
390
F
  0
LAYER
  5
86
102
{ACAD_XDICTIONARY
360
2FF
102
}
330
2
100
AcDbSymbolTableRecord
100
AcDbLayerTableRecord
  2
D-0
 70
     0
 62
     5
  6
CONTINUOUS
370
    -3
390
F
  0
LAYER
  5
8C
102
{ACAD_XDICTIONARY
360
301
102
}
330
2
100
AcDbSymbolTableRecord
100
AcDbLayerTableRecord
  2
1-0
 70
     0
 62
     7
  6
CONTINUOUS
370
    -3
390
F
  0
ENDTAB
  0
TABLE
  2
STYLE
  5
3
330
0
100
AcDbSymbolTable
 70
     6
  0
STYLE
  5
55
330
3
100
AcDbSymbolTableRecord
100
AcDbTextStyleTableRecord
  2
STANDARD
 70
     0
 40
0.0
 41
1.0
 50
0.0
 71
     0
 42
0.0
  3
txt.shx
  4
extfont.shx
  0
STYLE
  5
59
330
3
100
AcDbSymbolTableRecord
100
AcDbTextStyleTableRecord
  2
Annotative
 70
     0
 40
0.0
 41
1.0
 50
0.0
 71
     0
 42
0.2
  3
txt
  4

1001
AcadAnnotative
1000
AnnotativeData
1002
{
1070
     1
1070
     1
1002
}
  0
STYLE
  5
7B
330
3
100
AcDbSymbolTableRecord
100
AcDbTextStyleTableRecord
  2
TATEGAKI
 70
     4
 40
0.0
 41
1.0
 50
0.0
 71
     0
 42
0.0
  3
txt.shx
  4
extfont.shx
  0
STYLE
  5
7C
330
3
100
AcDbSymbolTableRecord
100
AcDbTextStyleTableRecord
  2
DIM
 70
     0
 40
0.0
 41
0.75
 50
0.0
 71
     0
 42
0.0
  3
txt.shx
  4
extfont.shx
  0
STYLE
  5
7D
330
3
100
AcDbSymbolTableRecord
100
AcDbTextStyleTableRecord
  2
_GOTHIC__
 70
     0
 40
0.0
 41
1.0
 50
0.0
 71
     0
 42
0.0
  3
MS Gothic
  4

  0
STYLE
  5
7E
330
3
100
AcDbSymbolTableRecord
100
AcDbTextStyleTableRecord
  2
_TATEGOTHIC_
 70
     4
 40
0.0
 41
1.0
 50
0.0
 71
     0
 42
0.0
  3
@MS Gothic
  4

  0
ENDTAB
  0
TABLE
  2
VIEW
  5
6
330
0
100
AcDbSymbolTable
 70
     0
  0
ENDTAB
  0
TABLE
  2
UCS
  5
7
330
0
100
AcDbSymbolTable
 70
     0
  0
ENDTAB
  0
TABLE
  2
APPID
  5
9
330
0
100
AcDbSymbolTable
 70
     4
  0
APPID
  5
56
330
9
100
AcDbSymbolTableRecord
100
AcDbRegAppTableRecord
  2
ACAD
 70
     0
  0
APPID
  5
5D
330
9
100
AcDbSymbolTableRecord
100
AcDbRegAppTableRecord
  2
AcadAnnotative
 70
     0
  0
APPID
  5
30D
330
9
100
AcDbSymbolTableRecord
100
AcDbRegAppTableRecord
  2
ACAD_NAV_VCDISPLAY
 70
     0
  0
APPID
  5
346
330
9
100
AcDbSymbolTableRecord
100
AcDbRegAppTableRecord
  2
ACAD_MLEADERVER
 70
     0
  0
ENDTAB
  0
TABLE
  2
DIMSTYLE
  5
A
330
0
100
AcDbSymbolTable
 70
     2
100
AcDbDimStyleTable
 71
     0
  0
DIMSTYLE
105
57
330
A
100
AcDbSymbolTableRecord
100
AcDbDimStyleTableRecord
  2
Standard
 70
     0
340
55
  0
DIMSTYLE
105
58
330
A
100
AcDbSymbolTableRecord
100
AcDbDimStyleTableRecord
  2
Annotative
 70
     0
340
55
1001
AcadAnnotative
1000
AnnotativeData
1002
{
1070
     1
1070
     1
1002
}
  0
ENDTAB
  0
TABLE
  2
BLOCK_RECORD
  5
1
330
0
100
AcDbSymbolTable
 70
     0
  0
BLOCK_RECORD
  5
6F
330
1
100
AcDbSymbolTableRecord
100
AcDbBlockTableRecord
  2
*Model_Space
340
72
  0
BLOCK_RECORD
  5
6B
330
1
100
AcDbSymbolTableRecord
100
AcDbBlockTableRecord
  2
*Paper_Space
340
6E
  0
ENDTAB
  0
ENDSEC
  0
SECTION
  2
BLOCKS
  0
BLOCK
  5
70
330
6F
100
AcDbEntity
  8
0
100
AcDbBlockBegin
  2
*Model_Space
 70
     0
 10
0.0
 20
0.0
 30
0.0
  3
*Model_Space
  1

  0
ENDBLK
  5
71
330
6F
100
AcDbEntity
  8
0
100
AcDbBlockEnd
  0
BLOCK
  5
6C
330
6B
100
AcDbEntity
 67
     1
  8
0
100
AcDbBlockBegin
  2
*Paper_Space
 70
     0
 10
0.0
 20
0.0
 30
0.0
  3
*Paper_Space
  1

  0
ENDBLK
  5
6D
330
6B
100
AcDbEntity
 67
     1
  8
0
100
AcDbBlockEnd
  0
ENDSEC
  0
SECTION
  2
ENTITIES
  0
LINE
  5
8D
330
6F
100
AcDbEntity
  8
1-0
  6
Continuous
 62
     7
100
AcDbLine
 10
0.0
 20
0.0
 30
0.0
 11
4200.0
 21
0.0
 31
0.0
  0
LINE
  5
8E
330
6F
100
AcDbEntity
  8
1-0
  6
Continuous
 62
     7
100
AcDbLine
 10
4200.0
 20
0.0
 30
0.0
 11
4200.0
 21
2970.0
 31
0.0
  0
LINE
  5
8F
330
6F
100
AcDbEntity
  8
1-0
  6
Continuous
 62
     7
100
AcDbLine
 10
4200.0
 20
2970.0
 30
0.0
 11
0.0
 21
2970.0
 31
0.0
  0
LINE
  5
90
330
6F
100
AcDbEntity
  8
1-0
  6
Continuous
 62
     7
100
AcDbLine
 10
0.0
 20
2970.0
 30
0.0
 11
0.0
 21
0.0
 31
0.0
  0
LINE
  5
91
330
6F
100
AcDbEntity
  8
8-0
  6
Continuous
 62
     7
100
AcDbLine
 10
100.0
 20
100.0
 30
0.0
 11
4100.0
 21
100.0
 31
0.0
  0
LINE
  5
92
330
6F
100
AcDbEntity
  8
8-0
  6
Continuous
 62
     7
100
AcDbLine
 10
2500.0
 20
300.0
 30
0.0
 11
4100.0
 21
300.0
 31
0.0
  0
LINE
  5
93
330
6F
100
AcDbEntity
  8
6-0
  6
Continuous
 62
     7
100
AcDbLine
 10
2500.0
 20
240.0
 30
0.0
 11
3150.0
 21
240.0
 31
0.0
  0
LINE
  5
94
330
6F
100
AcDbEntity
  8
8-0
  6
Continuous
 62
     7
100
AcDbLine
 10
4100.0
 20
100.0
 30
0.0
 11
4100.0
 21
2870.0
 31
0.0
  0
LINE
  5
95
330
6F
100
AcDbEntity
  8
8-0
  6
Continuous
 62
     7
100
AcDbLine
 10
4100.0
 20
2870.0
 30
0.0
 11
100.0
 21
2870.0
 31
0.0
  0
LINE
  5
96
330
6F
100
AcDbEntity
  8
8-0
  6
Continuous
 62
     7
100
AcDbLine
 10
100.0
 20
2870.0
 30
0.0
 11
100.0
 21
100.0
 31
0.0
  0
LINE
  5
97
330
6F
100
AcDbEntity
  8
6-0
  6
Continuous
 62
     7
100
AcDbLine
 10
3150.0
 20
100.0
 30
0.0
 11
3150.0
 21
300.0
 31
0.0
  0
LINE
  5
98
330
6F
100
AcDbEntity
  8
8-0
  6
Continuous
 62
     7
100
AcDbLine
 10
2500.0
 20
100.0
 30
0.0
 11
2500.0
 21
300.0
 31
0.0
  0
TEXT
  5
99
330
6F
100
AcDbEntity
  8
D-0
 62
     5
100
AcDbText
 10
2788.434
 20
252.531
 30
0.0
 40
31.104
  1
品番
100
AcDbText
  0
TEXT
  5
9A
330
6F
100
AcDbEntity
  8
D-0
 62
     5
100
AcDbText
 10
2520.864
 20
136.25
 30
0.0
 40
51.84000000000001
  1
KLH-600U3(SW)
100
AcDbText
  0
TEXT
  5
9B
330
6F
100
AcDbEntity
  8
D-0
 62
     5
100
AcDbText
 10
3353.56
 20
192.32
 30
0.0
 40
62.208
  1
アイオ産業株式会社
100
AcDbText
  0
TEXT
  5
9C
330
6F
100
AcDbEntity
  8
D-0
 62
     5
100
AcDbText
 10
3427.941
 20
124.513
 30
0.0
 40
31.104
  1
アイオシステムキッチン事業部
100
AcDbText
  0
ARC
  5
9D
330
6F
100
AcDbEntity
  8
2-0
  6
Continuous
 62
     7
100
AcDbCircle
 10
3255.659538175486
 20
200.204166274297
 30
0.0
 40
63.24278074506601
100
AcDbArc
 50
319.753
 51
220.247
  0
CIRCLE
  5
9E
330
6F
100
AcDbEntity
  8
2-0
  6
Continuous
 62
     7
100
AcDbCircle
 10
3255.659538175486
 20
200.204166274297
 30
0.0
 40
71.58304716886799
  0
CIRCLE
  5
9F
330
6F
100
AcDbEntity
  8
2-0
  6
Continuous
 62
     7
100
AcDbCircle
 10
3255.659538175486
 20
200.204166274297
 30
0.0
 40
72.000060490058
  0
CIRCLE
  5
A0
330
6F
100
AcDbEntity
  8
2-0
  6
Continuous
 62
     7
100
AcDbCircle
 10
3255.659538175486
 20
200.204166274297
 30
0.0
 40
72.417073811248
  0
CIRCLE
  5
A1
330
6F
100
AcDbEntity
  8
2-0
  6
Continuous
 62
     7
100
AcDbCircle
 10
3255.659538175486
 20
200.204166274297
 30
0.0
 40
72.834087132438
  0
CIRCLE
  5
A2
330
6F
100
AcDbEntity
  8
2-0
  6
Continuous
 62
     7
100
AcDbCircle
 10
3255.659538175486
 20
200.204166274297
 30
0.0
 40
73.251100453628
  0
CIRCLE
  5
A3
330
6F
100
AcDbEntity
  8
2-0
  6
Continuous
 62
     7
100
AcDbCircle
 10
3255.659538175486
 20
200.204166274297
 30
0.0
 40
73.459607114223
  0
CIRCLE
  5
A4
330
6F
100
AcDbEntity
  8
2-0
  6
Continuous
 62
     7
100
AcDbCircle
 10
3255.659538175486
 20
200.204166274297
 30
0.0
 40
73.04259379303299
  0
CIRCLE
  5
A5
330
6F
100
AcDbEntity
  8
2-0
  6
Continuous
 62
     7
100
AcDbCircle
 10
3255.659538175486
 20
200.204166274297
 30
0.0
 40
72.62558047184301
  0
CIRCLE
  5
A6
330
6F
100
AcDbEntity
  8
2-0
  6
Continuous
 62
     7
100
AcDbCircle
 10
3255.659538175486
 20
200.204166274297
 30
0.0
 40
72.20856715065299
  0
CIRCLE
  5
A7
330
6F
100
AcDbEntity
  8
2-0
  6
Continuous
 62
     7
100
AcDbCircle
 10
3255.659538175486
 20
200.204166274297
 30
0.0
 40
71.791553829463
  0
CIRCLE
  5
A8
330
6F
100
AcDbEntity
  8
2-0
  6
Continuous
 62
     7
100
AcDbCircle
 10
3255.659538175486
 20
200.204166274297
 30
0.0
 40
71.791553829463
  0
ARC
  5
A9
330
6F
100
AcDbEntity
  8
2-0
  6
Continuous
 62
     7
100
AcDbCircle
 10
3255.659538175486
 20
200.204166274297
 30
0.0
 40
63.45128740566099
100
AcDbArc
 50
319.753
 51
220.247
  0
CIRCLE
  5
AA
330
6F
100
AcDbEntity
  8
2-0
  6
Continuous
 62
     7
100
AcDbCircle
 10
3255.659538175486
 20
200.204166274297
 30
0.0
 40
71.374540508273
  0
ARC
  5
AB
330
6F
100
AcDbEntity
  8
2-0
  6
Continuous
 62
     7
100
AcDbCircle
 10
3255.659538175486
 20
200.204166274297
 30
0.0
 40
63.03427408447099
100
AcDbArc
 50
319.753
 51
220.247
  0
TEXT
  5
AC
330
6F
100
AcDbEntity
  8
2-0
 62
     7
100
AcDbText
 10
3216.455
 20
142.198
 30
0.0
 40
48.64
  1
A
100
AcDbText
  0
TEXT
  5
AD
330
6F
100
AcDbEntity
  8
2-0
 62
     7
100
AcDbText
 10
3258.946
 20
142.301
 30
0.0
 40
48.64
  1
I
100
AcDbText
  0
TEXT
  5
AE
330
6F
100
AcDbEntity
  8
2-0
 62
     7
100
AcDbText
 10
3269.344
 20
142.267
 30
0.0
 40
48.64
  1
O
100
AcDbText
  0
LINE
  5
AF
330
6F
100
AcDbEntity
  8
9-0
  6
Continuous
 62
     4
100
AcDbLine
 10
1038.720731
 20
1307.525071
 30
0.0
 11
922.2405339999999
 21
1307.525071
 31
0.0
  0
LINE
  5
B0
330
6F
100
AcDbEntity
  8
9-0
  6
Continuous
 62
     4
100
AcDbLine
 10
1038.70532
 20
1312.525071
 30
0.0
 11
922.2405339999999
 21
1312.525071
 31
0.0
  0
TEXT
  5
B1
330
6F
100
AcDbEntity
  8
9-0
 62
     4
100
AcDbText
 10
889.121
 20
1327.636
 30
0.0
 40
36.288
  1
5
 50
90.0
100
AcDbText
  0
LINE
  5
B2
330
6F
100
AcDbEntity
  8
9-0
  6
Continuous
 62
     4
100
AcDbLine
 10
922.24053401891
 20
1312.525071082876
 30
0.0
 11
922.24053401891
 21
1307.525071082878
 31
0.0
  0
CIRCLE
  5
B3
330
6F
100
AcDbEntity
  8
9-0
  6
Continuous
 62
     4
100
AcDbCircle
 10
922.24053401891
 20
1312.525071082876
 30
0.0
 40
0.25
  0
CIRCLE
  5
B4
330
6F
100
AcDbEntity
  8
9-0
  6
Continuous
 62
     4
100
AcDbCircle
 10
922.24053401891
 20
1312.525071082876
 30
0.0
 40
0.1875
  0
CIRCLE
  5
B5
330
6F
100
AcDbEntity
  8
9-0
  6
Continuous
 62
     4
100
AcDbCircle
 10
922.24053401891
 20
1312.525071082876
 30
0.0
 40
0.125
  0
CIRCLE
  5
B6
330
6F
100
AcDbEntity
  8
9-0
  6
Continuous
 62
     4
100
AcDbCircle
 10
922.24053401891
 20
1312.525071082876
 30
0.0
 40
0.0625
  0
CIRCLE
  5
B7
330
6F
100
AcDbEntity
  8
9-0
  6
Continuous
 62
     4
100
AcDbCircle
 10
922.24053401891
 20
1307.525071082878
 30
0.0
 40
0.25
  0
CIRCLE
  5
B8
330
6F
100
AcDbEntity
  8
9-0
  6
Continuous
 62
     4
100
AcDbCircle
 10
922.24053401891
 20
1307.525071082878
 30
0.0
 40
0.1875
  0
CIRCLE
  5
B9
330
6F
100
AcDbEntity
  8
9-0
  6
Continuous
 62
     4
100
AcDbCircle
 10
922.24053401891
 20
1307.525071082878
 30
0.0
 40
0.125
  0
CIRCLE
  5
BA
330
6F
100
AcDbEntity
  8
9-0
  6
Continuous
 62
     4
100
AcDbCircle
 10
922.24053401891
 20
1307.525071082878
 30
0.0
 40
0.0625
  0
LINE
  5
BB
330
6F
100
AcDbEntity
  8
9-0
  6
Continuous
 62
     4
100
AcDbLine
 10
1038.720731
 20
1307.525071
 30
0.0
 11
922.2405339999999
 21
1307.525071
 31
0.0
  0
LINE
  5
BC
330
6F
100
AcDbEntity
  8
9-0
  6
Continuous
 62
     4
100
AcDbLine
 10
1064.07621
 20
877.5250709999999
 30
0.0
 11
922.2405339999999
 21
877.5250709999999
 31
0.0
  0
TEXT
  5
BD
330
6F
100
AcDbEntity
  8
9-0
 62
     4
100
AcDbText
 10
921.6210000000002
 20
1058.925
 30
0.0
 40
36.288
  1
430
 50
90.0
100
AcDbText
  0
LINE
  5
BE
330
6F
100
AcDbEntity
  8
9-0
  6
Continuous
 62
     4
100
AcDbLine
 10
922.24053401891
 20
877.525071082876
 30
0.0
 11
922.24053401891
 21
1307.525071082878
 31
0.0
  0
CIRCLE
  5
BF
330
6F
100
AcDbEntity
  8
9-0
  6
Continuous
 62
     4
100
AcDbCircle
 10
922.24053401891
 20
877.525071082876
 30
0.0
 40
0.25
  0
CIRCLE
  5
C0
330
6F
100
AcDbEntity
  8
9-0
  6
Continuous
 62
     4
100
AcDbCircle
 10
922.24053401891
 20
877.525071082876
 30
0.0
 40
0.1875
  0
CIRCLE
  5
C1
330
6F
100
AcDbEntity
  8
9-0
  6
Continuous
 62
     4
100
AcDbCircle
 10
922.24053401891
 20
877.525071082876
 30
0.0
 40
0.125
  0
CIRCLE
  5
C2
330
6F
100
AcDbEntity
  8
9-0
  6
Continuous
 62
     4
100
AcDbCircle
 10
922.24053401891
 20
877.525071082876
 30
0.0
 40
0.0625
  0
CIRCLE
  5
C3
330
6F
100
AcDbEntity
  8
9-0
  6
Continuous
 62
     4
100
AcDbCircle
 10
922.24053401891
 20
1307.525071082878
 30
0.0
 40
0.25
  0
CIRCLE
  5
C4
330
6F
100
AcDbEntity
  8
9-0
  6
Continuous
 62
     4
100
AcDbCircle
 10
922.24053401891
 20
1307.525071082878
 30
0.0
 40
0.1875
  0
CIRCLE
  5
C5
330
6F
100
AcDbEntity
  8
9-0
  6
Continuous
 62
     4
100
AcDbCircle
 10
922.24053401891
 20
1307.525071082878
 30
0.0
 40
0.125
  0
CIRCLE
  5
C6
330
6F
100
AcDbEntity
  8
9-0
  6
Continuous
 62
     4
100
AcDbCircle
 10
922.24053401891
 20
1307.525071082878
 30
0.0
 40
0.0625
  0
LINE
  5
C7
330
6F
100
AcDbEntity
  8
9-0
  6
Continuous
 62
     4
100
AcDbLine
 10
937.2012099999999
 20
877.5250709999999
 30
0.0
 11
822.2405339999999
 21
877.5250709999999
 31
0.0
  0
LINE
  5
C8
330
6F
100
AcDbEntity
  8
9-0
  6
Continuous
 62
     4
100
AcDbLine
 10
935.660114
 20
1312.525071
 30
0.0
 11
822.2405339999999
 21
1312.525071
 31
0.0
  0
TEXT
  5
C9
330
6F
100
AcDbEntity
  8
9-0
 62
     4
100
AcDbText
 10
821.621
 20
1061.425
 30
0.0
 40
36.288
  1
435
 50
90.0
100
AcDbText
  0
LINE
  5
CA
330
6F
100
AcDbEntity
  8
9-0
  6
Continuous
 62
     4
100
AcDbLine
 10
822.24053401891
 20
1312.525071082877
 30
0.0
 11
822.24053401891
 21
877.525071082876
 31
0.0
  0
CIRCLE
  5
CB
330
6F
100
AcDbEntity
  8
9-0
  6
Continuous
 62
     4
100
AcDbCircle
 10
822.24053401891
 20
1312.525071082877
 30
0.0
 40
0.25
  0
CIRCLE
  5
CC
330
6F
100
AcDbEntity
  8
9-0
  6
Continuous
 62
     4
100
AcDbCircle
 10
822.24053401891
 20
1312.525071082877
 30
0.0
 40
0.1875
  0
CIRCLE
  5
CD
330
6F
100
AcDbEntity
  8
9-0
  6
Continuous
 62
     4
100
AcDbCircle
 10
822.24053401891
 20
1312.525071082877
 30
0.0
 40
0.125
  0
CIRCLE
  5
CE
330
6F
100
AcDbEntity
  8
9-0
  6
Continuous
 62
     4
100
AcDbCircle
 10
822.24053401891
 20
1312.525071082877
 30
0.0
 40
0.0625
  0
CIRCLE
  5
CF
330
6F
100
AcDbEntity
  8
9-0
  6
Continuous
 62
     4
100
AcDbCircle
 10
822.24053401891
 20
877.525071082876
 30
0.0
 40
0.25
  0
CIRCLE
  5
D0
330
6F
100
AcDbEntity
  8
9-0
  6
Continuous
 62
     4
100
AcDbCircle
 10
822.24053401891
 20
877.525071082876
 30
0.0
 40
0.1875
  0
CIRCLE
  5
D1
330
6F
100
AcDbEntity
  8
9-0
  6
Continuous
 62
     4
100
AcDbCircle
 10
822.24053401891
 20
877.525071082876
 30
0.0
 40
0.125
  0
CIRCLE
  5
D2
330
6F
100
AcDbEntity
  8
9-0
  6
Continuous
 62
     4
100
AcDbCircle
 10
822.24053401891
 20
877.525071082876
 30
0.0
 40
0.0625
  0
LINE
  5
D3
330
6F
100
AcDbEntity
  8
9-0
  6
Continuous
 62
     4
100
AcDbLine
 10
1037.20121
 20
1971.527509
 30
0.0
 11
922.2405339999999
 21
1971.527509
 31
0.0
  0
LINE
  5
D4
330
6F
100
AcDbEntity
  8
9-0
  6
Continuous
 62
     4
100
AcDbLine
 10
1036.07621
 20
2281.527509
 30
0.0
 11
922.2405339999999
 21
2281.527509
 31
0.0
  0
TEXT
  5
D5
330
6F
100
AcDbEntity
  8
9-0
 62
     4
100
AcDbText
 10
921.6210000000002
 20
2092.928
 30
0.0
 40
36.288
  1
310
 50
90.0
100
AcDbText
  0
LINE
  5
D6
330
6F
100
AcDbEntity
  8
9-0
  6
Continuous
 62
     4
100
AcDbLine
 10
922.24053401891
 20
2281.527508525466
 30
0.0
 11
922.24053401891
 21
1971.527508525465
 31
0.0
  0
CIRCLE
  5
D7
330
6F
100
AcDbEntity
  8
9-0
  6
Continuous
 62
     4
100
AcDbCircle
 10
922.24053401891
 20
2281.527508525466
 30
0.0
 40
0.25
  0
CIRCLE
  5
D8
330
6F
100
AcDbEntity
  8
9-0
  6
Continuous
 62
     4
100
AcDbCircle
 10
922.24053401891
 20
2281.527508525466
 30
0.0
 40
0.1875
  0
CIRCLE
  5
D9
330
6F
100
AcDbEntity
  8
9-0
  6
Continuous
 62
     4
100
AcDbCircle
 10
922.24053401891
 20
2281.527508525466
 30
0.0
 40
0.125
  0
CIRCLE
  5
DA
330
6F
100
AcDbEntity
  8
9-0
  6
Continuous
 62
     4
100
AcDbCircle
 10
922.24053401891
 20
2281.527508525466
 30
0.0
 40
0.0625
  0
CIRCLE
  5
DB
330
6F
100
AcDbEntity
  8
9-0
  6
Continuous
 62
     4
100
AcDbCircle
 10
922.24053401891
 20
1971.527508525465
 30
0.0
 40
0.25
  0
CIRCLE
  5
DC
330
6F
100
AcDbEntity
  8
9-0
  6
Continuous
 62
     4
100
AcDbCircle
 10
922.24053401891
 20
1971.527508525465
 30
0.0
 40
0.1875
  0
CIRCLE
  5
DD
330
6F
100
AcDbEntity
  8
9-0
  6
Continuous
 62
     4
100
AcDbCircle
 10
922.24053401891
 20
1971.527508525465
 30
0.0
 40
0.125
  0
CIRCLE
  5
DE
330
6F
100
AcDbEntity
  8
9-0
  6
Continuous
 62
     4
100
AcDbCircle
 10
922.24053401891
 20
1971.527508525465
 30
0.0
 40
0.0625
  0
LINE
  5
DF
330
6F
100
AcDbEntity
  8
9-0
  6
Continuous
 62
     4
100
AcDbLine
 10
3133.115177
 20
1354.977502
 30
0.0
 11
3133.115177
 21
1421.527426
 31
0.0
  0
LINE
  5
E0
330
6F
100
AcDbEntity
  8
9-0
  6
Continuous
 62
     4
100
AcDbLine
 10
2840.115177
 20
1356.443949
 30
0.0
 11
2840.115177
 21
1421.527426
 31
0.0
  0
TEXT
  5
E1
330
6F
100
AcDbEntity
  8
9-0
 62
     4
100
AcDbText
 10
2955.838
 20
1422.147
 30
0.0
 40
36.288
  1
293
100
AcDbText
  0
LINE
  5
E2
330
6F
100
AcDbEntity
  8
9-0
  6
Continuous
 62
     4
100
AcDbLine
 10
2840.115177403694
 20
1421.527426029677
 30
0.0
 11
3133.115177403694
 21
1421.527426029677
 31
0.0
  0
CIRCLE
  5
E3
330
6F
100
AcDbEntity
  8
9-0
  6
Continuous
 62
     4
100
AcDbCircle
 10
2840.115177403694
 20
1421.527426029677
 30
0.0
 40
0.25
  0
CIRCLE
  5
E4
330
6F
100
AcDbEntity
  8
9-0
  6
Continuous
 62
     4
100
AcDbCircle
 10
2840.115177403694
 20
1421.527426029677
 30
0.0
 40
0.1875
  0
CIRCLE
  5
E5
330
6F
100
AcDbEntity
  8
9-0
  6
Continuous
 62
     4
100
AcDbCircle
 10
2840.115177403694
 20
1421.527426029677
 30
0.0
 40
0.125
  0
CIRCLE
  5
E6
330
6F
100
AcDbEntity
  8
9-0
  6
Continuous
 62
     4
100
AcDbCircle
 10
2840.115177403694
 20
1421.527426029677
 30
0.0
 40
0.0625
  0
CIRCLE
  5
E7
330
6F
100
AcDbEntity
  8
9-0
  6
Continuous
 62
     4
100
AcDbCircle
 10
3133.115177403694
 20
1421.527426029677
 30
0.0
 40
0.25
  0
CIRCLE
  5
E8
330
6F
100
AcDbEntity
  8
9-0
  6
Continuous
 62
     4
100
AcDbCircle
 10
3133.115177403694
 20
1421.527426029677
 30
0.0
 40
0.1875
  0
CIRCLE
  5
E9
330
6F
100
AcDbEntity
  8
9-0
  6
Continuous
 62
     4
100
AcDbCircle
 10
3133.115177403694
 20
1421.527426029677
 30
0.0
 40
0.125
  0
CIRCLE
  5
EA
330
6F
100
AcDbEntity
  8
9-0
  6
Continuous
 62
     4
100
AcDbCircle
 10
3133.115177403694
 20
1421.527426029677
 30
0.0
 40
0.0625
  0
LINE
  5
EB
330
6F
100
AcDbEntity
  8
2-0
  6
DASHED2
 62
     7
100
AcDbLine
 10
1089.07621
 20
917.525071
 30
0.0
 11
1667.07621
 21
917.525071
 31
0.0
  0
LINE
  5
EC
330
6F
100
AcDbEntity
  8
9-0
  6
Continuous
 62
     4
100
AcDbLine
 10
1674.07621
 20
835.053227
 30
0.0
 11
1674.07621
 21
768.5227159999999
 31
0.0
  0
LINE
  5
ED
330
6F
100
AcDbEntity
  8
9-0
  6
Continuous
 62
     4
100
AcDbLine
 10
1380.07621
 20
833.663291
 30
0.0
 11
1380.07621
 21
768.5227159999999
 31
0.0
  0
TEXT
  5
EE
330
6F
100
AcDbEntity
  8
9-0
 62
     4
100
AcDbText
 10
1496.299
 20
769.143
 30
0.0
 40
36.288
  1
294
100
AcDbText
  0
LINE
  5
EF
330
6F
100
AcDbEntity
  8
9-0
  6
Continuous
 62
     4
100
AcDbLine
 10
1380.076210115086
 20
768.522716136076
 30
0.0
 11
1674.076210115085
 21
768.522716136076
 31
0.0
  0
CIRCLE
  5
F0
330
6F
100
AcDbEntity
  8
9-0
  6
Continuous
 62
     4
100
AcDbCircle
 10
1380.076210115086
 20
768.522716136076
 30
0.0
 40
0.25
  0
CIRCLE
  5
F1
330
6F
100
AcDbEntity
  8
9-0
  6
Continuous
 62
     4
100
AcDbCircle
 10
1380.076210115086
 20
768.522716136076
 30
0.0
 40
0.1875
  0
CIRCLE
  5
F2
330
6F
100
AcDbEntity
  8
9-0
  6
Continuous
 62
     4
100
AcDbCircle
 10
1380.076210115086
 20
768.522716136076
 30
0.0
 40
0.125
  0
CIRCLE
  5
F3
330
6F
100
AcDbEntity
  8
9-0
  6
Continuous
 62
     4
100
AcDbCircle
 10
1380.076210115086
 20
768.522716136076
 30
0.0
 40
0.0625
  0
CIRCLE
  5
F4
330
6F
100
AcDbEntity
  8
9-0
  6
Continuous
 62
     4
100
AcDbCircle
 10
1674.076210115085
 20
768.522716136076
 30
0.0
 40
0.25
  0
CIRCLE
  5
F5
330
6F
100
AcDbEntity
  8
9-0
  6
Continuous
 62
     4
100
AcDbCircle
 10
1674.076210115085
 20
768.522716136076
 30
0.0
 40
0.1875
  0
CIRCLE
  5
F6
330
6F
100
AcDbEntity
  8
9-0
  6
Continuous
 62
     4
100
AcDbCircle
 10
1674.076210115085
 20
768.522716136076
 30
0.0
 40
0.125
  0
CIRCLE
  5
F7
330
6F
100
AcDbEntity
  8
9-0
  6
Continuous
 62
     4
100
AcDbCircle
 10
1674.076210115085
 20
768.522716136076
 30
0.0
 40
0.0625
  0
LINE
  5
F8
330
6F
100
AcDbEntity
  8
2-0
  6
CENTER
 62
     7
100
AcDbLine
 10
1674.07621
 20
1102.525071
 30
0.0
 11
1380.07621
 21
877.5250709999999
 31
0.0
  0
LINE
  5
F9
330
6F
100
AcDbEntity
  8
2-0
  6
CENTER
 62
     7
100
AcDbLine
 10
1380.07621
 20
1307.525071
 30
0.0
 11
1674.07621
 21
1102.525071
 31
0.0
  0
LINE
  5
FA
330
6F
100
AcDbEntity
  8
2-0
  6
Continuous
 62
     7
100
AcDbLine
 10
1674.07621
 20
877.5250709999999
 30
0.0
 11
1380.07621
 21
877.5250709999999
 31
0.0
  0
LINE
  5
FB
330
6F
100
AcDbEntity
  8
2-0
  6
Continuous
 62
     7
100
AcDbLine
 10
1674.07621
 20
1307.525071
 30
0.0
 11
1380.07621
 21
1307.525071
 31
0.0
  0
LINE
  5
FC
330
6F
100
AcDbEntity
  8
2-0
  6
Continuous
 62
     7
100
AcDbLine
 10
1679.07621
 20
1312.525071
 30
0.0
 11
1079.07621
 21
1312.525071
 31
0.0
  0
LINE
  5
FD
330
6F
100
AcDbEntity
  8
2-0
  6
CENTER
 62
     7
100
AcDbLine
 10
1084.07621
 20
1102.525071
 30
0.0
 11
1378.07621
 21
877.5250709999999
 31
0.0
  0
LINE
  5
FE
330
6F
100
AcDbEntity
  8
2-0
  6
Continuous
 62
     7
100
AcDbLine
 10
1378.07621
 20
1307.525071
 30
0.0
 11
1378.07621
 21
877.5250709999999
 31
0.0
  0
LINE
  5
FF
330
6F
100
AcDbEntity
  8
2-0
  6
Continuous
 62
     7
100
AcDbLine
 10
1380.07621
 20
1307.525071
 30
0.0
 11
1380.07621
 21
877.5250709999999
 31
0.0
  0
LINE
  5
100
330
6F
100
AcDbEntity
  8
2-0
  6
Continuous
 62
     7
100
AcDbLine
 10
1084.07621
 20
1307.525071
 30
0.0
 11
1084.07621
 21
877.5250709999999
 31
0.0
  0
LINE
  5
101
330
6F
100
AcDbEntity
  8
2-0
  6
DASHED2
 62
     7
100
AcDbLine
 10
1090.445808
 20
1312.525071
 30
0.0
 11
1090.07621
 21
917.525071
 31
0.0
  0
LINE
  5
102
330
6F
100
AcDbEntity
  8
2-0
  6
Continuous
 62
     7
100
AcDbLine
 10
1079.07621
 20
1312.525071
 30
0.0
 11
1079.07621
 21
902.5250709999999
 31
0.0
  0
LINE
  5
103
330
6F
100
AcDbEntity
  8
9-0
  6
Continuous
 62
     4
100
AcDbLine
 10
1378.07621
 20
833.6717919999999
 30
0.0
 11
1378.07621
 21
768.5227159999999
 31
0.0
  0
LINE
  5
104
330
6F
100
AcDbEntity
  8
9-0
  6
Continuous
 62
     4
100
AcDbLine
 10
1084.07621
 20
832.2818559999999
 30
0.0
 11
1084.07621
 21
768.5227159999999
 31
0.0
  0
TEXT
  5
105
330
6F
100
AcDbEntity
  8
9-0
 62
     4
100
AcDbText
 10
1200.299
 20
769.143
 30
0.0
 40
36.288
  1
294
100
AcDbText
  0
LINE
  5
106
330
6F
100
AcDbEntity
  8
9-0
  6
Continuous
 62
     4
100
AcDbLine
 10
1084.076210115086
 20
768.522716136076
 30
0.0
 11
1378.076210115086
 21
768.522716136076
 31
0.0
  0
CIRCLE
  5
107
330
6F
100
AcDbEntity
  8
9-0
  6
Continuous
 62
     4
100
AcDbCircle
 10
1084.076210115086
 20
768.522716136076
 30
0.0
 40
0.25
  0
CIRCLE
  5
108
330
6F
100
AcDbEntity
  8
9-0
  6
Continuous
 62
     4
100
AcDbCircle
 10
1084.076210115086
 20
768.522716136076
 30
0.0
 40
0.1875
  0
CIRCLE
  5
109
330
6F
100
AcDbEntity
  8
9-0
  6
Continuous
 62
     4
100
AcDbCircle
 10
1084.076210115086
 20
768.522716136076
 30
0.0
 40
0.125
  0
CIRCLE
  5
10A
330
6F
100
AcDbEntity
  8
9-0
  6
Continuous
 62
     4
100
AcDbCircle
 10
1084.076210115086
 20
768.522716136076
 30
0.0
 40
0.0625
  0
CIRCLE
  5
10B
330
6F
100
AcDbEntity
  8
9-0
  6
Continuous
 62
     4
100
AcDbCircle
 10
1378.076210115086
 20
768.522716136076
 30
0.0
 40
0.25
  0
CIRCLE
  5
10C
330
6F
100
AcDbEntity
  8
9-0
  6
Continuous
 62
     4
100
AcDbCircle
 10
1378.076210115086
 20
768.522716136076
 30
0.0
 40
0.1875
  0
CIRCLE
  5
10D
330
6F
100
AcDbEntity
  8
9-0
  6
Continuous
 62
     4
100
AcDbCircle
 10
1378.076210115086
 20
768.522716136076
 30
0.0
 40
0.125
  0
CIRCLE
  5
10E
330
6F
100
AcDbEntity
  8
9-0
  6
Continuous
 62
     4
100
AcDbCircle
 10
1378.076210115086
 20
768.522716136076
 30
0.0
 40
0.0625
  0
LINE
  5
10F
330
6F
100
AcDbEntity
  8
2-0
  6
Continuous
 62
     7
100
AcDbLine
 10
1378.07621
 20
877.5250709999999
 30
0.0
 11
1084.07621
 21
877.5250709999999
 31
0.0
  0
LINE
  5
110
330
6F
100
AcDbEntity
  8
9-0
  6
Continuous
 62
     4
100
AcDbLine
 10
1079.07621
 20
833.4833919999999
 30
0.0
 11
1079.07621
 21
768.5227159999999
 31
0.0
  0
LINE
  5
111
330
6F
100
AcDbEntity
  8
9-0
  6
Continuous
 62
     4
100
AcDbLine
 10
1084.07621
 20
832.2818559999999
 30
0.0
 11
1084.07621
 21
768.5227159999999
 31
0.0
  0
TEXT
  5
112
330
6F
100
AcDbEntity
  8
9-0
 62
     4
100
AcDbText
 10
1112.51
 20
701.643
 30
0.0
 40
36.288
  1
5
100
AcDbText
  0
LINE
  5
113
330
6F
100
AcDbEntity
  8
9-0
  6
Continuous
 62
     4
100
AcDbLine
 10
1084.076210115086
 20
768.522716136076
 30
0.0
 11
1079.076210115086
 21
768.522716136076
 31
0.0
  0
CIRCLE
  5
114
330
6F
100
AcDbEntity
  8
9-0
  6
Continuous
 62
     4
100
AcDbCircle
 10
1084.076210115086
 20
768.522716136076
 30
0.0
 40
0.25
  0
CIRCLE
  5
115
330
6F
100
AcDbEntity
  8
9-0
  6
Continuous
 62
     4
100
AcDbCircle
 10
1084.076210115086
 20
768.522716136076
 30
0.0
 40
0.1875
  0
CIRCLE
  5
116
330
6F
100
AcDbEntity
  8
9-0
  6
Continuous
 62
     4
100
AcDbCircle
 10
1084.076210115086
 20
768.522716136076
 30
0.0
 40
0.125
  0
CIRCLE
  5
117
330
6F
100
AcDbEntity
  8
9-0
  6
Continuous
 62
     4
100
AcDbCircle
 10
1084.076210115086
 20
768.522716136076
 30
0.0
 40
0.0625
  0
CIRCLE
  5
118
330
6F
100
AcDbEntity
  8
9-0
  6
Continuous
 62
     4
100
AcDbCircle
 10
1079.076210115086
 20
768.522716136076
 30
0.0
 40
0.25
  0
CIRCLE
  5
119
330
6F
100
AcDbEntity
  8
9-0
  6
Continuous
 62
     4
100
AcDbCircle
 10
1079.076210115086
 20
768.522716136076
 30
0.0
 40
0.1875
  0
CIRCLE
  5
11A
330
6F
100
AcDbEntity
  8
9-0
  6
Continuous
 62
     4
100
AcDbCircle
 10
1079.076210115086
 20
768.522716136076
 30
0.0
 40
0.125
  0
CIRCLE
  5
11B
330
6F
100
AcDbEntity
  8
9-0
  6
Continuous
 62
     4
100
AcDbCircle
 10
1079.076210115086
 20
768.522716136076
 30
0.0
 40
0.0625
  0
LINE
  5
11C
330
6F
100
AcDbEntity
  8
9-0
  6
Continuous
 62
     4
100
AcDbLine
 10
1378.07621
 20
833.6717919999999
 30
0.0
 11
1378.07621
 21
768.5227159999999
 31
0.0
  0
LINE
  5
11D
330
6F
100
AcDbEntity
  8
9-0
  6
Continuous
 62
     4
100
AcDbLine
 10
1380.07621
 20
833.663291
 30
0.0
 11
1380.07621
 21
768.5227159999999
 31
0.0
  0
LINE
  5
11E
330
6F
100
AcDbEntity
  8
9-0
  6
Continuous
 62
     4
100
AcDbLine
 10
1368.07621
 20
768.5227159999999
 30
0.0
 11
1358.07621
 21
768.5227159999999
 31
0.0
  0
LINE
  5
11F
330
6F
100
AcDbEntity
  8
9-0
  6
Continuous
 62
     4
100
AcDbLine
 10
1390.07621
 20
768.5227159999999
 30
0.0
 11
1400.07621
 21
768.5227159999999
 31
0.0
  0
LINE
  5
120
330
6F
100
AcDbEntity
  8
9-0
  6
Continuous
 62
     4
100
AcDbLine
 10
1379.07621
 20
768.5227159999999
 30
0.0
 11
1341.16621
 21
807.060779
 31
0.0
  0
LINE
  5
121
330
6F
100
AcDbEntity
  8
9-0
  6
Continuous
 62
     4
100
AcDbLine
 10
1341.16621
 20
807.060779
 30
0.0
 11
1303.044383
 21
807.060779
 31
0.0
  0
TEXT
  5
122
330
6F
100
AcDbEntity
  8
9-0
 62
     4
100
AcDbText
 10
1313.728
 20
807.681
 30
0.0
 40
36.288
  1
2
100
AcDbText
  0
LINE
  5
123
330
6F
100
AcDbEntity
  8
9-0
  6
Continuous
 62
     4
100
AcDbLine
 10
1378.07621
 20
768.5227159999999
 30
0.0
 11
1380.07621
 21
768.5227159999999
 31
0.0
  0
LINE
  5
124
330
6F
100
AcDbEntity
  8
9-0
  6
Continuous
 62
     4
100
AcDbLine
 10
1378.07621
 20
768.5227159999999
 30
0.0
 11
1380.07621
 21
768.5227159999999
 31
0.0
  0
CIRCLE
  5
125
330
6F
100
AcDbEntity
  8
9-0
  6
Continuous
 62
     4
100
AcDbCircle
 10
1378.076210115086
 20
768.522716136076
 30
0.0
 40
0.25
  0
CIRCLE
  5
126
330
6F
100
AcDbEntity
  8
9-0
  6
Continuous
 62
     4
100
AcDbCircle
 10
1378.076210115086
 20
768.522716136076
 30
0.0
 40
0.1875
  0
CIRCLE
  5
127
330
6F
100
AcDbEntity
  8
9-0
  6
Continuous
 62
     4
100
AcDbCircle
 10
1378.076210115086
 20
768.522716136076
 30
0.0
 40
0.125
  0
CIRCLE
  5
128
330
6F
100
AcDbEntity
  8
9-0
  6
Continuous
 62
     4
100
AcDbCircle
 10
1378.076210115086
 20
768.522716136076
 30
0.0
 40
0.0625
  0
ARC
  5
129
330
6F
100
AcDbEntity
  8
9-0
 62
     4
100
AcDbCircle
 10
1378.076210115086
 20
768.527716136076
 30
0.0
 40
2.5
100
AcDbArc
 50
0.1145914065300158
 51
180.114591405945
  0
LINE
  5
12A
330
6F
100
AcDbEntity
  8
9-0
 62
     4
100
AcDbLine
 10
1373.076210115086
 20
768.522716136076
 30
0.0
 11
1368.076210115086
 21
768.522716136076
 31
0.0
  0
CIRCLE
  5
12B
330
6F
100
AcDbEntity
  8
9-0
  6
Continuous
 62
     4
100
AcDbCircle
 10
1380.076210115086
 20
768.522716136076
 30
0.0
 40
0.25
  0
CIRCLE
  5
12C
330
6F
100
AcDbEntity
  8
9-0
  6
Continuous
 62
     4
100
AcDbCircle
 10
1380.076210115086
 20
768.522716136076
 30
0.0
 40
0.1875
  0
CIRCLE
  5
12D
330
6F
100
AcDbEntity
  8
9-0
  6
Continuous
 62
     4
100
AcDbCircle
 10
1380.076210115086
 20
768.522716136076
 30
0.0
 40
0.125
  0
CIRCLE
  5
12E
330
6F
100
AcDbEntity
  8
9-0
  6
Continuous
 62
     4
100
AcDbCircle
 10
1380.076210115086
 20
768.522716136076
 30
0.0
 40
0.0625
  0
ARC
  5
12F
330
6F
100
AcDbEntity
  8
9-0
 62
     4
100
AcDbCircle
 10
1380.076210115086
 20
768.517716136076
 30
0.0
 40
2.5
100
AcDbArc
 50
180.1145914065301
 51
0.1145914059449637
  0
LINE
  5
130
330
6F
100
AcDbEntity
  8
9-0
 62
     4
100
AcDbLine
 10
1385.076210115086
 20
768.5227161361269
 30
0.0
 11
1390.076210115086
 21
768.522716136178
 31
0.0
  0
LINE
  5
131
330
6F
100
AcDbEntity
  8
2-0
  6
CENTER
 62
     7
100
AcDbLine
 10
1378.07621
 20
1307.525071
 30
0.0
 11
1084.07621
 21
1102.525071
 31
0.0
  0
LINE
  5
132
330
6F
100
AcDbEntity
  8
2-0
  6
Continuous
 62
     7
100
AcDbLine
 10
1378.07621
 20
1307.525071
 30
0.0
 11
1084.07621
 21
1307.525071
 31
0.0
  0
LINE
  5
133
330
6F
100
AcDbEntity
  8
2-0
  6
Continuous
 62
     7
100
AcDbLine
 10
1674.07621
 20
1307.525071
 30
0.0
 11
1674.07621
 21
877.5250709999999
 31
0.0
  0
LINE
  5
134
330
6F
100
AcDbEntity
  8
2-0
  6
DASHED2
 62
     7
100
AcDbLine
 10
1668.07621
 20
917.525071
 30
0.0
 11
1668.07621
 21
1312.525071
 31
0.0
  0
LINE
  5
135
330
6F
100
AcDbEntity
  8
2-0
  6
Continuous
 62
     7
100
AcDbLine
 10
1679.07621
 20
902.5250709999999
 30
0.0
 11
1679.07621
 21
1312.525071
 31
0.0
  0
LINE
  5
136
330
6F
100
AcDbEntity
  8
9-0
  6
Continuous
 62
     4
100
AcDbLine
 10
1674.07621
 20
836.4304119999999
 30
0.0
 11
1674.07621
 21
768.5227159999999
 31
0.0
  0
LINE
  5
137
330
6F
100
AcDbEntity
  8
9-0
  6
Continuous
 62
     4
100
AcDbLine
 10
1679.07621
 20
836.4006579999999
 30
0.0
 11
1679.07621
 21
768.5227159999999
 31
0.0
  0
TEXT
  5
138
330
6F
100
AcDbEntity
  8
9-0
 62
     4
100
AcDbText
 10
1707.51
 20
701.643
 30
0.0
 40
36.288
  1
5
100
AcDbText
  0
LINE
  5
139
330
6F
100
AcDbEntity
  8
9-0
  6
Continuous
 62
     4
100
AcDbLine
 10
1679.076210115086
 20
768.522716136076
 30
0.0
 11
1674.076210115085
 21
768.522716136076
 31
0.0
  0
CIRCLE
  5
13A
330
6F
100
AcDbEntity
  8
9-0
  6
Continuous
 62
     4
100
AcDbCircle
 10
1679.076210115086
 20
768.522716136076
 30
0.0
 40
0.25
  0
CIRCLE
  5
13B
330
6F
100
AcDbEntity
  8
9-0
  6
Continuous
 62
     4
100
AcDbCircle
 10
1679.076210115086
 20
768.522716136076
 30
0.0
 40
0.1875
  0
CIRCLE
  5
13C
330
6F
100
AcDbEntity
  8
9-0
  6
Continuous
 62
     4
100
AcDbCircle
 10
1679.076210115086
 20
768.522716136076
 30
0.0
 40
0.125
  0
CIRCLE
  5
13D
330
6F
100
AcDbEntity
  8
9-0
  6
Continuous
 62
     4
100
AcDbCircle
 10
1679.076210115086
 20
768.522716136076
 30
0.0
 40
0.0625
  0
CIRCLE
  5
13E
330
6F
100
AcDbEntity
  8
9-0
  6
Continuous
 62
     4
100
AcDbCircle
 10
1674.076210115085
 20
768.522716136076
 30
0.0
 40
0.25
  0
CIRCLE
  5
13F
330
6F
100
AcDbEntity
  8
9-0
  6
Continuous
 62
     4
100
AcDbCircle
 10
1674.076210115085
 20
768.522716136076
 30
0.0
 40
0.1875
  0
CIRCLE
  5
140
330
6F
100
AcDbEntity
  8
9-0
  6
Continuous
 62
     4
100
AcDbCircle
 10
1674.076210115085
 20
768.522716136076
 30
0.0
 40
0.125
  0
CIRCLE
  5
141
330
6F
100
AcDbEntity
  8
9-0
  6
Continuous
 62
     4
100
AcDbCircle
 10
1674.076210115085
 20
768.522716136076
 30
0.0
 40
0.0625
  0
LINE
  5
142
330
6F
100
AcDbEntity
  8
9-0
  6
Continuous
 62
     4
100
AcDbLine
 10
3150.115177
 20
785.174654
 30
0.0
 11
3150.115177
 21
668.5227159999999
 31
0.0
  0
LINE
  5
143
330
6F
100
AcDbEntity
  8
9-0
  6
Continuous
 62
     4
100
AcDbLine
 10
2840.115177
 20
783.623196
 30
0.0
 11
2840.115177
 21
668.5227159999999
 31
0.0
  0
TEXT
  5
144
330
6F
100
AcDbEntity
  8
9-0
 62
     4
100
AcDbText
 10
2964.338
 20
669.143
 30
0.0
 40
36.288
  1
310
100
AcDbText
  0
LINE
  5
145
330
6F
100
AcDbEntity
  8
9-0
  6
Continuous
 62
     4
100
AcDbLine
 10
2840.115177403694
 20
668.5227161360759
 30
0.0
 11
3150.115177403695
 21
668.5227161360759
 31
0.0
  0
CIRCLE
  5
146
330
6F
100
AcDbEntity
  8
9-0
  6
Continuous
 62
     4
100
AcDbCircle
 10
2840.115177403694
 20
668.5227161360759
 30
0.0
 40
0.25
  0
CIRCLE
  5
147
330
6F
100
AcDbEntity
  8
9-0
  6
Continuous
 62
     4
100
AcDbCircle
 10
2840.115177403694
 20
668.5227161360759
 30
0.0
 40
0.1875
  0
CIRCLE
  5
148
330
6F
100
AcDbEntity
  8
9-0
  6
Continuous
 62
     4
100
AcDbCircle
 10
2840.115177403694
 20
668.5227161360759
 30
0.0
 40
0.125
  0
CIRCLE
  5
149
330
6F
100
AcDbEntity
  8
9-0
  6
Continuous
 62
     4
100
AcDbCircle
 10
2840.115177403694
 20
668.5227161360759
 30
0.0
 40
0.0625
  0
CIRCLE
  5
14A
330
6F
100
AcDbEntity
  8
9-0
  6
Continuous
 62
     4
100
AcDbCircle
 10
3150.115177403695
 20
668.5227161360759
 30
0.0
 40
0.25
  0
CIRCLE
  5
14B
330
6F
100
AcDbEntity
  8
9-0
  6
Continuous
 62
     4
100
AcDbCircle
 10
3150.115177403695
 20
668.5227161360759
 30
0.0
 40
0.1875
  0
CIRCLE
  5
14C
330
6F
100
AcDbEntity
  8
9-0
  6
Continuous
 62
     4
100
AcDbCircle
 10
3150.115177403695
 20
668.5227161360759
 30
0.0
 40
0.125
  0
CIRCLE
  5
14D
330
6F
100
AcDbEntity
  8
9-0
  6
Continuous
 62
     4
100
AcDbCircle
 10
3150.115177403695
 20
668.5227161360759
 30
0.0
 40
0.0625
  0
LINE
  5
14E
330
6F
100
AcDbEntity
  8
9-0
  6
Continuous
 62
     4
100
AcDbLine
 10
3133.146841
 20
835.0726399999999
 30
0.0
 11
3133.146841
 21
768.5227159999999
 31
0.0
  0
LINE
  5
14F
330
6F
100
AcDbEntity
  8
9-0
  6
Continuous
 62
     4
100
AcDbLine
 10
2840.115177
 20
833.6061929999999
 30
0.0
 11
2840.115177
 21
768.5227159999999
 31
0.0
  0
TEXT
  5
150
330
6F
100
AcDbEntity
  8
9-0
 62
     4
100
AcDbText
 10
2955.853
 20
769.143
 30
0.0
 40
36.288
  1
293
100
AcDbText
  0
LINE
  5
151
330
6F
100
AcDbEntity
  8
9-0
  6
Continuous
 62
     4
100
AcDbLine
 10
2840.115177403694
 20
768.522716136076
 30
0.0
 11
3133.146840762838
 21
768.522716136076
 31
0.0
  0
CIRCLE
  5
152
330
6F
100
AcDbEntity
  8
9-0
  6
Continuous
 62
     4
100
AcDbCircle
 10
2840.115177403694
 20
768.522716136076
 30
0.0
 40
0.25
  0
CIRCLE
  5
153
330
6F
100
AcDbEntity
  8
9-0
  6
Continuous
 62
     4
100
AcDbCircle
 10
2840.115177403694
 20
768.522716136076
 30
0.0
 40
0.1875
  0
CIRCLE
  5
154
330
6F
100
AcDbEntity
  8
9-0
  6
Continuous
 62
     4
100
AcDbCircle
 10
2840.115177403694
 20
768.522716136076
 30
0.0
 40
0.125
  0
CIRCLE
  5
155
330
6F
100
AcDbEntity
  8
9-0
  6
Continuous
 62
     4
100
AcDbCircle
 10
2840.115177403694
 20
768.522716136076
 30
0.0
 40
0.0625
  0
CIRCLE
  5
156
330
6F
100
AcDbEntity
  8
9-0
  6
Continuous
 62
     4
100
AcDbCircle
 10
3133.146840762838
 20
768.522716136076
 30
0.0
 40
0.25
  0
CIRCLE
  5
157
330
6F
100
AcDbEntity
  8
9-0
  6
Continuous
 62
     4
100
AcDbCircle
 10
3133.146840762838
 20
768.522716136076
 30
0.0
 40
0.1875
  0
CIRCLE
  5
158
330
6F
100
AcDbEntity
  8
9-0
  6
Continuous
 62
     4
100
AcDbCircle
 10
3133.146840762838
 20
768.522716136076
 30
0.0
 40
0.125
  0
CIRCLE
  5
159
330
6F
100
AcDbEntity
  8
9-0
  6
Continuous
 62
     4
100
AcDbCircle
 10
3133.146840762838
 20
768.522716136076
 30
0.0
 40
0.0625
  0
LINE
  5
15A
330
6F
100
AcDbEntity
  8
2-0
  6
Continuous
 62
     7
100
AcDbLine
 10
2840.115177
 20
917.525071
 30
0.0
 11
3133.115177
 21
917.525071
 31
0.0
  0
LINE
  5
15B
330
6F
100
AcDbEntity
  8
2-0
  6
Continuous
 62
     7
100
AcDbLine
 10
2840.115177
 20
1300.525071
 30
0.0
 11
3133.115177
 21
1300.525071
 31
0.0
  0
LINE
  5
15C
330
6F
100
AcDbEntity
  8
2-0
  6
Continuous
 62
     7
100
AcDbLine
 10
2840.115177
 20
902.5250709999999
 30
0.0
 11
3133.115177
 21
902.5250709999999
 31
0.0
  0
LINE
  5
15D
330
6F
100
AcDbEntity
  8
2-0
  6
Continuous
 62
     7
100
AcDbLine
 10
2840.115177
 20
1312.525071
 30
0.0
 11
3133.115177
 21
1312.525071
 31
0.0
  0
LINE
  5
15E
330
6F
100
AcDbEntity
  8
2-0
  6
Continuous
 62
     7
100
AcDbLine
 10
2840.115177
 20
902.5250709999999
 30
0.0
 11
2840.115177
 21
1312.525071
 31
0.0
  0
LINE
  5
15F
330
6F
100
AcDbEntity
  8
9-0
  6
Continuous
 62
     4
100
AcDbLine
 10
2802.55226
 20
957.525071
 30
0.0
 11
2687.545351000001
 21
957.525071
 31
0.0
  0
LINE
  5
160
330
6F
100
AcDbEntity
  8
9-0
  6
Continuous
 62
     4
100
AcDbLine
 10
2802.459794
 20
917.525071
 30
0.0
 11
2687.545351000001
 21
917.525071
 31
0.0
  0
TEXT
  5
161
330
6F
100
AcDbEntity
  8
9-0
 62
     4
100
AcDbText
 10
2654.425
 20
956.0169999999999
 30
0.0
 40
36.288
  1
40
 50
90.0
100
AcDbText
  0
LINE
  5
162
330
6F
100
AcDbEntity
  8
9-0
  6
Continuous
 62
     4
100
AcDbLine
 10
2687.545350571522
 20
917.525071082877
 30
0.0
 11
2687.545350571522
 21
957.5250710828759
 31
0.0
  0
CIRCLE
  5
163
330
6F
100
AcDbEntity
  8
9-0
  6
Continuous
 62
     4
100
AcDbCircle
 10
2687.545350571522
 20
917.525071082877
 30
0.0
 40
0.25
  0
CIRCLE
  5
164
330
6F
100
AcDbEntity
  8
9-0
  6
Continuous
 62
     4
100
AcDbCircle
 10
2687.545350571522
 20
917.525071082877
 30
0.0
 40
0.1875
  0
CIRCLE
  5
165
330
6F
100
AcDbEntity
  8
9-0
  6
Continuous
 62
     4
100
AcDbCircle
 10
2687.545350571522
 20
917.525071082877
 30
0.0
 40
0.125
  0
CIRCLE
  5
166
330
6F
100
AcDbEntity
  8
9-0
  6
Continuous
 62
     4
100
AcDbCircle
 10
2687.545350571522
 20
917.525071082877
 30
0.0
 40
0.0625
  0
CIRCLE
  5
167
330
6F
100
AcDbEntity
  8
9-0
  6
Continuous
 62
     4
100
AcDbCircle
 10
2687.545350571522
 20
957.5250710828759
 30
0.0
 40
0.25
  0
CIRCLE
  5
168
330
6F
100
AcDbEntity
  8
9-0
  6
Continuous
 62
     4
100
AcDbCircle
 10
2687.545350571522
 20
957.5250710828759
 30
0.0
 40
0.1875
  0
CIRCLE
  5
169
330
6F
100
AcDbEntity
  8
9-0
  6
Continuous
 62
     4
100
AcDbCircle
 10
2687.545350571522
 20
957.5250710828759
 30
0.0
 40
0.125
  0
CIRCLE
  5
16A
330
6F
100
AcDbEntity
  8
9-0
  6
Continuous
 62
     4
100
AcDbCircle
 10
2687.545350571522
 20
957.5250710828759
 30
0.0
 40
0.0625
  0
LINE
  5
16B
330
6F
100
AcDbEntity
  8
9-0
  6
Continuous
 62
     4
100
AcDbLine
 10
2802.506027
 20
902.5250709999999
 30
0.0
 11
2687.545351000001
 21
902.5250709999999
 31
0.0
  0
LINE
  5
16C
330
6F
100
AcDbEntity
  8
9-0
  6
Continuous
 62
     4
100
AcDbLine
 10
2802.459794
 20
917.525071
 30
0.0
 11
2687.545351000001
 21
917.525071
 31
0.0
  0
LINE
  5
16D
330
6F
100
AcDbEntity
  8
9-0
  6
Continuous
 62
     4
100
AcDbLine
 10
2687.545351000001
 20
892.525071
 30
0.0
 11
2687.545351000001
 21
882.525071
 31
0.0
  0
LINE
  5
16E
330
6F
100
AcDbEntity
  8
9-0
  6
Continuous
 62
     4
100
AcDbLine
 10
2687.545351000001
 20
927.5250709999999
 30
0.0
 11
2687.545351000001
 21
937.5250710000001
 31
0.0
  0
LINE
  5
16F
330
6F
100
AcDbEntity
  8
9-0
  6
Continuous
 62
     4
100
AcDbLine
 10
2687.545351000001
 20
910.025071
 30
0.0
 11
2657.274242
 21
891.807211
 31
0.0
  0
LINE
  5
170
330
6F
100
AcDbEntity
  8
9-0
  6
Continuous
 62
     4
100
AcDbLine
 10
2657.274242
 20
891.807211
 30
0.0
 11
2657.274242
 21
833.4315769999999
 31
0.0
  0
TEXT
  5
171
330
6F
100
AcDbEntity
  8
9-0
 62
     4
100
AcDbText
 10
2656.654
 20
840.2189999999999
 30
0.0
 40
36.288
  1
15
 50
90.0
100
AcDbText
  0
LINE
  5
172
330
6F
100
AcDbEntity
  8
9-0
  6
Continuous
 62
     4
100
AcDbLine
 10
2687.545351000001
 20
902.5250709999999
 30
0.0
 11
2687.545351000001
 21
917.525071
 31
0.0
  0
LINE
  5
173
330
6F
100
AcDbEntity
  8
9-0
  6
Continuous
 62
     4
100
AcDbLine
 10
2687.545351000001
 20
902.5250709999999
 30
0.0
 11
2687.545351000001
 21
917.525071
 31
0.0
  0
CIRCLE
  5
174
330
6F
100
AcDbEntity
  8
9-0
  6
Continuous
 62
     4
100
AcDbCircle
 10
2687.545350571522
 20
902.5250710828769
 30
0.0
 40
0.25
  0
CIRCLE
  5
175
330
6F
100
AcDbEntity
  8
9-0
  6
Continuous
 62
     4
100
AcDbCircle
 10
2687.545350571522
 20
902.5250710828769
 30
0.0
 40
0.1875
  0
CIRCLE
  5
176
330
6F
100
AcDbEntity
  8
9-0
  6
Continuous
 62
     4
100
AcDbCircle
 10
2687.545350571522
 20
902.5250710828769
 30
0.0
 40
0.125
  0
CIRCLE
  5
177
330
6F
100
AcDbEntity
  8
9-0
  6
Continuous
 62
     4
100
AcDbCircle
 10
2687.545350571522
 20
902.5250710828769
 30
0.0
 40
0.0625
  0
ARC
  5
178
330
6F
100
AcDbEntity
  8
9-0
 62
     4
100
AcDbCircle
 10
2687.540350571522
 20
902.5250710828769
 30
0.0
 40
2.5
100
AcDbArc
 50
90.11459140653
 51
270.114591405945
  0
LINE
  5
179
330
6F
100
AcDbEntity
  8
9-0
 62
     4
100
AcDbLine
 10
2687.545350571547
 20
897.525071082877
 30
0.0
 11
2687.545350571573
 21
892.525071082877
 31
0.0
  0
CIRCLE
  5
17A
330
6F
100
AcDbEntity
  8
9-0
  6
Continuous
 62
     4
100
AcDbCircle
 10
2687.545350571522
 20
917.525071082877
 30
0.0
 40
0.25
  0
CIRCLE
  5
17B
330
6F
100
AcDbEntity
  8
9-0
  6
Continuous
 62
     4
100
AcDbCircle
 10
2687.545350571522
 20
917.525071082877
 30
0.0
 40
0.1875
  0
CIRCLE
  5
17C
330
6F
100
AcDbEntity
  8
9-0
  6
Continuous
 62
     4
100
AcDbCircle
 10
2687.545350571522
 20
917.525071082877
 30
0.0
 40
0.125
  0
CIRCLE
  5
17D
330
6F
100
AcDbEntity
  8
9-0
  6
Continuous
 62
     4
100
AcDbCircle
 10
2687.545350571522
 20
917.525071082877
 30
0.0
 40
0.0625
  0
ARC
  5
17E
330
6F
100
AcDbEntity
  8
9-0
 62
     4
100
AcDbCircle
 10
2687.550350571522
 20
917.525071082877
 30
0.0
 40
2.5
100
AcDbArc
 50
270.1145914065301
 51
90.11459140594496
  0
LINE
  5
17F
330
6F
100
AcDbEntity
  8
9-0
 62
     4
100
AcDbLine
 10
2687.545350571445
 20
922.525071082877
 30
0.0
 11
2687.545350571369
 21
927.5250710828769
 31
0.0
  0
LINE
  5
180
330
6F
100
AcDbEntity
  8
2-0
  6
Continuous
 62
     7
100
AcDbLine
 10
2840.115177
 20
917.525071
 30
0.0
 11
2855.115177
 21
957.525071
 31
0.0
  0
LINE
  5
181
330
6F
100
AcDbEntity
  8
2-0
  6
Continuous
 62
     7
100
AcDbLine
 10
2840.115177
 20
957.525071
 30
0.0
 11
2855.115177
 21
957.525071
 31
0.0
  0
LINE
  5
182
330
6F
100
AcDbEntity
  8
9-0
  6
Continuous
 62
     4
100
AcDbLine
 10
2802.55226
 20
1300.525071
 30
0.0
 11
2687.545351000001
 21
1300.525071
 31
0.0
  0
LINE
  5
183
330
6F
100
AcDbEntity
  8
9-0
  6
Continuous
 62
     4
100
AcDbLine
 10
2801.524862
 20
1260.525071
 30
0.0
 11
2687.545351000001
 21
1260.525071
 31
0.0
  0
LINE
  5
184
330
6F
100
AcDbEntity
  8
9-0
  6
Continuous
 62
     4
100
AcDbLine
 10
2687.545351000001
 20
1290.525071
 30
0.0
 11
2687.545351000001
 21
1270.525071
 31
0.0
  0
LINE
  5
185
330
6F
100
AcDbEntity
  8
9-0
  6
Continuous
 62
     4
100
AcDbLine
 10
2687.545351000001
 20
1280.525071
 30
0.0
 11
2657.485876
 21
1259.450244
 31
0.0
  0
LINE
  5
186
330
6F
100
AcDbEntity
  8
9-0
  6
Continuous
 62
     4
100
AcDbLine
 10
2657.485876
 20
1259.450244
 30
0.0
 11
2657.485876
 21
1197.16598
 31
0.0
  0
TEXT
  5
187
330
6F
100
AcDbEntity
  8
9-0
 62
     4
100
AcDbText
 10
2656.866
 20
1205.908
 30
0.0
 40
36.288
  1
40
 50
90.0
100
AcDbText
  0
CIRCLE
  5
188
330
6F
100
AcDbEntity
  8
9-0
  6
Continuous
 62
     4
100
AcDbCircle
 10
2687.545350571522
 20
1300.525071082877
 30
0.0
 40
0.25
  0
CIRCLE
  5
189
330
6F
100
AcDbEntity
  8
9-0
  6
Continuous
 62
     4
100
AcDbCircle
 10
2687.545350571522
 20
1300.525071082877
 30
0.0
 40
0.1875
  0
CIRCLE
  5
18A
330
6F
100
AcDbEntity
  8
9-0
  6
Continuous
 62
     4
100
AcDbCircle
 10
2687.545350571522
 20
1300.525071082877
 30
0.0
 40
0.125
  0
CIRCLE
  5
18B
330
6F
100
AcDbEntity
  8
9-0
  6
Continuous
 62
     4
100
AcDbCircle
 10
2687.545350571522
 20
1300.525071082877
 30
0.0
 40
0.0625
  0
ARC
  5
18C
330
6F
100
AcDbEntity
  8
9-0
 62
     4
100
AcDbCircle
 10
2687.540350571522
 20
1300.525071082877
 30
0.0
 40
2.5
100
AcDbArc
 50
90.11459140653
 51
270.114591405945
  0
LINE
  5
18D
330
6F
100
AcDbEntity
  8
9-0
 62
     4
100
AcDbLine
 10
2687.545350571547
 20
1295.525071082877
 30
0.0
 11
2687.545350571573
 21
1290.525071082877
 31
0.0
  0
CIRCLE
  5
18E
330
6F
100
AcDbEntity
  8
9-0
  6
Continuous
 62
     4
100
AcDbCircle
 10
2687.545350571522
 20
1260.525071082877
 30
0.0
 40
0.25
  0
CIRCLE
  5
18F
330
6F
100
AcDbEntity
  8
9-0
  6
Continuous
 62
     4
100
AcDbCircle
 10
2687.545350571522
 20
1260.525071082877
 30
0.0
 40
0.1875
  0
CIRCLE
  5
190
330
6F
100
AcDbEntity
  8
9-0
  6
Continuous
 62
     4
100
AcDbCircle
 10
2687.545350571522
 20
1260.525071082877
 30
0.0
 40
0.125
  0
CIRCLE
  5
191
330
6F
100
AcDbEntity
  8
9-0
  6
Continuous
 62
     4
100
AcDbCircle
 10
2687.545350571522
 20
1260.525071082877
 30
0.0
 40
0.0625
  0
ARC
  5
192
330
6F
100
AcDbEntity
  8
9-0
 62
     4
100
AcDbCircle
 10
2687.550350571522
 20
1260.525071082877
 30
0.0
 40
2.5
100
AcDbArc
 50
270.1145914065301
 51
90.11459140594496
  0
LINE
  5
193
330
6F
100
AcDbEntity
  8
9-0
 62
     4
100
AcDbLine
 10
2687.545350571445
 20
1265.525071082877
 30
0.0
 11
2687.545350571369
 21
1270.525071082877
 31
0.0
  0
LINE
  5
194
330
6F
100
AcDbEntity
  8
9-0
  6
Continuous
 62
     4
100
AcDbLine
 10
2802.506027
 20
1312.525071
 30
0.0
 11
2687.545351000001
 21
1312.525071
 31
0.0
  0
LINE
  5
195
330
6F
100
AcDbEntity
  8
9-0
  6
Continuous
 62
     4
100
AcDbLine
 10
2802.459794
 20
1300.525071
 30
0.0
 11
2687.545351000001
 21
1300.525071
 31
0.0
  0
LINE
  5
196
330
6F
100
AcDbEntity
  8
9-0
  6
Continuous
 62
     4
100
AcDbLine
 10
2687.545351000001
 20
1322.525071
 30
0.0
 11
2687.545351000001
 21
1332.525071
 31
0.0
  0
LINE
  5
197
330
6F
100
AcDbEntity
  8
9-0
  6
Continuous
 62
     4
100
AcDbLine
 10
2687.545351000001
 20
1290.525071
 30
0.0
 11
2687.545351000001
 21
1280.525071
 31
0.0
  0
LINE
  5
198
330
6F
100
AcDbEntity
  8
9-0
  6
Continuous
 62
     4
100
AcDbLine
 10
2687.545351000001
 20
1306.525071
 30
0.0
 11
2657.274242
 21
1323.242931
 31
0.0
  0
LINE
  5
199
330
6F
100
AcDbEntity
  8
9-0
  6
Continuous
 62
     4
100
AcDbLine
 10
2657.274242
 20
1323.242931
 30
0.0
 11
2657.274242
 21
1381.79623
 31
0.0
  0
TEXT
  5
19A
330
6F
100
AcDbEntity
  8
9-0
 62
     4
100
AcDbText
 10
2656.654
 20
1330.12
 30
0.0
 40
36.288
  1
12
 50
90.0
100
AcDbText
  0
LINE
  5
19B
330
6F
100
AcDbEntity
  8
9-0
  6
Continuous
 62
     4
100
AcDbLine
 10
2687.545351000001
 20
1312.525071
 30
0.0
 11
2687.545351000001
 21
1300.525071
 31
0.0
  0
LINE
  5
19C
330
6F
100
AcDbEntity
  8
9-0
  6
Continuous
 62
     4
100
AcDbLine
 10
2687.545351000001
 20
1312.525071
 30
0.0
 11
2687.545351000001
 21
1300.525071
 31
0.0
  0
CIRCLE
  5
19D
330
6F
100
AcDbEntity
  8
9-0
  6
Continuous
 62
     4
100
AcDbCircle
 10
2687.545350571522
 20
1312.525071082877
 30
0.0
 40
0.25
  0
CIRCLE
  5
19E
330
6F
100
AcDbEntity
  8
9-0
  6
Continuous
 62
     4
100
AcDbCircle
 10
2687.545350571522
 20
1312.525071082877
 30
0.0
 40
0.1875
  0
CIRCLE
  5
19F
330
6F
100
AcDbEntity
  8
9-0
  6
Continuous
 62
     4
100
AcDbCircle
 10
2687.545350571522
 20
1312.525071082877
 30
0.0
 40
0.125
  0
CIRCLE
  5
1A0
330
6F
100
AcDbEntity
  8
9-0
  6
Continuous
 62
     4
100
AcDbCircle
 10
2687.545350571522
 20
1312.525071082877
 30
0.0
 40
0.0625
  0
ARC
  5
1A1
330
6F
100
AcDbEntity
  8
9-0
 62
     4
100
AcDbCircle
 10
2687.550350571522
 20
1312.525071082877
 30
0.0
 40
2.5
100
AcDbArc
 50
270.1145914065301
 51
90.11459140594496
  0
LINE
  5
1A2
330
6F
100
AcDbEntity
  8
9-0
 62
     4
100
AcDbLine
 10
2687.545350571445
 20
1317.525071082877
 30
0.0
 11
2687.545350571369
 21
1322.525071082877
 31
0.0
  0
CIRCLE
  5
1A3
330
6F
100
AcDbEntity
  8
9-0
  6
Continuous
 62
     4
100
AcDbCircle
 10
2687.545350571522
 20
1300.525071082877
 30
0.0
 40
0.25
  0
CIRCLE
  5
1A4
330
6F
100
AcDbEntity
  8
9-0
  6
Continuous
 62
     4
100
AcDbCircle
 10
2687.545350571522
 20
1300.525071082877
 30
0.0
 40
0.1875
  0
CIRCLE
  5
1A5
330
6F
100
AcDbEntity
  8
9-0
  6
Continuous
 62
     4
100
AcDbCircle
 10
2687.545350571522
 20
1300.525071082877
 30
0.0
 40
0.125
  0
CIRCLE
  5
1A6
330
6F
100
AcDbEntity
  8
9-0
  6
Continuous
 62
     4
100
AcDbCircle
 10
2687.545350571522
 20
1300.525071082877
 30
0.0
 40
0.0625
  0
ARC
  5
1A7
330
6F
100
AcDbEntity
  8
9-0
 62
     4
100
AcDbCircle
 10
2687.540350571522
 20
1300.525071082877
 30
0.0
 40
2.5
100
AcDbArc
 50
90.11459140653
 51
270.114591405945
  0
LINE
  5
1A8
330
6F
100
AcDbEntity
  8
9-0
 62
     4
100
AcDbLine
 10
2687.545350571547
 20
1295.525071082877
 30
0.0
 11
2687.545350571573
 21
1290.525071082877
 31
0.0
  0
LINE
  5
1A9
330
6F
100
AcDbEntity
  8
2-0
  6
Continuous
 62
     7
100
AcDbLine
 10
2855.115177
 20
1300.525071
 30
0.0
 11
2840.115177
 21
1260.525071
 31
0.0
  0
LINE
  5
1AA
330
6F
100
AcDbEntity
  8
2-0
  6
Continuous
 62
     7
100
AcDbLine
 10
2840.115177
 20
1260.525071
 30
0.0
 11
2855.115177
 21
1260.525071
 31
0.0
  0
LINE
  5
1AB
330
6F
100
AcDbEntity
  8
9-0
  6
Continuous
 62
     4
100
AcDbLine
 10
3194.654732
 20
1307.525071
 30
0.0
 11
3309.615408000001
 21
1307.525071
 31
0.0
  0
LINE
  5
1AC
330
6F
100
AcDbEntity
  8
9-0
  6
Continuous
 62
     4
100
AcDbLine
 10
3194.998775
 20
877.5250709999999
 30
0.0
 11
3309.615408000001
 21
877.5250709999999
 31
0.0
  0
TEXT
  5
1AD
330
6F
100
AcDbEntity
  8
9-0
 62
     4
100
AcDbText
 10
3308.995
 20
1058.925
 30
0.0
 40
36.288
  1
430
 50
90.0
100
AcDbText
  0
LINE
  5
1AE
330
6F
100
AcDbEntity
  8
9-0
  6
Continuous
 62
     4
100
AcDbLine
 10
3309.615407781083
 20
877.525071082878
 30
0.0
 11
3309.615407781083
 21
1307.525071082877
 31
0.0
  0
CIRCLE
  5
1AF
330
6F
100
AcDbEntity
  8
9-0
  6
Continuous
 62
     4
100
AcDbCircle
 10
3309.615407781083
 20
877.525071082878
 30
0.0
 40
0.25
  0
CIRCLE
  5
1B0
330
6F
100
AcDbEntity
  8
9-0
  6
Continuous
 62
     4
100
AcDbCircle
 10
3309.615407781083
 20
877.525071082878
 30
0.0
 40
0.1875
  0
CIRCLE
  5
1B1
330
6F
100
AcDbEntity
  8
9-0
  6
Continuous
 62
     4
100
AcDbCircle
 10
3309.615407781083
 20
877.525071082878
 30
0.0
 40
0.125
  0
CIRCLE
  5
1B2
330
6F
100
AcDbEntity
  8
9-0
  6
Continuous
 62
     4
100
AcDbCircle
 10
3309.615407781083
 20
877.525071082878
 30
0.0
 40
0.0625
  0
CIRCLE
  5
1B3
330
6F
100
AcDbEntity
  8
9-0
  6
Continuous
 62
     4
100
AcDbCircle
 10
3309.615407781083
 20
1307.525071082877
 30
0.0
 40
0.25
  0
CIRCLE
  5
1B4
330
6F
100
AcDbEntity
  8
9-0
  6
Continuous
 62
     4
100
AcDbCircle
 10
3309.615407781083
 20
1307.525071082877
 30
0.0
 40
0.1875
  0
CIRCLE
  5
1B5
330
6F
100
AcDbEntity
  8
9-0
  6
Continuous
 62
     4
100
AcDbCircle
 10
3309.615407781083
 20
1307.525071082877
 30
0.0
 40
0.125
  0
CIRCLE
  5
1B6
330
6F
100
AcDbEntity
  8
9-0
  6
Continuous
 62
     4
100
AcDbCircle
 10
3309.615407781083
 20
1307.525071082877
 30
0.0
 40
0.0625
  0
LINE
  5
1B7
330
6F
100
AcDbEntity
  8
2-0
  6
Continuous
 62
     7
100
AcDbLine
 10
3133.115177
 20
902.5250709999999
 30
0.0
 11
3133.115177
 21
1312.525071
 31
0.0
  0
LINE
  5
1B8
330
6F
100
AcDbEntity
  8
2-0
  6
Continuous
 62
     7
100
AcDbLine
 10
3135.115177
 20
877.5250709999999
 30
0.0
 11
3135.115177
 21
1307.525071
 31
0.0
  0
LINE
  5
1B9
330
6F
100
AcDbEntity
  8
2-0
  6
Continuous
 62
     7
100
AcDbLine
 10
3150.115177
 20
877.5250709999999
 30
0.0
 11
3150.115177
 21
1307.525071
 31
0.0
  0
LINE
  5
1BA
330
6F
100
AcDbEntity
  8
9-0
  6
Continuous
 62
     4
100
AcDbLine
 10
3150.115177
 20
835.140649
 30
0.0
 11
3150.115177
 21
768.5227159999999
 31
0.0
  0
LINE
  5
1BB
330
6F
100
AcDbEntity
  8
9-0
  6
Continuous
 62
     4
100
AcDbLine
 10
3135.115177
 20
835.0641389999999
 30
0.0
 11
3135.115177
 21
768.5227159999999
 31
0.0
  0
LINE
  5
1BC
330
6F
100
AcDbEntity
  8
9-0
  6
Continuous
 62
     4
100
AcDbLine
 10
3160.115177
 20
768.5227159999999
 30
0.0
 11
3170.115177
 21
768.5227159999999
 31
0.0
  0
LINE
  5
1BD
330
6F
100
AcDbEntity
  8
9-0
  6
Continuous
 62
     4
100
AcDbLine
 10
3125.115177
 20
768.5227159999999
 30
0.0
 11
3115.115177
 21
768.5227159999999
 31
0.0
  0
LINE
  5
1BE
330
6F
100
AcDbEntity
  8
9-0
  6
Continuous
 62
     4
100
AcDbLine
 10
3142.615177
 20
768.5227159999999
 30
0.0
 11
3169.264676
 21
714.222716
 31
0.0
  0
LINE
  5
1BF
330
6F
100
AcDbEntity
  8
9-0
  6
Continuous
 62
     4
100
AcDbLine
 10
3169.264676
 20
714.222716
 30
0.0
 11
3227.640311
 21
714.222716
 31
0.0
  0
TEXT
  5
1C0
330
6F
100
AcDbEntity
  8
9-0
 62
     4
100
AcDbText
 10
3178.875
 20
714.8430000000001
 30
0.0
 40
36.288
  1
15
100
AcDbText
  0
LINE
  5
1C1
330
6F
100
AcDbEntity
  8
9-0
  6
Continuous
 62
     4
100
AcDbLine
 10
3150.115177
 20
768.5227159999999
 30
0.0
 11
3135.115177
 21
768.5227159999999
 31
0.0
  0
LINE
  5
1C2
330
6F
100
AcDbEntity
  8
9-0
  6
Continuous
 62
     4
100
AcDbLine
 10
3150.115177
 20
768.5227159999999
 30
0.0
 11
3135.115177
 21
768.5227159999999
 31
0.0
  0
CIRCLE
  5
1C3
330
6F
100
AcDbEntity
  8
9-0
  6
Continuous
 62
     4
100
AcDbCircle
 10
3150.115177403695
 20
768.522716136076
 30
0.0
 40
0.25
  0
CIRCLE
  5
1C4
330
6F
100
AcDbEntity
  8
9-0
  6
Continuous
 62
     4
100
AcDbCircle
 10
3150.115177403695
 20
768.522716136076
 30
0.0
 40
0.1875
  0
CIRCLE
  5
1C5
330
6F
100
AcDbEntity
  8
9-0
  6
Continuous
 62
     4
100
AcDbCircle
 10
3150.115177403695
 20
768.522716136076
 30
0.0
 40
0.125
  0
CIRCLE
  5
1C6
330
6F
100
AcDbEntity
  8
9-0
  6
Continuous
 62
     4
100
AcDbCircle
 10
3150.115177403695
 20
768.522716136076
 30
0.0
 40
0.0625
  0
ARC
  5
1C7
330
6F
100
AcDbEntity
  8
9-0
 62
     4
100
AcDbCircle
 10
3150.115177403695
 20
768.517716136076
 30
0.0
 40
2.5
100
AcDbArc
 50
180.1145914065301
 51
0.1145914059449637
  0
LINE
  5
1C8
330
6F
100
AcDbEntity
  8
9-0
 62
     4
100
AcDbLine
 10
3155.115177403696
 20
768.5227161361269
 30
0.0
 11
3160.115177403695
 21
768.522716136178
 31
0.0
  0
CIRCLE
  5
1C9
330
6F
100
AcDbEntity
  8
9-0
  6
Continuous
 62
     4
100
AcDbCircle
 10
3135.115177403694
 20
768.522716136076
 30
0.0
 40
0.25
  0
CIRCLE
  5
1CA
330
6F
100
AcDbEntity
  8
9-0
  6
Continuous
 62
     4
100
AcDbCircle
 10
3135.115177403694
 20
768.522716136076
 30
0.0
 40
0.1875
  0
CIRCLE
  5
1CB
330
6F
100
AcDbEntity
  8
9-0
  6
Continuous
 62
     4
100
AcDbCircle
 10
3135.115177403694
 20
768.522716136076
 30
0.0
 40
0.125
  0
CIRCLE
  5
1CC
330
6F
100
AcDbEntity
  8
9-0
  6
Continuous
 62
     4
100
AcDbCircle
 10
3135.115177403694
 20
768.522716136076
 30
0.0
 40
0.0625
  0
ARC
  5
1CD
330
6F
100
AcDbEntity
  8
9-0
 62
     4
100
AcDbCircle
 10
3135.115177403694
 20
768.527716136076
 30
0.0
 40
2.5
100
AcDbArc
 50
0.1145914065300158
 51
180.114591405945
  0
LINE
  5
1CE
330
6F
100
AcDbEntity
  8
9-0
 62
     4
100
AcDbLine
 10
3130.115177403694
 20
768.522716136076
 30
0.0
 11
3125.115177403694
 21
768.522716136076
 31
0.0
  0
LINE
  5
1CF
330
6F
100
AcDbEntity
  8
9-0
  6
Continuous
 62
     4
100
AcDbLine
 10
3133.115177
 20
835.0726399999999
 30
0.0
 11
3133.115177
 21
768.5227159999999
 31
0.0
  0
LINE
  5
1D0
330
6F
100
AcDbEntity
  8
9-0
  6
Continuous
 62
     4
100
AcDbLine
 10
3135.115177
 20
835.0641389999999
 30
0.0
 11
3135.115177
 21
768.5227159999999
 31
0.0
  0
LINE
  5
1D1
330
6F
100
AcDbEntity
  8
9-0
  6
Continuous
 62
     4
100
AcDbLine
 10
3123.115177
 20
768.5227159999999
 30
0.0
 11
3113.115177
 21
768.5227159999999
 31
0.0
  0
LINE
  5
1D2
330
6F
100
AcDbEntity
  8
9-0
  6
Continuous
 62
     4
100
AcDbLine
 10
3145.115177
 20
768.5227159999999
 30
0.0
 11
3155.115177
 21
768.5227159999999
 31
0.0
  0
LINE
  5
1D3
330
6F
100
AcDbEntity
  8
9-0
  6
Continuous
 62
     4
100
AcDbLine
 10
3134.115177
 20
768.5227159999999
 30
0.0
 11
3104.927997
 21
714.222716
 31
0.0
  0
LINE
  5
1D4
330
6F
100
AcDbEntity
  8
9-0
  6
Continuous
 62
     4
100
AcDbLine
 10
3104.927997
 20
714.222716
 30
0.0
 11
3066.80617
 21
714.222716
 31
0.0
  0
TEXT
  5
1D5
330
6F
100
AcDbEntity
  8
9-0
 62
     4
100
AcDbText
 10
3077.489
 20
714.8430000000001
 30
0.0
 40
36.288
  1
2
100
AcDbText
  0
LINE
  5
1D6
330
6F
100
AcDbEntity
  8
9-0
  6
Continuous
 62
     4
100
AcDbLine
 10
3133.115177
 20
768.5227159999999
 30
0.0
 11
3135.115177
 21
768.5227159999999
 31
0.0
  0
LINE
  5
1D7
330
6F
100
AcDbEntity
  8
9-0
  6
Continuous
 62
     4
100
AcDbLine
 10
3133.115177
 20
768.5227159999999
 30
0.0
 11
3135.115177
 21
768.5227159999999
 31
0.0
  0
CIRCLE
  5
1D8
330
6F
100
AcDbEntity
  8
9-0
  6
Continuous
 62
     4
100
AcDbCircle
 10
3133.115177403694
 20
768.522716136076
 30
0.0
 40
0.25
  0
CIRCLE
  5
1D9
330
6F
100
AcDbEntity
  8
9-0
  6
Continuous
 62
     4
100
AcDbCircle
 10
3133.115177403694
 20
768.522716136076
 30
0.0
 40
0.1875
  0
CIRCLE
  5
1DA
330
6F
100
AcDbEntity
  8
9-0
  6
Continuous
 62
     4
100
AcDbCircle
 10
3133.115177403694
 20
768.522716136076
 30
0.0
 40
0.125
  0
CIRCLE
  5
1DB
330
6F
100
AcDbEntity
  8
9-0
  6
Continuous
 62
     4
100
AcDbCircle
 10
3133.115177403694
 20
768.522716136076
 30
0.0
 40
0.0625
  0
ARC
  5
1DC
330
6F
100
AcDbEntity
  8
9-0
 62
     4
100
AcDbCircle
 10
3133.115177403694
 20
768.527716136076
 30
0.0
 40
2.5
100
AcDbArc
 50
0.1145914065300158
 51
180.114591405945
  0
LINE
  5
1DD
330
6F
100
AcDbEntity
  8
9-0
 62
     4
100
AcDbLine
 10
3128.115177403694
 20
768.522716136076
 30
0.0
 11
3123.115177403694
 21
768.522716136076
 31
0.0
  0
CIRCLE
  5
1DE
330
6F
100
AcDbEntity
  8
9-0
  6
Continuous
 62
     4
100
AcDbCircle
 10
3135.115177403694
 20
768.522716136076
 30
0.0
 40
0.25
  0
CIRCLE
  5
1DF
330
6F
100
AcDbEntity
  8
9-0
  6
Continuous
 62
     4
100
AcDbCircle
 10
3135.115177403694
 20
768.522716136076
 30
0.0
 40
0.1875
  0
CIRCLE
  5
1E0
330
6F
100
AcDbEntity
  8
9-0
  6
Continuous
 62
     4
100
AcDbCircle
 10
3135.115177403694
 20
768.522716136076
 30
0.0
 40
0.125
  0
CIRCLE
  5
1E1
330
6F
100
AcDbEntity
  8
9-0
  6
Continuous
 62
     4
100
AcDbCircle
 10
3135.115177403694
 20
768.522716136076
 30
0.0
 40
0.0625
  0
ARC
  5
1E2
330
6F
100
AcDbEntity
  8
9-0
 62
     4
100
AcDbCircle
 10
3135.115177403694
 20
768.517716136076
 30
0.0
 40
2.5
100
AcDbArc
 50
180.1145914065301
 51
0.1145914059449637
  0
LINE
  5
1E3
330
6F
100
AcDbEntity
  8
9-0
 62
     4
100
AcDbLine
 10
3140.115177403694
 20
768.5227161361269
 30
0.0
 11
3145.115177403694
 21
768.522716136178
 31
0.0
  0
LINE
  5
1E4
330
6F
100
AcDbEntity
  8
2-0
  6
Continuous
 62
     7
100
AcDbLine
 10
3135.115177
 20
877.5250709999999
 30
0.0
 11
3150.115177
 21
877.5250709999999
 31
0.0
  0
LINE
  5
1E5
330
6F
100
AcDbEntity
  8
9-0
  6
Continuous
 62
     4
100
AcDbLine
 10
3194.654732
 20
1307.525071
 30
0.0
 11
3309.615408000001
 21
1307.525071
 31
0.0
  0
LINE
  5
1E6
330
6F
100
AcDbEntity
  8
9-0
  6
Continuous
 62
     4
100
AcDbLine
 10
3194.658214
 20
1312.525071
 30
0.0
 11
3309.615408000001
 21
1312.525071
 31
0.0
  0
TEXT
  5
1E7
330
6F
100
AcDbEntity
  8
9-0
 62
     4
100
AcDbText
 10
3376.495
 20
1338.136
 30
0.0
 40
36.288
  1
5
 50
90.0
100
AcDbText
  0
LINE
  5
1E8
330
6F
100
AcDbEntity
  8
9-0
  6
Continuous
 62
     4
100
AcDbLine
 10
3309.615407781083
 20
1312.525071082877
 30
0.0
 11
3309.615407781083
 21
1307.525071082877
 31
0.0
  0
CIRCLE
  5
1E9
330
6F
100
AcDbEntity
  8
9-0
  6
Continuous
 62
     4
100
AcDbCircle
 10
3309.615407781083
 20
1312.525071082877
 30
0.0
 40
0.25
  0
CIRCLE
  5
1EA
330
6F
100
AcDbEntity
  8
9-0
  6
Continuous
 62
     4
100
AcDbCircle
 10
3309.615407781083
 20
1312.525071082877
 30
0.0
 40
0.1875
  0
CIRCLE
  5
1EB
330
6F
100
AcDbEntity
  8
9-0
  6
Continuous
 62
     4
100
AcDbCircle
 10
3309.615407781083
 20
1312.525071082877
 30
0.0
 40
0.125
  0
CIRCLE
  5
1EC
330
6F
100
AcDbEntity
  8
9-0
  6
Continuous
 62
     4
100
AcDbCircle
 10
3309.615407781083
 20
1312.525071082877
 30
0.0
 40
0.0625
  0
CIRCLE
  5
1ED
330
6F
100
AcDbEntity
  8
9-0
  6
Continuous
 62
     4
100
AcDbCircle
 10
3309.615407781083
 20
1307.525071082877
 30
0.0
 40
0.25
  0
CIRCLE
  5
1EE
330
6F
100
AcDbEntity
  8
9-0
  6
Continuous
 62
     4
100
AcDbCircle
 10
3309.615407781083
 20
1307.525071082877
 30
0.0
 40
0.1875
  0
CIRCLE
  5
1EF
330
6F
100
AcDbEntity
  8
9-0
  6
Continuous
 62
     4
100
AcDbCircle
 10
3309.615407781083
 20
1307.525071082877
 30
0.0
 40
0.125
  0
CIRCLE
  5
1F0
330
6F
100
AcDbEntity
  8
9-0
  6
Continuous
 62
     4
100
AcDbCircle
 10
3309.615407781083
 20
1307.525071082877
 30
0.0
 40
0.0625
  0
LINE
  5
1F1
330
6F
100
AcDbEntity
  8
2-0
  6
Continuous
 62
     7
100
AcDbLine
 10
3135.115177
 20
1307.525071
 30
0.0
 11
3150.115177
 21
1307.525071
 31
0.0
  0
LINE
  5
1F2
330
6F
100
AcDbEntity
  8
9-0
  6
Continuous
 62
     4
100
AcDbLine
 10
1079.07621
 20
2320.912445
 30
0.0
 11
1079.07621
 21
2485.873121
 31
0.0
  0
LINE
  5
1F3
330
6F
100
AcDbEntity
  8
9-0
  6
Continuous
 62
     4
100
AcDbLine
 10
1679.07621
 20
2321.227426
 30
0.0
 11
1679.07621
 21
2485.873121
 31
0.0
  0
TEXT
  5
1F4
330
6F
100
AcDbEntity
  8
9-0
 62
     4
100
AcDbText
 10
1348.299
 20
2486.493
 30
0.0
 40
36.288
  1
600
100
AcDbText
  0
LINE
  5
1F5
330
6F
100
AcDbEntity
  8
9-0
  6
Continuous
 62
     4
100
AcDbLine
 10
1679.076210115086
 20
2485.873121451185
 30
0.0
 11
1079.076210115086
 21
2485.873121451185
 31
0.0
  0
CIRCLE
  5
1F6
330
6F
100
AcDbEntity
  8
9-0
  6
Continuous
 62
     4
100
AcDbCircle
 10
1679.076210115086
 20
2485.873121451185
 30
0.0
 40
0.25
  0
CIRCLE
  5
1F7
330
6F
100
AcDbEntity
  8
9-0
  6
Continuous
 62
     4
100
AcDbCircle
 10
1679.076210115086
 20
2485.873121451185
 30
0.0
 40
0.1875
  0
CIRCLE
  5
1F8
330
6F
100
AcDbEntity
  8
9-0
  6
Continuous
 62
     4
100
AcDbCircle
 10
1679.076210115086
 20
2485.873121451185
 30
0.0
 40
0.125
  0
CIRCLE
  5
1F9
330
6F
100
AcDbEntity
  8
9-0
  6
Continuous
 62
     4
100
AcDbCircle
 10
1679.076210115086
 20
2485.873121451185
 30
0.0
 40
0.0625
  0
CIRCLE
  5
1FA
330
6F
100
AcDbEntity
  8
9-0
  6
Continuous
 62
     4
100
AcDbCircle
 10
1079.076210115086
 20
2485.873121451185
 30
0.0
 40
0.25
  0
CIRCLE
  5
1FB
330
6F
100
AcDbEntity
  8
9-0
  6
Continuous
 62
     4
100
AcDbCircle
 10
1079.076210115086
 20
2485.873121451185
 30
0.0
 40
0.1875
  0
CIRCLE
  5
1FC
330
6F
100
AcDbEntity
  8
9-0
  6
Continuous
 62
     4
100
AcDbCircle
 10
1079.076210115086
 20
2485.873121451185
 30
0.0
 40
0.125
  0
CIRCLE
  5
1FD
330
6F
100
AcDbEntity
  8
9-0
  6
Continuous
 62
     4
100
AcDbCircle
 10
1079.076210115086
 20
2485.873121451185
 30
0.0
 40
0.0625
  0
LINE
  5
1FE
330
6F
100
AcDbEntity
  8
9-0
  6
Continuous
 62
     4
100
AcDbLine
 10
1664.07621
 20
2321.491006
 30
0.0
 11
1664.07621
 21
2385.873121
 31
0.0
  0
LINE
  5
1FF
330
6F
100
AcDbEntity
  8
9-0
  6
Continuous
 62
     4
100
AcDbLine
 10
1624.07621
 20
2325.515369
 30
0.0
 11
1624.07621
 21
2385.873121
 31
0.0
  0
LINE
  5
200
330
6F
100
AcDbEntity
  8
9-0
  6
Continuous
 62
     4
100
AcDbLine
 10
1654.07621
 20
2385.873121
 30
0.0
 11
1634.07621
 21
2385.873121
 31
0.0
  0
LINE
  5
201
330
6F
100
AcDbEntity
  8
9-0
  6
Continuous
 62
     4
100
AcDbLine
 10
1644.07621
 20
2385.873121
 30
0.0
 11
1620.355325
 21
2416.221304
 31
0.0
  0
LINE
  5
202
330
6F
100
AcDbEntity
  8
9-0
  6
Continuous
 62
     4
100
AcDbLine
 10
1620.355325
 20
2416.221304
 30
0.0
 11
1558.071061
 21
2416.221304
 31
0.0
  0
TEXT
  5
203
330
6F
100
AcDbEntity
  8
9-0
 62
     4
100
AcDbText
 10
1569.636
 20
2416.841
 30
0.0
 40
36.288
  1
40
100
AcDbText
  0
CIRCLE
  5
204
330
6F
100
AcDbEntity
  8
9-0
  6
Continuous
 62
     4
100
AcDbCircle
 10
1664.076210115086
 20
2385.873121451185
 30
0.0
 40
0.25
  0
CIRCLE
  5
205
330
6F
100
AcDbEntity
  8
9-0
  6
Continuous
 62
     4
100
AcDbCircle
 10
1664.076210115086
 20
2385.873121451185
 30
0.0
 40
0.1875
  0
CIRCLE
  5
206
330
6F
100
AcDbEntity
  8
9-0
  6
Continuous
 62
     4
100
AcDbCircle
 10
1664.076210115086
 20
2385.873121451185
 30
0.0
 40
0.125
  0
CIRCLE
  5
207
330
6F
100
AcDbEntity
  8
9-0
  6
Continuous
 62
     4
100
AcDbCircle
 10
1664.076210115086
 20
2385.873121451185
 30
0.0
 40
0.0625
  0
ARC
  5
208
330
6F
100
AcDbEntity
  8
9-0
 62
     4
100
AcDbCircle
 10
1664.076210115086
 20
2385.878121451185
 30
0.0
 40
2.5
100
AcDbArc
 50
0.1145914065300158
 51
180.114591405945
  0
LINE
  5
209
330
6F
100
AcDbEntity
  8
9-0
 62
     4
100
AcDbLine
 10
1659.076210115086
 20
2385.873121451185
 30
0.0
 11
1654.076210115086
 21
2385.873121451185
 31
0.0
  0
CIRCLE
  5
20A
330
6F
100
AcDbEntity
  8
9-0
  6
Continuous
 62
     4
100
AcDbCircle
 10
1624.076210115086
 20
2385.873121451185
 30
0.0
 40
0.25
  0
CIRCLE
  5
20B
330
6F
100
AcDbEntity
  8
9-0
  6
Continuous
 62
     4
100
AcDbCircle
 10
1624.076210115086
 20
2385.873121451185
 30
0.0
 40
0.1875
  0
CIRCLE
  5
20C
330
6F
100
AcDbEntity
  8
9-0
  6
Continuous
 62
     4
100
AcDbCircle
 10
1624.076210115086
 20
2385.873121451185
 30
0.0
 40
0.125
  0
CIRCLE
  5
20D
330
6F
100
AcDbEntity
  8
9-0
  6
Continuous
 62
     4
100
AcDbCircle
 10
1624.076210115086
 20
2385.873121451185
 30
0.0
 40
0.0625
  0
ARC
  5
20E
330
6F
100
AcDbEntity
  8
9-0
 62
     4
100
AcDbCircle
 10
1624.076210115086
 20
2385.868121451185
 30
0.0
 40
2.5
100
AcDbArc
 50
180.1145914065301
 51
0.1145914059449637
  0
LINE
  5
20F
330
6F
100
AcDbEntity
  8
9-0
 62
     4
100
AcDbLine
 10
1629.076210115086
 20
2385.873121451236
 30
0.0
 11
1634.076210115086
 21
2385.873121451287
 31
0.0
  0
LINE
  5
210
330
6F
100
AcDbEntity
  8
2-0
  6
Continuous
 62
     7
100
AcDbLine
 10
1380.07621
 20
1971.527509
 30
0.0
 11
1674.07621
 21
1971.527509
 31
0.0
  0
LINE
  5
211
330
6F
100
AcDbEntity
  8
2-0
  6
Continuous
 62
     7
100
AcDbLine
 10
1380.07621
 20
1989.527509
 30
0.0
 11
1674.07621
 21
1989.527509
 31
0.0
  0
LINE
  5
212
330
6F
100
AcDbEntity
  8
2-0
  6
DASHED2
 62
     7
100
AcDbLine
 10
1664.07621
 20
2258.827509
 30
0.0
 11
1094.07621
 21
2258.827509
 31
0.0
  0
LINE
  5
213
330
6F
100
AcDbEntity
  8
2-0
  6
Continuous
 62
     7
100
AcDbLine
 10
1079.07621
 20
1991.527509
 30
0.0
 11
1679.07621
 21
1991.527509
 31
0.0
  0
LINE
  5
214
330
6F
100
AcDbEntity
  8
2-0
  6
DASHED2
 62
     7
100
AcDbLine
 10
1664.07621
 20
2261.527509
 30
0.0
 11
1094.07621
 21
2261.527509
 31
0.0
  0
LINE
  5
215
330
6F
100
AcDbEntity
  8
2-0
  6
Continuous
 62
     7
100
AcDbLine
 10
1679.07621
 20
2281.527509
 30
0.0
 11
1079.07621
 21
2281.527509
 31
0.0
  0
LINE
  5
216
330
6F
100
AcDbEntity
  8
2-0
  6
Continuous
 62
     7
100
AcDbLine
 10
1094.07621
 20
2281.527509
 30
0.0
 11
1094.07621
 21
1991.527509
 31
0.0
  0
LINE
  5
217
330
6F
100
AcDbEntity
  8
2-0
  6
Continuous
 62
     7
100
AcDbLine
 10
1079.07621
 20
2281.527509
 30
0.0
 11
1079.07621
 21
1991.527509
 31
0.0
  0
LINE
  5
218
330
6F
100
AcDbEntity
  8
2-0
  6
Continuous
 62
     7
100
AcDbLine
 10
1084.07621
 20
1989.527509
 30
0.0
 11
1378.07621
 21
1989.527509
 31
0.0
  0
LINE
  5
219
330
6F
100
AcDbEntity
  8
2-0
  6
Continuous
 62
     7
100
AcDbLine
 10
1084.07621
 20
1971.527509
 30
0.0
 11
1378.07621
 21
1971.527509
 31
0.0
  0
LINE
  5
21A
330
6F
100
AcDbEntity
  8
2-0
  6
Continuous
 62
     7
100
AcDbLine
 10
1084.07621
 20
1989.527509
 30
0.0
 11
1084.07621
 21
1971.527509
 31
0.0
  0
LINE
  5
21B
330
6F
100
AcDbEntity
  8
2-0
  6
Continuous
 62
     7
100
AcDbLine
 10
1378.07621
 20
1989.527509
 30
0.0
 11
1378.07621
 21
1971.527509
 31
0.0
  0
LINE
  5
21C
330
6F
100
AcDbEntity
  8
2-0
  6
Continuous
 62
     7
100
AcDbLine
 10
1380.07621
 20
1989.527509
 30
0.0
 11
1380.07621
 21
1971.527509
 31
0.0
  0
LINE
  5
21D
330
6F
100
AcDbEntity
  8
9-0
  6
Continuous
 62
     4
100
AcDbLine
 10
1094.07621
 20
2321.491006
 30
0.0
 11
1094.07621
 21
2385.873121
 31
0.0
  0
LINE
  5
21E
330
6F
100
AcDbEntity
  8
9-0
  6
Continuous
 62
     4
100
AcDbLine
 10
1079.07621
 20
2323.100752
 30
0.0
 11
1079.07621
 21
2385.873121
 31
0.0
  0
LINE
  5
21F
330
6F
100
AcDbEntity
  8
9-0
  6
Continuous
 62
     4
100
AcDbLine
 10
1104.07621
 20
2385.873121
 30
0.0
 11
1114.07621
 21
2385.873121
 31
0.0
  0
LINE
  5
220
330
6F
100
AcDbEntity
  8
9-0
  6
Continuous
 62
     4
100
AcDbLine
 10
1069.07621
 20
2385.873121
 30
0.0
 11
1059.07621
 21
2385.873121
 31
0.0
  0
LINE
  5
221
330
6F
100
AcDbEntity
  8
9-0
  6
Continuous
 62
     4
100
AcDbLine
 10
1086.57621
 20
2385.873121
 30
0.0
 11
1063.298311
 21
2416.253833000001
 31
0.0
  0
LINE
  5
222
330
6F
100
AcDbEntity
  8
9-0
  6
Continuous
 62
     4
100
AcDbLine
 10
1063.298311
 20
2416.253833000001
 30
0.0
 11
1004.922677
 21
2416.253833000001
 31
0.0
  0
TEXT
  5
223
330
6F
100
AcDbEntity
  8
9-0
 62
     4
100
AcDbText
 10
1014.533
 20
2416.874
 30
0.0
 40
36.288
  1
15
100
AcDbText
  0
LINE
  5
224
330
6F
100
AcDbEntity
  8
9-0
  6
Continuous
 62
     4
100
AcDbLine
 10
1094.07621
 20
2385.873121
 30
0.0
 11
1079.07621
 21
2385.873121
 31
0.0
  0
LINE
  5
225
330
6F
100
AcDbEntity
  8
9-0
  6
Continuous
 62
     4
100
AcDbLine
 10
1094.07621
 20
2385.873121
 30
0.0
 11
1079.07621
 21
2385.873121
 31
0.0
  0
CIRCLE
  5
226
330
6F
100
AcDbEntity
  8
9-0
  6
Continuous
 62
     4
100
AcDbCircle
 10
1094.076210115086
 20
2385.873121451185
 30
0.0
 40
0.25
  0
CIRCLE
  5
227
330
6F
100
AcDbEntity
  8
9-0
  6
Continuous
 62
     4
100
AcDbCircle
 10
1094.076210115086
 20
2385.873121451185
 30
0.0
 40
0.1875
  0
CIRCLE
  5
228
330
6F
100
AcDbEntity
  8
9-0
  6
Continuous
 62
     4
100
AcDbCircle
 10
1094.076210115086
 20
2385.873121451185
 30
0.0
 40
0.125
  0
CIRCLE
  5
229
330
6F
100
AcDbEntity
  8
9-0
  6
Continuous
 62
     4
100
AcDbCircle
 10
1094.076210115086
 20
2385.873121451185
 30
0.0
 40
0.0625
  0
ARC
  5
22A
330
6F
100
AcDbEntity
  8
9-0
 62
     4
100
AcDbCircle
 10
1094.076210115086
 20
2385.868121451185
 30
0.0
 40
2.5
100
AcDbArc
 50
180.1145914065301
 51
0.1145914059449637
  0
LINE
  5
22B
330
6F
100
AcDbEntity
  8
9-0
 62
     4
100
AcDbLine
 10
1099.076210115086
 20
2385.873121451236
 30
0.0
 11
1104.076210115086
 21
2385.873121451287
 31
0.0
  0
CIRCLE
  5
22C
330
6F
100
AcDbEntity
  8
9-0
  6
Continuous
 62
     4
100
AcDbCircle
 10
1079.076210115086
 20
2385.873121451185
 30
0.0
 40
0.25
  0
CIRCLE
  5
22D
330
6F
100
AcDbEntity
  8
9-0
  6
Continuous
 62
     4
100
AcDbCircle
 10
1079.076210115086
 20
2385.873121451185
 30
0.0
 40
0.1875
  0
CIRCLE
  5
22E
330
6F
100
AcDbEntity
  8
9-0
  6
Continuous
 62
     4
100
AcDbCircle
 10
1079.076210115086
 20
2385.873121451185
 30
0.0
 40
0.125
  0
CIRCLE
  5
22F
330
6F
100
AcDbEntity
  8
9-0
  6
Continuous
 62
     4
100
AcDbCircle
 10
1079.076210115086
 20
2385.873121451185
 30
0.0
 40
0.0625
  0
ARC
  5
230
330
6F
100
AcDbEntity
  8
9-0
 62
     4
100
AcDbCircle
 10
1079.076210115086
 20
2385.878121451185
 30
0.0
 40
2.5
100
AcDbArc
 50
0.1145914065300158
 51
180.114591405945
  0
LINE
  5
231
330
6F
100
AcDbEntity
  8
9-0
 62
     4
100
AcDbLine
 10
1074.076210115086
 20
2385.873121451185
 30
0.0
 11
1069.076210115086
 21
2385.873121451185
 31
0.0
  0
LINE
  5
232
330
6F
100
AcDbEntity
  8
9-0
  6
Continuous
 62
     4
100
AcDbLine
 10
1094.07621
 20
2321.491006
 30
0.0
 11
1094.07621
 21
2385.873121
 31
0.0
  0
LINE
  5
233
330
6F
100
AcDbEntity
  8
9-0
  6
Continuous
 62
     4
100
AcDbLine
 10
1134.07621
 20
2325.515369
 30
0.0
 11
1134.07621
 21
2385.873121
 31
0.0
  0
TEXT
  5
234
330
6F
100
AcDbEntity
  8
9-0
 62
     4
100
AcDbText
 10
1135.391
 20
2418.993
 30
0.0
 40
36.288
  1
40
100
AcDbText
  0
LINE
  5
235
330
6F
100
AcDbEntity
  8
9-0
  6
Continuous
 62
     4
100
AcDbLine
 10
1134.076210115086
 20
2385.873121451185
 30
0.0
 11
1094.076210115086
 21
2385.873121451185
 31
0.0
  0
CIRCLE
  5
236
330
6F
100
AcDbEntity
  8
9-0
  6
Continuous
 62
     4
100
AcDbCircle
 10
1134.076210115086
 20
2385.873121451185
 30
0.0
 40
0.25
  0
CIRCLE
  5
237
330
6F
100
AcDbEntity
  8
9-0
  6
Continuous
 62
     4
100
AcDbCircle
 10
1134.076210115086
 20
2385.873121451185
 30
0.0
 40
0.1875
  0
CIRCLE
  5
238
330
6F
100
AcDbEntity
  8
9-0
  6
Continuous
 62
     4
100
AcDbCircle
 10
1134.076210115086
 20
2385.873121451185
 30
0.0
 40
0.125
  0
CIRCLE
  5
239
330
6F
100
AcDbEntity
  8
9-0
  6
Continuous
 62
     4
100
AcDbCircle
 10
1134.076210115086
 20
2385.873121451185
 30
0.0
 40
0.0625
  0
CIRCLE
  5
23A
330
6F
100
AcDbEntity
  8
9-0
  6
Continuous
 62
     4
100
AcDbCircle
 10
1094.076210115086
 20
2385.873121451185
 30
0.0
 40
0.25
  0
CIRCLE
  5
23B
330
6F
100
AcDbEntity
  8
9-0
  6
Continuous
 62
     4
100
AcDbCircle
 10
1094.076210115086
 20
2385.873121451185
 30
0.0
 40
0.1875
  0
CIRCLE
  5
23C
330
6F
100
AcDbEntity
  8
9-0
  6
Continuous
 62
     4
100
AcDbCircle
 10
1094.076210115086
 20
2385.873121451185
 30
0.0
 40
0.125
  0
CIRCLE
  5
23D
330
6F
100
AcDbEntity
  8
9-0
  6
Continuous
 62
     4
100
AcDbCircle
 10
1094.076210115086
 20
2385.873121451185
 30
0.0
 40
0.0625
  0
LINE
  5
23E
330
6F
100
AcDbEntity
  8
2-0
  6
DASHED2
 62
     7
100
AcDbLine
 10
1094.07621
 20
2261.527509
 30
0.0
 11
1134.07621
 21
2281.527509
 31
0.0
  0
LINE
  5
23F
330
6F
100
AcDbEntity
  8
2-0
  6
DASHED2
 62
     7
100
AcDbLine
 10
1134.07621
 20
2281.527509
 30
0.0
 11
1134.07621
 21
2261.527509
 31
0.0
  0
LINE
  5
240
330
6F
100
AcDbEntity
  8
2-0
  6
Continuous
 62
     7
100
AcDbLine
 10
1664.07621
 20
1991.527509
 30
0.0
 11
1664.07621
 21
2281.527509
 31
0.0
  0
LINE
  5
241
330
6F
100
AcDbEntity
  8
2-0
  6
Continuous
 62
     7
100
AcDbLine
 10
1679.07621
 20
1991.527509
 30
0.0
 11
1679.07621
 21
2281.527509
 31
0.0
  0
LINE
  5
242
330
6F
100
AcDbEntity
  8
2-0
  6
Continuous
 62
     7
100
AcDbLine
 10
1674.07621
 20
1989.527509
 30
0.0
 11
1674.07621
 21
1971.527509
 31
0.0
  0
LINE
  5
243
330
6F
100
AcDbEntity
  8
9-0
  6
Continuous
 62
     4
100
AcDbLine
 10
1664.07621
 20
2321.491006
 30
0.0
 11
1664.07621
 21
2385.873121
 31
0.0
  0
LINE
  5
244
330
6F
100
AcDbEntity
  8
9-0
  6
Continuous
 62
     4
100
AcDbLine
 10
1679.07621
 20
2323.100752
 30
0.0
 11
1679.07621
 21
2385.873121
 31
0.0
  0
LINE
  5
245
330
6F
100
AcDbEntity
  8
9-0
  6
Continuous
 62
     4
100
AcDbLine
 10
1654.07621
 20
2385.873121
 30
0.0
 11
1644.07621
 21
2385.873121
 31
0.0
  0
LINE
  5
246
330
6F
100
AcDbEntity
  8
9-0
  6
Continuous
 62
     4
100
AcDbLine
 10
1689.07621
 20
2385.873121
 30
0.0
 11
1699.07621
 21
2385.873121
 31
0.0
  0
LINE
  5
247
330
6F
100
AcDbEntity
  8
9-0
  6
Continuous
 62
     4
100
AcDbLine
 10
1671.57621
 20
2385.873121
 30
0.0
 11
1694.854109
 21
2416.253833000001
 31
0.0
  0
LINE
  5
248
330
6F
100
AcDbEntity
  8
9-0
  6
Continuous
 62
     4
100
AcDbLine
 10
1694.854109
 20
2416.253833000001
 30
0.0
 11
1753.229743
 21
2416.253833000001
 31
0.0
  0
TEXT
  5
249
330
6F
100
AcDbEntity
  8
9-0
 62
     4
100
AcDbText
 10
1704.464
 20
2416.874
 30
0.0
 40
36.288
  1
15
100
AcDbText
  0
LINE
  5
24A
330
6F
100
AcDbEntity
  8
9-0
  6
Continuous
 62
     4
100
AcDbLine
 10
1664.07621
 20
2385.873121
 30
0.0
 11
1679.07621
 21
2385.873121
 31
0.0
  0
LINE
  5
24B
330
6F
100
AcDbEntity
  8
9-0
  6
Continuous
 62
     4
100
AcDbLine
 10
1664.07621
 20
2385.873121
 30
0.0
 11
1679.07621
 21
2385.873121
 31
0.0
  0
CIRCLE
  5
24C
330
6F
100
AcDbEntity
  8
9-0
  6
Continuous
 62
     4
100
AcDbCircle
 10
1664.076210115086
 20
2385.873121451185
 30
0.0
 40
0.25
  0
CIRCLE
  5
24D
330
6F
100
AcDbEntity
  8
9-0
  6
Continuous
 62
     4
100
AcDbCircle
 10
1664.076210115086
 20
2385.873121451185
 30
0.0
 40
0.1875
  0
CIRCLE
  5
24E
330
6F
100
AcDbEntity
  8
9-0
  6
Continuous
 62
     4
100
AcDbCircle
 10
1664.076210115086
 20
2385.873121451185
 30
0.0
 40
0.125
  0
CIRCLE
  5
24F
330
6F
100
AcDbEntity
  8
9-0
  6
Continuous
 62
     4
100
AcDbCircle
 10
1664.076210115086
 20
2385.873121451185
 30
0.0
 40
0.0625
  0
ARC
  5
250
330
6F
100
AcDbEntity
  8
9-0
 62
     4
100
AcDbCircle
 10
1664.076210115086
 20
2385.878121451185
 30
0.0
 40
2.5
100
AcDbArc
 50
0.1145914065300158
 51
180.114591405945
  0
LINE
  5
251
330
6F
100
AcDbEntity
  8
9-0
 62
     4
100
AcDbLine
 10
1659.076210115086
 20
2385.873121451185
 30
0.0
 11
1654.076210115086
 21
2385.873121451185
 31
0.0
  0
CIRCLE
  5
252
330
6F
100
AcDbEntity
  8
9-0
  6
Continuous
 62
     4
100
AcDbCircle
 10
1679.076210115086
 20
2385.873121451185
 30
0.0
 40
0.25
  0
CIRCLE
  5
253
330
6F
100
AcDbEntity
  8
9-0
  6
Continuous
 62
     4
100
AcDbCircle
 10
1679.076210115086
 20
2385.873121451185
 30
0.0
 40
0.1875
  0
CIRCLE
  5
254
330
6F
100
AcDbEntity
  8
9-0
  6
Continuous
 62
     4
100
AcDbCircle
 10
1679.076210115086
 20
2385.873121451185
 30
0.0
 40
0.125
  0
CIRCLE
  5
255
330
6F
100
AcDbEntity
  8
9-0
  6
Continuous
 62
     4
100
AcDbCircle
 10
1679.076210115086
 20
2385.873121451185
 30
0.0
 40
0.0625
  0
ARC
  5
256
330
6F
100
AcDbEntity
  8
9-0
 62
     4
100
AcDbCircle
 10
1679.076210115086
 20
2385.868121451185
 30
0.0
 40
2.5
100
AcDbArc
 50
180.1145914065301
 51
0.1145914059449637
  0
LINE
  5
257
330
6F
100
AcDbEntity
  8
9-0
 62
     4
100
AcDbLine
 10
1684.076210115086
 20
2385.873121451236
 30
0.0
 11
1689.076210115086
 21
2385.873121451287
 31
0.0
  0
LINE
  5
258
330
6F
100
AcDbEntity
  8
2-0
  6
DASHED2
 62
     7
100
AcDbLine
 10
1624.07621
 20
2261.527509
 30
0.0
 11
1664.07621
 21
2281.527509
 31
0.0
  0
LINE
  5
259
330
6F
100
AcDbEntity
  8
2-0
  6
DASHED2
 62
     7
100
AcDbLine
 10
1624.07621
 20
2281.527509
 30
0.0
 11
1624.07621
 21
2261.527509
 31
0.0
  0
LINE
  5
25A
330
6F
100
AcDbEntity
  8
9-0
  6
Continuous
 62
     4
100
AcDbLine
 10
1079.07621
 20
833.4833919999999
 30
0.0
 11
1079.07621
 21
668.542946
 31
0.0
  0
LINE
  5
25B
330
6F
100
AcDbEntity
  8
9-0
  6
Continuous
 62
     4
100
AcDbLine
 10
1679.07621
 20
836.4006579999999
 30
0.0
 11
1679.07621
 21
668.542946
 31
0.0
  0
TEXT
  5
25C
330
6F
100
AcDbEntity
  8
9-0
 62
     4
100
AcDbText
 10
1348.299
 20
669.1629999999999
 30
0.0
 40
36.288
  1
600
100
AcDbText
  0
LINE
  5
25D
330
6F
100
AcDbEntity
  8
9-0
  6
Continuous
 62
     4
100
AcDbLine
 10
1679.076210115086
 20
668.5429462461099
 30
0.0
 11
1079.076210115086
 21
668.5429462461099
 31
0.0
  0
CIRCLE
  5
25E
330
6F
100
AcDbEntity
  8
9-0
  6
Continuous
 62
     4
100
AcDbCircle
 10
1679.076210115086
 20
668.5429462461099
 30
0.0
 40
0.25
  0
CIRCLE
  5
25F
330
6F
100
AcDbEntity
  8
9-0
  6
Continuous
 62
     4
100
AcDbCircle
 10
1679.076210115086
 20
668.5429462461099
 30
0.0
 40
0.1875
  0
CIRCLE
  5
260
330
6F
100
AcDbEntity
  8
9-0
  6
Continuous
 62
     4
100
AcDbCircle
 10
1679.076210115086
 20
668.5429462461099
 30
0.0
 40
0.125
  0
CIRCLE
  5
261
330
6F
100
AcDbEntity
  8
9-0
  6
Continuous
 62
     4
100
AcDbCircle
 10
1679.076210115086
 20
668.5429462461099
 30
0.0
 40
0.0625
  0
CIRCLE
  5
262
330
6F
100
AcDbEntity
  8
9-0
  6
Continuous
 62
     4
100
AcDbCircle
 10
1079.076210115086
 20
668.5429462461099
 30
0.0
 40
0.25
  0
CIRCLE
  5
263
330
6F
100
AcDbEntity
  8
9-0
  6
Continuous
 62
     4
100
AcDbCircle
 10
1079.076210115086
 20
668.5429462461099
 30
0.0
 40
0.1875
  0
CIRCLE
  5
264
330
6F
100
AcDbEntity
  8
9-0
  6
Continuous
 62
     4
100
AcDbCircle
 10
1079.076210115086
 20
668.5429462461099
 30
0.0
 40
0.125
  0
CIRCLE
  5
265
330
6F
100
AcDbEntity
  8
9-0
  6
Continuous
 62
     4
100
AcDbCircle
 10
1079.076210115086
 20
668.5429462461099
 30
0.0
 40
0.0625
  0
LINE
  5
266
330
6F
100
AcDbEntity
  8
9-0
  6
Continuous
 62
     4
100
AcDbLine
 10
1699.07621
 20
1312.525071
 30
0.0
 11
1820.700792
 21
1312.525071
 31
0.0
  0
LINE
  5
267
330
6F
100
AcDbEntity
  8
9-0
  6
Continuous
 62
     4
100
AcDbLine
 10
1699.07621
 20
902.5250709999999
 30
0.0
 11
1820.700792
 21
902.5250709999999
 31
0.0
  0
TEXT
  5
268
330
6F
100
AcDbEntity
  8
9-0
 62
     4
100
AcDbText
 10
1820.081
 20
1073.925
 30
0.0
 40
36.288
  1
410
 50
90.0
100
AcDbText
  0
LINE
  5
269
330
6F
100
AcDbEntity
  8
9-0
  6
Continuous
 62
     4
100
AcDbLine
 10
1820.70079188606
 20
902.5250710828769
 30
0.0
 11
1820.70079188606
 21
1312.525071082877
 31
0.0
  0
CIRCLE
  5
26A
330
6F
100
AcDbEntity
  8
9-0
  6
Continuous
 62
     4
100
AcDbCircle
 10
1820.70079188606
 20
902.5250710828769
 30
0.0
 40
0.25
  0
CIRCLE
  5
26B
330
6F
100
AcDbEntity
  8
9-0
  6
Continuous
 62
     4
100
AcDbCircle
 10
1820.70079188606
 20
902.5250710828769
 30
0.0
 40
0.1875
  0
CIRCLE
  5
26C
330
6F
100
AcDbEntity
  8
9-0
  6
Continuous
 62
     4
100
AcDbCircle
 10
1820.70079188606
 20
902.5250710828769
 30
0.0
 40
0.125
  0
CIRCLE
  5
26D
330
6F
100
AcDbEntity
  8
9-0
  6
Continuous
 62
     4
100
AcDbCircle
 10
1820.70079188606
 20
902.5250710828769
 30
0.0
 40
0.0625
  0
CIRCLE
  5
26E
330
6F
100
AcDbEntity
  8
9-0
  6
Continuous
 62
     4
100
AcDbCircle
 10
1820.70079188606
 20
1312.525071082877
 30
0.0
 40
0.25
  0
CIRCLE
  5
26F
330
6F
100
AcDbEntity
  8
9-0
  6
Continuous
 62
     4
100
AcDbCircle
 10
1820.70079188606
 20
1312.525071082877
 30
0.0
 40
0.1875
  0
CIRCLE
  5
270
330
6F
100
AcDbEntity
  8
9-0
  6
Continuous
 62
     4
100
AcDbCircle
 10
1820.70079188606
 20
1312.525071082877
 30
0.0
 40
0.125
  0
CIRCLE
  5
271
330
6F
100
AcDbEntity
  8
9-0
  6
Continuous
 62
     4
100
AcDbCircle
 10
1820.70079188606
 20
1312.525071082877
 30
0.0
 40
0.0625
  0
LINE
  5
272
330
6F
100
AcDbEntity
  8
1-0
  6
Continuous
 62
     7
100
AcDbLine
 10
1679.07621
 20
902.5250709999999
 30
0.0
 11
1674.07621
 21
902.5250709999999
 31
0.0
  0
LINE
  5
273
330
6F
100
AcDbEntity
  8
1-0
  6
Continuous
 62
     7
100
AcDbLine
 10
1079.07621
 20
902.5250709999999
 30
0.0
 11
1084.07621
 21
902.5250709999999
 31
0.0
  0
LINE
  5
274
330
6F
100
AcDbEntity
  8
1-0
  6
DASHED2
 62
     7
100
AcDbLine
 10
1084.07621
 20
902.5250709999999
 30
0.0
 11
1674.07621
 21
902.5250709999999
 31
0.0
  0
LINE
  5
275
330
6F
100
AcDbEntity
  8
2-0
  6
DASHED2
 62
     7
100
AcDbLine
 10
1668.07621
 20
1300.525071
 30
0.0
 11
1090.445808
 21
1300.525071
 31
0.0
  0
LINE
  5
276
330
6F
100
AcDbEntity
  8
D-0
  6
Continuous
 62
     5
100
AcDbLine
 10
2938.17656
 20
2570.0
 30
0.0
 11
2938.17656
 21
2220.0
 31
0.0
  0
LINE
  5
277
330
6F
100
AcDbEntity
  8
D-0
  6
Continuous
 62
     5
100
AcDbLine
 10
2745.765608000001
 20
2570.0
 30
0.0
 11
2745.765608000001
 21
2170.0
 31
0.0
  0
LINE
  5
278
330
6F
100
AcDbEntity
  8
D-0
  6
Continuous
 62
     5
100
AcDbLine
 10
3089.648986
 20
2570.0
 30
0.0
 11
3089.648986
 21
2170.0
 31
0.0
  0
LINE
  5
279
330
6F
100
AcDbEntity
  8
D-0
  6
Continuous
 62
     5
100
AcDbLine
 10
3770.0
 20
2565.0
 30
0.0
 11
3770.0
 21
2170.0
 31
0.0
  0
TEXT
  5
27A
330
6F
100
AcDbEntity
  8
D-0
 62
     5
100
AcDbText
 10
3119.777
 20
2482.446
 30
0.0
 40
25.92
  1
クリーンイーゴスMDF
100
AcDbText
  0
TEXT
  5
27B
330
6F
100
AcDbEntity
  8
D-0
 62
     5
100
AcDbText
 10
2958.115
 20
2482.446
 30
0.0
 40
25.92
  1
背板
100
AcDbText
  0
TEXT
  5
27C
330
6F
100
AcDbEntity
  8
D-0
 62
     5
100
AcDbText
 10
3109.588
 20
2182.446
 30
0.0
 40
25.92
  1
スライドヒンジ
100
AcDbText
  0
LINE
  5
27D
330
6F
100
AcDbEntity
  8
D-0
  6
Continuous
 62
     5
100
AcDbLine
 10
2745.765608000001
 20
2220.0
 30
0.0
 11
3770.0
 21
2220.0
 31
0.0
  0
LINE
  5
27E
330
6F
100
AcDbEntity
  8
D-0
  6
Continuous
 62
     5
100
AcDbLine
 10
2745.765608000001
 20
2170.0
 30
0.0
 11
3770.0
 21
2170.0
 31
0.0
  0
TEXT
  5
27F
330
6F
100
AcDbEntity
  8
D-0
 62
     5
100
AcDbText
 10
2785.357
 20
2107.446
 30
0.0
 40
25.92
  1
※　弊社製品はすべてF☆☆☆☆に対応しております。
100
AcDbText
  0
TEXT
  5
280
330
6F
100
AcDbEntity
  8
D-0
 62
     5
100
AcDbText
 10
3119.777
 20
2327.446
 30
0.0
 40
25.92
  1
ウレタンコート化粧ボード（PB)
100
AcDbText
  0
TEXT
  5
281
330
6F
100
AcDbEntity
  8
D-0
 62
     5
100
AcDbText
 10
3119.777
 20
2277.446
 30
0.0
 40
25.92
  1
木口テープ巻
100
AcDbText
  0
TEXT
  5
282
330
6F
100
AcDbEntity
  8
D-0
 62
     5
100
AcDbText
 10
3119.777
 20
2377.446
 30
0.0
 40
25.92
  1
プレコート（PB)　鏡面仕上げ（SW）
100
AcDbText
  0
TEXT
  5
283
330
6F
100
AcDbEntity
  8
D-0
 62
     5
100
AcDbText
 10
3119.777
 20
2432.446
 30
0.0
 40
25.92
  1
ウレタンコート化粧ボード（PB)
100
AcDbText
  0
LINE
  5
284
330
6F
100
AcDbEntity
  8
D-0
  6
Continuous
 62
     5
100
AcDbLine
 10
2745.765608000001
 20
2420.0
 30
0.0
 11
3770.0
 21
2420.0
 31
0.0
  0
TEXT
  5
285
330
6F
100
AcDbEntity
  8
D-0
 62
     5
100
AcDbText
 10
2958.115
 20
2277.446
 30
0.0
 40
25.92
  1
木口
100
AcDbText
  0
TEXT
  5
286
330
6F
100
AcDbEntity
  8
D-0
 62
     5
100
AcDbText
 10
2785.357
 20
2182.446
 30
0.0
 40
25.92
  1
丁番
100
AcDbText
  0
TEXT
  5
287
330
6F
100
AcDbEntity
  8
D-0
 62
     5
100
AcDbText
 10
2785.357
 20
2377.446
 30
0.0
 40
25.92
  1
扉
100
AcDbText
  0
TEXT
  5
288
330
6F
100
AcDbEntity
  8
D-0
 62
     5
100
AcDbText
 10
2958.115
 20
2327.446
 30
0.0
 40
25.92
  1
裏
100
AcDbText
  0
TEXT
  5
289
330
6F
100
AcDbEntity
  8
D-0
 62
     5
100
AcDbText
 10
2958.115
 20
2377.446
 30
0.0
 40
25.92
  1
表
100
AcDbText
  0
TEXT
  5
28A
330
6F
100
AcDbEntity
  8
D-0
 62
     5
100
AcDbText
 10
2958.115
 20
2432.446
 30
0.0
 40
25.92
  1
地板
100
AcDbText
  0
TEXT
  5
28B
330
6F
100
AcDbEntity
  8
D-0
 62
     5
100
AcDbText
 10
3119.777
 20
2532.446
 30
0.0
 40
25.92
  1
ウレタンコート化粧ボード（PB)
100
AcDbText
  0
LINE
  5
28C
330
6F
100
AcDbEntity
  8
D-0
  6
Continuous
 62
     5
100
AcDbLine
 10
2745.765608000001
 20
2570.0
 30
0.0
 11
3770.0
 21
2570.0
 31
0.0
  0
TEXT
  5
28D
330
6F
100
AcDbEntity
  8
D-0
 62
     5
100
AcDbText
 10
2785.357
 20
2532.446
 30
0.0
 40
25.92
  1
木部本体
100
AcDbText
  0
TEXT
  5
28E
330
6F
100
AcDbEntity
  8
D-0
 62
     5
100
AcDbText
 10
2958.115
 20
2532.446
 30
0.0
 40
25.92
  1
側板
100
AcDbText
  0
TEXT
  5
28F
330
6F
100
AcDbEntity
  8
D-0
 62
     5
100
AcDbText
 10
2952.204
 20
2232.888
 30
0.0
 40
25.92
  1
ラッチ
100
AcDbText
  0
TEXT
  5
290
330
6F
100
AcDbEntity
  8
D-0
 62
     5
100
AcDbText
 10
3118.661
 20
2233.396
 30
0.0
 40
25.92
  1
耐震レバーラッチ付
100
AcDbText
  0
LINE
  5
291
330
6F
100
AcDbEntity
  8
2-0
  6
Continuous
 62
     7
100
AcDbLine
 10
3132.615177
 20
881.424391
 30
0.0
 11
3132.615177
 21
900.4243909999999
 31
0.0
  0
LINE
  5
292
330
6F
100
AcDbEntity
  8
1-0
  6
Continuous
 62
     7
100
AcDbLine
 10
3135.115177
 20
881.424391
 30
0.0
 11
3132.615177
 21
881.424391
 31
0.0
  0
LINE
  5
293
330
6F
100
AcDbEntity
  8
1-0
  6
Continuous
 62
     7
100
AcDbLine
 10
3135.115177
 20
900.4243909999999
 30
0.0
 11
3132.615177
 21
900.4243909999999
 31
0.0
  0
LINE
  5
294
330
6F
100
AcDbEntity
  8
1-0
  6
Continuous
 62
     7
100
AcDbLine
 10
3132.615177
 20
900.4243909999999
 30
0.0
 11
3127.115177
 21
900.4243909999999
 31
0.0
  0
LINE
  5
295
330
6F
100
AcDbEntity
  8
1-0
  6
Continuous
 62
     7
100
AcDbLine
 10
3126.615177
 20
899.924391
 30
0.0
 11
3126.615177
 21
892.4243909999999
 31
0.0
  0
LINE
  5
296
330
6F
100
AcDbEntity
  8
1-0
  6
Continuous
 62
     7
100
AcDbLine
 10
3129.615177
 20
889.424391
 30
0.0
 11
3132.615177
 21
889.424391
 31
0.0
  0
ARC
  5
297
330
6F
100
AcDbEntity
  8
1-0
  6
Continuous
 62
     7
100
AcDbCircle
 10
3129.615177
 20
892.4243909999999
 30
0.0
 40
3.0
100
AcDbArc
 50
180.0
 51
270.0
  0
LINE
  5
298
330
6F
100
AcDbEntity
  8
1-0
  6
Continuous
 62
     7
100
AcDbLine
 10
3126.615177
 20
899.924391
 30
0.0
 11
3126.615177
 21
892.4243909999999
 31
0.0
  0
ARC
  5
299
330
6F
100
AcDbEntity
  8
1-0
  6
Continuous
 62
     7
100
AcDbCircle
 10
3127.115177
 20
899.924391
 30
0.0
 40
0.5
100
AcDbArc
 50
90.0
 51
180.0
  0
LINE
  5
29A
330
6F
100
AcDbEntity
  8
1-0
  6
Continuous
 62
     7
100
AcDbLine
 10
3132.615177
 20
890.924391
 30
0.0
 11
3132.615177
 21
900.4243909999999
 31
0.0
  0
ARC
  5
29B
330
6F
100
AcDbEntity
  8
1-0
  6
Continuous
 62
     7
100
AcDbCircle
 10
3135.877677
 20
895.674391
 30
0.0
 40
5.7625
100
AcDbArc
 50
124.483
 51
235.517
  0
ARC
  5
29C
330
6F
100
AcDbEntity
  8
1-0
  6
Continuous
 62
     7
100
AcDbCircle
 10
3129.863164
 20
892.54457
 30
0.0
 40
1.451915
100
AcDbArc
 50
68.435
 51
346.548
  0
LINE
  5
29D
330
6F
100
AcDbEntity
  8
1-0
  6
Continuous
 62
     7
100
AcDbLine
 10
3105.478626
 20
900.991095
 30
0.0
 11
3120.836076
 21
900.991095
 31
0.0
  0
LINE
  5
29E
330
6F
100
AcDbEntity
  8
1-0
  6
Continuous
 62
     7
100
AcDbLine
 10
3121.478626
 20
891.4910949999999
 30
0.0
 11
3122.329916
 21
900.855291
 31
0.0
  0
ARC
  5
29F
330
6F
100
AcDbEntity
  8
1-0
  6
Continuous
 62
     7
100
AcDbCircle
 10
3120.836076
 20
900.991095
 30
0.0
 40
1.5
100
AcDbArc
 50
354.806
 51
90.0
  0
LINE
  5
2A0
330
6F
100
AcDbEntity
  8
1-0
  6
Continuous
 62
     7
100
AcDbLine
 10
3119.984786
 20
891.6268979999999
 30
0.0
 11
3120.836076
 21
900.991095
 31
0.0
  0
LINE
  5
2A1
330
6F
100
AcDbEntity
  8
1-0
  6
Continuous
 62
     7
100
AcDbLine
 10
3105.478626
 20
902.491095
 30
0.0
 11
3105.478626
 21
900.991095
 31
0.0
  0
LINE
  5
2A2
330
6F
100
AcDbEntity
  8
1-0
  6
Continuous
 62
     7
100
AcDbLine
 10
3119.984786
 20
891.6268979999999
 30
0.0
 11
3121.478626
 21
891.4910949999999
 31
0.0
  0
ARC
  5
2A3
330
6F
100
AcDbEntity
  8
1-0
  6
Continuous
 62
     7
100
AcDbCircle
 10
3111.583306
 20
904.172696
 30
0.0
 40
5.7625
100
AcDbArc
 50
214.483
 51
325.517
  0
LINE
  5
2A4
330
6F
100
AcDbEntity
  8
1-0
  6
Continuous
 62
     7
100
AcDbLine
 10
3123.322728
 20
887.230545
 30
0.0
 11
3112.114215
 21
885.341827
 31
0.0
  0
ARC
  5
2A5
330
6F
100
AcDbEntity
  8
1-0
  6
Continuous
 62
     7
100
AcDbCircle
 10
3112.031133
 20
885.834876
 30
0.0
 40
0.5
100
AcDbArc
 50
189.565
 51
279.565
  0
LINE
  5
2A6
330
6F
100
AcDbEntity
  8
1-0
  6
Continuous
 62
     7
100
AcDbLine
 10
3111.538084
 20
885.751793
 30
0.0
 11
3110.790342
 21
890.1892340000001
 31
0.0
  0
LINE
  5
2A7
330
6F
100
AcDbEntity
  8
1-0
  6
Continuous
 62
     7
100
AcDbLine
 10
3110.790342
 20
890.1892340000001
 30
0.0
 11
3117.025325
 21
898.944293
 31
0.0
  0
LINE
  5
2A8
330
6F
100
AcDbEntity
  8
1-0
  6
Continuous
 62
     7
100
AcDbLine
 10
3117.928796000001
 20
898.715814
 30
0.0
 11
3118.877827
 21
891.067033
 31
0.0
  0
ARC
  5
2A9
330
6F
100
AcDbEntity
  8
1-0
  6
Continuous
 62
     7
100
AcDbCircle
 10
3117.432601
 20
898.654248
 30
0.0
 40
0.5
100
AcDbArc
 50
7.073
 51
144.543
  0
LINE
  5
2AA
330
6F
100
AcDbEntity
  8
1-0
  6
Continuous
 62
     7
100
AcDbLine
 10
3119.457105
 20
890.63555
 30
0.0
 11
3126.734075
 21
891.861774
 31
0.0
  0
ARC
  5
2AB
330
6F
100
AcDbEntity
  8
1-0
  6
Continuous
 62
     7
100
AcDbCircle
 10
3119.374022
 20
891.1285989999999
 30
0.0
 40
0.5
100
AcDbArc
 50
187.073
 51
279.565
  0
CIRCLE
  5
2AC
330
6F
100
AcDbEntity
  8
1-0
  6
Continuous
 62
     7
100
AcDbCircle
 10
3115.305005
 20
889.833134
 30
0.0
 40
1.451915
  0
LINE
  5
2AD
330
6F
100
AcDbEntity
  8
1-0
  6
Continuous
 62
     7
100
AcDbLine
 10
3127.011225
 20
891.0143599999999
 30
0.0
 11
3119.001062
 21
879.575859
 31
0.0
  0
LINE
  5
2AE
330
6F
100
AcDbEntity
  8
1-0
  6
Continuous
 62
     7
100
AcDbLine
 10
3129.290151000001
 20
889.3873539999999
 30
0.0
 11
3121.294609
 21
877.969732
 31
0.0
  0
ARC
  5
2AF
330
6F
100
AcDbEntity
  8
1-0
  6
Continuous
 62
     7
100
AcDbCircle
 10
3120.475485
 20
878.543349
 30
0.0
 40
1.0
100
AcDbArc
 50
234.997
 51
324.997
  0
LINE
  5
2B0
330
6F
100
AcDbEntity
  8
1-0
  6
Continuous
 62
     7
100
AcDbLine
 10
3119.246569
 20
878.183119
 30
0.0
 11
3119.901868
 21
877.724225
 31
0.0
  0
ARC
  5
2B1
330
6F
100
AcDbEntity
  8
1-0
  6
Continuous
 62
     7
100
AcDbCircle
 10
3119.820186
 20
879.002243
 30
0.0
 40
1.0
100
AcDbArc
 50
144.997
 51
234.997
  0
LINE
  5
2B2
330
6F
100
AcDbEntity
  8
1-0
  6
Continuous
 62
     7
100
AcDbLine
 10
3123.815373
 20
886.4506869999999
 30
0.0
 11
3119.001062
 21
879.575859
 31
0.0
  0
ARC
  5
2B3
330
6F
100
AcDbEntity
  8
1-0
  6
Continuous
 62
     7
100
AcDbCircle
 10
3123.405811
 20
886.7374959999999
 30
0.0
 40
0.5
100
AcDbArc
 50
324.997
 51
99.56500000000001
  0
LINE
  5
2B4
330
6F
100
AcDbEntity
  8
A-0
  6
CENTER
 62
     6
100
AcDbLine
 10
2820.115177
 20
1109.025071
 30
0.0
 11
3133.115177
 21
1109.025071
 31
0.0
  0
CIRCLE
  5
2B5
330
6F
100
AcDbEntity
  8
2-0
  6
Continuous
 62
     7
100
AcDbCircle
 10
2880.315177
 20
1108.925071
 30
0.0
 40
2.5
  0
LINE
  5
2B6
330
6F
100
AcDbEntity
  8
2-0
  6
Continuous
 62
     7
100
AcDbLine
 10
2855.115177
 20
917.525071
 30
0.0
 11
2855.115177
 21
1300.525071
 31
0.0
  0
LINE
  5
2B7
330
6F
100
AcDbEntity
  8
2-0
  6
Continuous
 62
     7
100
AcDbLine
 10
2855.115177
 20
1126.525071
 30
0.0
 11
3105.115177
 21
1126.525071
 31
0.0
  0
LINE
  5
2B8
330
6F
100
AcDbEntity
  8
2-0
  6
Continuous
 62
     7
100
AcDbLine
 10
2855.115177
 20
1111.525071
 30
0.0
 11
3105.115177
 21
1111.525071
 31
0.0
  0
LINE
  5
2B9
330
6F
100
AcDbEntity
  8
2-0
  6
DASHED2
 62
     7
100
AcDbLine
 10
2855.115177
 20
1126.525071
 30
0.0
 11
2855.115177
 21
1111.525071
 31
0.0
  0
LINE
  5
2BA
330
6F
100
AcDbEntity
  8
2-0
  6
DASHED2
 62
     7
100
AcDbLine
 10
3105.115177
 20
1126.525071
 30
0.0
 11
3105.115177
 21
1111.525071
 31
0.0
  0
CIRCLE
  5
2BB
330
6F
100
AcDbEntity
  8
2-0
  6
Continuous
 62
     7
100
AcDbCircle
 10
3079.915177
 20
1109.025071
 30
0.0
 40
2.5
  0
LINE
  5
2BC
330
6F
100
AcDbEntity
  8
9-0
  6
DASHED2
 62
     4
100
AcDbLine
 10
2855.115177
 20
1146.525071
 30
0.0
 11
2855.115177
 21
1208.170646
 31
0.0
  0
LINE
  5
2BD
330
6F
100
AcDbEntity
  8
9-0
  6
DASHED2
 62
     4
100
AcDbLine
 10
3105.115177
 20
1131.525071
 30
0.0
 11
3105.115177
 21
1208.170646
 31
0.0
  0
TEXT
  5
2BE
330
6F
100
AcDbEntity
  8
9-0
 62
     4
100
AcDbText
 10
2949.338
 20
1208.791
 30
0.0
 40
36.288
  1
250
100
AcDbText
  0
LINE
  5
2BF
330
6F
100
AcDbEntity
  8
9-0
  6
DASHED2
 62
     4
100
AcDbLine
 10
3105.115177403695
 20
1208.170645529019
 30
0.0
 11
2855.115177403695
 21
1208.170645529019
 31
0.0
  0
CIRCLE
  5
2C0
330
6F
100
AcDbEntity
  8
9-0
  6
Continuous
 62
     4
100
AcDbCircle
 10
3105.115177403695
 20
1208.170645529019
 30
0.0
 40
0.25
  0
CIRCLE
  5
2C1
330
6F
100
AcDbEntity
  8
9-0
  6
Continuous
 62
     4
100
AcDbCircle
 10
3105.115177403695
 20
1208.170645529019
 30
0.0
 40
0.1875
  0
CIRCLE
  5
2C2
330
6F
100
AcDbEntity
  8
9-0
  6
Continuous
 62
     4
100
AcDbCircle
 10
3105.115177403695
 20
1208.170645529019
 30
0.0
 40
0.125
  0
CIRCLE
  5
2C3
330
6F
100
AcDbEntity
  8
9-0
  6
Continuous
 62
     4
100
AcDbCircle
 10
3105.115177403695
 20
1208.170645529019
 30
0.0
 40
0.0625
  0
CIRCLE
  5
2C4
330
6F
100
AcDbEntity
  8
9-0
  6
Continuous
 62
     4
100
AcDbCircle
 10
2855.115177403695
 20
1208.170645529019
 30
0.0
 40
0.25
  0
CIRCLE
  5
2C5
330
6F
100
AcDbEntity
  8
9-0
  6
Continuous
 62
     4
100
AcDbCircle
 10
2855.115177403695
 20
1208.170645529019
 30
0.0
 40
0.1875
  0
CIRCLE
  5
2C6
330
6F
100
AcDbEntity
  8
9-0
  6
Continuous
 62
     4
100
AcDbCircle
 10
2855.115177403695
 20
1208.170645529019
 30
0.0
 40
0.125
  0
CIRCLE
  5
2C7
330
6F
100
AcDbEntity
  8
9-0
  6
Continuous
 62
     4
100
AcDbCircle
 10
2855.115177403695
 20
1208.170645529019
 30
0.0
 40
0.0625
  0
CIRCLE
  5
2C8
330
6F
100
AcDbEntity
  8
2-0
  6
Continuous
 62
     7
100
AcDbCircle
 10
2880.315177
 20
1159.025071
 30
0.0
 40
2.5
  0
CIRCLE
  5
2C9
330
6F
100
AcDbEntity
  8
2-0
  6
Continuous
 62
     7
100
AcDbCircle
 10
3079.915177
 20
1159.125071
 30
0.0
 40
2.5
  0
CIRCLE
  5
2CA
330
6F
100
AcDbEntity
  8
2-0
  6
Continuous
 62
     7
100
AcDbCircle
 10
2880.315177
 20
1059.025071
 30
0.0
 40
2.5
  0
CIRCLE
  5
2CB
330
6F
100
AcDbEntity
  8
2-0
  6
Continuous
 62
     7
100
AcDbCircle
 10
3079.915177
 20
1059.125071
 30
0.0
 40
2.5
  0
LINE
  5
2CC
330
6F
100
AcDbEntity
  8
A-0
  6
DASHED2
 62
     6
100
AcDbLine
 10
2840.115177
 20
1159.025071
 30
0.0
 11
2787.922045
 21
1159.025071
 31
0.0
  0
LINE
  5
2CD
330
6F
100
AcDbEntity
  8
A-0
  6
DASHED2
 62
     6
100
AcDbLine
 10
2840.115177
 20
1059.025071
 30
0.0
 11
2787.922045
 21
1059.025071
 31
0.0
  0
LINE
  5
2CE
330
6F
100
AcDbEntity
  8
9-0
  6
Continuous
 62
     4
100
AcDbLine
 10
2820.115177
 20
1159.025071
 30
0.0
 11
2767.922045
 21
1159.025071
 31
0.0
  0
LINE
  5
2CF
330
6F
100
AcDbEntity
  8
9-0
  6
Continuous
 62
     4
100
AcDbLine
 10
2800.115177
 20
1109.025071
 30
0.0
 11
2767.922045
 21
1109.025071
 31
0.0
  0
TEXT
  5
2D0
330
6F
100
AcDbEntity
  8
9-0
 62
     4
100
AcDbText
 10
2734.802
 20
1152.251
 30
0.0
 40
36.288
  1
50
 50
90.0
100
AcDbText
  0
LINE
  5
2D1
330
6F
100
AcDbEntity
  8
9-0
  6
Continuous
 62
     4
100
AcDbLine
 10
2767.922045355283
 20
1109.025071082877
 30
0.0
 11
2767.922045355283
 21
1159.025071082877
 31
0.0
  0
CIRCLE
  5
2D2
330
6F
100
AcDbEntity
  8
9-0
  6
Continuous
 62
     4
100
AcDbCircle
 10
2767.922045355283
 20
1109.025071082877
 30
0.0
 40
0.25
  0
CIRCLE
  5
2D3
330
6F
100
AcDbEntity
  8
9-0
  6
Continuous
 62
     4
100
AcDbCircle
 10
2767.922045355283
 20
1109.025071082877
 30
0.0
 40
0.1875
  0
CIRCLE
  5
2D4
330
6F
100
AcDbEntity
  8
9-0
  6
Continuous
 62
     4
100
AcDbCircle
 10
2767.922045355283
 20
1109.025071082877
 30
0.0
 40
0.125
  0
CIRCLE
  5
2D5
330
6F
100
AcDbEntity
  8
9-0
  6
Continuous
 62
     4
100
AcDbCircle
 10
2767.922045355283
 20
1109.025071082877
 30
0.0
 40
0.0625
  0
CIRCLE
  5
2D6
330
6F
100
AcDbEntity
  8
9-0
  6
Continuous
 62
     4
100
AcDbCircle
 10
2767.922045355283
 20
1159.025071082877
 30
0.0
 40
0.25
  0
CIRCLE
  5
2D7
330
6F
100
AcDbEntity
  8
9-0
  6
Continuous
 62
     4
100
AcDbCircle
 10
2767.922045355283
 20
1159.025071082877
 30
0.0
 40
0.1875
  0
CIRCLE
  5
2D8
330
6F
100
AcDbEntity
  8
9-0
  6
Continuous
 62
     4
100
AcDbCircle
 10
2767.922045355283
 20
1159.025071082877
 30
0.0
 40
0.125
  0
CIRCLE
  5
2D9
330
6F
100
AcDbEntity
  8
9-0
  6
Continuous
 62
     4
100
AcDbCircle
 10
2767.922045355283
 20
1159.025071082877
 30
0.0
 40
0.0625
  0
LINE
  5
2DA
330
6F
100
AcDbEntity
  8
9-0
  6
Continuous
 62
     4
100
AcDbLine
 10
2800.115177
 20
1109.025071
 30
0.0
 11
2767.922045
 21
1109.025071
 31
0.0
  0
LINE
  5
2DB
330
6F
100
AcDbEntity
  8
9-0
  6
Continuous
 62
     4
100
AcDbLine
 10
2820.115177
 20
1059.025071
 30
0.0
 11
2767.922045
 21
1059.025071
 31
0.0
  0
LINE
  5
2DC
330
6F
100
AcDbEntity
  8
9-0
  6
Continuous
 62
     4
100
AcDbLine
 10
2767.922045
 20
1099.025071
 30
0.0
 11
2767.922045
 21
1069.025071
 31
0.0
  0
LINE
  5
2DD
330
6F
100
AcDbEntity
  8
9-0
  6
Continuous
 62
     4
100
AcDbLine
 10
2767.922045
 20
1084.025071
 30
0.0
 11
2735.678171
 21
1075.81606
 31
0.0
  0
LINE
  5
2DE
330
6F
100
AcDbEntity
  8
9-0
  6
Continuous
 62
     4
100
AcDbLine
 10
2735.678171
 20
1075.81606
 30
0.0
 11
2735.678171
 21
1014.064791
 31
0.0
  0
TEXT
  5
2DF
330
6F
100
AcDbEntity
  8
9-0
 62
     4
100
AcDbText
 10
2735.058
 20
1022.54
 30
0.0
 40
36.288
  1
50
 50
90.0
100
AcDbText
  0
CIRCLE
  5
2E0
330
6F
100
AcDbEntity
  8
9-0
  6
Continuous
 62
     4
100
AcDbCircle
 10
2767.922045355283
 20
1109.025071082877
 30
0.0
 40
0.25
  0
CIRCLE
  5
2E1
330
6F
100
AcDbEntity
  8
9-0
  6
Continuous
 62
     4
100
AcDbCircle
 10
2767.922045355283
 20
1109.025071082877
 30
0.0
 40
0.1875
  0
CIRCLE
  5
2E2
330
6F
100
AcDbEntity
  8
9-0
  6
Continuous
 62
     4
100
AcDbCircle
 10
2767.922045355283
 20
1109.025071082877
 30
0.0
 40
0.125
  0
CIRCLE
  5
2E3
330
6F
100
AcDbEntity
  8
9-0
  6
Continuous
 62
     4
100
AcDbCircle
 10
2767.922045355283
 20
1109.025071082877
 30
0.0
 40
0.0625
  0
ARC
  5
2E4
330
6F
100
AcDbEntity
  8
9-0
 62
     4
100
AcDbCircle
 10
2767.917045355284
 20
1109.025071082877
 30
0.0
 40
2.5
100
AcDbArc
 50
90.11459140653
 51
270.114591405945
  0
LINE
  5
2E5
330
6F
100
AcDbEntity
  8
9-0
 62
     4
100
AcDbLine
 10
2767.922045355309
 20
1104.025071082877
 30
0.0
 11
2767.922045355334
 21
1099.025071082877
 31
0.0
  0
CIRCLE
  5
2E6
330
6F
100
AcDbEntity
  8
9-0
  6
Continuous
 62
     4
100
AcDbCircle
 10
2767.922045355283
 20
1059.025071082877
 30
0.0
 40
0.25
  0
CIRCLE
  5
2E7
330
6F
100
AcDbEntity
  8
9-0
  6
Continuous
 62
     4
100
AcDbCircle
 10
2767.922045355283
 20
1059.025071082877
 30
0.0
 40
0.1875
  0
CIRCLE
  5
2E8
330
6F
100
AcDbEntity
  8
9-0
  6
Continuous
 62
     4
100
AcDbCircle
 10
2767.922045355283
 20
1059.025071082877
 30
0.0
 40
0.125
  0
CIRCLE
  5
2E9
330
6F
100
AcDbEntity
  8
9-0
  6
Continuous
 62
     4
100
AcDbCircle
 10
2767.922045355283
 20
1059.025071082877
 30
0.0
 40
0.0625
  0
ARC
  5
2EA
330
6F
100
AcDbEntity
  8
9-0
 62
     4
100
AcDbCircle
 10
2767.927045355283
 20
1059.025071082877
 30
0.0
 40
2.5
100
AcDbArc
 50
270.1145914065301
 51
90.11459140594496
  0
LINE
  5
2EB
330
6F
100
AcDbEntity
  8
9-0
 62
     4
100
AcDbLine
 10
2767.922045355207
 20
1064.025071082877
 30
0.0
 11
2767.92204535513
 21
1069.025071082877
 31
0.0
  0
TEXT
  5
2EC
330
6F
100
AcDbEntity
  8
D-0
 62
     5
100
AcDbText
 10
3977.866
 20
48.607
 30
0.0
 40
31.104
  1
2022.1
100
AcDbText
  0
ENDSEC
  0
SECTION
  2
OBJECTS
  0
DICTIONARY
  5
C
330
0
100
AcDbDictionary
281
     1
  3
ACAD_CIP_PREVIOUS_PRODUCT_INFO
350
2EE
  3
ACAD_COLOR
350
62
  3
ACAD_DETAILVIEWSTYLE
350
69
  3
ACAD_GROUP
350
D
  3
ACAD_LAYOUT
350
61
  3
ACAD_MATERIAL
350
10
  3
ACAD_MLEADERSTYLE
350
65
  3
ACAD_MLINESTYLE
350
5E
  3
ACAD_PLOTSETTINGS
350
60
  3
ACAD_PLOTSTYLENAME
350
E
  3
ACAD_SCALELIST
350
42
  3
ACAD_SECTIONVIEWSTYLE
350
67
  3
ACAD_TABLESTYLE
350
63
  3
ACAD_VISUALSTYLE
350
29
  3
ACDB_RECOMPOSE_DATA
350
310
  3
AcDbVariableDictionary
350
303
  3
DWGPROPS
350
311
  0
DICTIONARY
  5
2EF
330
54
100
AcDbDictionary
280
     1
281
     1
  3
ADSK_XREC_LAYER_RECONCILED
360
2F0
  0
DICTIONARY
  5
2F1
330
7F
100
AcDbDictionary
280
     1
281
     1
  3
ADSK_XREC_LAYER_RECONCILED
360
2F2
  0
DICTIONARY
  5
2F3
330
80
100
AcDbDictionary
280
     1
281
     1
  3
ADSK_XREC_LAYER_RECONCILED
360
2F4
  0
DICTIONARY
  5
2F5
330
81
100
AcDbDictionary
280
     1
281
     1
  3
ADSK_XREC_LAYER_RECONCILED
360
2F6
  0
DICTIONARY
  5
2F7
330
82
100
AcDbDictionary
280
     1
281
     1
  3
ADSK_XREC_LAYER_RECONCILED
360
2F8
  0
DICTIONARY
  5
2F9
330
83
100
AcDbDictionary
280
     1
281
     1
  3
ADSK_XREC_LAYER_RECONCILED
360
2FA
  0
DICTIONARY
  5
2FB
330
84
100
AcDbDictionary
280
     1
281
     1
  3
ADSK_XREC_LAYER_RECONCILED
360
2FC
  0
DICTIONARY
  5
2FD
330
85
100
AcDbDictionary
280
     1
281
     1
  3
ADSK_XREC_LAYER_RECONCILED
360
2FE
  0
DICTIONARY
  5
2FF
330
86
100
AcDbDictionary
280
     1
281
     1
  3
ADSK_XREC_LAYER_RECONCILED
360
300
  0
DICTIONARY
  5
301
330
8C
100
AcDbDictionary
280
     1
281
     1
  3
ADSK_XREC_LAYER_RECONCILED
360
302
  0
XRECORD
  5
2EE
102
{ACAD_REACTORS
330
C
102
}
330
C
100
AcDbXrecord
280
     1
300
ACDLT
300
2020
300

  0
DICTIONARY
  5
62
102
{ACAD_REACTORS
330
C
102
}
330
C
100
AcDbDictionary
281
     1
  0
DICTIONARY
  5
69
102
{ACAD_REACTORS
330
C
102
}
330
C
100
AcDbDictionary
281
     1
  3
Imperial24
350
6A
  0
DICTIONARY
  5
D
102
{ACAD_REACTORS
330
C
102
}
330
C
100
AcDbDictionary
281
     1
  0
DICTIONARY
  5
61
102
{ACAD_REACTORS
330
C
102
}
330
C
100
AcDbDictionary
281
     1
  3
Model
350
72
  3
レイアウト1
350
6E
  0
DICTIONARY
  5
10
102
{ACAD_REACTORS
330
C
102
}
330
C
100
AcDbDictionary
281
     1
  3
ByBlock
350
19
  3
ByLayer
350
11
  3
Global
350
21
  0
DICTIONARY
  5
65
102
{ACAD_REACTORS
330
C
102
}
330
C
100
AcDbDictionary
281
     1
  3
Standard
350
66
  0
DICTIONARY
  5
5E
102
{ACAD_REACTORS
330
C
102
}
330
C
100
AcDbDictionary
281
     1
  3
Standard
350
5F
  0
DICTIONARY
  5
60
102
{ACAD_REACTORS
330
C
102
}
330
C
100
AcDbDictionary
281
     1
  0
ACDBDICTIONARYWDFLT
  5
E
102
{ACAD_REACTORS
330
C
102
}
330
C
100
AcDbDictionary
281
     1
  3
Normal
350
F
100
AcDbDictionaryWithDefault
340
F
  0
DICTIONARY
  5
42
102
{ACAD_REACTORS
330
C
102
}
330
C
100
AcDbDictionary
281
     1
  3
A0
350
43
  3
A1
350
44
  3
A2
350
45
  3
A3
350
46
  3
A4
350
47
  3
A5
350
48
  3
A6
350
49
  3
A7
350
4A
  3
A8
350
4B
  3
A9
350
4C
  3
B0
350
4D
  3
B1
350
4E
  3
B2
350
4F
  3
B3
350
50
  3
B4
350
51
  3
B5
350
52
  3
B6
350
53
  0
DICTIONARY
  5
67
102
{ACAD_REACTORS
330
C
102
}
330
C
100
AcDbDictionary
281
     1
  3
Imperial24
350
68
  0
DICTIONARY
  5
63
102
{ACAD_REACTORS
330
C
102
}
330
C
100
AcDbDictionary
281
     1
  3
Standard
350
64
  0
DICTIONARY
  5
29
102
{ACAD_REACTORS
330
C
102
}
330
C
100
AcDbDictionary
281
     1
  3
2dWireframe
350
2F
  3
Basic
350
2E
  3
Brighten
350
35
  3
ColorChange
350
39
  3
Conceptual
350
32
  3
Dim
350
34
  3
EdgeColorOff
350
41
  3
Facepattern
350
38
  3
Flat
350
2A
  3
FlatWithEdges
350
2B
  3
Gouraud
350
2C
  3
GouraudWithEdges
350
2D
  3
Hidden
350
31
  3
JitterOff
350
3F
  3
Linepattern
350
37
  3
OverhangOff
350
40
  3
Realistic
350
33
  3
Shaded
350
3E
  3
Shaded with edges
350
3D
  3
Shades of Gray
350
3A
  3
Sketchy
350
3B
  3
Thicken
350
36
  3
Wireframe
350
30
  3
X-Ray
350
3C
  0
XRECORD
  5
310
102
{ACAD_REACTORS
330
C
102
}
330
C
100
AcDbXrecord
280
     1
 90
        1
330
64
  0
DICTIONARY
  5
303
102
{ACAD_REACTORS
330
C
102
}
330
C
100
AcDbDictionary
281
     1
  3
CANNOSCALE
350
308
  3
CMLEADERSTYLE
350
305
  3
CTABLESTYLE
350
304
  3
CVIEWDETAILSTYLE
350
306
  3
CVIEWSECTIONSTYLE
350
307
  3
DIMASSOC
350
30B
  3
INDEXCTL
350
30A
  3
SORTENTS
350
309
  3
XCLIPFRAME
350
30C
  0
XRECORD
  5
311
102
{ACAD_REACTORS
330
C
102
}
330
C
100
AcDbXrecord
280
     1
  1
DWGPROPS COOKIE
  2

  3

  4

  6

  7

  8
suzuki
  9

300
=
301
=
302
=
303
=
304
=
305
=
306
=
307
=
308
=
309
=
 40
0.0002083333333333
 41
2459640.786689815
 42
2459640.786898148
  1

 90
        0
  0
XRECORD
  5
2F0
102
{ACAD_REACTORS
330
2EF
102
}
330
2EF
100
AcDbXrecord
280
     1
290
     1
  0
XRECORD
  5
2F2
102
{ACAD_REACTORS
330
2F1
102
}
330
2F1
100
AcDbXrecord
280
     1
290
     1
  0
XRECORD
  5
2F4
102
{ACAD_REACTORS
330
2F3
102
}
330
2F3
100
AcDbXrecord
280
     1
290
     1
  0
XRECORD
  5
2F6
102
{ACAD_REACTORS
330
2F5
102
}
330
2F5
100
AcDbXrecord
280
     1
290
     1
  0
XRECORD
  5
2F8
102
{ACAD_REACTORS
330
2F7
102
}
330
2F7
100
AcDbXrecord
280
     1
290
     1
  0
XRECORD
  5
2FA
102
{ACAD_REACTORS
330
2F9
102
}
330
2F9
100
AcDbXrecord
280
     1
290
     1
  0
XRECORD
  5
2FC
102
{ACAD_REACTORS
330
2FB
102
}
330
2FB
100
AcDbXrecord
280
     1
290
     1
  0
XRECORD
  5
2FE
102
{ACAD_REACTORS
330
2FD
102
}
330
2FD
100
AcDbXrecord
280
     1
290
     1
  0
XRECORD
  5
300
102
{ACAD_REACTORS
330
2FF
102
}
330
2FF
100
AcDbXrecord
280
     1
290
     1
  0
XRECORD
  5
302
102
{ACAD_REACTORS
330
301
102
}
330
301
100
AcDbXrecord
280
     1
290
     1
  0
ACDBDETAILVIEWSTYLE
  5
6A
102
{ACAD_XDICTIONARY
360
349
102
}
102
{ACAD_REACTORS
330
69
102
}
330
69
100
AcDbModelDocViewStyle
 70
     0
  3
Imperial24
290
     0
100
AcDbDetailViewStyle
 70
     0
 71
     0
 90
        3
 71
     1
340
55
 40
0.24
340
0
 40
0.24
300

 40
0.36
280
     3
 71
     2
340
5C
 90
       25
 71
     3
340
55
 40
0.24
 90
        1
 40
0.75
 90
        1
300
%<\AcVar ViewType \f "%tc1">% %<\AcVar ViewDetailId>%\PSCALE %<\AcVar ViewScale \f "%sn">%
 71
     4
340
5C
 90
       25
340
5C
 90
       25
280
     0
  0
LAYOUT
  5
72
102
{ACAD_XDICTIONARY
360
34D
102
}
102
{ACAD_REACTORS
330
61
102
}
330
61
100
AcDbPlotSettings
  1

  2
DocuCentre-V 4070
  4

  6

 40
0.0
 41
0.0
 42
0.0
 43
0.0
 44
0.0
 45
0.0
 46
0.0
 47
0.0
 48
0.0
 49
0.0
140
0.0
141
0.0
142
1.0
143
1.0
 70
  1712
 72
     0
 73
     0
 74
     0
  7

 75
     0
147
1.0
148
0.0
149
0.0
100
AcDbLayout
  1
Model
 70
     1
 71
     0
 10
0.0
 20
0.0
 11
12.0
 21
9.0
 12
0.0
 22
0.0
 32
0.0
 14
0.0
 24
0.0
 34
0.0
 15
0.0
 25
0.0
 35
0.0
146
0.0
 13
0.0
 23
0.0
 33
0.0
 16
1.0
 26
0.0
 36
0.0
 17
0.0
 27
1.0
 37
0.0
 76
     0
330
6F
331
8B
  0
LAYOUT
  5
6E
102
{ACAD_XDICTIONARY
360
34B
102
}
102
{ACAD_REACTORS
330
61
102
}
330
61
100
AcDbPlotSettings
  1

  2
DocuCentre-V 4070
  4

  6

 40
0.0
 41
0.0
 42
0.0
 43
0.0
 44
0.0
 45
0.0
 46
0.0
 47
0.0
 48
0.0
 49
0.0
140
0.0
141
0.0
142
1.0
143
1.0
 70
   688
 72
     0
 73
     0
 74
     5
  7

 75
    16
147
1.0
148
0.0
149
0.0
100
AcDbLayout
  1
レイアウト1
 70
     1
 71
     1
 10
0.0
 20
0.0
 11
12.0
 21
9.0
 12
0.0
 22
0.0
 32
0.0
 14
1.000000000000000E+20
 24
1.000000000000000E+20
 34
1.000000000000000E+20
 15
-1.000000000000000E+20
 25
-1.000000000000000E+20
 35
-1.000000000000000E+20
146
0.0
 13
0.0
 23
0.0
 33
0.0
 16
1.0
 26
0.0
 36
0.0
 17
0.0
 27
1.0
 37
0.0
 76
     0
330
6B
  0
MATERIAL
  5
19
102
{ACAD_XDICTIONARY
360
1A
102
}
102
{ACAD_REACTORS
330
10
102
}
330
10
100
AcDbMaterial
  1
ByBlock
 72
     0
 43
0.0208333333333333
 43
0.0
 43
0.0
 43
0.0
 43
0.0
 43
0.0208333333333333
 43
0.0
 43
0.0
 43
0.0
 43
0.0
 43
1.0
 43
0.0
 43
0.0
 43
0.0
 43
0.0
 43
1.0
 77
     0
 47
0.0208333333333333
 47
0.0
 47
0.0
 47
0.0
 47
0.0
 47
0.0208333333333333
 47
0.0
 47
0.0
 47
0.0
 47
0.0
 47
1.0
 47
0.0
 47
0.0
 47
0.0
 47
0.0
 47
1.0
171
     0
 49
0.0208333333333333
 49
0.0
 49
0.0
 49
0.0
 49
0.0
 49
0.0208333333333333
 49
0.0
 49
0.0
 49
0.0
 49
0.0
 49
1.0
 49
0.0
 49
0.0
 49
0.0
 49
0.0
 49
1.0
175
     0
142
0.0208333333333333
142
0.0
142
0.0
142
0.0
142
0.0
142
0.0208333333333333
142
0.0
142
0.0
142
0.0
142
0.0
142
1.0
142
0.0
142
0.0
142
0.0
142
0.0
142
1.0
179
     0
144
0.0208333333333333
144
0.0
144
0.0
144
0.0
144
0.0
144
0.0208333333333333
144
0.0
144
0.0
144
0.0
144
0.0
144
1.0
144
0.0
144
0.0
144
0.0
144
0.0
144
1.0
147
0.0208333333333333
147
0.0
147
0.0
147
0.0
147
0.0
147
0.0208333333333333
147
0.0
147
0.0
147
0.0
147
0.0
147
1.0
147
0.0
147
0.0
147
0.0
147
0.0
147
1.0
  0
MATERIAL
  5
11
102
{ACAD_XDICTIONARY
360
12
102
}
102
{ACAD_REACTORS
330
10
102
}
330
10
100
AcDbMaterial
  1
ByLayer
 72
     0
 43
0.0208333333333333
 43
0.0
 43
0.0
 43
0.0
 43
0.0
 43
0.0208333333333333
 43
0.0
 43
0.0
 43
0.0
 43
0.0
 43
1.0
 43
0.0
 43
0.0
 43
0.0
 43
0.0
 43
1.0
 77
     0
 47
0.0208333333333333
 47
0.0
 47
0.0
 47
0.0
 47
0.0
 47
0.0208333333333333
 47
0.0
 47
0.0
 47
0.0
 47
0.0
 47
1.0
 47
0.0
 47
0.0
 47
0.0
 47
0.0
 47
1.0
171
     0
 49
0.0208333333333333
 49
0.0
 49
0.0
 49
0.0
 49
0.0
 49
0.0208333333333333
 49
0.0
 49
0.0
 49
0.0
 49
0.0
 49
1.0
 49
0.0
 49
0.0
 49
0.0
 49
0.0
 49
1.0
175
     0
142
0.0208333333333333
142
0.0
142
0.0
142
0.0
142
0.0
142
0.0208333333333333
142
0.0
142
0.0
142
0.0
142
0.0
142
1.0
142
0.0
142
0.0
142
0.0
142
0.0
142
1.0
179
     0
144
0.0208333333333333
144
0.0
144
0.0
144
0.0
144
0.0
144
0.0208333333333333
144
0.0
144
0.0
144
0.0
144
0.0
144
1.0
144
0.0
144
0.0
144
0.0
144
0.0
144
1.0
147
0.0208333333333333
147
0.0
147
0.0
147
0.0
147
0.0
147
0.0208333333333333
147
0.0
147
0.0
147
0.0
147
0.0
147
1.0
147
0.0
147
0.0
147
0.0
147
0.0
147
1.0
  0
MATERIAL
  5
21
102
{ACAD_XDICTIONARY
360
22
102
}
102
{ACAD_REACTORS
330
10
102
}
330
10
100
AcDbMaterial
  1
Global
 72
     0
 43
0.0208333333333333
 43
0.0
 43
0.0
 43
0.0
 43
0.0
 43
0.0208333333333333
 43
0.0
 43
0.0
 43
0.0
 43
0.0
 43
1.0
 43
0.0
 43
0.0
 43
0.0
 43
0.0
 43
1.0
 77
     0
 47
0.0208333333333333
 47
0.0
 47
0.0
 47
0.0
 47
0.0
 47
0.0208333333333333
 47
0.0
 47
0.0
 47
0.0
 47
0.0
 47
1.0
 47
0.0
 47
0.0
 47
0.0
 47
0.0
 47
1.0
171
     0
 49
0.0208333333333333
 49
0.0
 49
0.0
 49
0.0
 49
0.0
 49
0.0208333333333333
 49
0.0
 49
0.0
 49
0.0
 49
0.0
 49
1.0
 49
0.0
 49
0.0
 49
0.0
 49
0.0
 49
1.0
175
     0
142
0.0208333333333333
142
0.0
142
0.0
142
0.0
142
0.0
142
0.0208333333333333
142
0.0
142
0.0
142
0.0
142
0.0
142
1.0
142
0.0
142
0.0
142
0.0
142
0.0
142
1.0
179
     0
144
0.0208333333333333
144
0.0
144
0.0
144
0.0
144
0.0
144
0.0208333333333333
144
0.0
144
0.0
144
0.0
144
0.0
144
1.0
144
0.0
144
0.0
144
0.0
144
0.0
144
1.0
147
0.0208333333333333
147
0.0
147
0.0
147
0.0
147
0.0
147
0.0208333333333333
147
0.0
147
0.0
147
0.0
147
0.0
147
1.0
147
0.0
147
0.0
147
0.0
147
0.0
147
1.0
  0
MLEADERSTYLE
  5
66
102
{ACAD_REACTORS
330
65
102
}
330
65
100
AcDbMLeaderStyle
170
     2
171
     1
172
     0
 90
        2
 40
0.0
 41
0.0
173
     1
 91
-1056964608
340
5A
 92
       -2
290
     1
 42
0.09
291
     1
 43
0.36
  3
Standard
 44
0.18
300

342
55
174
     1
178
     6
175
     1
176
     0
 93
-1056964608
 45
0.18
292
     0
297
     0
 46
0.18
 94
-1056964608
 47
1.0
 49
1.0
140
1.0
293
     1
141
0.0
294
     1
177
     0
142
1.0
295
     0
296
     0
143
0.125
1001
ACAD_MLEADERVER
1070
     2
  0
MLINESTYLE
  5
5F
102
{ACAD_REACTORS
330
5E
102
}
330
5E
100
AcDbMlineStyle
  2
STANDARD
 70
     0
  3

 62
   256
 51
90.0
 52
90.0
 71
     2
 49
0.5
 62
   256
  6
BYLAYER
 49
-0.5
 62
   256
  6
BYLAYER
  0
ACDBPLACEHOLDER
  5
F
102
{ACAD_REACTORS
330
E
102
}
330
E
  0
SCALE
  5
43
102
{ACAD_REACTORS
330
42
102
}
330
42
100
AcDbScale
 70
     0
300
1:1
140
1.0
141
1.0
290
     1
  0
SCALE
  5
44
102
{ACAD_REACTORS
330
42
102
}
330
42
100
AcDbScale
 70
     0
300
1/128" = 1'-0"
140
0.0078125
141
12.0
290
     0
  0
SCALE
  5
45
102
{ACAD_REACTORS
330
42
102
}
330
42
100
AcDbScale
 70
     0
300
1/64" = 1'-0"
140
0.015625
141
12.0
290
     0
  0
SCALE
  5
46
102
{ACAD_REACTORS
330
42
102
}
330
42
100
AcDbScale
 70
     0
300
1/32" = 1'-0"
140
0.03125
141
12.0
290
     0
  0
SCALE
  5
47
102
{ACAD_REACTORS
330
42
102
}
330
42
100
AcDbScale
 70
     0
300
1/16" = 1'-0"
140
0.0625
141
12.0
290
     0
  0
SCALE
  5
48
102
{ACAD_REACTORS
330
42
102
}
330
42
100
AcDbScale
 70
     0
300
3/32" = 1'-0"
140
0.09375
141
12.0
290
     0
  0
SCALE
  5
49
102
{ACAD_REACTORS
330
42
102
}
330
42
100
AcDbScale
 70
     0
300
1/8" = 1'-0"
140
0.125
141
12.0
290
     0
  0
SCALE
  5
4A
102
{ACAD_REACTORS
330
42
102
}
330
42
100
AcDbScale
 70
     0
300
3/16" = 1'-0"
140
0.1875
141
12.0
290
     0
  0
SCALE
  5
4B
102
{ACAD_REACTORS
330
42
102
}
330
42
100
AcDbScale
 70
     0
300
1/4" = 1'-0"
140
0.25
141
12.0
290
     0
  0
SCALE
  5
4C
102
{ACAD_REACTORS
330
42
102
}
330
42
100
AcDbScale
 70
     0
300
3/8" = 1'-0"
140
0.375
141
12.0
290
     0
  0
SCALE
  5
4D
102
{ACAD_REACTORS
330
42
102
}
330
42
100
AcDbScale
 70
     0
300
1/2" = 1'-0"
140
0.5
141
12.0
290
     0
  0
SCALE
  5
4E
102
{ACAD_REACTORS
330
42
102
}
330
42
100
AcDbScale
 70
     0
300
3/4" = 1'-0"
140
0.75
141
12.0
290
     0
  0
SCALE
  5
4F
102
{ACAD_REACTORS
330
42
102
}
330
42
100
AcDbScale
 70
     0
300
1" = 1'-0"
140
1.0
141
12.0
290
     0
  0
SCALE
  5
50
102
{ACAD_REACTORS
330
42
102
}
330
42
100
AcDbScale
 70
     0
300
1-1/2" = 1'-0"
140
1.5
141
12.0
290
     0
  0
SCALE
  5
51
102
{ACAD_REACTORS
330
42
102
}
330
42
100
AcDbScale
 70
     0
300
3" = 1'-0"
140
3.0
141
12.0
290
     0
  0
SCALE
  5
52
102
{ACAD_REACTORS
330
42
102
}
330
42
100
AcDbScale
 70
     0
300
6" = 1'-0"
140
6.0
141
12.0
290
     0
  0
SCALE
  5
53
102
{ACAD_REACTORS
330
42
102
}
330
42
100
AcDbScale
 70
     0
300
1'-0" = 1'-0"
140
12.0
141
12.0
290
     0
  0
ACDBSECTIONVIEWSTYLE
  5
68
102
{ACAD_XDICTIONARY
360
347
102
}
102
{ACAD_REACTORS
330
67
102
}
330
67
100
AcDbModelDocViewStyle
 70
     0
  3
Imperial24
290
     0
100
AcDbSectionViewStyle
 70
     0
 71
     0
 90
       78
 71
     1
340
55
 40
0.24
340
0
340
0
 40
0.24
300
I, O, Q, S, X, Z
 40
0.48
 90
        3
 40
0.18
 90
        1
 71
     2
340
5C
 90
       25
340
5C
 90
       50
 40
0.24
 40
0.0
 40
0.24
 71
     3
340
55
 40
0.24
 90
        1
 40
0.75
 90
        1
300
%<\AcVar ViewType \f "%tc1">% %<\AcVar ViewSectionStartId>%-%<\AcVar ViewSectionEndId>%\PSCALE %<\AcVar ViewScale \f "%sn">%
 71
     4
300
ANSI31
 40
1.0
 90
        0
290
     0
290
     0
 90
        6
 40
0.0
 40
1.570796326794896
 40
0.2617993877991494
 40
1.308996938995747
 40
-0.2617993877991494
 40
1.832595714594046
  0
TABLESTYLE
  5
64
102
{ACAD_XDICTIONARY
360
30E
102
}
102
{ACAD_REACTORS
330
63
102
}
330
63
100
AcDbTableStyle
  3
Standard
 70
     0
 71
     0
 40
0.06
 41
0.06
280
     0
281
     0
  7
STANDARD
140
0.18
170
     2
 62
     0
 63
     7
283
     0
274
    -2
284
     1
 64
     0
275
    -2
285
     1
 65
     0
276
    -2
286
     1
 66
     0
277
    -2
287
     1
 67
     0
278
    -2
288
     1
 68
     0
279
    -2
289
     1
 69
     0
  7
STANDARD
140
0.25
170
     5
 62
     0
 63
     7
283
     0
274
    -2
284
     1
 64
     0
275
    -2
285
     1
 65
     0
276
    -2
286
     1
 66
     0
277
    -2
287
     1
 67
     0
278
    -2
288
     1
 68
     0
279
    -2
289
     1
 69
     0
  7
STANDARD
140
0.18
170
     5
 62
     0
 63
     7
283
     0
274
    -2
284
     1
 64
     0
275
    -2
285
     1
 65
     0
276
    -2
286
     1
 66
     0
277
    -2
287
     1
 67
     0
278
    -2
288
     1
 68
     0
279
    -2
289
     1
 69
     0
  0
VISUALSTYLE
  5
2F
102
{ACAD_XDICTIONARY
360
31F
102
}
102
{ACAD_REACTORS
330
29
102
}
330
29
100
AcDbVisualStyle
  2
2dWireframe
 70
     4
 71
     0
 72
     2
 73
     0
 90
        0
 40
-0.6
 41
-30.0
 62
     5
 63
     7
 74
     1
 91
        4
 64
     7
 65
   257
 75
     1
175
     1
 42
1.0
 92
        0
 66
   257
 43
1.0
 76
     1
 77
     6
 78
     2
 67
     7
 79
     5
170
     0
171
     0
290
     0
174
     0
 93
        1
 44
0.0
173
     0
291
     0
 45
0.0
1001
ACAD
1000
AcDbSavedByObjectVersion
1070
     0
  0
VISUALSTYLE
  5
2E
102
{ACAD_XDICTIONARY
360
31D
102
}
102
{ACAD_REACTORS
330
29
102
}
330
29
100
AcDbVisualStyle
  2
Basic
 70
     7
 71
     1
 72
     0
 73
     1
 90
        0
 40
-0.6
 41
-30.0
 62
     5
 63
     7
 74
     0
 91
        4
 64
     7
 65
   257
 75
     1
175
     1
 42
1.0
 92
        8
 66
     7
 43
1.0
 76
     1
 77
     6
 78
     2
 67
     7
 79
     5
170
     0
171
     0
290
     0
174
     0
 93
        1
 44
0.0
173
     0
291
     1
 45
0.0
1001
ACAD
1000
AcDbSavedByObjectVersion
1070
     0
  0
VISUALSTYLE
  5
35
102
{ACAD_XDICTIONARY
360
32B
102
}
102
{ACAD_REACTORS
330
29
102
}
330
29
100
AcDbVisualStyle
  2
Brighten
 70
    12
 71
     2
 72
     2
 73
     0
 90
        0
 40
-0.6
 41
-30.0
 62
     5
 63
     7
 74
     1
 91
        4
 64
     7
 65
   257
 75
     1
175
     1
 42
1.0
 92
        8
 66
     7
 43
1.0
 76
     1
 77
     6
 78
     2
 67
     7
 79
     5
170
     0
171
     0
290
     0
174
     0
 93
        1
 44
50.0
173
     0
291
     1
 45
0.0
1001
ACAD
1000
AcDbSavedByObjectVersion
1070
     0
  0
VISUALSTYLE
  5
39
102
{ACAD_XDICTIONARY
360
333
102
}
102
{ACAD_REACTORS
330
29
102
}
330
29
100
AcDbVisualStyle
  2
ColorChange
 70
    16
 71
     2
 72
     2
 73
     3
 90
        0
 40
-0.6
 41
-30.0
 62
     5
 63
     8
 74
     1
 91
        4
 64
     7
 65
   257
 75
     1
175
     1
 42
1.0
 92
        8
 66
     8
 43
1.0
 76
     1
 77
     6
 78
     2
 67
     7
 79
     5
170
     0
171
     0
290
     0
174
     0
 93
        1
 44
0.0
173
     0
291
     1
 45
0.0
1001
ACAD
1000
AcDbSavedByObjectVersion
1070
     0
  0
VISUALSTYLE
  5
32
102
{ACAD_XDICTIONARY
360
325
102
}
102
{ACAD_REACTORS
330
29
102
}
330
29
100
AcDbVisualStyle
  2
Conceptual
 70
     9
 71
     3
 72
     2
 73
     0
 90
        0
 40
-0.6
 41
-30.0
 62
     5
 63
     7
 74
     2
 91
        2
 64
     7
 65
   257
 75
     1
175
     1
 42
179.0
 92
        8
 66
     7
 43
1.0
 76
     1
 77
     6
 78
     2
 67
     7
 79
     3
170
     0
171
     0
290
     0
174
     0
 93
        1
 44
0.0
173
     0
291
     0
 45
0.0
1001
ACAD
1000
AcDbSavedByObjectVersion
1070
     0
  0
VISUALSTYLE
  5
34
102
{ACAD_XDICTIONARY
360
329
102
}
102
{ACAD_REACTORS
330
29
102
}
330
29
100
AcDbVisualStyle
  2
Dim
 70
    11
 71
     2
 72
     2
 73
     0
 90
        0
 40
-0.6
 41
-30.0
 62
     5
 63
     7
 74
     1
 91
        4
 64
     7
 65
   257
 75
     1
175
     1
 42
1.0
 92
        8
 66
     7
 43
1.0
 76
     1
 77
     6
 78
     2
 67
     7
 79
     5
170
     0
171
     0
290
     0
174
     0
 93
        1
 44
-50.0
173
     0
291
     1
 45
0.0
1001
ACAD
1000
AcDbSavedByObjectVersion
1070
     0
  0
VISUALSTYLE
  5
41
102
{ACAD_XDICTIONARY
360
343
102
}
102
{ACAD_REACTORS
330
29
102
}
330
29
100
AcDbVisualStyle
  2
EdgeColorOff
 70
    22
 71
     2
 72
     2
 73
     0
 90
        0
 40
-0.6
 41
-30.0
 62
     5
 63
     7
 74
     1
 91
        4
 64
     7
 65
   257
 75
     1
175
     1
 42
1.0
 92
        8
 66
     7
 43
1.0
 76
     1
 77
     6
 78
     2
 67
     7
 79
     5
170
     0
171
     0
290
     0
174
     0
 93
        1
 44
0.0
173
     0
291
     1
 45
0.0
1001
ACAD
1000
AcDbSavedByObjectVersion
1070
     0
  0
VISUALSTYLE
  5
38
102
{ACAD_XDICTIONARY
360
331
102
}
102
{ACAD_REACTORS
330
29
102
}
330
29
100
AcDbVisualStyle
  2
Facepattern
 70
    15
 71
     2
 72
     2
 73
     0
 90
        0
 40
-0.6
 41
-30.0
 62
     5
 63
     7
 74
     1
 91
        4
 64
     7
 65
   257
 75
     1
175
     1
 42
1.0
 92
        8
 66
     7
 43
1.0
 76
     1
 77
     6
 78
     2
 67
     7
 79
     5
170
     0
171
     0
290
     0
174
     0
 93
        1
 44
0.0
173
     0
291
     1
 45
0.0
1001
ACAD
1000
AcDbSavedByObjectVersion
1070
     0
  0
VISUALSTYLE
  5
2A
102
{ACAD_XDICTIONARY
360
315
102
}
102
{ACAD_REACTORS
330
29
102
}
330
29
100
AcDbVisualStyle
  2
Flat
 70
     0
 71
     2
 72
     1
 73
     1
 90
        2
 40
-0.6
 41
30.0
 62
     5
 63
     7
 74
     0
 91
        0
 64
     7
 65
   257
 75
     1
175
     1
 42
1.0
 92
        8
 66
     7
 43
1.0
 76
     1
 77
     6
 78
     2
 67
     7
 79
     5
170
     0
171
     0
290
     0
174
     0
 93
       13
 44
0.0
173
     0
291
     1
 45
0.0
1001
ACAD
1000
AcDbSavedByObjectVersion
1070
     0
  0
VISUALSTYLE
  5
2B
102
{ACAD_XDICTIONARY
360
317
102
}
102
{ACAD_REACTORS
330
29
102
}
330
29
100
AcDbVisualStyle
  2
FlatWithEdges
 70
     1
 71
     2
 72
     1
 73
     1
 90
        2
 40
-0.6
 41
30.0
 62
     5
 63
     7
 74
     1
 91
        0
 64
     7
 65
   257
 75
     1
175
     1
 42
1.0
 92
        0
 66
   257
 43
1.0
 76
     1
 77
     6
 78
     2
 67
     7
 79
     5
170
     0
171
     0
290
     0
174
     0
 93
       13
 44
0.0
173
     0
291
     1
 45
0.0
1001
ACAD
1000
AcDbSavedByObjectVersion
1070
     0
  0
VISUALSTYLE
  5
2C
102
{ACAD_XDICTIONARY
360
319
102
}
102
{ACAD_REACTORS
330
29
102
}
330
29
100
AcDbVisualStyle
  2
Gouraud
 70
     2
 71
     2
 72
     2
 73
     1
 90
        2
 40
-0.6
 41
30.0
 62
     5
 63
     7
 74
     0
 91
        0
 64
     7
 65
   257
 75
     1
175
     1
 42
1.0
 92
        0
 66
     7
 43
1.0
 76
     1
 77
     6
 78
     2
 67
     7
 79
     5
170
     0
171
     0
290
     0
174
     0
 93
       13
 44
0.0
173
     0
291
     1
 45
0.0
1001
ACAD
1000
AcDbSavedByObjectVersion
1070
     0
  0
VISUALSTYLE
  5
2D
102
{ACAD_XDICTIONARY
360
31B
102
}
102
{ACAD_REACTORS
330
29
102
}
330
29
100
AcDbVisualStyle
  2
GouraudWithEdges
 70
     3
 71
     2
 72
     2
 73
     1
 90
        2
 40
-0.6
 41
30.0
 62
     5
 63
     7
 74
     1
 91
        0
 64
     7
 65
   257
 75
     1
175
     1
 42
1.0
 92
        0
 66
   257
 43
1.0
 76
     1
 77
     6
 78
     2
 67
     7
 79
     5
170
     0
171
     0
290
     0
174
     0
 93
       13
 44
0.0
173
     0
291
     1
 45
0.0
1001
ACAD
1000
AcDbSavedByObjectVersion
1070
     0
  0
VISUALSTYLE
  5
31
102
{ACAD_XDICTIONARY
360
323
102
}
102
{ACAD_REACTORS
330
29
102
}
330
29
100
AcDbVisualStyle
  2
Hidden
 70
     6
 71
     1
 72
     2
 73
     2
 90
        0
 40
-0.6
 41
-30.0
 62
     5
 63
     7
 74
     2
 91
        2
 64
     7
 65
   257
 75
     2
175
     1
 42
40.0
 92
        0
 66
   257
 43
1.0
 76
     1
 77
     6
 78
     2
 67
     7
 79
     3
170
     0
171
     0
290
     0
174
     0
 93
        1
 44
0.0
173
     0
291
     0
 45
0.0
1001
ACAD
1000
AcDbSavedByObjectVersion
1070
     0
  0
VISUALSTYLE
  5
3F
102
{ACAD_XDICTIONARY
360
33F
102
}
102
{ACAD_REACTORS
330
29
102
}
330
29
100
AcDbVisualStyle
  2
JitterOff
 70
    20
 71
     2
 72
     2
 73
     0
 90
        0
 40
-0.6
 41
-30.0
 62
     5
 63
     7
 74
     1
 91
        4
 64
     7
 65
   257
 75
     1
175
     1
 42
1.0
 92
       10
 66
     7
 43
1.0
 76
     1
 77
     6
 78
     2
 67
     7
 79
     5
170
     0
171
     0
290
     0
174
     0
 93
        1
 44
0.0
173
     0
291
     1
 45
0.0
1001
ACAD
1000
AcDbSavedByObjectVersion
1070
     0
  0
VISUALSTYLE
  5
37
102
{ACAD_XDICTIONARY
360
32F
102
}
102
{ACAD_REACTORS
330
29
102
}
330
29
100
AcDbVisualStyle
  2
Linepattern
 70
    14
 71
     2
 72
     2
 73
     0
 90
        0
 40
-0.6
 41
-30.0
 62
     5
 63
     7
 74
     1
 91
        4
 64
     7
 65
   257
 75
     7
175
     7
 42
1.0
 92
        8
 66
     7
 43
1.0
 76
     1
 77
     6
 78
     2
 67
     7
 79
     5
170
     0
171
     0
290
     0
174
     0
 93
        1
 44
0.0
173
     0
291
     1
 45
0.0
1001
ACAD
1000
AcDbSavedByObjectVersion
1070
     0
  0
VISUALSTYLE
  5
40
102
{ACAD_XDICTIONARY
360
341
102
}
102
{ACAD_REACTORS
330
29
102
}
330
29
100
AcDbVisualStyle
  2
OverhangOff
 70
    21
 71
     2
 72
     2
 73
     0
 90
        0
 40
-0.6
 41
-30.0
 62
     5
 63
     7
 74
     1
 91
        4
 64
     7
 65
   257
 75
     1
175
     1
 42
1.0
 92
        9
 66
     7
 43
1.0
 76
     1
 77
     6
 78
     2
 67
     7
 79
     5
170
     0
171
     0
290
     0
174
     0
 93
        1
 44
0.0
173
     0
291
     1
 45
0.0
1001
ACAD
1000
AcDbSavedByObjectVersion
1070
     0
  0
VISUALSTYLE
  5
33
102
{ACAD_XDICTIONARY
360
327
102
}
102
{ACAD_REACTORS
330
29
102
}
330
29
100
AcDbVisualStyle
  2
Realistic
 70
     8
 71
     2
 72
     3
 73
     0
 90
        2
 40
-0.6
 41
30.0
 62
     5
 63
     7
 74
     0
 91
        0
 64
     7
 65
   257
 75
     1
175
     1
 42
1.0
 92
        8
 66
   257
 43
1.0
 76
     1
 77
     6
 78
     2
 67
     7
 79
     3
170
     0
171
     0
290
     0
174
     0
 93
       13
 44
0.0
173
     0
291
     0
 45
0.0
1001
ACAD
1000
AcDbSavedByObjectVersion
1070
     0
  0
VISUALSTYLE
  5
3E
102
{ACAD_XDICTIONARY
360
33D
102
}
102
{ACAD_REACTORS
330
29
102
}
330
29
100
AcDbVisualStyle
  2
Shaded
 70
    27
 71
     2
 72
     2
 73
     1
 90
        2
 40
-0.6
 41
30.0
 62
     5
 63
     7
 74
     0
 91
        4
 64
     7
 65
   257
 75
     1
175
     1
 42
1.0
 92
        8
 66
   257
 43
1.0
 76
     1
 77
     6
 78
     2
 67
     8
 79
     3
170
     0
171
     0
290
     0
174
     0
 93
        5
 44
0.0
173
     0
291
     0
 45
0.0
1001
ACAD
1000
AcDbSavedByObjectVersion
1070
     0
  0
VISUALSTYLE
  5
3D
102
{ACAD_XDICTIONARY
360
33B
102
}
102
{ACAD_REACTORS
330
29
102
}
330
29
100
AcDbVisualStyle
  2
Shaded with edges
 70
    26
 71
     2
 72
     2
 73
     1
 90
        2
 40
-0.6
 41
30.0
 62
     5
 63
     7
 74
     1
 91
        2
 64
     7
 65
   257
 75
     2
175
     1
 42
1.0
 92
        8
 66
   257
 43
1.0
 76
     1
 77
     6
 78
     2
 67
     7
 79
     3
170
     0
171
     0
290
     0
174
     0
 93
        5
 44
0.0
173
     0
291
     0
 45
0.0
1001
ACAD
1000
AcDbSavedByObjectVersion
1070
     0
  0
VISUALSTYLE
  5
3A
102
{ACAD_XDICTIONARY
360
335
102
}
102
{ACAD_REACTORS
330
29
102
}
330
29
100
AcDbVisualStyle
  2
Shades of Gray
 70
    23
 71
     2
 72
     2
 73
     3
 90
        0
 40
-0.6
 41
-30.0
 62
     5
 63
     7
 74
     2
 91
        2
 64
     7
 65
     7
 75
     1
175
     1
 42
40.0
 92
        8
 66
     7
 43
1.0
 76
     1
 77
     6
 78
     2
 67
     7
 79
     3
170
     0
171
     0
290
     0
174
     0
 93
        1
 44
0.0
173
     0
291
     0
 45
0.0
1001
ACAD
1000
AcDbSavedByObjectVersion
1070
     0
  0
VISUALSTYLE
  5
3B
102
{ACAD_XDICTIONARY
360
337
102
}
102
{ACAD_REACTORS
330
29
102
}
330
29
100
AcDbVisualStyle
  2
Sketchy
 70
    24
 71
     1
 72
     2
 73
     2
 90
        0
 40
-0.6
 41
-30.0
 62
     5
 63
     7
 74
     2
 91
        2
 64
     7
 65
     7
 75
     1
175
     1
 42
40.0
 92
       11
 66
     7
 43
1.0
 76
     1
 77
     6
 78
     2
 67
     7
 79
     6
170
     0
171
     0
290
     0
174
     0
 93
        1
 44
0.0
173
     0
291
     0
 45
0.0
1001
ACAD
1000
AcDbSavedByObjectVersion
1070
     0
  0
VISUALSTYLE
  5
36
102
{ACAD_XDICTIONARY
360
32D
102
}
102
{ACAD_REACTORS
330
29
102
}
330
29
100
AcDbVisualStyle
  2
Thicken
 70
    13
 71
     2
 72
     2
 73
     0
 90
        0
 40
-0.6
 41
-30.0
 62
     5
 63
     7
 74
     1
 91
        4
 64
     7
 65
   257
 75
     1
175
     1
 42
1.0
 92
       12
 66
     7
 43
1.0
 76
     1
 77
     6
 78
     2
 67
     7
 79
     5
170
     0
171
     0
290
     0
174
     0
 93
        1
 44
0.0
173
     0
291
     1
 45
0.0
1001
ACAD
1000
AcDbSavedByObjectVersion
1070
     0
  0
VISUALSTYLE
  5
30
102
{ACAD_XDICTIONARY
360
321
102
}
102
{ACAD_REACTORS
330
29
102
}
330
29
100
AcDbVisualStyle
  2
Wireframe
 70
     5
 71
     0
 72
     2
 73
     0
 90
        0
 40
-0.6
 41
-30.0
 62
     5
 63
     7
 74
     1
 91
        4
 64
     7
 65
   257
 75
     1
175
     1
 42
1.0
 92
        0
 66
   257
 43
1.0
 76
     1
 77
     6
 78
     2
 67
     7
 79
     3
170
     0
171
     0
290
     0
174
     0
 93
        1
 44
0.0
173
     0
291
     0
 45
0.0
1001
ACAD
1000
AcDbSavedByObjectVersion
1070
     0
  0
VISUALSTYLE
  5
3C
102
{ACAD_XDICTIONARY
360
339
102
}
102
{ACAD_REACTORS
330
29
102
}
330
29
100
AcDbVisualStyle
  2
X-Ray
 70
    25
 71
     2
 72
     2
 73
     1
 90
        1
 40
0.5
 41
-30.0
 62
     5
 63
     7
 74
     1
 91
        0
 64
     7
 65
   257
 75
     1
175
     1
 42
1.0
 92
        8
 66
     7
 43
1.0
 76
     1
 77
     6
 78
     2
 67
     7
 79
     3
170
     0
171
     0
290
     0
174
     0
 93
       13
 44
0.0
173
     0
291
     0
 45
0.0
1001
ACAD
1000
AcDbSavedByObjectVersion
1070
     0
  0
DICTIONARYVAR
  5
308
102
{ACAD_REACTORS
330
303
102
}
330
303
100
DictionaryVariables
280
     0
  1
1:1
  0
DICTIONARYVAR
  5
305
102
{ACAD_REACTORS
330
303
102
}
330
303
100
DictionaryVariables
280
     0
  1
STANDARD
  0
DICTIONARYVAR
  5
304
102
{ACAD_REACTORS
330
303
102
}
330
303
100
DictionaryVariables
280
     0
  1
STANDARD
  0
DICTIONARYVAR
  5
306
102
{ACAD_REACTORS
330
303
102
}
330
303
100
DictionaryVariables
280
     0
  1
Imperial24
  0
DICTIONARYVAR
  5
307
102
{ACAD_REACTORS
330
303
102
}
330
303
100
DictionaryVariables
280
     0
  1
Imperial24
  0
DICTIONARYVAR
  5
30B
102
{ACAD_REACTORS
330
303
102
}
330
303
100
DictionaryVariables
280
     0
  1
1
  0
DICTIONARYVAR
  5
30A
102
{ACAD_REACTORS
330
303
102
}
330
303
100
DictionaryVariables
280
     0
  1
0
  0
DICTIONARYVAR
  5
309
102
{ACAD_REACTORS
330
303
102
}
330
303
100
DictionaryVariables
280
     0
  1
127
  0
DICTIONARYVAR
  5
30C
102
{ACAD_REACTORS
330
303
102
}
330
303
100
DictionaryVariables
280
     0
  1
2
  0
DICTIONARY
  5
349
330
6A
100
AcDbDictionary
280
     1
281
     1
  3
ACAD_XREC_ROUNDTRIP
360
34A
  0
DICTIONARY
  5
34D
330
72
100
AcDbDictionary
280
     1
281
     1
  3
ACAD_XREC_ROUNDTRIP
360
34E
  0
DICTIONARY
  5
34B
330
6E
100
AcDbDictionary
280
     1
281
     1
  3
ACAD_XREC_ROUNDTRIP
360
34C
  0
DICTIONARY
  5
1A
330
19
100
AcDbDictionary
280
     1
281
     1
  3
ACAD_XREC_ROUNDTRIP
360
313
  3
BUMPTILE
360
1C
  3
DIFFUSETILE
360
1B
  3
OPACITYTILE
360
1F
  3
REFLECTIONTILE
360
1E
  3
REFRACTIONTILE
360
20
  3
SPECULARTILE
360
1D
  0
DICTIONARY
  5
12
330
11
100
AcDbDictionary
280
     1
281
     1
  3
ACAD_XREC_ROUNDTRIP
360
312
  3
BUMPTILE
360
14
  3
DIFFUSETILE
360
13
  3
OPACITYTILE
360
17
  3
REFLECTIONTILE
360
16
  3
REFRACTIONTILE
360
18
  3
SPECULARTILE
360
15
  0
DICTIONARY
  5
22
330
21
100
AcDbDictionary
280
     1
281
     1
  3
ACAD_XREC_ROUNDTRIP
360
314
  3
BUMPTILE
360
24
  3
DIFFUSETILE
360
23
  3
OPACITYTILE
360
27
  3
REFLECTIONTILE
360
26
  3
REFRACTIONTILE
360
28
  3
SPECULARTILE
360
25
  0
DICTIONARY
  5
347
330
68
100
AcDbDictionary
280
     1
281
     1
  3
ACAD_XREC_ROUNDTRIP
360
348
  0
DICTIONARY
  5
30E
330
64
100
AcDbDictionary
280
     1
281
     1
  3
ACAD_ROUNDTRIP_2008_TABLESTYLE_CELLSTYLEMAP
360
30F
  3
ACAD_XREC_ROUNDTRIP
360
345
  0
DICTIONARY
  5
31F
330
2F
100
AcDbDictionary
280
     1
281
     1
  3
ACAD_XREC_ROUNDTRIP
360
320
  0
DICTIONARY
  5
31D
330
2E
100
AcDbDictionary
280
     1
281
     1
  3
ACAD_XREC_ROUNDTRIP
360
31E
  0
DICTIONARY
  5
32B
330
35
100
AcDbDictionary
280
     1
281
     1
  3
ACAD_XREC_ROUNDTRIP
360
32C
  0
DICTIONARY
  5
333
330
39
100
AcDbDictionary
280
     1
281
     1
  3
ACAD_XREC_ROUNDTRIP
360
334
  0
DICTIONARY
  5
325
330
32
100
AcDbDictionary
280
     1
281
     1
  3
ACAD_XREC_ROUNDTRIP
360
326
  0
DICTIONARY
  5
329
330
34
100
AcDbDictionary
280
     1
281
     1
  3
ACAD_XREC_ROUNDTRIP
360
32A
  0
DICTIONARY
  5
343
330
41
100
AcDbDictionary
280
     1
281
     1
  3
ACAD_XREC_ROUNDTRIP
360
344
  0
DICTIONARY
  5
331
330
38
100
AcDbDictionary
280
     1
281
     1
  3
ACAD_XREC_ROUNDTRIP
360
332
  0
DICTIONARY
  5
315
330
2A
100
AcDbDictionary
280
     1
281
     1
  3
ACAD_XREC_ROUNDTRIP
360
316
  0
DICTIONARY
  5
317
330
2B
100
AcDbDictionary
280
     1
281
     1
  3
ACAD_XREC_ROUNDTRIP
360
318
  0
DICTIONARY
  5
319
330
2C
100
AcDbDictionary
280
     1
281
     1
  3
ACAD_XREC_ROUNDTRIP
360
31A
  0
DICTIONARY
  5
31B
330
2D
100
AcDbDictionary
280
     1
281
     1
  3
ACAD_XREC_ROUNDTRIP
360
31C
  0
DICTIONARY
  5
323
330
31
100
AcDbDictionary
280
     1
281
     1
  3
ACAD_XREC_ROUNDTRIP
360
324
  0
DICTIONARY
  5
33F
330
3F
100
AcDbDictionary
280
     1
281
     1
  3
ACAD_XREC_ROUNDTRIP
360
340
  0
DICTIONARY
  5
32F
330
37
100
AcDbDictionary
280
     1
281
     1
  3
ACAD_XREC_ROUNDTRIP
360
330
  0
DICTIONARY
  5
341
330
40
100
AcDbDictionary
280
     1
281
     1
  3
ACAD_XREC_ROUNDTRIP
360
342
  0
DICTIONARY
  5
327
330
33
100
AcDbDictionary
280
     1
281
     1
  3
ACAD_XREC_ROUNDTRIP
360
328
  0
DICTIONARY
  5
33D
330
3E
100
AcDbDictionary
280
     1
281
     1
  3
ACAD_XREC_ROUNDTRIP
360
33E
  0
DICTIONARY
  5
33B
330
3D
100
AcDbDictionary
280
     1
281
     1
  3
ACAD_XREC_ROUNDTRIP
360
33C
  0
DICTIONARY
  5
335
330
3A
100
AcDbDictionary
280
     1
281
     1
  3
ACAD_XREC_ROUNDTRIP
360
336
  0
DICTIONARY
  5
337
330
3B
100
AcDbDictionary
280
     1
281
     1
  3
ACAD_XREC_ROUNDTRIP
360
338
  0
DICTIONARY
  5
32D
330
36
100
AcDbDictionary
280
     1
281
     1
  3
ACAD_XREC_ROUNDTRIP
360
32E
  0
DICTIONARY
  5
321
330
30
100
AcDbDictionary
280
     1
281
     1
  3
ACAD_XREC_ROUNDTRIP
360
322
  0
DICTIONARY
  5
339
330
3C
100
AcDbDictionary
280
     1
281
     1
  3
ACAD_XREC_ROUNDTRIP
360
33A
  0
XRECORD
  5
34A
102
{ACAD_REACTORS
330
349
102
}
330
349
100
AcDbXrecord
280
     1
102
DISPLAYNAME
  1
Imperial24
102
FLAGS
 90
        0
  0
XRECORD
  5
34E
102
{ACAD_REACTORS
330
34D
102
}
330
34D
100
AcDbXrecord
280
     1
102
SHADEPLOT
 70
     0
102
SHADEPLOTRESLEVEL
 70
     2
102
SHADEPLOTCUSTOMDPI
 70
   300
  0
XRECORD
  5
34C
102
{ACAD_REACTORS
330
34B
102
}
330
34B
100
AcDbXrecord
280
     1
102
SHADEPLOT
 70
     0
102
SHADEPLOTRESLEVEL
 70
     2
102
SHADEPLOTCUSTOMDPI
 70
   300
  0
XRECORD
  5
313
102
{ACAD_REACTORS
330
1A
102
}
330
1A
100
AcDbXrecord
280
     1
102
MATERIAL
148
0.0
149
0.0
149
0.0
 93
        0
 94
      127
282
     0
 72
     0
 77
     0
171
     0
175
     0
179
     0
273
     0
  0
XRECORD
  5
1C
102
{ACAD_REACTORS
330
1A
102
}
330
1A
100
AcDbXrecord
280
     1
270
     1
271
     1
  0
XRECORD
  5
1B
102
{ACAD_REACTORS
330
1A
102
}
330
1A
100
AcDbXrecord
280
     1
270
     1
271
     1
  0
XRECORD
  5
1F
102
{ACAD_REACTORS
330
1A
102
}
330
1A
100
AcDbXrecord
280
     1
270
     1
271
     1
  0
XRECORD
  5
1E
102
{ACAD_REACTORS
330
1A
102
}
330
1A
100
AcDbXrecord
280
     1
270
     1
271
     1
  0
XRECORD
  5
20
102
{ACAD_REACTORS
330
1A
102
}
330
1A
100
AcDbXrecord
280
     1
270
     1
271
     1
  0
XRECORD
  5
1D
102
{ACAD_REACTORS
330
1A
102
}
330
1A
100
AcDbXrecord
280
     1
270
     1
271
     1
  0
XRECORD
  5
312
102
{ACAD_REACTORS
330
12
102
}
330
12
100
AcDbXrecord
280
     1
102
MATERIAL
148
0.0
149
0.0
149
0.0
 93
        0
 94
      127
282
     0
 72
     0
 77
     0
171
     0
175
     0
179
     0
273
     0
  0
XRECORD
  5
14
102
{ACAD_REACTORS
330
12
102
}
330
12
100
AcDbXrecord
280
     1
270
     1
271
     1
  0
XRECORD
  5
13
102
{ACAD_REACTORS
330
12
102
}
330
12
100
AcDbXrecord
280
     1
270
     1
271
     1
  0
XRECORD
  5
17
102
{ACAD_REACTORS
330
12
102
}
330
12
100
AcDbXrecord
280
     1
270
     1
271
     1
  0
XRECORD
  5
16
102
{ACAD_REACTORS
330
12
102
}
330
12
100
AcDbXrecord
280
     1
270
     1
271
     1
  0
XRECORD
  5
18
102
{ACAD_REACTORS
330
12
102
}
330
12
100
AcDbXrecord
280
     1
270
     1
271
     1
  0
XRECORD
  5
15
102
{ACAD_REACTORS
330
12
102
}
330
12
100
AcDbXrecord
280
     1
270
     1
271
     1
  0
XRECORD
  5
314
102
{ACAD_REACTORS
330
22
102
}
330
22
100
AcDbXrecord
280
     1
102
MATERIAL
148
0.0
149
0.0
149
0.0
 93
        0
 94
      127
282
     0
 72
     0
 77
     0
171
     0
175
     0
179
     0
273
     0
  0
XRECORD
  5
24
102
{ACAD_REACTORS
330
22
102
}
330
22
100
AcDbXrecord
280
     1
270
     1
271
     1
  0
XRECORD
  5
23
102
{ACAD_REACTORS
330
22
102
}
330
22
100
AcDbXrecord
280
     1
270
     1
271
     1
  0
XRECORD
  5
27
102
{ACAD_REACTORS
330
22
102
}
330
22
100
AcDbXrecord
280
     1
270
     1
271
     1
  0
XRECORD
  5
26
102
{ACAD_REACTORS
330
22
102
}
330
22
100
AcDbXrecord
280
     1
270
     1
271
     1
  0
XRECORD
  5
28
102
{ACAD_REACTORS
330
22
102
}
330
22
100
AcDbXrecord
280
     1
270
     1
271
     1
  0
XRECORD
  5
25
102
{ACAD_REACTORS
330
22
102
}
330
22
100
AcDbXrecord
280
     1
270
     1
271
     1
  0
XRECORD
  5
348
102
{ACAD_REACTORS
330
347
102
}
330
347
100
AcDbXrecord
280
     1
102
DISPLAYNAME
  1
Imperial24
102
FLAGS
 90
        0
  0
CELLSTYLEMAP
  5
30F
102
{ACAD_REACTORS
330
30E
102
}
330
30E
100
AcDbCellStyleMap
 90
        3
300
CELLSTYLE
  1
TABLEFORMAT_BEGIN
 90
        5
170
     1
 91
        0
 92
    32768
 62
   257
 93
        1
300
CONTENTFORMAT
  1
CONTENTFORMAT_BEGIN
 90
        0
 91
        0
 92
      512
 93
        0
300

 40
0.0
140
1.0
 94
        5
 62
     0
340
55
144
0.25
309
CONTENTFORMAT_END
171
     0
 94
        0
309
TABLEFORMAT_END
  1
CELLSTYLE_BEGIN
 90
        1
 91
        1
300
_TITLE
309
CELLSTYLE_END
300
CELLSTYLE
  1
TABLEFORMAT_BEGIN
 90
        5
170
     1
 91
        0
 92
        0
 62
   257
 93
        1
300
CONTENTFORMAT
  1
CONTENTFORMAT_BEGIN
 90
        0
 91
        0
 92
      512
 93
        0
300

 40
0.0
140
1.0
 94
        5
 62
     0
340
55
144
0.18
309
CONTENTFORMAT_END
171
     0
 94
        0
309
TABLEFORMAT_END
  1
CELLSTYLE_BEGIN
 90
        2
 91
        1
300
_HEADER
309
CELLSTYLE_END
300
CELLSTYLE
  1
TABLEFORMAT_BEGIN
 90
        5
170
     1
 91
        0
 92
        0
 62
   257
 93
        1
300
CONTENTFORMAT
  1
CONTENTFORMAT_BEGIN
 90
        0
 91
        0
 92
      512
 93
        0
300

 40
0.0
140
1.0
 94
        2
 62
     0
340
55
144
0.18
309
CONTENTFORMAT_END
171
     0
 94
        0
309
TABLEFORMAT_END
  1
CELLSTYLE_BEGIN
 90
        3
 91
        2
300
_DATA
309
CELLSTYLE_END
  0
XRECORD
  5
345
102
{ACAD_REACTORS
330
30E
102
}
330
30E
100
AcDbXrecord
280
     1
102
ACAD_ROUNDTRIP_PRE2007_TABLESTYLE
 90
      512
 91
        0
  1

 92
      512
 93
        0
  2

 94
      512
 95
        0
  3

  0
XRECORD
  5
320
102
{ACAD_REACTORS
330
31F
102
}
330
31F
100
AcDbXrecord
280
     1
102
RTVSPost2010Prop28
280
     1
102
RTVSPost2010PropOp28
 70
     1
102
RTVSPost2010Prop29
280
     1
102
RTVSPost2010PropOp29
 70
     1
102
RTVSPost2010Prop30
280
     0
102
RTVSPost2010PropOp30
 70
     1
102
RTVSPost2010Prop31
280
     0
102
RTVSPost2010PropOp31
 70
     1
102
RTVSPost2010Prop32
280
     0
102
RTVSPost2010PropOp32
 70
     1
102
RTVSPost2010Prop33
280
     0
102
RTVSPost2010PropOp33
 70
     1
102
RTVSPost2010Prop34
280
     0
102
RTVSPost2010PropOp34
 70
     1
102
RTVSPost2010Prop35
280
     0
102
RTVSPost2010PropOp35
 70
     1
102
RTVSPost2010Prop36
280
     0
102
RTVSPost2010PropOp36
 70
     1
102
RTVSPost2010Prop37
 90
       50
102
RTVSPost2010PropOp37
 70
     1
102
RTVSPost2010Prop38
140
0.0
102
RTVSPost2010PropOp38
 70
     1
102
RTVSPost2010Prop39
140
1.0
102
RTVSPost2010PropOp39
 70
     1
102
RTVSPost2010Prop40
 90
        0
102
RTVSPost2010PropOp40
 70
     1
102
RTVSPost2010Prop41ColorIndex
 90
       18
102
RTVSPost2010Prop41ColorRGB
 90
        0
102
RTVSPost2010PropOp41
 70
     1
102
RTVSPost2010Prop42
 90
       50
102
RTVSPost2010PropOp42
 70
     1
102
RTVSPost2010Prop43
 90
        3
102
RTVSPost2010PropOp43
 70
     1
102
RTVSPost2010Prop44ColorIndex
 90
        5
102
RTVSPost2010Prop44ColorRGB
 90
      255
102
RTVSPost2010PropOp44
 70
     1
102
RTVSPost2010Prop45
280
     0
102
RTVSPost2010PropOp45
 70
     1
102
RTVSPost2010Prop46
 90
       50
102
RTVSPost2010PropOp46
 70
     1
102
RTVSPost2010Prop47
 90
       50
102
RTVSPost2010PropOp47
 70
     1
102
RTVSPost2010Prop48
 90
       50
102
RTVSPost2010PropOp48
 70
     1
102
RTVSPost2010Prop49
280
     0
102
RTVSPost2010PropOp49
 70
     1
102
RTVSPost2010Prop50
 90
       50
102
RTVSPost2010PropOp50
 70
     1
102
RTVSPost2010Prop51ColorIndex
 90
      256
102
RTVSPost2010Prop51ColorRGB
 90
-16777216
102
RTVSPost2010PropOp51
 70
     0
102
RTVSPost2010Prop52
140
1.0
102
RTVSPost2010PropOp52
 70
     0
102
RTVSPost2010Prop53
 90
        2
102
RTVSPost2010PropOp53
 70
     1
102
RTVSPost2010Prop54
  1
strokes_ogs.tif
102
RTVSPost2010PropOp54
 70
     1
102
RTVSPost2010Prop55
280
     0
102
RTVSPost2010PropOp55
 70
     1
102
RTVSPost2010Prop56
140
1.0
102
RTVSPost2010PropOp56
 70
     1
102
RTVSPost2010Prop57
140
1.0
102
RTVSPost2010PropOp57
 70
     1
102
RTVSPropertyOp0
 70
     1
102
RTVSPropertyOp1
 70
     1
102
RTVSPropertyOp2
 70
     1
102
RTVSPropertyOp3
 70
     1
102
RTVSPropertyOp4
 70
     1
102
RTVSPropertyOp5
 70
     1
102
RTVSPropertyOp6
 70
     1
102
RTVSPropertyOp7
 70
     1
102
RTVSPropertyOp8
 70
     1
102
RTVSPropertyOp9
 70
     1
102
RTVSPropertyOp10
 70
     1
102
RTVSPropertyOp11
 70
     1
102
RTVSPropertyOp12
 70
     1
102
RTVSPropertyOp13
 70
     1
102
RTVSPropertyOp14
 70
     1
102
RTVSPropertyOp15
 70
     1
102
RTVSPropertyOp16
 70
     1
102
RTVSPropertyOp17
 70
     1
102
RTVSPropertyOp18
 70
     1
102
RTVSPropertyOp19
 70
     1
102
RTVSPropertyOp20
 70
     1
102
RTVSPropertyOp21
 70
     1
102
RTVSPropertyOp22
 70
     1
102
RTVSPropertyOp23
 70
     1
102
RTVSPropertyOp24
 70
     1
102
RTVSPropertyOp25
 70
     1
102
RTVSPropertyOp26
 70
     1
102
RTVSPropertyOp27
 70
     1
102
RTVSPropertyOp28
 70
     1
102
RTVSPropertyOp29
 70
     1
102
RTVSPropertyOp30
 70
     1
102
RTVSPropertyOp31
 70
     1
102
RTVSPropertyOp32
 70
     1
102
RTVSPropertyOp33
 70
     1
102
RTVSPropertyOp34
 70
     1
102
RTVSPropertyOp35
 70
     1
102
RTVSPropertyOp36
 70
     1
102
RTVSPropertyOp37
 70
     1
102
RTVSPropertyOp38
 70
     1
102
RTVSPropertyOp39
 70
     1
102
RTVSPropertyOp40
 70
     1
102
RTVSPropertyOp41
 70
     1
102
RTVSPropertyOp42
 70
     1
102
RTVSPropertyOp43
 70
     1
102
RTVSPropertyOp44
 70
     1
102
RTVSPropertyOp45
 70
     1
102
RTVSPropertyOp46
 70
     1
102
RTVSPropertyOp47
 70
     1
102
RTVSPropertyOp48
 70
     1
102
RTVSPropertyOp49
 70
     1
102
RTVSPropertyOp50
 70
     1
102
RTVSPropertyOp51
 70
     0
102
RTVSPropertyOp52
 70
     0
102
RTVSPropertyOp53
 70
     1
102
RTVSPropertyOp54
 70
     1
102
RTVSPropertyOp55
 70
     1
102
RTVSPropertyOp56
 70
     1
102
RTVSPropertyOp57
 70
     1
102
RTVSPropertyOp58
 70
     1
102
RTVSPropertyOp59
 70
     1
102
RTVSPropertyOp60
 70
     1
102
RTVSPropertyOp61
 70
     1
102
RTVSPropertyOp62
 70
     1
  0
XRECORD
  5
31E
102
{ACAD_REACTORS
330
31D
102
}
330
31D
100
AcDbXrecord
280
     1
102
RTVSPost2010Prop28
280
     0
102
RTVSPost2010PropOp28
 70
     1
102
RTVSPost2010Prop29
280
     1
102
RTVSPost2010PropOp29
 70
     1
102
RTVSPost2010Prop30
280
     1
102
RTVSPost2010PropOp30
 70
     1
102
RTVSPost2010Prop31
280
     0
102
RTVSPost2010PropOp31
 70
     1
102
RTVSPost2010Prop32
280
     0
102
RTVSPost2010PropOp32
 70
     1
102
RTVSPost2010Prop33
280
     0
102
RTVSPost2010PropOp33
 70
     1
102
RTVSPost2010Prop34
280
     0
102
RTVSPost2010PropOp34
 70
     1
102
RTVSPost2010Prop35
280
     0
102
RTVSPost2010PropOp35
 70
     1
102
RTVSPost2010Prop36
280
     0
102
RTVSPost2010PropOp36
 70
     1
102
RTVSPost2010Prop37
 90
       50
102
RTVSPost2010PropOp37
 70
     1
102
RTVSPost2010Prop38
140
0.0
102
RTVSPost2010PropOp38
 70
     1
102
RTVSPost2010Prop39
140
1.0
102
RTVSPost2010PropOp39
 70
     1
102
RTVSPost2010Prop40
 90
        0
102
RTVSPost2010PropOp40
 70
     1
102
RTVSPost2010Prop41ColorIndex
 90
       18
102
RTVSPost2010Prop41ColorRGB
 90
        0
102
RTVSPost2010PropOp41
 70
     1
102
RTVSPost2010Prop42
 90
       50
102
RTVSPost2010PropOp42
 70
     1
102
RTVSPost2010Prop43
 90
        3
102
RTVSPost2010PropOp43
 70
     1
102
RTVSPost2010Prop44ColorIndex
 90
        5
102
RTVSPost2010Prop44ColorRGB
 90
      255
102
RTVSPost2010PropOp44
 70
     1
102
RTVSPost2010Prop45
280
     0
102
RTVSPost2010PropOp45
 70
     1
102
RTVSPost2010Prop46
 90
       50
102
RTVSPost2010PropOp46
 70
     1
102
RTVSPost2010Prop47
 90
       50
102
RTVSPost2010PropOp47
 70
     1
102
RTVSPost2010Prop48
 90
       50
102
RTVSPost2010PropOp48
 70
     1
102
RTVSPost2010Prop49
280
     0
102
RTVSPost2010PropOp49
 70
     1
102
RTVSPost2010Prop50
 90
       50
102
RTVSPost2010PropOp50
 70
     1
102
RTVSPost2010Prop51ColorIndex
 90
      256
102
RTVSPost2010Prop51ColorRGB
 90
-16777216
102
RTVSPost2010PropOp51
 70
     0
102
RTVSPost2010Prop52
140
1.0
102
RTVSPost2010PropOp52
 70
     0
102
RTVSPost2010Prop53
 90
        2
102
RTVSPost2010PropOp53
 70
     1
102
RTVSPost2010Prop54
  1
strokes_ogs.tif
102
RTVSPost2010PropOp54
 70
     1
102
RTVSPost2010Prop55
280
     0
102
RTVSPost2010PropOp55
 70
     1
102
RTVSPost2010Prop56
140
1.0
102
RTVSPost2010PropOp56
 70
     1
102
RTVSPost2010Prop57
140
1.0
102
RTVSPost2010PropOp57
 70
     1
102
RTVSPropertyOp0
 70
     1
102
RTVSPropertyOp1
 70
     1
102
RTVSPropertyOp2
 70
     1
102
RTVSPropertyOp3
 70
     1
102
RTVSPropertyOp4
 70
     1
102
RTVSPropertyOp5
 70
     1
102
RTVSPropertyOp6
 70
     1
102
RTVSPropertyOp7
 70
     1
102
RTVSPropertyOp8
 70
     1
102
RTVSPropertyOp9
 70
     1
102
RTVSPropertyOp10
 70
     1
102
RTVSPropertyOp11
 70
     1
102
RTVSPropertyOp12
 70
     1
102
RTVSPropertyOp13
 70
     1
102
RTVSPropertyOp14
 70
     1
102
RTVSPropertyOp15
 70
     1
102
RTVSPropertyOp16
 70
     1
102
RTVSPropertyOp17
 70
     1
102
RTVSPropertyOp18
 70
     1
102
RTVSPropertyOp19
 70
     1
102
RTVSPropertyOp20
 70
     1
102
RTVSPropertyOp21
 70
     1
102
RTVSPropertyOp22
 70
     1
102
RTVSPropertyOp23
 70
     1
102
RTVSPropertyOp24
 70
     1
102
RTVSPropertyOp25
 70
     1
102
RTVSPropertyOp26
 70
     1
102
RTVSPropertyOp27
 70
     1
102
RTVSPropertyOp28
 70
     1
102
RTVSPropertyOp29
 70
     1
102
RTVSPropertyOp30
 70
     1
102
RTVSPropertyOp31
 70
     1
102
RTVSPropertyOp32
 70
     1
102
RTVSPropertyOp33
 70
     1
102
RTVSPropertyOp34
 70
     1
102
RTVSPropertyOp35
 70
     1
102
RTVSPropertyOp36
 70
     1
102
RTVSPropertyOp37
 70
     1
102
RTVSPropertyOp38
 70
     1
102
RTVSPropertyOp39
 70
     1
102
RTVSPropertyOp40
 70
     1
102
RTVSPropertyOp41
 70
     1
102
RTVSPropertyOp42
 70
     1
102
RTVSPropertyOp43
 70
     1
102
RTVSPropertyOp44
 70
     1
102
RTVSPropertyOp45
 70
     1
102
RTVSPropertyOp46
 70
     1
102
RTVSPropertyOp47
 70
     1
102
RTVSPropertyOp48
 70
     1
102
RTVSPropertyOp49
 70
     1
102
RTVSPropertyOp50
 70
     1
102
RTVSPropertyOp51
 70
     0
102
RTVSPropertyOp52
 70
     0
102
RTVSPropertyOp53
 70
     1
102
RTVSPropertyOp54
 70
     1
102
RTVSPropertyOp55
 70
     1
102
RTVSPropertyOp56
 70
     1
102
RTVSPropertyOp57
 70
     1
102
RTVSPropertyOp58
 70
     1
102
RTVSPropertyOp59
 70
     1
102
RTVSPropertyOp60
 70
     1
102
RTVSPropertyOp61
 70
     1
102
RTVSPropertyOp62
 70
     1
  0
XRECORD
  5
32C
102
{ACAD_REACTORS
330
32B
102
}
330
32B
100
AcDbXrecord
280
     1
102
RTVSPost2010Prop28
280
     0
102
RTVSPost2010PropOp28
 70
     1
102
RTVSPost2010Prop29
280
     1
102
RTVSPost2010PropOp29
 70
     1
102
RTVSPost2010Prop30
280
     1
102
RTVSPost2010PropOp30
 70
     1
102
RTVSPost2010Prop31
280
     0
102
RTVSPost2010PropOp31
 70
     1
102
RTVSPost2010Prop32
280
     0
102
RTVSPost2010PropOp32
 70
     1
102
RTVSPost2010Prop33
280
     0
102
RTVSPost2010PropOp33
 70
     1
102
RTVSPost2010Prop34
280
     0
102
RTVSPost2010PropOp34
 70
     1
102
RTVSPost2010Prop35
280
     0
102
RTVSPost2010PropOp35
 70
     1
102
RTVSPost2010Prop36
280
     0
102
RTVSPost2010PropOp36
 70
     1
102
RTVSPost2010Prop37
 90
       50
102
RTVSPost2010PropOp37
 70
     1
102
RTVSPost2010Prop38
140
0.0
102
RTVSPost2010PropOp38
 70
     1
102
RTVSPost2010Prop39
140
1.0
102
RTVSPost2010PropOp39
 70
     1
102
RTVSPost2010Prop40
 90
        0
102
RTVSPost2010PropOp40
 70
     1
102
RTVSPost2010Prop41ColorIndex
 90
       18
102
RTVSPost2010Prop41ColorRGB
 90
        0
102
RTVSPost2010PropOp41
 70
     1
102
RTVSPost2010Prop42
 90
       50
102
RTVSPost2010PropOp42
 70
     1
102
RTVSPost2010Prop43
 90
        3
102
RTVSPost2010PropOp43
 70
     1
102
RTVSPost2010Prop44ColorIndex
 90
        5
102
RTVSPost2010Prop44ColorRGB
 90
      255
102
RTVSPost2010PropOp44
 70
     1
102
RTVSPost2010Prop45
280
     0
102
RTVSPost2010PropOp45
 70
     1
102
RTVSPost2010Prop46
 90
       50
102
RTVSPost2010PropOp46
 70
     1
102
RTVSPost2010Prop47
 90
       50
102
RTVSPost2010PropOp47
 70
     1
102
RTVSPost2010Prop48
 90
       50
102
RTVSPost2010PropOp48
 70
     1
102
RTVSPost2010Prop49
280
     0
102
RTVSPost2010PropOp49
 70
     1
102
RTVSPost2010Prop50
 90
       50
102
RTVSPost2010PropOp50
 70
     1
102
RTVSPost2010Prop51ColorIndex
 90
      256
102
RTVSPost2010Prop51ColorRGB
 90
-16777216
102
RTVSPost2010PropOp51
 70
     0
102
RTVSPost2010Prop52
140
1.0
102
RTVSPost2010PropOp52
 70
     0
102
RTVSPost2010Prop53
 90
        2
102
RTVSPost2010PropOp53
 70
     1
102
RTVSPost2010Prop54
  1
strokes_ogs.tif
102
RTVSPost2010PropOp54
 70
     1
102
RTVSPost2010Prop55
280
     0
102
RTVSPost2010PropOp55
 70
     1
102
RTVSPost2010Prop56
140
1.0
102
RTVSPost2010PropOp56
 70
     1
102
RTVSPost2010Prop57
140
1.0
102
RTVSPost2010PropOp57
 70
     1
102
RTVSPropertyOp0
 70
     1
102
RTVSPropertyOp1
 70
     1
102
RTVSPropertyOp2
 70
     1
102
RTVSPropertyOp3
 70
     1
102
RTVSPropertyOp4
 70
     1
102
RTVSPropertyOp5
 70
     1
102
RTVSPropertyOp6
 70
     1
102
RTVSPropertyOp7
 70
     1
102
RTVSPropertyOp8
 70
     1
102
RTVSPropertyOp9
 70
     1
102
RTVSPropertyOp10
 70
     1
102
RTVSPropertyOp11
 70
     1
102
RTVSPropertyOp12
 70
     1
102
RTVSPropertyOp13
 70
     1
102
RTVSPropertyOp14
 70
     1
102
RTVSPropertyOp15
 70
     1
102
RTVSPropertyOp16
 70
     1
102
RTVSPropertyOp17
 70
     1
102
RTVSPropertyOp18
 70
     1
102
RTVSPropertyOp19
 70
     1
102
RTVSPropertyOp20
 70
     1
102
RTVSPropertyOp21
 70
     1
102
RTVSPropertyOp22
 70
     1
102
RTVSPropertyOp23
 70
     1
102
RTVSPropertyOp24
 70
     1
102
RTVSPropertyOp25
 70
     1
102
RTVSPropertyOp26
 70
     1
102
RTVSPropertyOp27
 70
     1
102
RTVSPropertyOp28
 70
     1
102
RTVSPropertyOp29
 70
     1
102
RTVSPropertyOp30
 70
     1
102
RTVSPropertyOp31
 70
     1
102
RTVSPropertyOp32
 70
     1
102
RTVSPropertyOp33
 70
     1
102
RTVSPropertyOp34
 70
     1
102
RTVSPropertyOp35
 70
     1
102
RTVSPropertyOp36
 70
     1
102
RTVSPropertyOp37
 70
     1
102
RTVSPropertyOp38
 70
     1
102
RTVSPropertyOp39
 70
     1
102
RTVSPropertyOp40
 70
     1
102
RTVSPropertyOp41
 70
     1
102
RTVSPropertyOp42
 70
     1
102
RTVSPropertyOp43
 70
     1
102
RTVSPropertyOp44
 70
     1
102
RTVSPropertyOp45
 70
     1
102
RTVSPropertyOp46
 70
     1
102
RTVSPropertyOp47
 70
     1
102
RTVSPropertyOp48
 70
     1
102
RTVSPropertyOp49
 70
     1
102
RTVSPropertyOp50
 70
     1
102
RTVSPropertyOp51
 70
     0
102
RTVSPropertyOp52
 70
     0
102
RTVSPropertyOp53
 70
     1
102
RTVSPropertyOp54
 70
     1
102
RTVSPropertyOp55
 70
     1
102
RTVSPropertyOp56
 70
     1
102
RTVSPropertyOp57
 70
     1
102
RTVSPropertyOp58
 70
     1
102
RTVSPropertyOp59
 70
     1
102
RTVSPropertyOp60
 70
     1
102
RTVSPropertyOp61
 70
     1
102
RTVSPropertyOp62
 70
     1
  0
XRECORD
  5
334
102
{ACAD_REACTORS
330
333
102
}
330
333
100
AcDbXrecord
280
     1
102
RTVSPost2010Prop28
280
     0
102
RTVSPost2010PropOp28
 70
     1
102
RTVSPost2010Prop29
280
     1
102
RTVSPost2010PropOp29
 70
     1
102
RTVSPost2010Prop30
280
     1
102
RTVSPost2010PropOp30
 70
     1
102
RTVSPost2010Prop31
280
     0
102
RTVSPost2010PropOp31
 70
     1
102
RTVSPost2010Prop32
280
     0
102
RTVSPost2010PropOp32
 70
     1
102
RTVSPost2010Prop33
280
     0
102
RTVSPost2010PropOp33
 70
     1
102
RTVSPost2010Prop34
280
     0
102
RTVSPost2010PropOp34
 70
     1
102
RTVSPost2010Prop35
280
     0
102
RTVSPost2010PropOp35
 70
     1
102
RTVSPost2010Prop36
280
     0
102
RTVSPost2010PropOp36
 70
     1
102
RTVSPost2010Prop37
 90
       50
102
RTVSPost2010PropOp37
 70
     1
102
RTVSPost2010Prop38
140
0.0
102
RTVSPost2010PropOp38
 70
     1
102
RTVSPost2010Prop39
140
1.0
102
RTVSPost2010PropOp39
 70
     1
102
RTVSPost2010Prop40
 90
        0
102
RTVSPost2010PropOp40
 70
     1
102
RTVSPost2010Prop41ColorIndex
 90
       18
102
RTVSPost2010Prop41ColorRGB
 90
        0
102
RTVSPost2010PropOp41
 70
     1
102
RTVSPost2010Prop42
 90
       50
102
RTVSPost2010PropOp42
 70
     1
102
RTVSPost2010Prop43
 90
        3
102
RTVSPost2010PropOp43
 70
     1
102
RTVSPost2010Prop44ColorIndex
 90
        5
102
RTVSPost2010Prop44ColorRGB
 90
      255
102
RTVSPost2010PropOp44
 70
     1
102
RTVSPost2010Prop45
280
     0
102
RTVSPost2010PropOp45
 70
     1
102
RTVSPost2010Prop46
 90
       50
102
RTVSPost2010PropOp46
 70
     1
102
RTVSPost2010Prop47
 90
       50
102
RTVSPost2010PropOp47
 70
     1
102
RTVSPost2010Prop48
 90
       50
102
RTVSPost2010PropOp48
 70
     1
102
RTVSPost2010Prop49
280
     0
102
RTVSPost2010PropOp49
 70
     1
102
RTVSPost2010Prop50
 90
       50
102
RTVSPost2010PropOp50
 70
     1
102
RTVSPost2010Prop51ColorIndex
 90
      256
102
RTVSPost2010Prop51ColorRGB
 90
-16777216
102
RTVSPost2010PropOp51
 70
     0
102
RTVSPost2010Prop52
140
1.0
102
RTVSPost2010PropOp52
 70
     0
102
RTVSPost2010Prop53
 90
        2
102
RTVSPost2010PropOp53
 70
     1
102
RTVSPost2010Prop54
  1
strokes_ogs.tif
102
RTVSPost2010PropOp54
 70
     1
102
RTVSPost2010Prop55
280
     0
102
RTVSPost2010PropOp55
 70
     1
102
RTVSPost2010Prop56
140
1.0
102
RTVSPost2010PropOp56
 70
     1
102
RTVSPost2010Prop57
140
1.0
102
RTVSPost2010PropOp57
 70
     1
102
RTVSPropertyOp0
 70
     1
102
RTVSPropertyOp1
 70
     1
102
RTVSPropertyOp2
 70
     1
102
RTVSPropertyOp3
 70
     1
102
RTVSPropertyOp4
 70
     1
102
RTVSPropertyOp5
 70
     1
102
RTVSPropertyOp6
 70
     1
102
RTVSPropertyOp7
 70
     1
102
RTVSPropertyOp8
 70
     1
102
RTVSPropertyOp9
 70
     1
102
RTVSPropertyOp10
 70
     1
102
RTVSPropertyOp11
 70
     1
102
RTVSPropertyOp12
 70
     1
102
RTVSPropertyOp13
 70
     1
102
RTVSPropertyOp14
 70
     1
102
RTVSPropertyOp15
 70
     1
102
RTVSPropertyOp16
 70
     1
102
RTVSPropertyOp17
 70
     1
102
RTVSPropertyOp18
 70
     1
102
RTVSPropertyOp19
 70
     1
102
RTVSPropertyOp20
 70
     1
102
RTVSPropertyOp21
 70
     1
102
RTVSPropertyOp22
 70
     1
102
RTVSPropertyOp23
 70
     1
102
RTVSPropertyOp24
 70
     1
102
RTVSPropertyOp25
 70
     1
102
RTVSPropertyOp26
 70
     1
102
RTVSPropertyOp27
 70
     1
102
RTVSPropertyOp28
 70
     1
102
RTVSPropertyOp29
 70
     1
102
RTVSPropertyOp30
 70
     1
102
RTVSPropertyOp31
 70
     1
102
RTVSPropertyOp32
 70
     1
102
RTVSPropertyOp33
 70
     1
102
RTVSPropertyOp34
 70
     1
102
RTVSPropertyOp35
 70
     1
102
RTVSPropertyOp36
 70
     1
102
RTVSPropertyOp37
 70
     1
102
RTVSPropertyOp38
 70
     1
102
RTVSPropertyOp39
 70
     1
102
RTVSPropertyOp40
 70
     1
102
RTVSPropertyOp41
 70
     1
102
RTVSPropertyOp42
 70
     1
102
RTVSPropertyOp43
 70
     1
102
RTVSPropertyOp44
 70
     1
102
RTVSPropertyOp45
 70
     1
102
RTVSPropertyOp46
 70
     1
102
RTVSPropertyOp47
 70
     1
102
RTVSPropertyOp48
 70
     1
102
RTVSPropertyOp49
 70
     1
102
RTVSPropertyOp50
 70
     1
102
RTVSPropertyOp51
 70
     0
102
RTVSPropertyOp52
 70
     0
102
RTVSPropertyOp53
 70
     1
102
RTVSPropertyOp54
 70
     1
102
RTVSPropertyOp55
 70
     1
102
RTVSPropertyOp56
 70
     1
102
RTVSPropertyOp57
 70
     1
102
RTVSPropertyOp58
 70
     1
102
RTVSPropertyOp59
 70
     1
102
RTVSPropertyOp60
 70
     1
102
RTVSPropertyOp61
 70
     1
102
RTVSPropertyOp62
 70
     1
  0
XRECORD
  5
326
102
{ACAD_REACTORS
330
325
102
}
330
325
100
AcDbXrecord
280
     1
102
RTVSPost2010Prop28
280
     0
102
RTVSPost2010PropOp28
 70
     1
102
RTVSPost2010Prop29
280
     1
102
RTVSPost2010PropOp29
 70
     1
102
RTVSPost2010Prop30
280
     1
102
RTVSPost2010PropOp30
 70
     1
102
RTVSPost2010Prop31
280
     0
102
RTVSPost2010PropOp31
 70
     1
102
RTVSPost2010Prop32
280
     0
102
RTVSPost2010PropOp32
 70
     1
102
RTVSPost2010Prop33
280
     0
102
RTVSPost2010PropOp33
 70
     1
102
RTVSPost2010Prop34
280
     0
102
RTVSPost2010PropOp34
 70
     1
102
RTVSPost2010Prop35
280
     0
102
RTVSPost2010PropOp35
 70
     1
102
RTVSPost2010Prop36
280
     0
102
RTVSPost2010PropOp36
 70
     1
102
RTVSPost2010Prop37
 90
       50
102
RTVSPost2010PropOp37
 70
     1
102
RTVSPost2010Prop38
140
0.0
102
RTVSPost2010PropOp38
 70
     1
102
RTVSPost2010Prop39
140
1.0
102
RTVSPost2010PropOp39
 70
     1
102
RTVSPost2010Prop40
 90
        0
102
RTVSPost2010PropOp40
 70
     1
102
RTVSPost2010Prop41ColorIndex
 90
       18
102
RTVSPost2010Prop41ColorRGB
 90
        0
102
RTVSPost2010PropOp41
 70
     1
102
RTVSPost2010Prop42
 90
       50
102
RTVSPost2010PropOp42
 70
     1
102
RTVSPost2010Prop43
 90
        3
102
RTVSPost2010PropOp43
 70
     1
102
RTVSPost2010Prop44ColorIndex
 90
        5
102
RTVSPost2010Prop44ColorRGB
 90
      255
102
RTVSPost2010PropOp44
 70
     1
102
RTVSPost2010Prop45
280
     0
102
RTVSPost2010PropOp45
 70
     1
102
RTVSPost2010Prop46
 90
       50
102
RTVSPost2010PropOp46
 70
     1
102
RTVSPost2010Prop47
 90
       50
102
RTVSPost2010PropOp47
 70
     1
102
RTVSPost2010Prop48
 90
       50
102
RTVSPost2010PropOp48
 70
     1
102
RTVSPost2010Prop49
280
     0
102
RTVSPost2010PropOp49
 70
     1
102
RTVSPost2010Prop50
 90
       50
102
RTVSPost2010PropOp50
 70
     1
102
RTVSPost2010Prop51ColorIndex
 90
      256
102
RTVSPost2010Prop51ColorRGB
 90
-16777216
102
RTVSPost2010PropOp51
 70
     0
102
RTVSPost2010Prop52
140
1.0
102
RTVSPost2010PropOp52
 70
     0
102
RTVSPost2010Prop53
 90
        2
102
RTVSPost2010PropOp53
 70
     1
102
RTVSPost2010Prop54
  1
strokes_ogs.tif
102
RTVSPost2010PropOp54
 70
     1
102
RTVSPost2010Prop55
280
     0
102
RTVSPost2010PropOp55
 70
     1
102
RTVSPost2010Prop56
140
1.0
102
RTVSPost2010PropOp56
 70
     1
102
RTVSPost2010Prop57
140
1.0
102
RTVSPost2010PropOp57
 70
     1
102
RTVSPropertyOp0
 70
     1
102
RTVSPropertyOp1
 70
     1
102
RTVSPropertyOp2
 70
     1
102
RTVSPropertyOp3
 70
     1
102
RTVSPropertyOp4
 70
     1
102
RTVSPropertyOp5
 70
     1
102
RTVSPropertyOp6
 70
     1
102
RTVSPropertyOp7
 70
     1
102
RTVSPropertyOp8
 70
     1
102
RTVSPropertyOp9
 70
     1
102
RTVSPropertyOp10
 70
     1
102
RTVSPropertyOp11
 70
     1
102
RTVSPropertyOp12
 70
     1
102
RTVSPropertyOp13
 70
     1
102
RTVSPropertyOp14
 70
     1
102
RTVSPropertyOp15
 70
     1
102
RTVSPropertyOp16
 70
     1
102
RTVSPropertyOp17
 70
     1
102
RTVSPropertyOp18
 70
     1
102
RTVSPropertyOp19
 70
     1
102
RTVSPropertyOp20
 70
     1
102
RTVSPropertyOp21
 70
     1
102
RTVSPropertyOp22
 70
     1
102
RTVSPropertyOp23
 70
     1
102
RTVSPropertyOp24
 70
     1
102
RTVSPropertyOp25
 70
     1
102
RTVSPropertyOp26
 70
     1
102
RTVSPropertyOp27
 70
     1
102
RTVSPropertyOp28
 70
     1
102
RTVSPropertyOp29
 70
     1
102
RTVSPropertyOp30
 70
     1
102
RTVSPropertyOp31
 70
     1
102
RTVSPropertyOp32
 70
     1
102
RTVSPropertyOp33
 70
     1
102
RTVSPropertyOp34
 70
     1
102
RTVSPropertyOp35
 70
     1
102
RTVSPropertyOp36
 70
     1
102
RTVSPropertyOp37
 70
     1
102
RTVSPropertyOp38
 70
     1
102
RTVSPropertyOp39
 70
     1
102
RTVSPropertyOp40
 70
     1
102
RTVSPropertyOp41
 70
     1
102
RTVSPropertyOp42
 70
     1
102
RTVSPropertyOp43
 70
     1
102
RTVSPropertyOp44
 70
     1
102
RTVSPropertyOp45
 70
     1
102
RTVSPropertyOp46
 70
     1
102
RTVSPropertyOp47
 70
     1
102
RTVSPropertyOp48
 70
     1
102
RTVSPropertyOp49
 70
     1
102
RTVSPropertyOp50
 70
     1
102
RTVSPropertyOp51
 70
     0
102
RTVSPropertyOp52
 70
     0
102
RTVSPropertyOp53
 70
     1
102
RTVSPropertyOp54
 70
     1
102
RTVSPropertyOp55
 70
     1
102
RTVSPropertyOp56
 70
     1
102
RTVSPropertyOp57
 70
     1
102
RTVSPropertyOp58
 70
     1
102
RTVSPropertyOp59
 70
     1
102
RTVSPropertyOp60
 70
     1
102
RTVSPropertyOp61
 70
     1
102
RTVSPropertyOp62
 70
     1
  0
XRECORD
  5
32A
102
{ACAD_REACTORS
330
329
102
}
330
329
100
AcDbXrecord
280
     1
102
RTVSPost2010Prop28
280
     0
102
RTVSPost2010PropOp28
 70
     1
102
RTVSPost2010Prop29
280
     1
102
RTVSPost2010PropOp29
 70
     1
102
RTVSPost2010Prop30
280
     1
102
RTVSPost2010PropOp30
 70
     1
102
RTVSPost2010Prop31
280
     0
102
RTVSPost2010PropOp31
 70
     1
102
RTVSPost2010Prop32
280
     0
102
RTVSPost2010PropOp32
 70
     1
102
RTVSPost2010Prop33
280
     0
102
RTVSPost2010PropOp33
 70
     1
102
RTVSPost2010Prop34
280
     0
102
RTVSPost2010PropOp34
 70
     1
102
RTVSPost2010Prop35
280
     0
102
RTVSPost2010PropOp35
 70
     1
102
RTVSPost2010Prop36
280
     0
102
RTVSPost2010PropOp36
 70
     1
102
RTVSPost2010Prop37
 90
       50
102
RTVSPost2010PropOp37
 70
     1
102
RTVSPost2010Prop38
140
0.0
102
RTVSPost2010PropOp38
 70
     1
102
RTVSPost2010Prop39
140
1.0
102
RTVSPost2010PropOp39
 70
     1
102
RTVSPost2010Prop40
 90
        0
102
RTVSPost2010PropOp40
 70
     1
102
RTVSPost2010Prop41ColorIndex
 90
       18
102
RTVSPost2010Prop41ColorRGB
 90
        0
102
RTVSPost2010PropOp41
 70
     1
102
RTVSPost2010Prop42
 90
       50
102
RTVSPost2010PropOp42
 70
     1
102
RTVSPost2010Prop43
 90
        3
102
RTVSPost2010PropOp43
 70
     1
102
RTVSPost2010Prop44ColorIndex
 90
        5
102
RTVSPost2010Prop44ColorRGB
 90
      255
102
RTVSPost2010PropOp44
 70
     1
102
RTVSPost2010Prop45
280
     0
102
RTVSPost2010PropOp45
 70
     1
102
RTVSPost2010Prop46
 90
       50
102
RTVSPost2010PropOp46
 70
     1
102
RTVSPost2010Prop47
 90
       50
102
RTVSPost2010PropOp47
 70
     1
102
RTVSPost2010Prop48
 90
       50
102
RTVSPost2010PropOp48
 70
     1
102
RTVSPost2010Prop49
280
     0
102
RTVSPost2010PropOp49
 70
     1
102
RTVSPost2010Prop50
 90
       50
102
RTVSPost2010PropOp50
 70
     1
102
RTVSPost2010Prop51ColorIndex
 90
      256
102
RTVSPost2010Prop51ColorRGB
 90
-16777216
102
RTVSPost2010PropOp51
 70
     0
102
RTVSPost2010Prop52
140
1.0
102
RTVSPost2010PropOp52
 70
     0
102
RTVSPost2010Prop53
 90
        2
102
RTVSPost2010PropOp53
 70
     1
102
RTVSPost2010Prop54
  1
strokes_ogs.tif
102
RTVSPost2010PropOp54
 70
     1
102
RTVSPost2010Prop55
280
     0
102
RTVSPost2010PropOp55
 70
     1
102
RTVSPost2010Prop56
140
1.0
102
RTVSPost2010PropOp56
 70
     1
102
RTVSPost2010Prop57
140
1.0
102
RTVSPost2010PropOp57
 70
     1
102
RTVSPropertyOp0
 70
     1
102
RTVSPropertyOp1
 70
     1
102
RTVSPropertyOp2
 70
     1
102
RTVSPropertyOp3
 70
     1
102
RTVSPropertyOp4
 70
     1
102
RTVSPropertyOp5
 70
     1
102
RTVSPropertyOp6
 70
     1
102
RTVSPropertyOp7
 70
     1
102
RTVSPropertyOp8
 70
     1
102
RTVSPropertyOp9
 70
     1
102
RTVSPropertyOp10
 70
     1
102
RTVSPropertyOp11
 70
     1
102
RTVSPropertyOp12
 70
     1
102
RTVSPropertyOp13
 70
     1
102
RTVSPropertyOp14
 70
     1
102
RTVSPropertyOp15
 70
     1
102
RTVSPropertyOp16
 70
     1
102
RTVSPropertyOp17
 70
     1
102
RTVSPropertyOp18
 70
     1
102
RTVSPropertyOp19
 70
     1
102
RTVSPropertyOp20
 70
     1
102
RTVSPropertyOp21
 70
     1
102
RTVSPropertyOp22
 70
     1
102
RTVSPropertyOp23
 70
     1
102
RTVSPropertyOp24
 70
     1
102
RTVSPropertyOp25
 70
     1
102
RTVSPropertyOp26
 70
     1
102
RTVSPropertyOp27
 70
     1
102
RTVSPropertyOp28
 70
     1
102
RTVSPropertyOp29
 70
     1
102
RTVSPropertyOp30
 70
     1
102
RTVSPropertyOp31
 70
     1
102
RTVSPropertyOp32
 70
     1
102
RTVSPropertyOp33
 70
     1
102
RTVSPropertyOp34
 70
     1
102
RTVSPropertyOp35
 70
     1
102
RTVSPropertyOp36
 70
     1
102
RTVSPropertyOp37
 70
     1
102
RTVSPropertyOp38
 70
     1
102
RTVSPropertyOp39
 70
     1
102
RTVSPropertyOp40
 70
     1
102
RTVSPropertyOp41
 70
     1
102
RTVSPropertyOp42
 70
     1
102
RTVSPropertyOp43
 70
     1
102
RTVSPropertyOp44
 70
     1
102
RTVSPropertyOp45
 70
     1
102
RTVSPropertyOp46
 70
     1
102
RTVSPropertyOp47
 70
     1
102
RTVSPropertyOp48
 70
     1
102
RTVSPropertyOp49
 70
     1
102
RTVSPropertyOp50
 70
     1
102
RTVSPropertyOp51
 70
     0
102
RTVSPropertyOp52
 70
     0
102
RTVSPropertyOp53
 70
     1
102
RTVSPropertyOp54
 70
     1
102
RTVSPropertyOp55
 70
     1
102
RTVSPropertyOp56
 70
     1
102
RTVSPropertyOp57
 70
     1
102
RTVSPropertyOp58
 70
     1
102
RTVSPropertyOp59
 70
     1
102
RTVSPropertyOp60
 70
     1
102
RTVSPropertyOp61
 70
     1
102
RTVSPropertyOp62
 70
     1
  0
XRECORD
  5
344
102
{ACAD_REACTORS
330
343
102
}
330
343
100
AcDbXrecord
280
     1
102
RTVSPost2010Prop28
280
     0
102
RTVSPost2010PropOp28
 70
     1
102
RTVSPost2010Prop29
280
     1
102
RTVSPost2010PropOp29
 70
     1
102
RTVSPost2010Prop30
280
     1
102
RTVSPost2010PropOp30
 70
     1
102
RTVSPost2010Prop31
280
     0
102
RTVSPost2010PropOp31
 70
     1
102
RTVSPost2010Prop32
280
     0
102
RTVSPost2010PropOp32
 70
     1
102
RTVSPost2010Prop33
280
     0
102
RTVSPost2010PropOp33
 70
     1
102
RTVSPost2010Prop34
280
     0
102
RTVSPost2010PropOp34
 70
     1
102
RTVSPost2010Prop35
280
     0
102
RTVSPost2010PropOp35
 70
     1
102
RTVSPost2010Prop36
280
     0
102
RTVSPost2010PropOp36
 70
     1
102
RTVSPost2010Prop37
 90
       50
102
RTVSPost2010PropOp37
 70
     0
102
RTVSPost2010Prop38
140
0.0
102
RTVSPost2010PropOp38
 70
     0
102
RTVSPost2010Prop39
140
1.0
102
RTVSPost2010PropOp39
 70
     0
102
RTVSPost2010Prop40
 90
        0
102
RTVSPost2010PropOp40
 70
     0
102
RTVSPost2010Prop41ColorIndex
 90
       18
102
RTVSPost2010Prop41ColorRGB
 90
        0
102
RTVSPost2010PropOp41
 70
     0
102
RTVSPost2010Prop42
 90
       50
102
RTVSPost2010PropOp42
 70
     0
102
RTVSPost2010Prop43
 90
        3
102
RTVSPost2010PropOp43
 70
     0
102
RTVSPost2010Prop44ColorIndex
 90
        5
102
RTVSPost2010Prop44ColorRGB
 90
      255
102
RTVSPost2010PropOp44
 70
     0
102
RTVSPost2010Prop45
280
     0
102
RTVSPost2010PropOp45
 70
     1
102
RTVSPost2010Prop46
 90
       50
102
RTVSPost2010PropOp46
 70
     0
102
RTVSPost2010Prop47
 90
       50
102
RTVSPost2010PropOp47
 70
     0
102
RTVSPost2010Prop48
 90
       50
102
RTVSPost2010PropOp48
 70
     0
102
RTVSPost2010Prop49
280
     0
102
RTVSPost2010PropOp49
 70
     1
102
RTVSPost2010Prop50
 90
       50
102
RTVSPost2010PropOp50
 70
     0
102
RTVSPost2010Prop51ColorIndex
 90
      256
102
RTVSPost2010Prop51ColorRGB
 90
-16777216
102
RTVSPost2010PropOp51
 70
     0
102
RTVSPost2010Prop52
140
1.0
102
RTVSPost2010PropOp52
 70
     0
102
RTVSPost2010Prop53
 90
        2
102
RTVSPost2010PropOp53
 70
     0
102
RTVSPost2010Prop54
  1
strokes_ogs.tif
102
RTVSPost2010PropOp54
 70
     0
102
RTVSPost2010Prop55
280
     0
102
RTVSPost2010PropOp55
 70
     1
102
RTVSPost2010Prop56
140
1.0
102
RTVSPost2010PropOp56
 70
     0
102
RTVSPost2010Prop57
140
1.0
102
RTVSPost2010PropOp57
 70
     0
102
RTVSPropertyOp0
 70
     0
102
RTVSPropertyOp1
 70
     0
102
RTVSPropertyOp2
 70
     0
102
RTVSPropertyOp3
 70
     0
102
RTVSPropertyOp4
 70
     0
102
RTVSPropertyOp5
 70
     0
102
RTVSPropertyOp6
 70
     0
102
RTVSPropertyOp7
 70
     0
102
RTVSPropertyOp8
 70
     0
102
RTVSPropertyOp9
 70
     0
102
RTVSPropertyOp10
 70
     0
102
RTVSPropertyOp11
 70
     0
102
RTVSPropertyOp12
 70
     0
102
RTVSPropertyOp13
 70
     0
102
RTVSPropertyOp14
 70
     2
102
RTVSPropertyOp15
 70
     0
102
RTVSPropertyOp16
 70
     0
102
RTVSPropertyOp17
 70
     0
102
RTVSPropertyOp18
 70
     0
102
RTVSPropertyOp19
 70
     0
102
RTVSPropertyOp20
 70
     0
102
RTVSPropertyOp21
 70
     0
102
RTVSPropertyOp22
 70
     0
102
RTVSPropertyOp23
 70
     0
102
RTVSPropertyOp24
 70
     0
102
RTVSPropertyOp25
 70
     0
102
RTVSPropertyOp26
 70
     0
102
RTVSPropertyOp27
 70
     0
102
RTVSPropertyOp28
 70
     1
102
RTVSPropertyOp29
 70
     1
102
RTVSPropertyOp30
 70
     1
102
RTVSPropertyOp31
 70
     1
102
RTVSPropertyOp32
 70
     1
102
RTVSPropertyOp33
 70
     1
102
RTVSPropertyOp34
 70
     1
102
RTVSPropertyOp35
 70
     1
102
RTVSPropertyOp36
 70
     1
102
RTVSPropertyOp37
 70
     0
102
RTVSPropertyOp38
 70
     0
102
RTVSPropertyOp39
 70
     0
102
RTVSPropertyOp40
 70
     0
102
RTVSPropertyOp41
 70
     0
102
RTVSPropertyOp42
 70
     0
102
RTVSPropertyOp43
 70
     0
102
RTVSPropertyOp44
 70
     0
102
RTVSPropertyOp45
 70
     1
102
RTVSPropertyOp46
 70
     0
102
RTVSPropertyOp47
 70
     0
102
RTVSPropertyOp48
 70
     0
102
RTVSPropertyOp49
 70
     1
102
RTVSPropertyOp50
 70
     0
102
RTVSPropertyOp51
 70
     0
102
RTVSPropertyOp52
 70
     0
102
RTVSPropertyOp53
 70
     0
102
RTVSPropertyOp54
 70
     0
102
RTVSPropertyOp55
 70
     1
102
RTVSPropertyOp56
 70
     0
102
RTVSPropertyOp57
 70
     0
102
RTVSPropertyOp58
 70
     0
102
RTVSPropertyOp59
 70
     0
102
RTVSPropertyOp60
 70
     0
102
RTVSPropertyOp61
 70
     0
102
RTVSPropertyOp62
 70
     0
  0
XRECORD
  5
332
102
{ACAD_REACTORS
330
331
102
}
330
331
100
AcDbXrecord
280
     1
102
RTVSPost2010Prop28
280
     0
102
RTVSPost2010PropOp28
 70
     1
102
RTVSPost2010Prop29
280
     1
102
RTVSPost2010PropOp29
 70
     1
102
RTVSPost2010Prop30
280
     1
102
RTVSPost2010PropOp30
 70
     1
102
RTVSPost2010Prop31
280
     0
102
RTVSPost2010PropOp31
 70
     1
102
RTVSPost2010Prop32
280
     0
102
RTVSPost2010PropOp32
 70
     1
102
RTVSPost2010Prop33
280
     0
102
RTVSPost2010PropOp33
 70
     1
102
RTVSPost2010Prop34
280
     0
102
RTVSPost2010PropOp34
 70
     1
102
RTVSPost2010Prop35
280
     0
102
RTVSPost2010PropOp35
 70
     1
102
RTVSPost2010Prop36
280
     0
102
RTVSPost2010PropOp36
 70
     1
102
RTVSPost2010Prop37
 90
       50
102
RTVSPost2010PropOp37
 70
     1
102
RTVSPost2010Prop38
140
0.0
102
RTVSPost2010PropOp38
 70
     1
102
RTVSPost2010Prop39
140
1.0
102
RTVSPost2010PropOp39
 70
     1
102
RTVSPost2010Prop40
 90
        0
102
RTVSPost2010PropOp40
 70
     1
102
RTVSPost2010Prop41ColorIndex
 90
       18
102
RTVSPost2010Prop41ColorRGB
 90
        0
102
RTVSPost2010PropOp41
 70
     1
102
RTVSPost2010Prop42
 90
       50
102
RTVSPost2010PropOp42
 70
     1
102
RTVSPost2010Prop43
 90
        3
102
RTVSPost2010PropOp43
 70
     1
102
RTVSPost2010Prop44ColorIndex
 90
        5
102
RTVSPost2010Prop44ColorRGB
 90
      255
102
RTVSPost2010PropOp44
 70
     1
102
RTVSPost2010Prop45
280
     0
102
RTVSPost2010PropOp45
 70
     1
102
RTVSPost2010Prop46
 90
       50
102
RTVSPost2010PropOp46
 70
     1
102
RTVSPost2010Prop47
 90
       50
102
RTVSPost2010PropOp47
 70
     1
102
RTVSPost2010Prop48
 90
       50
102
RTVSPost2010PropOp48
 70
     1
102
RTVSPost2010Prop49
280
     0
102
RTVSPost2010PropOp49
 70
     1
102
RTVSPost2010Prop50
 90
       50
102
RTVSPost2010PropOp50
 70
     1
102
RTVSPost2010Prop51ColorIndex
 90
      256
102
RTVSPost2010Prop51ColorRGB
 90
-16777216
102
RTVSPost2010PropOp51
 70
     0
102
RTVSPost2010Prop52
140
1.0
102
RTVSPost2010PropOp52
 70
     0
102
RTVSPost2010Prop53
 90
        2
102
RTVSPost2010PropOp53
 70
     1
102
RTVSPost2010Prop54
  1
strokes_ogs.tif
102
RTVSPost2010PropOp54
 70
     1
102
RTVSPost2010Prop55
280
     0
102
RTVSPost2010PropOp55
 70
     1
102
RTVSPost2010Prop56
140
1.0
102
RTVSPost2010PropOp56
 70
     1
102
RTVSPost2010Prop57
140
1.0
102
RTVSPost2010PropOp57
 70
     1
102
RTVSPropertyOp0
 70
     1
102
RTVSPropertyOp1
 70
     1
102
RTVSPropertyOp2
 70
     1
102
RTVSPropertyOp3
 70
     1
102
RTVSPropertyOp4
 70
     1
102
RTVSPropertyOp5
 70
     1
102
RTVSPropertyOp6
 70
     1
102
RTVSPropertyOp7
 70
     1
102
RTVSPropertyOp8
 70
     1
102
RTVSPropertyOp9
 70
     1
102
RTVSPropertyOp10
 70
     1
102
RTVSPropertyOp11
 70
     1
102
RTVSPropertyOp12
 70
     1
102
RTVSPropertyOp13
 70
     1
102
RTVSPropertyOp14
 70
     1
102
RTVSPropertyOp15
 70
     1
102
RTVSPropertyOp16
 70
     1
102
RTVSPropertyOp17
 70
     1
102
RTVSPropertyOp18
 70
     1
102
RTVSPropertyOp19
 70
     1
102
RTVSPropertyOp20
 70
     1
102
RTVSPropertyOp21
 70
     1
102
RTVSPropertyOp22
 70
     1
102
RTVSPropertyOp23
 70
     1
102
RTVSPropertyOp24
 70
     1
102
RTVSPropertyOp25
 70
     1
102
RTVSPropertyOp26
 70
     1
102
RTVSPropertyOp27
 70
     1
102
RTVSPropertyOp28
 70
     1
102
RTVSPropertyOp29
 70
     1
102
RTVSPropertyOp30
 70
     1
102
RTVSPropertyOp31
 70
     1
102
RTVSPropertyOp32
 70
     1
102
RTVSPropertyOp33
 70
     1
102
RTVSPropertyOp34
 70
     1
102
RTVSPropertyOp35
 70
     1
102
RTVSPropertyOp36
 70
     1
102
RTVSPropertyOp37
 70
     1
102
RTVSPropertyOp38
 70
     1
102
RTVSPropertyOp39
 70
     1
102
RTVSPropertyOp40
 70
     1
102
RTVSPropertyOp41
 70
     1
102
RTVSPropertyOp42
 70
     1
102
RTVSPropertyOp43
 70
     1
102
RTVSPropertyOp44
 70
     1
102
RTVSPropertyOp45
 70
     1
102
RTVSPropertyOp46
 70
     1
102
RTVSPropertyOp47
 70
     1
102
RTVSPropertyOp48
 70
     1
102
RTVSPropertyOp49
 70
     1
102
RTVSPropertyOp50
 70
     1
102
RTVSPropertyOp51
 70
     0
102
RTVSPropertyOp52
 70
     0
102
RTVSPropertyOp53
 70
     1
102
RTVSPropertyOp54
 70
     1
102
RTVSPropertyOp55
 70
     1
102
RTVSPropertyOp56
 70
     1
102
RTVSPropertyOp57
 70
     1
102
RTVSPropertyOp58
 70
     1
102
RTVSPropertyOp59
 70
     1
102
RTVSPropertyOp60
 70
     1
102
RTVSPropertyOp61
 70
     1
102
RTVSPropertyOp62
 70
     1
  0
XRECORD
  5
316
102
{ACAD_REACTORS
330
315
102
}
330
315
100
AcDbXrecord
280
     1
102
RTVSPost2010Prop28
280
     0
102
RTVSPost2010PropOp28
 70
     1
102
RTVSPost2010Prop29
280
     1
102
RTVSPost2010PropOp29
 70
     1
102
RTVSPost2010Prop30
280
     1
102
RTVSPost2010PropOp30
 70
     1
102
RTVSPost2010Prop31
280
     0
102
RTVSPost2010PropOp31
 70
     1
102
RTVSPost2010Prop32
280
     0
102
RTVSPost2010PropOp32
 70
     1
102
RTVSPost2010Prop33
280
     0
102
RTVSPost2010PropOp33
 70
     1
102
RTVSPost2010Prop34
280
     0
102
RTVSPost2010PropOp34
 70
     1
102
RTVSPost2010Prop35
280
     0
102
RTVSPost2010PropOp35
 70
     1
102
RTVSPost2010Prop36
280
     0
102
RTVSPost2010PropOp36
 70
     1
102
RTVSPost2010Prop37
 90
       50
102
RTVSPost2010PropOp37
 70
     1
102
RTVSPost2010Prop38
140
0.0
102
RTVSPost2010PropOp38
 70
     1
102
RTVSPost2010Prop39
140
1.0
102
RTVSPost2010PropOp39
 70
     1
102
RTVSPost2010Prop40
 90
        0
102
RTVSPost2010PropOp40
 70
     1
102
RTVSPost2010Prop41ColorIndex
 90
       18
102
RTVSPost2010Prop41ColorRGB
 90
        0
102
RTVSPost2010PropOp41
 70
     1
102
RTVSPost2010Prop42
 90
       50
102
RTVSPost2010PropOp42
 70
     1
102
RTVSPost2010Prop43
 90
        3
102
RTVSPost2010PropOp43
 70
     1
102
RTVSPost2010Prop44ColorIndex
 90
        5
102
RTVSPost2010Prop44ColorRGB
 90
      255
102
RTVSPost2010PropOp44
 70
     1
102
RTVSPost2010Prop45
280
     0
102
RTVSPost2010PropOp45
 70
     1
102
RTVSPost2010Prop46
 90
       50
102
RTVSPost2010PropOp46
 70
     1
102
RTVSPost2010Prop47
 90
       50
102
RTVSPost2010PropOp47
 70
     1
102
RTVSPost2010Prop48
 90
       50
102
RTVSPost2010PropOp48
 70
     1
102
RTVSPost2010Prop49
280
     0
102
RTVSPost2010PropOp49
 70
     1
102
RTVSPost2010Prop50
 90
       50
102
RTVSPost2010PropOp50
 70
     1
102
RTVSPost2010Prop51ColorIndex
 90
      256
102
RTVSPost2010Prop51ColorRGB
 90
-16777216
102
RTVSPost2010PropOp51
 70
     0
102
RTVSPost2010Prop52
140
1.0
102
RTVSPost2010PropOp52
 70
     0
102
RTVSPost2010Prop53
 90
        2
102
RTVSPost2010PropOp53
 70
     1
102
RTVSPost2010Prop54
  1
strokes_ogs.tif
102
RTVSPost2010PropOp54
 70
     1
102
RTVSPost2010Prop55
280
     0
102
RTVSPost2010PropOp55
 70
     1
102
RTVSPost2010Prop56
140
1.0
102
RTVSPost2010PropOp56
 70
     1
102
RTVSPost2010Prop57
140
1.0
102
RTVSPost2010PropOp57
 70
     1
102
RTVSPropertyOp0
 70
     1
102
RTVSPropertyOp1
 70
     1
102
RTVSPropertyOp2
 70
     1
102
RTVSPropertyOp3
 70
     1
102
RTVSPropertyOp4
 70
     1
102
RTVSPropertyOp5
 70
     1
102
RTVSPropertyOp6
 70
     1
102
RTVSPropertyOp7
 70
     1
102
RTVSPropertyOp8
 70
     1
102
RTVSPropertyOp9
 70
     1
102
RTVSPropertyOp10
 70
     1
102
RTVSPropertyOp11
 70
     1
102
RTVSPropertyOp12
 70
     1
102
RTVSPropertyOp13
 70
     1
102
RTVSPropertyOp14
 70
     1
102
RTVSPropertyOp15
 70
     1
102
RTVSPropertyOp16
 70
     1
102
RTVSPropertyOp17
 70
     1
102
RTVSPropertyOp18
 70
     1
102
RTVSPropertyOp19
 70
     1
102
RTVSPropertyOp20
 70
     1
102
RTVSPropertyOp21
 70
     1
102
RTVSPropertyOp22
 70
     1
102
RTVSPropertyOp23
 70
     1
102
RTVSPropertyOp24
 70
     1
102
RTVSPropertyOp25
 70
     1
102
RTVSPropertyOp26
 70
     1
102
RTVSPropertyOp27
 70
     1
102
RTVSPropertyOp28
 70
     1
102
RTVSPropertyOp29
 70
     1
102
RTVSPropertyOp30
 70
     1
102
RTVSPropertyOp31
 70
     1
102
RTVSPropertyOp32
 70
     1
102
RTVSPropertyOp33
 70
     1
102
RTVSPropertyOp34
 70
     1
102
RTVSPropertyOp35
 70
     1
102
RTVSPropertyOp36
 70
     1
102
RTVSPropertyOp37
 70
     1
102
RTVSPropertyOp38
 70
     1
102
RTVSPropertyOp39
 70
     1
102
RTVSPropertyOp40
 70
     1
102
RTVSPropertyOp41
 70
     1
102
RTVSPropertyOp42
 70
     1
102
RTVSPropertyOp43
 70
     1
102
RTVSPropertyOp44
 70
     1
102
RTVSPropertyOp45
 70
     1
102
RTVSPropertyOp46
 70
     1
102
RTVSPropertyOp47
 70
     1
102
RTVSPropertyOp48
 70
     1
102
RTVSPropertyOp49
 70
     1
102
RTVSPropertyOp50
 70
     1
102
RTVSPropertyOp51
 70
     0
102
RTVSPropertyOp52
 70
     0
102
RTVSPropertyOp53
 70
     1
102
RTVSPropertyOp54
 70
     1
102
RTVSPropertyOp55
 70
     1
102
RTVSPropertyOp56
 70
     1
102
RTVSPropertyOp57
 70
     1
102
RTVSPropertyOp58
 70
     1
102
RTVSPropertyOp59
 70
     1
102
RTVSPropertyOp60
 70
     1
102
RTVSPropertyOp61
 70
     1
102
RTVSPropertyOp62
 70
     1
  0
XRECORD
  5
318
102
{ACAD_REACTORS
330
317
102
}
330
317
100
AcDbXrecord
280
     1
102
RTVSPost2010Prop28
280
     0
102
RTVSPost2010PropOp28
 70
     1
102
RTVSPost2010Prop29
280
     1
102
RTVSPost2010PropOp29
 70
     1
102
RTVSPost2010Prop30
280
     1
102
RTVSPost2010PropOp30
 70
     1
102
RTVSPost2010Prop31
280
     0
102
RTVSPost2010PropOp31
 70
     1
102
RTVSPost2010Prop32
280
     0
102
RTVSPost2010PropOp32
 70
     1
102
RTVSPost2010Prop33
280
     0
102
RTVSPost2010PropOp33
 70
     1
102
RTVSPost2010Prop34
280
     0
102
RTVSPost2010PropOp34
 70
     1
102
RTVSPost2010Prop35
280
     0
102
RTVSPost2010PropOp35
 70
     1
102
RTVSPost2010Prop36
280
     0
102
RTVSPost2010PropOp36
 70
     1
102
RTVSPost2010Prop37
 90
       50
102
RTVSPost2010PropOp37
 70
     1
102
RTVSPost2010Prop38
140
0.0
102
RTVSPost2010PropOp38
 70
     1
102
RTVSPost2010Prop39
140
1.0
102
RTVSPost2010PropOp39
 70
     1
102
RTVSPost2010Prop40
 90
        0
102
RTVSPost2010PropOp40
 70
     1
102
RTVSPost2010Prop41ColorIndex
 90
       18
102
RTVSPost2010Prop41ColorRGB
 90
        0
102
RTVSPost2010PropOp41
 70
     1
102
RTVSPost2010Prop42
 90
       50
102
RTVSPost2010PropOp42
 70
     1
102
RTVSPost2010Prop43
 90
        3
102
RTVSPost2010PropOp43
 70
     1
102
RTVSPost2010Prop44ColorIndex
 90
        5
102
RTVSPost2010Prop44ColorRGB
 90
      255
102
RTVSPost2010PropOp44
 70
     1
102
RTVSPost2010Prop45
280
     0
102
RTVSPost2010PropOp45
 70
     1
102
RTVSPost2010Prop46
 90
       50
102
RTVSPost2010PropOp46
 70
     1
102
RTVSPost2010Prop47
 90
       50
102
RTVSPost2010PropOp47
 70
     1
102
RTVSPost2010Prop48
 90
       50
102
RTVSPost2010PropOp48
 70
     1
102
RTVSPost2010Prop49
280
     0
102
RTVSPost2010PropOp49
 70
     1
102
RTVSPost2010Prop50
 90
       50
102
RTVSPost2010PropOp50
 70
     1
102
RTVSPost2010Prop51ColorIndex
 90
      256
102
RTVSPost2010Prop51ColorRGB
 90
-16777216
102
RTVSPost2010PropOp51
 70
     0
102
RTVSPost2010Prop52
140
1.0
102
RTVSPost2010PropOp52
 70
     0
102
RTVSPost2010Prop53
 90
        2
102
RTVSPost2010PropOp53
 70
     1
102
RTVSPost2010Prop54
  1
strokes_ogs.tif
102
RTVSPost2010PropOp54
 70
     1
102
RTVSPost2010Prop55
280
     0
102
RTVSPost2010PropOp55
 70
     1
102
RTVSPost2010Prop56
140
1.0
102
RTVSPost2010PropOp56
 70
     1
102
RTVSPost2010Prop57
140
1.0
102
RTVSPost2010PropOp57
 70
     1
102
RTVSPropertyOp0
 70
     1
102
RTVSPropertyOp1
 70
     1
102
RTVSPropertyOp2
 70
     1
102
RTVSPropertyOp3
 70
     1
102
RTVSPropertyOp4
 70
     1
102
RTVSPropertyOp5
 70
     1
102
RTVSPropertyOp6
 70
     1
102
RTVSPropertyOp7
 70
     1
102
RTVSPropertyOp8
 70
     1
102
RTVSPropertyOp9
 70
     1
102
RTVSPropertyOp10
 70
     1
102
RTVSPropertyOp11
 70
     1
102
RTVSPropertyOp12
 70
     1
102
RTVSPropertyOp13
 70
     1
102
RTVSPropertyOp14
 70
     1
102
RTVSPropertyOp15
 70
     1
102
RTVSPropertyOp16
 70
     1
102
RTVSPropertyOp17
 70
     1
102
RTVSPropertyOp18
 70
     1
102
RTVSPropertyOp19
 70
     1
102
RTVSPropertyOp20
 70
     1
102
RTVSPropertyOp21
 70
     1
102
RTVSPropertyOp22
 70
     1
102
RTVSPropertyOp23
 70
     1
102
RTVSPropertyOp24
 70
     1
102
RTVSPropertyOp25
 70
     1
102
RTVSPropertyOp26
 70
     1
102
RTVSPropertyOp27
 70
     1
102
RTVSPropertyOp28
 70
     1
102
RTVSPropertyOp29
 70
     1
102
RTVSPropertyOp30
 70
     1
102
RTVSPropertyOp31
 70
     1
102
RTVSPropertyOp32
 70
     1
102
RTVSPropertyOp33
 70
     1
102
RTVSPropertyOp34
 70
     1
102
RTVSPropertyOp35
 70
     1
102
RTVSPropertyOp36
 70
     1
102
RTVSPropertyOp37
 70
     1
102
RTVSPropertyOp38
 70
     1
102
RTVSPropertyOp39
 70
     1
102
RTVSPropertyOp40
 70
     1
102
RTVSPropertyOp41
 70
     1
102
RTVSPropertyOp42
 70
     1
102
RTVSPropertyOp43
 70
     1
102
RTVSPropertyOp44
 70
     1
102
RTVSPropertyOp45
 70
     1
102
RTVSPropertyOp46
 70
     1
102
RTVSPropertyOp47
 70
     1
102
RTVSPropertyOp48
 70
     1
102
RTVSPropertyOp49
 70
     1
102
RTVSPropertyOp50
 70
     1
102
RTVSPropertyOp51
 70
     0
102
RTVSPropertyOp52
 70
     0
102
RTVSPropertyOp53
 70
     1
102
RTVSPropertyOp54
 70
     1
102
RTVSPropertyOp55
 70
     1
102
RTVSPropertyOp56
 70
     1
102
RTVSPropertyOp57
 70
     1
102
RTVSPropertyOp58
 70
     1
102
RTVSPropertyOp59
 70
     1
102
RTVSPropertyOp60
 70
     1
102
RTVSPropertyOp61
 70
     1
102
RTVSPropertyOp62
 70
     1
  0
XRECORD
  5
31A
102
{ACAD_REACTORS
330
319
102
}
330
319
100
AcDbXrecord
280
     1
102
RTVSPost2010Prop28
280
     0
102
RTVSPost2010PropOp28
 70
     1
102
RTVSPost2010Prop29
280
     1
102
RTVSPost2010PropOp29
 70
     1
102
RTVSPost2010Prop30
280
     1
102
RTVSPost2010PropOp30
 70
     1
102
RTVSPost2010Prop31
280
     0
102
RTVSPost2010PropOp31
 70
     1
102
RTVSPost2010Prop32
280
     0
102
RTVSPost2010PropOp32
 70
     1
102
RTVSPost2010Prop33
280
     0
102
RTVSPost2010PropOp33
 70
     1
102
RTVSPost2010Prop34
280
     0
102
RTVSPost2010PropOp34
 70
     1
102
RTVSPost2010Prop35
280
     0
102
RTVSPost2010PropOp35
 70
     1
102
RTVSPost2010Prop36
280
     0
102
RTVSPost2010PropOp36
 70
     1
102
RTVSPost2010Prop37
 90
       50
102
RTVSPost2010PropOp37
 70
     1
102
RTVSPost2010Prop38
140
0.0
102
RTVSPost2010PropOp38
 70
     1
102
RTVSPost2010Prop39
140
1.0
102
RTVSPost2010PropOp39
 70
     1
102
RTVSPost2010Prop40
 90
        0
102
RTVSPost2010PropOp40
 70
     1
102
RTVSPost2010Prop41ColorIndex
 90
       18
102
RTVSPost2010Prop41ColorRGB
 90
        0
102
RTVSPost2010PropOp41
 70
     1
102
RTVSPost2010Prop42
 90
       50
102
RTVSPost2010PropOp42
 70
     1
102
RTVSPost2010Prop43
 90
        3
102
RTVSPost2010PropOp43
 70
     1
102
RTVSPost2010Prop44ColorIndex
 90
        5
102
RTVSPost2010Prop44ColorRGB
 90
      255
102
RTVSPost2010PropOp44
 70
     1
102
RTVSPost2010Prop45
280
     0
102
RTVSPost2010PropOp45
 70
     1
102
RTVSPost2010Prop46
 90
       50
102
RTVSPost2010PropOp46
 70
     1
102
RTVSPost2010Prop47
 90
       50
102
RTVSPost2010PropOp47
 70
     1
102
RTVSPost2010Prop48
 90
       50
102
RTVSPost2010PropOp48
 70
     1
102
RTVSPost2010Prop49
280
     0
102
RTVSPost2010PropOp49
 70
     1
102
RTVSPost2010Prop50
 90
       50
102
RTVSPost2010PropOp50
 70
     1
102
RTVSPost2010Prop51ColorIndex
 90
      256
102
RTVSPost2010Prop51ColorRGB
 90
-16777216
102
RTVSPost2010PropOp51
 70
     0
102
RTVSPost2010Prop52
140
1.0
102
RTVSPost2010PropOp52
 70
     0
102
RTVSPost2010Prop53
 90
        2
102
RTVSPost2010PropOp53
 70
     1
102
RTVSPost2010Prop54
  1
strokes_ogs.tif
102
RTVSPost2010PropOp54
 70
     1
102
RTVSPost2010Prop55
280
     0
102
RTVSPost2010PropOp55
 70
     1
102
RTVSPost2010Prop56
140
1.0
102
RTVSPost2010PropOp56
 70
     1
102
RTVSPost2010Prop57
140
1.0
102
RTVSPost2010PropOp57
 70
     1
102
RTVSPropertyOp0
 70
     1
102
RTVSPropertyOp1
 70
     1
102
RTVSPropertyOp2
 70
     1
102
RTVSPropertyOp3
 70
     1
102
RTVSPropertyOp4
 70
     1
102
RTVSPropertyOp5
 70
     1
102
RTVSPropertyOp6
 70
     1
102
RTVSPropertyOp7
 70
     1
102
RTVSPropertyOp8
 70
     1
102
RTVSPropertyOp9
 70
     1
102
RTVSPropertyOp10
 70
     1
102
RTVSPropertyOp11
 70
     1
102
RTVSPropertyOp12
 70
     1
102
RTVSPropertyOp13
 70
     1
102
RTVSPropertyOp14
 70
     1
102
RTVSPropertyOp15
 70
     1
102
RTVSPropertyOp16
 70
     1
102
RTVSPropertyOp17
 70
     1
102
RTVSPropertyOp18
 70
     1
102
RTVSPropertyOp19
 70
     1
102
RTVSPropertyOp20
 70
     1
102
RTVSPropertyOp21
 70
     1
102
RTVSPropertyOp22
 70
     1
102
RTVSPropertyOp23
 70
     1
102
RTVSPropertyOp24
 70
     1
102
RTVSPropertyOp25
 70
     1
102
RTVSPropertyOp26
 70
     1
102
RTVSPropertyOp27
 70
     1
102
RTVSPropertyOp28
 70
     1
102
RTVSPropertyOp29
 70
     1
102
RTVSPropertyOp30
 70
     1
102
RTVSPropertyOp31
 70
     1
102
RTVSPropertyOp32
 70
     1
102
RTVSPropertyOp33
 70
     1
102
RTVSPropertyOp34
 70
     1
102
RTVSPropertyOp35
 70
     1
102
RTVSPropertyOp36
 70
     1
102
RTVSPropertyOp37
 70
     1
102
RTVSPropertyOp38
 70
     1
102
RTVSPropertyOp39
 70
     1
102
RTVSPropertyOp40
 70
     1
102
RTVSPropertyOp41
 70
     1
102
RTVSPropertyOp42
 70
     1
102
RTVSPropertyOp43
 70
     1
102
RTVSPropertyOp44
 70
     1
102
RTVSPropertyOp45
 70
     1
102
RTVSPropertyOp46
 70
     1
102
RTVSPropertyOp47
 70
     1
102
RTVSPropertyOp48
 70
     1
102
RTVSPropertyOp49
 70
     1
102
RTVSPropertyOp50
 70
     1
102
RTVSPropertyOp51
 70
     0
102
RTVSPropertyOp52
 70
     0
102
RTVSPropertyOp53
 70
     1
102
RTVSPropertyOp54
 70
     1
102
RTVSPropertyOp55
 70
     1
102
RTVSPropertyOp56
 70
     1
102
RTVSPropertyOp57
 70
     1
102
RTVSPropertyOp58
 70
     1
102
RTVSPropertyOp59
 70
     1
102
RTVSPropertyOp60
 70
     1
102
RTVSPropertyOp61
 70
     1
102
RTVSPropertyOp62
 70
     1
  0
XRECORD
  5
31C
102
{ACAD_REACTORS
330
31B
102
}
330
31B
100
AcDbXrecord
280
     1
102
RTVSPost2010Prop28
280
     0
102
RTVSPost2010PropOp28
 70
     1
102
RTVSPost2010Prop29
280
     1
102
RTVSPost2010PropOp29
 70
     1
102
RTVSPost2010Prop30
280
     1
102
RTVSPost2010PropOp30
 70
     1
102
RTVSPost2010Prop31
280
     0
102
RTVSPost2010PropOp31
 70
     1
102
RTVSPost2010Prop32
280
     0
102
RTVSPost2010PropOp32
 70
     1
102
RTVSPost2010Prop33
280
     0
102
RTVSPost2010PropOp33
 70
     1
102
RTVSPost2010Prop34
280
     0
102
RTVSPost2010PropOp34
 70
     1
102
RTVSPost2010Prop35
280
     0
102
RTVSPost2010PropOp35
 70
     1
102
RTVSPost2010Prop36
280
     0
102
RTVSPost2010PropOp36
 70
     1
102
RTVSPost2010Prop37
 90
       50
102
RTVSPost2010PropOp37
 70
     1
102
RTVSPost2010Prop38
140
0.0
102
RTVSPost2010PropOp38
 70
     1
102
RTVSPost2010Prop39
140
1.0
102
RTVSPost2010PropOp39
 70
     1
102
RTVSPost2010Prop40
 90
        0
102
RTVSPost2010PropOp40
 70
     1
102
RTVSPost2010Prop41ColorIndex
 90
       18
102
RTVSPost2010Prop41ColorRGB
 90
        0
102
RTVSPost2010PropOp41
 70
     1
102
RTVSPost2010Prop42
 90
       50
102
RTVSPost2010PropOp42
 70
     1
102
RTVSPost2010Prop43
 90
        3
102
RTVSPost2010PropOp43
 70
     1
102
RTVSPost2010Prop44ColorIndex
 90
        5
102
RTVSPost2010Prop44ColorRGB
 90
      255
102
RTVSPost2010PropOp44
 70
     1
102
RTVSPost2010Prop45
280
     0
102
RTVSPost2010PropOp45
 70
     1
102
RTVSPost2010Prop46
 90
       50
102
RTVSPost2010PropOp46
 70
     1
102
RTVSPost2010Prop47
 90
       50
102
RTVSPost2010PropOp47
 70
     1
102
RTVSPost2010Prop48
 90
       50
102
RTVSPost2010PropOp48
 70
     1
102
RTVSPost2010Prop49
280
     0
102
RTVSPost2010PropOp49
 70
     1
102
RTVSPost2010Prop50
 90
       50
102
RTVSPost2010PropOp50
 70
     1
102
RTVSPost2010Prop51ColorIndex
 90
      256
102
RTVSPost2010Prop51ColorRGB
 90
-16777216
102
RTVSPost2010PropOp51
 70
     0
102
RTVSPost2010Prop52
140
1.0
102
RTVSPost2010PropOp52
 70
     0
102
RTVSPost2010Prop53
 90
        2
102
RTVSPost2010PropOp53
 70
     1
102
RTVSPost2010Prop54
  1
strokes_ogs.tif
102
RTVSPost2010PropOp54
 70
     1
102
RTVSPost2010Prop55
280
     0
102
RTVSPost2010PropOp55
 70
     1
102
RTVSPost2010Prop56
140
1.0
102
RTVSPost2010PropOp56
 70
     1
102
RTVSPost2010Prop57
140
1.0
102
RTVSPost2010PropOp57
 70
     1
102
RTVSPropertyOp0
 70
     1
102
RTVSPropertyOp1
 70
     1
102
RTVSPropertyOp2
 70
     1
102
RTVSPropertyOp3
 70
     1
102
RTVSPropertyOp4
 70
     1
102
RTVSPropertyOp5
 70
     1
102
RTVSPropertyOp6
 70
     1
102
RTVSPropertyOp7
 70
     1
102
RTVSPropertyOp8
 70
     1
102
RTVSPropertyOp9
 70
     1
102
RTVSPropertyOp10
 70
     1
102
RTVSPropertyOp11
 70
     1
102
RTVSPropertyOp12
 70
     1
102
RTVSPropertyOp13
 70
     1
102
RTVSPropertyOp14
 70
     1
102
RTVSPropertyOp15
 70
     1
102
RTVSPropertyOp16
 70
     1
102
RTVSPropertyOp17
 70
     1
102
RTVSPropertyOp18
 70
     1
102
RTVSPropertyOp19
 70
     1
102
RTVSPropertyOp20
 70
     1
102
RTVSPropertyOp21
 70
     1
102
RTVSPropertyOp22
 70
     1
102
RTVSPropertyOp23
 70
     1
102
RTVSPropertyOp24
 70
     1
102
RTVSPropertyOp25
 70
     1
102
RTVSPropertyOp26
 70
     1
102
RTVSPropertyOp27
 70
     1
102
RTVSPropertyOp28
 70
     1
102
RTVSPropertyOp29
 70
     1
102
RTVSPropertyOp30
 70
     1
102
RTVSPropertyOp31
 70
     1
102
RTVSPropertyOp32
 70
     1
102
RTVSPropertyOp33
 70
     1
102
RTVSPropertyOp34
 70
     1
102
RTVSPropertyOp35
 70
     1
102
RTVSPropertyOp36
 70
     1
102
RTVSPropertyOp37
 70
     1
102
RTVSPropertyOp38
 70
     1
102
RTVSPropertyOp39
 70
     1
102
RTVSPropertyOp40
 70
     1
102
RTVSPropertyOp41
 70
     1
102
RTVSPropertyOp42
 70
     1
102
RTVSPropertyOp43
 70
     1
102
RTVSPropertyOp44
 70
     1
102
RTVSPropertyOp45
 70
     1
102
RTVSPropertyOp46
 70
     1
102
RTVSPropertyOp47
 70
     1
102
RTVSPropertyOp48
 70
     1
102
RTVSPropertyOp49
 70
     1
102
RTVSPropertyOp50
 70
     1
102
RTVSPropertyOp51
 70
     0
102
RTVSPropertyOp52
 70
     0
102
RTVSPropertyOp53
 70
     1
102
RTVSPropertyOp54
 70
     1
102
RTVSPropertyOp55
 70
     1
102
RTVSPropertyOp56
 70
     1
102
RTVSPropertyOp57
 70
     1
102
RTVSPropertyOp58
 70
     1
102
RTVSPropertyOp59
 70
     1
102
RTVSPropertyOp60
 70
     1
102
RTVSPropertyOp61
 70
     1
102
RTVSPropertyOp62
 70
     1
  0
XRECORD
  5
324
102
{ACAD_REACTORS
330
323
102
}
330
323
100
AcDbXrecord
280
     1
102
RTVSPost2010Prop28
280
     0
102
RTVSPost2010PropOp28
 70
     1
102
RTVSPost2010Prop29
280
     1
102
RTVSPost2010PropOp29
 70
     1
102
RTVSPost2010Prop30
280
     1
102
RTVSPost2010PropOp30
 70
     1
102
RTVSPost2010Prop31
280
     0
102
RTVSPost2010PropOp31
 70
     1
102
RTVSPost2010Prop32
280
     0
102
RTVSPost2010PropOp32
 70
     1
102
RTVSPost2010Prop33
280
     0
102
RTVSPost2010PropOp33
 70
     1
102
RTVSPost2010Prop34
280
     0
102
RTVSPost2010PropOp34
 70
     1
102
RTVSPost2010Prop35
280
     0
102
RTVSPost2010PropOp35
 70
     1
102
RTVSPost2010Prop36
280
     0
102
RTVSPost2010PropOp36
 70
     1
102
RTVSPost2010Prop37
 90
       50
102
RTVSPost2010PropOp37
 70
     1
102
RTVSPost2010Prop38
140
0.0
102
RTVSPost2010PropOp38
 70
     1
102
RTVSPost2010Prop39
140
1.0
102
RTVSPost2010PropOp39
 70
     1
102
RTVSPost2010Prop40
 90
        0
102
RTVSPost2010PropOp40
 70
     1
102
RTVSPost2010Prop41ColorIndex
 90
       18
102
RTVSPost2010Prop41ColorRGB
 90
        0
102
RTVSPost2010PropOp41
 70
     1
102
RTVSPost2010Prop42
 90
       50
102
RTVSPost2010PropOp42
 70
     1
102
RTVSPost2010Prop43
 90
        3
102
RTVSPost2010PropOp43
 70
     1
102
RTVSPost2010Prop44ColorIndex
 90
        5
102
RTVSPost2010Prop44ColorRGB
 90
      255
102
RTVSPost2010PropOp44
 70
     1
102
RTVSPost2010Prop45
280
     0
102
RTVSPost2010PropOp45
 70
     1
102
RTVSPost2010Prop46
 90
       50
102
RTVSPost2010PropOp46
 70
     1
102
RTVSPost2010Prop47
 90
       50
102
RTVSPost2010PropOp47
 70
     1
102
RTVSPost2010Prop48
 90
       50
102
RTVSPost2010PropOp48
 70
     1
102
RTVSPost2010Prop49
280
     0
102
RTVSPost2010PropOp49
 70
     1
102
RTVSPost2010Prop50
 90
       50
102
RTVSPost2010PropOp50
 70
     1
102
RTVSPost2010Prop51ColorIndex
 90
      256
102
RTVSPost2010Prop51ColorRGB
 90
-16777216
102
RTVSPost2010PropOp51
 70
     0
102
RTVSPost2010Prop52
140
1.0
102
RTVSPost2010PropOp52
 70
     0
102
RTVSPost2010Prop53
 90
        2
102
RTVSPost2010PropOp53
 70
     1
102
RTVSPost2010Prop54
  1
strokes_ogs.tif
102
RTVSPost2010PropOp54
 70
     1
102
RTVSPost2010Prop55
280
     0
102
RTVSPost2010PropOp55
 70
     1
102
RTVSPost2010Prop56
140
1.0
102
RTVSPost2010PropOp56
 70
     1
102
RTVSPost2010Prop57
140
1.0
102
RTVSPost2010PropOp57
 70
     1
102
RTVSPropertyOp0
 70
     1
102
RTVSPropertyOp1
 70
     1
102
RTVSPropertyOp2
 70
     1
102
RTVSPropertyOp3
 70
     1
102
RTVSPropertyOp4
 70
     1
102
RTVSPropertyOp5
 70
     1
102
RTVSPropertyOp6
 70
     1
102
RTVSPropertyOp7
 70
     1
102
RTVSPropertyOp8
 70
     1
102
RTVSPropertyOp9
 70
     1
102
RTVSPropertyOp10
 70
     1
102
RTVSPropertyOp11
 70
     1
102
RTVSPropertyOp12
 70
     1
102
RTVSPropertyOp13
 70
     1
102
RTVSPropertyOp14
 70
     1
102
RTVSPropertyOp15
 70
     1
102
RTVSPropertyOp16
 70
     1
102
RTVSPropertyOp17
 70
     1
102
RTVSPropertyOp18
 70
     1
102
RTVSPropertyOp19
 70
     1
102
RTVSPropertyOp20
 70
     1
102
RTVSPropertyOp21
 70
     1
102
RTVSPropertyOp22
 70
     1
102
RTVSPropertyOp23
 70
     1
102
RTVSPropertyOp24
 70
     1
102
RTVSPropertyOp25
 70
     1
102
RTVSPropertyOp26
 70
     1
102
RTVSPropertyOp27
 70
     1
102
RTVSPropertyOp28
 70
     1
102
RTVSPropertyOp29
 70
     1
102
RTVSPropertyOp30
 70
     1
102
RTVSPropertyOp31
 70
     1
102
RTVSPropertyOp32
 70
     1
102
RTVSPropertyOp33
 70
     1
102
RTVSPropertyOp34
 70
     1
102
RTVSPropertyOp35
 70
     1
102
RTVSPropertyOp36
 70
     1
102
RTVSPropertyOp37
 70
     1
102
RTVSPropertyOp38
 70
     1
102
RTVSPropertyOp39
 70
     1
102
RTVSPropertyOp40
 70
     1
102
RTVSPropertyOp41
 70
     1
102
RTVSPropertyOp42
 70
     1
102
RTVSPropertyOp43
 70
     1
102
RTVSPropertyOp44
 70
     1
102
RTVSPropertyOp45
 70
     1
102
RTVSPropertyOp46
 70
     1
102
RTVSPropertyOp47
 70
     1
102
RTVSPropertyOp48
 70
     1
102
RTVSPropertyOp49
 70
     1
102
RTVSPropertyOp50
 70
     1
102
RTVSPropertyOp51
 70
     0
102
RTVSPropertyOp52
 70
     0
102
RTVSPropertyOp53
 70
     1
102
RTVSPropertyOp54
 70
     1
102
RTVSPropertyOp55
 70
     1
102
RTVSPropertyOp56
 70
     1
102
RTVSPropertyOp57
 70
     1
102
RTVSPropertyOp58
 70
     1
102
RTVSPropertyOp59
 70
     1
102
RTVSPropertyOp60
 70
     1
102
RTVSPropertyOp61
 70
     1
102
RTVSPropertyOp62
 70
     1
  0
XRECORD
  5
340
102
{ACAD_REACTORS
330
33F
102
}
330
33F
100
AcDbXrecord
280
     1
102
RTVSPost2010Prop28
280
     0
102
RTVSPost2010PropOp28
 70
     1
102
RTVSPost2010Prop29
280
     1
102
RTVSPost2010PropOp29
 70
     1
102
RTVSPost2010Prop30
280
     1
102
RTVSPost2010PropOp30
 70
     1
102
RTVSPost2010Prop31
280
     0
102
RTVSPost2010PropOp31
 70
     1
102
RTVSPost2010Prop32
280
     0
102
RTVSPost2010PropOp32
 70
     1
102
RTVSPost2010Prop33
280
     0
102
RTVSPost2010PropOp33
 70
     1
102
RTVSPost2010Prop34
280
     0
102
RTVSPost2010PropOp34
 70
     1
102
RTVSPost2010Prop35
280
     0
102
RTVSPost2010PropOp35
 70
     1
102
RTVSPost2010Prop36
280
     0
102
RTVSPost2010PropOp36
 70
     1
102
RTVSPost2010Prop37
 90
       50
102
RTVSPost2010PropOp37
 70
     0
102
RTVSPost2010Prop38
140
0.0
102
RTVSPost2010PropOp38
 70
     0
102
RTVSPost2010Prop39
140
1.0
102
RTVSPost2010PropOp39
 70
     0
102
RTVSPost2010Prop40
 90
        0
102
RTVSPost2010PropOp40
 70
     0
102
RTVSPost2010Prop41ColorIndex
 90
       18
102
RTVSPost2010Prop41ColorRGB
 90
        0
102
RTVSPost2010PropOp41
 70
     0
102
RTVSPost2010Prop42
 90
       50
102
RTVSPost2010PropOp42
 70
     0
102
RTVSPost2010Prop43
 90
        3
102
RTVSPost2010PropOp43
 70
     0
102
RTVSPost2010Prop44ColorIndex
 90
        5
102
RTVSPost2010Prop44ColorRGB
 90
      255
102
RTVSPost2010PropOp44
 70
     0
102
RTVSPost2010Prop45
280
     0
102
RTVSPost2010PropOp45
 70
     1
102
RTVSPost2010Prop46
 90
       50
102
RTVSPost2010PropOp46
 70
     0
102
RTVSPost2010Prop47
 90
       50
102
RTVSPost2010PropOp47
 70
     0
102
RTVSPost2010Prop48
 90
       50
102
RTVSPost2010PropOp48
 70
     0
102
RTVSPost2010Prop49
280
     0
102
RTVSPost2010PropOp49
 70
     1
102
RTVSPost2010Prop50
 90
       50
102
RTVSPost2010PropOp50
 70
     0
102
RTVSPost2010Prop51ColorIndex
 90
      256
102
RTVSPost2010Prop51ColorRGB
 90
-16777216
102
RTVSPost2010PropOp51
 70
     0
102
RTVSPost2010Prop52
140
1.0
102
RTVSPost2010PropOp52
 70
     0
102
RTVSPost2010Prop53
 90
        2
102
RTVSPost2010PropOp53
 70
     0
102
RTVSPost2010Prop54
  1
strokes_ogs.tif
102
RTVSPost2010PropOp54
 70
     0
102
RTVSPost2010Prop55
280
     0
102
RTVSPost2010PropOp55
 70
     1
102
RTVSPost2010Prop56
140
1.0
102
RTVSPost2010PropOp56
 70
     0
102
RTVSPost2010Prop57
140
1.0
102
RTVSPost2010PropOp57
 70
     0
102
RTVSPropertyOp0
 70
     0
102
RTVSPropertyOp1
 70
     0
102
RTVSPropertyOp2
 70
     0
102
RTVSPropertyOp3
 70
     0
102
RTVSPropertyOp4
 70
     0
102
RTVSPropertyOp5
 70
     0
102
RTVSPropertyOp6
 70
     0
102
RTVSPropertyOp7
 70
     0
102
RTVSPropertyOp8
 70
     0
102
RTVSPropertyOp9
 70
     0
102
RTVSPropertyOp10
 70
     0
102
RTVSPropertyOp11
 70
     0
102
RTVSPropertyOp12
 70
     0
102
RTVSPropertyOp13
 70
     0
102
RTVSPropertyOp14
 70
     2
102
RTVSPropertyOp15
 70
     0
102
RTVSPropertyOp16
 70
     0
102
RTVSPropertyOp17
 70
     0
102
RTVSPropertyOp18
 70
     0
102
RTVSPropertyOp19
 70
     0
102
RTVSPropertyOp20
 70
     0
102
RTVSPropertyOp21
 70
     0
102
RTVSPropertyOp22
 70
     0
102
RTVSPropertyOp23
 70
     0
102
RTVSPropertyOp24
 70
     0
102
RTVSPropertyOp25
 70
     0
102
RTVSPropertyOp26
 70
     0
102
RTVSPropertyOp27
 70
     0
102
RTVSPropertyOp28
 70
     1
102
RTVSPropertyOp29
 70
     1
102
RTVSPropertyOp30
 70
     1
102
RTVSPropertyOp31
 70
     1
102
RTVSPropertyOp32
 70
     1
102
RTVSPropertyOp33
 70
     1
102
RTVSPropertyOp34
 70
     1
102
RTVSPropertyOp35
 70
     1
102
RTVSPropertyOp36
 70
     1
102
RTVSPropertyOp37
 70
     0
102
RTVSPropertyOp38
 70
     0
102
RTVSPropertyOp39
 70
     0
102
RTVSPropertyOp40
 70
     0
102
RTVSPropertyOp41
 70
     0
102
RTVSPropertyOp42
 70
     0
102
RTVSPropertyOp43
 70
     0
102
RTVSPropertyOp44
 70
     0
102
RTVSPropertyOp45
 70
     1
102
RTVSPropertyOp46
 70
     0
102
RTVSPropertyOp47
 70
     0
102
RTVSPropertyOp48
 70
     0
102
RTVSPropertyOp49
 70
     1
102
RTVSPropertyOp50
 70
     0
102
RTVSPropertyOp51
 70
     0
102
RTVSPropertyOp52
 70
     0
102
RTVSPropertyOp53
 70
     0
102
RTVSPropertyOp54
 70
     0
102
RTVSPropertyOp55
 70
     1
102
RTVSPropertyOp56
 70
     0
102
RTVSPropertyOp57
 70
     0
102
RTVSPropertyOp58
 70
     0
102
RTVSPropertyOp59
 70
     0
102
RTVSPropertyOp60
 70
     0
102
RTVSPropertyOp61
 70
     0
102
RTVSPropertyOp62
 70
     0
  0
XRECORD
  5
330
102
{ACAD_REACTORS
330
32F
102
}
330
32F
100
AcDbXrecord
280
     1
102
RTVSPost2010Prop28
280
     0
102
RTVSPost2010PropOp28
 70
     1
102
RTVSPost2010Prop29
280
     1
102
RTVSPost2010PropOp29
 70
     1
102
RTVSPost2010Prop30
280
     1
102
RTVSPost2010PropOp30
 70
     1
102
RTVSPost2010Prop31
280
     0
102
RTVSPost2010PropOp31
 70
     1
102
RTVSPost2010Prop32
280
     0
102
RTVSPost2010PropOp32
 70
     1
102
RTVSPost2010Prop33
280
     0
102
RTVSPost2010PropOp33
 70
     1
102
RTVSPost2010Prop34
280
     0
102
RTVSPost2010PropOp34
 70
     1
102
RTVSPost2010Prop35
280
     0
102
RTVSPost2010PropOp35
 70
     1
102
RTVSPost2010Prop36
280
     0
102
RTVSPost2010PropOp36
 70
     1
102
RTVSPost2010Prop37
 90
       50
102
RTVSPost2010PropOp37
 70
     1
102
RTVSPost2010Prop38
140
0.0
102
RTVSPost2010PropOp38
 70
     1
102
RTVSPost2010Prop39
140
1.0
102
RTVSPost2010PropOp39
 70
     1
102
RTVSPost2010Prop40
 90
        0
102
RTVSPost2010PropOp40
 70
     1
102
RTVSPost2010Prop41ColorIndex
 90
       18
102
RTVSPost2010Prop41ColorRGB
 90
        0
102
RTVSPost2010PropOp41
 70
     1
102
RTVSPost2010Prop42
 90
       50
102
RTVSPost2010PropOp42
 70
     1
102
RTVSPost2010Prop43
 90
        3
102
RTVSPost2010PropOp43
 70
     1
102
RTVSPost2010Prop44ColorIndex
 90
        5
102
RTVSPost2010Prop44ColorRGB
 90
      255
102
RTVSPost2010PropOp44
 70
     1
102
RTVSPost2010Prop45
280
     0
102
RTVSPost2010PropOp45
 70
     1
102
RTVSPost2010Prop46
 90
       50
102
RTVSPost2010PropOp46
 70
     1
102
RTVSPost2010Prop47
 90
       50
102
RTVSPost2010PropOp47
 70
     1
102
RTVSPost2010Prop48
 90
       50
102
RTVSPost2010PropOp48
 70
     1
102
RTVSPost2010Prop49
280
     0
102
RTVSPost2010PropOp49
 70
     1
102
RTVSPost2010Prop50
 90
       50
102
RTVSPost2010PropOp50
 70
     1
102
RTVSPost2010Prop51ColorIndex
 90
      256
102
RTVSPost2010Prop51ColorRGB
 90
-16777216
102
RTVSPost2010PropOp51
 70
     0
102
RTVSPost2010Prop52
140
1.0
102
RTVSPost2010PropOp52
 70
     0
102
RTVSPost2010Prop53
 90
        2
102
RTVSPost2010PropOp53
 70
     1
102
RTVSPost2010Prop54
  1
strokes_ogs.tif
102
RTVSPost2010PropOp54
 70
     1
102
RTVSPost2010Prop55
280
     0
102
RTVSPost2010PropOp55
 70
     1
102
RTVSPost2010Prop56
140
1.0
102
RTVSPost2010PropOp56
 70
     1
102
RTVSPost2010Prop57
140
1.0
102
RTVSPost2010PropOp57
 70
     1
102
RTVSPropertyOp0
 70
     1
102
RTVSPropertyOp1
 70
     1
102
RTVSPropertyOp2
 70
     1
102
RTVSPropertyOp3
 70
     1
102
RTVSPropertyOp4
 70
     1
102
RTVSPropertyOp5
 70
     1
102
RTVSPropertyOp6
 70
     1
102
RTVSPropertyOp7
 70
     1
102
RTVSPropertyOp8
 70
     1
102
RTVSPropertyOp9
 70
     1
102
RTVSPropertyOp10
 70
     1
102
RTVSPropertyOp11
 70
     1
102
RTVSPropertyOp12
 70
     1
102
RTVSPropertyOp13
 70
     1
102
RTVSPropertyOp14
 70
     1
102
RTVSPropertyOp15
 70
     1
102
RTVSPropertyOp16
 70
     1
102
RTVSPropertyOp17
 70
     1
102
RTVSPropertyOp18
 70
     1
102
RTVSPropertyOp19
 70
     1
102
RTVSPropertyOp20
 70
     1
102
RTVSPropertyOp21
 70
     1
102
RTVSPropertyOp22
 70
     1
102
RTVSPropertyOp23
 70
     1
102
RTVSPropertyOp24
 70
     1
102
RTVSPropertyOp25
 70
     1
102
RTVSPropertyOp26
 70
     1
102
RTVSPropertyOp27
 70
     1
102
RTVSPropertyOp28
 70
     1
102
RTVSPropertyOp29
 70
     1
102
RTVSPropertyOp30
 70
     1
102
RTVSPropertyOp31
 70
     1
102
RTVSPropertyOp32
 70
     1
102
RTVSPropertyOp33
 70
     1
102
RTVSPropertyOp34
 70
     1
102
RTVSPropertyOp35
 70
     1
102
RTVSPropertyOp36
 70
     1
102
RTVSPropertyOp37
 70
     1
102
RTVSPropertyOp38
 70
     1
102
RTVSPropertyOp39
 70
     1
102
RTVSPropertyOp40
 70
     1
102
RTVSPropertyOp41
 70
     1
102
RTVSPropertyOp42
 70
     1
102
RTVSPropertyOp43
 70
     1
102
RTVSPropertyOp44
 70
     1
102
RTVSPropertyOp45
 70
     1
102
RTVSPropertyOp46
 70
     1
102
RTVSPropertyOp47
 70
     1
102
RTVSPropertyOp48
 70
     1
102
RTVSPropertyOp49
 70
     1
102
RTVSPropertyOp50
 70
     1
102
RTVSPropertyOp51
 70
     0
102
RTVSPropertyOp52
 70
     0
102
RTVSPropertyOp53
 70
     1
102
RTVSPropertyOp54
 70
     1
102
RTVSPropertyOp55
 70
     1
102
RTVSPropertyOp56
 70
     1
102
RTVSPropertyOp57
 70
     1
102
RTVSPropertyOp58
 70
     1
102
RTVSPropertyOp59
 70
     1
102
RTVSPropertyOp60
 70
     1
102
RTVSPropertyOp61
 70
     1
102
RTVSPropertyOp62
 70
     1
  0
XRECORD
  5
342
102
{ACAD_REACTORS
330
341
102
}
330
341
100
AcDbXrecord
280
     1
102
RTVSPost2010Prop28
280
     0
102
RTVSPost2010PropOp28
 70
     1
102
RTVSPost2010Prop29
280
     1
102
RTVSPost2010PropOp29
 70
     1
102
RTVSPost2010Prop30
280
     1
102
RTVSPost2010PropOp30
 70
     1
102
RTVSPost2010Prop31
280
     0
102
RTVSPost2010PropOp31
 70
     1
102
RTVSPost2010Prop32
280
     0
102
RTVSPost2010PropOp32
 70
     1
102
RTVSPost2010Prop33
280
     0
102
RTVSPost2010PropOp33
 70
     1
102
RTVSPost2010Prop34
280
     0
102
RTVSPost2010PropOp34
 70
     1
102
RTVSPost2010Prop35
280
     0
102
RTVSPost2010PropOp35
 70
     1
102
RTVSPost2010Prop36
280
     0
102
RTVSPost2010PropOp36
 70
     1
102
RTVSPost2010Prop37
 90
       50
102
RTVSPost2010PropOp37
 70
     0
102
RTVSPost2010Prop38
140
0.0
102
RTVSPost2010PropOp38
 70
     0
102
RTVSPost2010Prop39
140
1.0
102
RTVSPost2010PropOp39
 70
     0
102
RTVSPost2010Prop40
 90
        0
102
RTVSPost2010PropOp40
 70
     0
102
RTVSPost2010Prop41ColorIndex
 90
       18
102
RTVSPost2010Prop41ColorRGB
 90
        0
102
RTVSPost2010PropOp41
 70
     0
102
RTVSPost2010Prop42
 90
       50
102
RTVSPost2010PropOp42
 70
     0
102
RTVSPost2010Prop43
 90
        3
102
RTVSPost2010PropOp43
 70
     0
102
RTVSPost2010Prop44ColorIndex
 90
        5
102
RTVSPost2010Prop44ColorRGB
 90
      255
102
RTVSPost2010PropOp44
 70
     0
102
RTVSPost2010Prop45
280
     0
102
RTVSPost2010PropOp45
 70
     1
102
RTVSPost2010Prop46
 90
       50
102
RTVSPost2010PropOp46
 70
     0
102
RTVSPost2010Prop47
 90
       50
102
RTVSPost2010PropOp47
 70
     0
102
RTVSPost2010Prop48
 90
       50
102
RTVSPost2010PropOp48
 70
     0
102
RTVSPost2010Prop49
280
     0
102
RTVSPost2010PropOp49
 70
     1
102
RTVSPost2010Prop50
 90
       50
102
RTVSPost2010PropOp50
 70
     0
102
RTVSPost2010Prop51ColorIndex
 90
      256
102
RTVSPost2010Prop51ColorRGB
 90
-16777216
102
RTVSPost2010PropOp51
 70
     0
102
RTVSPost2010Prop52
140
1.0
102
RTVSPost2010PropOp52
 70
     0
102
RTVSPost2010Prop53
 90
        2
102
RTVSPost2010PropOp53
 70
     0
102
RTVSPost2010Prop54
  1
strokes_ogs.tif
102
RTVSPost2010PropOp54
 70
     0
102
RTVSPost2010Prop55
280
     0
102
RTVSPost2010PropOp55
 70
     1
102
RTVSPost2010Prop56
140
1.0
102
RTVSPost2010PropOp56
 70
     0
102
RTVSPost2010Prop57
140
1.0
102
RTVSPost2010PropOp57
 70
     0
102
RTVSPropertyOp0
 70
     0
102
RTVSPropertyOp1
 70
     0
102
RTVSPropertyOp2
 70
     0
102
RTVSPropertyOp3
 70
     0
102
RTVSPropertyOp4
 70
     0
102
RTVSPropertyOp5
 70
     0
102
RTVSPropertyOp6
 70
     0
102
RTVSPropertyOp7
 70
     0
102
RTVSPropertyOp8
 70
     0
102
RTVSPropertyOp9
 70
     0
102
RTVSPropertyOp10
 70
     0
102
RTVSPropertyOp11
 70
     0
102
RTVSPropertyOp12
 70
     0
102
RTVSPropertyOp13
 70
     0
102
RTVSPropertyOp14
 70
     2
102
RTVSPropertyOp15
 70
     0
102
RTVSPropertyOp16
 70
     0
102
RTVSPropertyOp17
 70
     0
102
RTVSPropertyOp18
 70
     0
102
RTVSPropertyOp19
 70
     0
102
RTVSPropertyOp20
 70
     0
102
RTVSPropertyOp21
 70
     0
102
RTVSPropertyOp22
 70
     0
102
RTVSPropertyOp23
 70
     0
102
RTVSPropertyOp24
 70
     0
102
RTVSPropertyOp25
 70
     0
102
RTVSPropertyOp26
 70
     0
102
RTVSPropertyOp27
 70
     0
102
RTVSPropertyOp28
 70
     1
102
RTVSPropertyOp29
 70
     1
102
RTVSPropertyOp30
 70
     1
102
RTVSPropertyOp31
 70
     1
102
RTVSPropertyOp32
 70
     1
102
RTVSPropertyOp33
 70
     1
102
RTVSPropertyOp34
 70
     1
102
RTVSPropertyOp35
 70
     1
102
RTVSPropertyOp36
 70
     1
102
RTVSPropertyOp37
 70
     0
102
RTVSPropertyOp38
 70
     0
102
RTVSPropertyOp39
 70
     0
102
RTVSPropertyOp40
 70
     0
102
RTVSPropertyOp41
 70
     0
102
RTVSPropertyOp42
 70
     0
102
RTVSPropertyOp43
 70
     0
102
RTVSPropertyOp44
 70
     0
102
RTVSPropertyOp45
 70
     1
102
RTVSPropertyOp46
 70
     0
102
RTVSPropertyOp47
 70
     0
102
RTVSPropertyOp48
 70
     0
102
RTVSPropertyOp49
 70
     1
102
RTVSPropertyOp50
 70
     0
102
RTVSPropertyOp51
 70
     0
102
RTVSPropertyOp52
 70
     0
102
RTVSPropertyOp53
 70
     0
102
RTVSPropertyOp54
 70
     0
102
RTVSPropertyOp55
 70
     1
102
RTVSPropertyOp56
 70
     0
102
RTVSPropertyOp57
 70
     0
102
RTVSPropertyOp58
 70
     0
102
RTVSPropertyOp59
 70
     0
102
RTVSPropertyOp60
 70
     0
102
RTVSPropertyOp61
 70
     0
102
RTVSPropertyOp62
 70
     0
  0
XRECORD
  5
328
102
{ACAD_REACTORS
330
327
102
}
330
327
100
AcDbXrecord
280
     1
102
RTVSPost2010Prop28
280
     0
102
RTVSPost2010PropOp28
 70
     1
102
RTVSPost2010Prop29
280
     1
102
RTVSPost2010PropOp29
 70
     1
102
RTVSPost2010Prop30
280
     1
102
RTVSPost2010PropOp30
 70
     1
102
RTVSPost2010Prop31
280
     0
102
RTVSPost2010PropOp31
 70
     1
102
RTVSPost2010Prop32
280
     0
102
RTVSPost2010PropOp32
 70
     1
102
RTVSPost2010Prop33
280
     0
102
RTVSPost2010PropOp33
 70
     1
102
RTVSPost2010Prop34
280
     0
102
RTVSPost2010PropOp34
 70
     1
102
RTVSPost2010Prop35
280
     0
102
RTVSPost2010PropOp35
 70
     1
102
RTVSPost2010Prop36
280
     0
102
RTVSPost2010PropOp36
 70
     1
102
RTVSPost2010Prop37
 90
       50
102
RTVSPost2010PropOp37
 70
     1
102
RTVSPost2010Prop38
140
0.0
102
RTVSPost2010PropOp38
 70
     1
102
RTVSPost2010Prop39
140
1.0
102
RTVSPost2010PropOp39
 70
     1
102
RTVSPost2010Prop40
 90
        0
102
RTVSPost2010PropOp40
 70
     1
102
RTVSPost2010Prop41ColorIndex
 90
       18
102
RTVSPost2010Prop41ColorRGB
 90
        0
102
RTVSPost2010PropOp41
 70
     1
102
RTVSPost2010Prop42
 90
       50
102
RTVSPost2010PropOp42
 70
     1
102
RTVSPost2010Prop43
 90
        3
102
RTVSPost2010PropOp43
 70
     1
102
RTVSPost2010Prop44ColorIndex
 90
        5
102
RTVSPost2010Prop44ColorRGB
 90
      255
102
RTVSPost2010PropOp44
 70
     1
102
RTVSPost2010Prop45
280
     0
102
RTVSPost2010PropOp45
 70
     1
102
RTVSPost2010Prop46
 90
       50
102
RTVSPost2010PropOp46
 70
     1
102
RTVSPost2010Prop47
 90
       50
102
RTVSPost2010PropOp47
 70
     1
102
RTVSPost2010Prop48
 90
       50
102
RTVSPost2010PropOp48
 70
     1
102
RTVSPost2010Prop49
280
     0
102
RTVSPost2010PropOp49
 70
     1
102
RTVSPost2010Prop50
 90
       50
102
RTVSPost2010PropOp50
 70
     1
102
RTVSPost2010Prop51ColorIndex
 90
      256
102
RTVSPost2010Prop51ColorRGB
 90
-16777216
102
RTVSPost2010PropOp51
 70
     0
102
RTVSPost2010Prop52
140
1.0
102
RTVSPost2010PropOp52
 70
     0
102
RTVSPost2010Prop53
 90
        2
102
RTVSPost2010PropOp53
 70
     1
102
RTVSPost2010Prop54
  1
strokes_ogs.tif
102
RTVSPost2010PropOp54
 70
     1
102
RTVSPost2010Prop55
280
     0
102
RTVSPost2010PropOp55
 70
     1
102
RTVSPost2010Prop56
140
1.0
102
RTVSPost2010PropOp56
 70
     1
102
RTVSPost2010Prop57
140
1.0
102
RTVSPost2010PropOp57
 70
     1
102
RTVSPropertyOp0
 70
     1
102
RTVSPropertyOp1
 70
     1
102
RTVSPropertyOp2
 70
     1
102
RTVSPropertyOp3
 70
     1
102
RTVSPropertyOp4
 70
     1
102
RTVSPropertyOp5
 70
     1
102
RTVSPropertyOp6
 70
     1
102
RTVSPropertyOp7
 70
     1
102
RTVSPropertyOp8
 70
     1
102
RTVSPropertyOp9
 70
     1
102
RTVSPropertyOp10
 70
     1
102
RTVSPropertyOp11
 70
     1
102
RTVSPropertyOp12
 70
     1
102
RTVSPropertyOp13
 70
     1
102
RTVSPropertyOp14
 70
     1
102
RTVSPropertyOp15
 70
     1
102
RTVSPropertyOp16
 70
     1
102
RTVSPropertyOp17
 70
     1
102
RTVSPropertyOp18
 70
     1
102
RTVSPropertyOp19
 70
     1
102
RTVSPropertyOp20
 70
     1
102
RTVSPropertyOp21
 70
     1
102
RTVSPropertyOp22
 70
     1
102
RTVSPropertyOp23
 70
     1
102
RTVSPropertyOp24
 70
     1
102
RTVSPropertyOp25
 70
     1
102
RTVSPropertyOp26
 70
     1
102
RTVSPropertyOp27
 70
     1
102
RTVSPropertyOp28
 70
     1
102
RTVSPropertyOp29
 70
     1
102
RTVSPropertyOp30
 70
     1
102
RTVSPropertyOp31
 70
     1
102
RTVSPropertyOp32
 70
     1
102
RTVSPropertyOp33
 70
     1
102
RTVSPropertyOp34
 70
     1
102
RTVSPropertyOp35
 70
     1
102
RTVSPropertyOp36
 70
     1
102
RTVSPropertyOp37
 70
     1
102
RTVSPropertyOp38
 70
     1
102
RTVSPropertyOp39
 70
     1
102
RTVSPropertyOp40
 70
     1
102
RTVSPropertyOp41
 70
     1
102
RTVSPropertyOp42
 70
     1
102
RTVSPropertyOp43
 70
     1
102
RTVSPropertyOp44
 70
     1
102
RTVSPropertyOp45
 70
     1
102
RTVSPropertyOp46
 70
     1
102
RTVSPropertyOp47
 70
     1
102
RTVSPropertyOp48
 70
     1
102
RTVSPropertyOp49
 70
     1
102
RTVSPropertyOp50
 70
     1
102
RTVSPropertyOp51
 70
     0
102
RTVSPropertyOp52
 70
     0
102
RTVSPropertyOp53
 70
     1
102
RTVSPropertyOp54
 70
     1
102
RTVSPropertyOp55
 70
     1
102
RTVSPropertyOp56
 70
     1
102
RTVSPropertyOp57
 70
     1
102
RTVSPropertyOp58
 70
     1
102
RTVSPropertyOp59
 70
     1
102
RTVSPropertyOp60
 70
     1
102
RTVSPropertyOp61
 70
     1
102
RTVSPropertyOp62
 70
     1
  0
XRECORD
  5
33E
102
{ACAD_REACTORS
330
33D
102
}
330
33D
100
AcDbXrecord
280
     1
102
RTVSPost2010Prop28
280
     0
102
RTVSPost2010PropOp28
 70
     1
102
RTVSPost2010Prop29
280
     1
102
RTVSPost2010PropOp29
 70
     1
102
RTVSPost2010Prop30
280
     1
102
RTVSPost2010PropOp30
 70
     1
102
RTVSPost2010Prop31
280
     0
102
RTVSPost2010PropOp31
 70
     1
102
RTVSPost2010Prop32
280
     0
102
RTVSPost2010PropOp32
 70
     1
102
RTVSPost2010Prop33
280
     0
102
RTVSPost2010PropOp33
 70
     1
102
RTVSPost2010Prop34
280
     0
102
RTVSPost2010PropOp34
 70
     1
102
RTVSPost2010Prop35
280
     0
102
RTVSPost2010PropOp35
 70
     1
102
RTVSPost2010Prop36
280
     0
102
RTVSPost2010PropOp36
 70
     1
102
RTVSPost2010Prop37
 90
       50
102
RTVSPost2010PropOp37
 70
     1
102
RTVSPost2010Prop38
140
0.0
102
RTVSPost2010PropOp38
 70
     1
102
RTVSPost2010Prop39
140
1.0
102
RTVSPost2010PropOp39
 70
     1
102
RTVSPost2010Prop40
 90
        0
102
RTVSPost2010PropOp40
 70
     1
102
RTVSPost2010Prop41ColorIndex
 90
       18
102
RTVSPost2010Prop41ColorRGB
 90
        0
102
RTVSPost2010PropOp41
 70
     1
102
RTVSPost2010Prop42
 90
       50
102
RTVSPost2010PropOp42
 70
     1
102
RTVSPost2010Prop43
 90
        3
102
RTVSPost2010PropOp43
 70
     1
102
RTVSPost2010Prop44ColorIndex
 90
        5
102
RTVSPost2010Prop44ColorRGB
 90
      255
102
RTVSPost2010PropOp44
 70
     1
102
RTVSPost2010Prop45
280
     0
102
RTVSPost2010PropOp45
 70
     1
102
RTVSPost2010Prop46
 90
       50
102
RTVSPost2010PropOp46
 70
     1
102
RTVSPost2010Prop47
 90
       50
102
RTVSPost2010PropOp47
 70
     1
102
RTVSPost2010Prop48
 90
       50
102
RTVSPost2010PropOp48
 70
     1
102
RTVSPost2010Prop49
280
     0
102
RTVSPost2010PropOp49
 70
     1
102
RTVSPost2010Prop50
 90
       50
102
RTVSPost2010PropOp50
 70
     1
102
RTVSPost2010Prop51ColorIndex
 90
      256
102
RTVSPost2010Prop51ColorRGB
 90
-16777216
102
RTVSPost2010PropOp51
 70
     0
102
RTVSPost2010Prop52
140
1.0
102
RTVSPost2010PropOp52
 70
     0
102
RTVSPost2010Prop53
 90
        2
102
RTVSPost2010PropOp53
 70
     1
102
RTVSPost2010Prop54
  1
strokes_ogs.tif
102
RTVSPost2010PropOp54
 70
     1
102
RTVSPost2010Prop55
280
     0
102
RTVSPost2010PropOp55
 70
     1
102
RTVSPost2010Prop56
140
1.0
102
RTVSPost2010PropOp56
 70
     1
102
RTVSPost2010Prop57
140
1.0
102
RTVSPost2010PropOp57
 70
     1
102
RTVSPropertyOp0
 70
     1
102
RTVSPropertyOp1
 70
     1
102
RTVSPropertyOp2
 70
     1
102
RTVSPropertyOp3
 70
     1
102
RTVSPropertyOp4
 70
     1
102
RTVSPropertyOp5
 70
     1
102
RTVSPropertyOp6
 70
     1
102
RTVSPropertyOp7
 70
     1
102
RTVSPropertyOp8
 70
     1
102
RTVSPropertyOp9
 70
     1
102
RTVSPropertyOp10
 70
     1
102
RTVSPropertyOp11
 70
     1
102
RTVSPropertyOp12
 70
     1
102
RTVSPropertyOp13
 70
     1
102
RTVSPropertyOp14
 70
     1
102
RTVSPropertyOp15
 70
     1
102
RTVSPropertyOp16
 70
     1
102
RTVSPropertyOp17
 70
     1
102
RTVSPropertyOp18
 70
     1
102
RTVSPropertyOp19
 70
     1
102
RTVSPropertyOp20
 70
     1
102
RTVSPropertyOp21
 70
     1
102
RTVSPropertyOp22
 70
     1
102
RTVSPropertyOp23
 70
     1
102
RTVSPropertyOp24
 70
     1
102
RTVSPropertyOp25
 70
     1
102
RTVSPropertyOp26
 70
     1
102
RTVSPropertyOp27
 70
     1
102
RTVSPropertyOp28
 70
     1
102
RTVSPropertyOp29
 70
     1
102
RTVSPropertyOp30
 70
     1
102
RTVSPropertyOp31
 70
     1
102
RTVSPropertyOp32
 70
     1
102
RTVSPropertyOp33
 70
     1
102
RTVSPropertyOp34
 70
     1
102
RTVSPropertyOp35
 70
     1
102
RTVSPropertyOp36
 70
     1
102
RTVSPropertyOp37
 70
     1
102
RTVSPropertyOp38
 70
     1
102
RTVSPropertyOp39
 70
     1
102
RTVSPropertyOp40
 70
     1
102
RTVSPropertyOp41
 70
     1
102
RTVSPropertyOp42
 70
     1
102
RTVSPropertyOp43
 70
     1
102
RTVSPropertyOp44
 70
     1
102
RTVSPropertyOp45
 70
     1
102
RTVSPropertyOp46
 70
     1
102
RTVSPropertyOp47
 70
     1
102
RTVSPropertyOp48
 70
     1
102
RTVSPropertyOp49
 70
     1
102
RTVSPropertyOp50
 70
     1
102
RTVSPropertyOp51
 70
     0
102
RTVSPropertyOp52
 70
     0
102
RTVSPropertyOp53
 70
     1
102
RTVSPropertyOp54
 70
     1
102
RTVSPropertyOp55
 70
     1
102
RTVSPropertyOp56
 70
     1
102
RTVSPropertyOp57
 70
     1
102
RTVSPropertyOp58
 70
     1
102
RTVSPropertyOp59
 70
     1
102
RTVSPropertyOp60
 70
     1
102
RTVSPropertyOp61
 70
     1
102
RTVSPropertyOp62
 70
     1
  0
XRECORD
  5
33C
102
{ACAD_REACTORS
330
33B
102
}
330
33B
100
AcDbXrecord
280
     1
102
RTVSPost2010Prop28
280
     0
102
RTVSPost2010PropOp28
 70
     1
102
RTVSPost2010Prop29
280
     1
102
RTVSPost2010PropOp29
 70
     1
102
RTVSPost2010Prop30
280
     1
102
RTVSPost2010PropOp30
 70
     1
102
RTVSPost2010Prop31
280
     0
102
RTVSPost2010PropOp31
 70
     1
102
RTVSPost2010Prop32
280
     0
102
RTVSPost2010PropOp32
 70
     1
102
RTVSPost2010Prop33
280
     0
102
RTVSPost2010PropOp33
 70
     1
102
RTVSPost2010Prop34
280
     0
102
RTVSPost2010PropOp34
 70
     1
102
RTVSPost2010Prop35
280
     0
102
RTVSPost2010PropOp35
 70
     1
102
RTVSPost2010Prop36
280
     0
102
RTVSPost2010PropOp36
 70
     1
102
RTVSPost2010Prop37
 90
       50
102
RTVSPost2010PropOp37
 70
     1
102
RTVSPost2010Prop38
140
0.0
102
RTVSPost2010PropOp38
 70
     1
102
RTVSPost2010Prop39
140
1.0
102
RTVSPost2010PropOp39
 70
     1
102
RTVSPost2010Prop40
 90
        0
102
RTVSPost2010PropOp40
 70
     1
102
RTVSPost2010Prop41ColorIndex
 90
       18
102
RTVSPost2010Prop41ColorRGB
 90
        0
102
RTVSPost2010PropOp41
 70
     1
102
RTVSPost2010Prop42
 90
       50
102
RTVSPost2010PropOp42
 70
     1
102
RTVSPost2010Prop43
 90
        3
102
RTVSPost2010PropOp43
 70
     1
102
RTVSPost2010Prop44ColorIndex
 90
        5
102
RTVSPost2010Prop44ColorRGB
 90
      255
102
RTVSPost2010PropOp44
 70
     1
102
RTVSPost2010Prop45
280
     0
102
RTVSPost2010PropOp45
 70
     1
102
RTVSPost2010Prop46
 90
       50
102
RTVSPost2010PropOp46
 70
     1
102
RTVSPost2010Prop47
 90
       50
102
RTVSPost2010PropOp47
 70
     1
102
RTVSPost2010Prop48
 90
       50
102
RTVSPost2010PropOp48
 70
     1
102
RTVSPost2010Prop49
280
     0
102
RTVSPost2010PropOp49
 70
     1
102
RTVSPost2010Prop50
 90
       50
102
RTVSPost2010PropOp50
 70
     1
102
RTVSPost2010Prop51ColorIndex
 90
      256
102
RTVSPost2010Prop51ColorRGB
 90
-16777216
102
RTVSPost2010PropOp51
 70
     0
102
RTVSPost2010Prop52
140
1.0
102
RTVSPost2010PropOp52
 70
     0
102
RTVSPost2010Prop53
 90
        2
102
RTVSPost2010PropOp53
 70
     1
102
RTVSPost2010Prop54
  1
strokes_ogs.tif
102
RTVSPost2010PropOp54
 70
     1
102
RTVSPost2010Prop55
280
     0
102
RTVSPost2010PropOp55
 70
     1
102
RTVSPost2010Prop56
140
1.0
102
RTVSPost2010PropOp56
 70
     1
102
RTVSPost2010Prop57
140
1.0
102
RTVSPost2010PropOp57
 70
     1
102
RTVSPropertyOp0
 70
     1
102
RTVSPropertyOp1
 70
     1
102
RTVSPropertyOp2
 70
     1
102
RTVSPropertyOp3
 70
     1
102
RTVSPropertyOp4
 70
     1
102
RTVSPropertyOp5
 70
     1
102
RTVSPropertyOp6
 70
     1
102
RTVSPropertyOp7
 70
     1
102
RTVSPropertyOp8
 70
     1
102
RTVSPropertyOp9
 70
     1
102
RTVSPropertyOp10
 70
     1
102
RTVSPropertyOp11
 70
     1
102
RTVSPropertyOp12
 70
     1
102
RTVSPropertyOp13
 70
     1
102
RTVSPropertyOp14
 70
     1
102
RTVSPropertyOp15
 70
     1
102
RTVSPropertyOp16
 70
     1
102
RTVSPropertyOp17
 70
     1
102
RTVSPropertyOp18
 70
     1
102
RTVSPropertyOp19
 70
     1
102
RTVSPropertyOp20
 70
     1
102
RTVSPropertyOp21
 70
     1
102
RTVSPropertyOp22
 70
     1
102
RTVSPropertyOp23
 70
     1
102
RTVSPropertyOp24
 70
     1
102
RTVSPropertyOp25
 70
     1
102
RTVSPropertyOp26
 70
     1
102
RTVSPropertyOp27
 70
     1
102
RTVSPropertyOp28
 70
     1
102
RTVSPropertyOp29
 70
     1
102
RTVSPropertyOp30
 70
     1
102
RTVSPropertyOp31
 70
     1
102
RTVSPropertyOp32
 70
     1
102
RTVSPropertyOp33
 70
     1
102
RTVSPropertyOp34
 70
     1
102
RTVSPropertyOp35
 70
     1
102
RTVSPropertyOp36
 70
     1
102
RTVSPropertyOp37
 70
     1
102
RTVSPropertyOp38
 70
     1
102
RTVSPropertyOp39
 70
     1
102
RTVSPropertyOp40
 70
     1
102
RTVSPropertyOp41
 70
     1
102
RTVSPropertyOp42
 70
     1
102
RTVSPropertyOp43
 70
     1
102
RTVSPropertyOp44
 70
     1
102
RTVSPropertyOp45
 70
     1
102
RTVSPropertyOp46
 70
     1
102
RTVSPropertyOp47
 70
     1
102
RTVSPropertyOp48
 70
     1
102
RTVSPropertyOp49
 70
     1
102
RTVSPropertyOp50
 70
     1
102
RTVSPropertyOp51
 70
     0
102
RTVSPropertyOp52
 70
     0
102
RTVSPropertyOp53
 70
     1
102
RTVSPropertyOp54
 70
     1
102
RTVSPropertyOp55
 70
     1
102
RTVSPropertyOp56
 70
     1
102
RTVSPropertyOp57
 70
     1
102
RTVSPropertyOp58
 70
     1
102
RTVSPropertyOp59
 70
     1
102
RTVSPropertyOp60
 70
     1
102
RTVSPropertyOp61
 70
     1
102
RTVSPropertyOp62
 70
     1
  0
XRECORD
  5
336
102
{ACAD_REACTORS
330
335
102
}
330
335
100
AcDbXrecord
280
     1
102
RTVSPost2010Prop28
280
     0
102
RTVSPost2010PropOp28
 70
     1
102
RTVSPost2010Prop29
280
     1
102
RTVSPost2010PropOp29
 70
     1
102
RTVSPost2010Prop30
280
     1
102
RTVSPost2010PropOp30
 70
     1
102
RTVSPost2010Prop31
280
     0
102
RTVSPost2010PropOp31
 70
     1
102
RTVSPost2010Prop32
280
     0
102
RTVSPost2010PropOp32
 70
     1
102
RTVSPost2010Prop33
280
     0
102
RTVSPost2010PropOp33
 70
     1
102
RTVSPost2010Prop34
280
     0
102
RTVSPost2010PropOp34
 70
     1
102
RTVSPost2010Prop35
280
     0
102
RTVSPost2010PropOp35
 70
     1
102
RTVSPost2010Prop36
280
     0
102
RTVSPost2010PropOp36
 70
     1
102
RTVSPost2010Prop37
 90
       50
102
RTVSPost2010PropOp37
 70
     1
102
RTVSPost2010Prop38
140
0.0
102
RTVSPost2010PropOp38
 70
     1
102
RTVSPost2010Prop39
140
1.0
102
RTVSPost2010PropOp39
 70
     1
102
RTVSPost2010Prop40
 90
        0
102
RTVSPost2010PropOp40
 70
     1
102
RTVSPost2010Prop41ColorIndex
 90
       18
102
RTVSPost2010Prop41ColorRGB
 90
        0
102
RTVSPost2010PropOp41
 70
     1
102
RTVSPost2010Prop42
 90
       50
102
RTVSPost2010PropOp42
 70
     1
102
RTVSPost2010Prop43
 90
        3
102
RTVSPost2010PropOp43
 70
     1
102
RTVSPost2010Prop44ColorIndex
 90
        5
102
RTVSPost2010Prop44ColorRGB
 90
      255
102
RTVSPost2010PropOp44
 70
     1
102
RTVSPost2010Prop45
280
     0
102
RTVSPost2010PropOp45
 70
     1
102
RTVSPost2010Prop46
 90
       50
102
RTVSPost2010PropOp46
 70
     1
102
RTVSPost2010Prop47
 90
       50
102
RTVSPost2010PropOp47
 70
     1
102
RTVSPost2010Prop48
 90
       50
102
RTVSPost2010PropOp48
 70
     1
102
RTVSPost2010Prop49
280
     0
102
RTVSPost2010PropOp49
 70
     1
102
RTVSPost2010Prop50
 90
       50
102
RTVSPost2010PropOp50
 70
     1
102
RTVSPost2010Prop51ColorIndex
 90
      256
102
RTVSPost2010Prop51ColorRGB
 90
-16777216
102
RTVSPost2010PropOp51
 70
     0
102
RTVSPost2010Prop52
140
1.0
102
RTVSPost2010PropOp52
 70
     0
102
RTVSPost2010Prop53
 90
        2
102
RTVSPost2010PropOp53
 70
     1
102
RTVSPost2010Prop54
  1
strokes_ogs.tif
102
RTVSPost2010PropOp54
 70
     1
102
RTVSPost2010Prop55
280
     0
102
RTVSPost2010PropOp55
 70
     1
102
RTVSPost2010Prop56
140
1.0
102
RTVSPost2010PropOp56
 70
     1
102
RTVSPost2010Prop57
140
1.0
102
RTVSPost2010PropOp57
 70
     1
102
RTVSPropertyOp0
 70
     1
102
RTVSPropertyOp1
 70
     1
102
RTVSPropertyOp2
 70
     1
102
RTVSPropertyOp3
 70
     1
102
RTVSPropertyOp4
 70
     1
102
RTVSPropertyOp5
 70
     1
102
RTVSPropertyOp6
 70
     1
102
RTVSPropertyOp7
 70
     1
102
RTVSPropertyOp8
 70
     1
102
RTVSPropertyOp9
 70
     1
102
RTVSPropertyOp10
 70
     1
102
RTVSPropertyOp11
 70
     1
102
RTVSPropertyOp12
 70
     1
102
RTVSPropertyOp13
 70
     1
102
RTVSPropertyOp14
 70
     1
102
RTVSPropertyOp15
 70
     1
102
RTVSPropertyOp16
 70
     1
102
RTVSPropertyOp17
 70
     1
102
RTVSPropertyOp18
 70
     1
102
RTVSPropertyOp19
 70
     1
102
RTVSPropertyOp20
 70
     1
102
RTVSPropertyOp21
 70
     1
102
RTVSPropertyOp22
 70
     1
102
RTVSPropertyOp23
 70
     1
102
RTVSPropertyOp24
 70
     1
102
RTVSPropertyOp25
 70
     1
102
RTVSPropertyOp26
 70
     1
102
RTVSPropertyOp27
 70
     1
102
RTVSPropertyOp28
 70
     1
102
RTVSPropertyOp29
 70
     1
102
RTVSPropertyOp30
 70
     1
102
RTVSPropertyOp31
 70
     1
102
RTVSPropertyOp32
 70
     1
102
RTVSPropertyOp33
 70
     1
102
RTVSPropertyOp34
 70
     1
102
RTVSPropertyOp35
 70
     1
102
RTVSPropertyOp36
 70
     1
102
RTVSPropertyOp37
 70
     1
102
RTVSPropertyOp38
 70
     1
102
RTVSPropertyOp39
 70
     1
102
RTVSPropertyOp40
 70
     1
102
RTVSPropertyOp41
 70
     1
102
RTVSPropertyOp42
 70
     1
102
RTVSPropertyOp43
 70
     1
102
RTVSPropertyOp44
 70
     1
102
RTVSPropertyOp45
 70
     1
102
RTVSPropertyOp46
 70
     1
102
RTVSPropertyOp47
 70
     1
102
RTVSPropertyOp48
 70
     1
102
RTVSPropertyOp49
 70
     1
102
RTVSPropertyOp50
 70
     1
102
RTVSPropertyOp51
 70
     0
102
RTVSPropertyOp52
 70
     0
102
RTVSPropertyOp53
 70
     1
102
RTVSPropertyOp54
 70
     1
102
RTVSPropertyOp55
 70
     1
102
RTVSPropertyOp56
 70
     1
102
RTVSPropertyOp57
 70
     1
102
RTVSPropertyOp58
 70
     1
102
RTVSPropertyOp59
 70
     1
102
RTVSPropertyOp60
 70
     1
102
RTVSPropertyOp61
 70
     1
102
RTVSPropertyOp62
 70
     1
  0
XRECORD
  5
338
102
{ACAD_REACTORS
330
337
102
}
330
337
100
AcDbXrecord
280
     1
102
RTVSPost2010Prop28
280
     0
102
RTVSPost2010PropOp28
 70
     1
102
RTVSPost2010Prop29
280
     1
102
RTVSPost2010PropOp29
 70
     1
102
RTVSPost2010Prop30
280
     1
102
RTVSPost2010PropOp30
 70
     1
102
RTVSPost2010Prop31
280
     0
102
RTVSPost2010PropOp31
 70
     1
102
RTVSPost2010Prop32
280
     0
102
RTVSPost2010PropOp32
 70
     1
102
RTVSPost2010Prop33
280
     0
102
RTVSPost2010PropOp33
 70
     1
102
RTVSPost2010Prop34
280
     0
102
RTVSPost2010PropOp34
 70
     1
102
RTVSPost2010Prop35
280
     0
102
RTVSPost2010PropOp35
 70
     1
102
RTVSPost2010Prop36
280
     0
102
RTVSPost2010PropOp36
 70
     1
102
RTVSPost2010Prop37
 90
       50
102
RTVSPost2010PropOp37
 70
     1
102
RTVSPost2010Prop38
140
0.0
102
RTVSPost2010PropOp38
 70
     1
102
RTVSPost2010Prop39
140
1.0
102
RTVSPost2010PropOp39
 70
     1
102
RTVSPost2010Prop40
 90
        0
102
RTVSPost2010PropOp40
 70
     1
102
RTVSPost2010Prop41ColorIndex
 90
       18
102
RTVSPost2010Prop41ColorRGB
 90
        0
102
RTVSPost2010PropOp41
 70
     1
102
RTVSPost2010Prop42
 90
       50
102
RTVSPost2010PropOp42
 70
     1
102
RTVSPost2010Prop43
 90
        3
102
RTVSPost2010PropOp43
 70
     1
102
RTVSPost2010Prop44ColorIndex
 90
        5
102
RTVSPost2010Prop44ColorRGB
 90
      255
102
RTVSPost2010PropOp44
 70
     1
102
RTVSPost2010Prop45
280
     0
102
RTVSPost2010PropOp45
 70
     1
102
RTVSPost2010Prop46
 90
       50
102
RTVSPost2010PropOp46
 70
     1
102
RTVSPost2010Prop47
 90
       50
102
RTVSPost2010PropOp47
 70
     1
102
RTVSPost2010Prop48
 90
       50
102
RTVSPost2010PropOp48
 70
     1
102
RTVSPost2010Prop49
280
     0
102
RTVSPost2010PropOp49
 70
     1
102
RTVSPost2010Prop50
 90
       50
102
RTVSPost2010PropOp50
 70
     1
102
RTVSPost2010Prop51ColorIndex
 90
      256
102
RTVSPost2010Prop51ColorRGB
 90
-16777216
102
RTVSPost2010PropOp51
 70
     0
102
RTVSPost2010Prop52
140
1.0
102
RTVSPost2010PropOp52
 70
     0
102
RTVSPost2010Prop53
 90
        2
102
RTVSPost2010PropOp53
 70
     1
102
RTVSPost2010Prop54
  1
strokes_ogs.tif
102
RTVSPost2010PropOp54
 70
     1
102
RTVSPost2010Prop55
280
     0
102
RTVSPost2010PropOp55
 70
     1
102
RTVSPost2010Prop56
140
1.0
102
RTVSPost2010PropOp56
 70
     1
102
RTVSPost2010Prop57
140
1.0
102
RTVSPost2010PropOp57
 70
     1
102
RTVSPropertyOp0
 70
     1
102
RTVSPropertyOp1
 70
     1
102
RTVSPropertyOp2
 70
     1
102
RTVSPropertyOp3
 70
     1
102
RTVSPropertyOp4
 70
     1
102
RTVSPropertyOp5
 70
     1
102
RTVSPropertyOp6
 70
     1
102
RTVSPropertyOp7
 70
     1
102
RTVSPropertyOp8
 70
     1
102
RTVSPropertyOp9
 70
     1
102
RTVSPropertyOp10
 70
     1
102
RTVSPropertyOp11
 70
     1
102
RTVSPropertyOp12
 70
     1
102
RTVSPropertyOp13
 70
     1
102
RTVSPropertyOp14
 70
     1
102
RTVSPropertyOp15
 70
     1
102
RTVSPropertyOp16
 70
     1
102
RTVSPropertyOp17
 70
     1
102
RTVSPropertyOp18
 70
     1
102
RTVSPropertyOp19
 70
     1
102
RTVSPropertyOp20
 70
     1
102
RTVSPropertyOp21
 70
     1
102
RTVSPropertyOp22
 70
     1
102
RTVSPropertyOp23
 70
     1
102
RTVSPropertyOp24
 70
     1
102
RTVSPropertyOp25
 70
     1
102
RTVSPropertyOp26
 70
     1
102
RTVSPropertyOp27
 70
     1
102
RTVSPropertyOp28
 70
     1
102
RTVSPropertyOp29
 70
     1
102
RTVSPropertyOp30
 70
     1
102
RTVSPropertyOp31
 70
     1
102
RTVSPropertyOp32
 70
     1
102
RTVSPropertyOp33
 70
     1
102
RTVSPropertyOp34
 70
     1
102
RTVSPropertyOp35
 70
     1
102
RTVSPropertyOp36
 70
     1
102
RTVSPropertyOp37
 70
     1
102
RTVSPropertyOp38
 70
     1
102
RTVSPropertyOp39
 70
     1
102
RTVSPropertyOp40
 70
     1
102
RTVSPropertyOp41
 70
     1
102
RTVSPropertyOp42
 70
     1
102
RTVSPropertyOp43
 70
     1
102
RTVSPropertyOp44
 70
     1
102
RTVSPropertyOp45
 70
     1
102
RTVSPropertyOp46
 70
     1
102
RTVSPropertyOp47
 70
     1
102
RTVSPropertyOp48
 70
     1
102
RTVSPropertyOp49
 70
     1
102
RTVSPropertyOp50
 70
     1
102
RTVSPropertyOp51
 70
     0
102
RTVSPropertyOp52
 70
     0
102
RTVSPropertyOp53
 70
     1
102
RTVSPropertyOp54
 70
     1
102
RTVSPropertyOp55
 70
     1
102
RTVSPropertyOp56
 70
     1
102
RTVSPropertyOp57
 70
     1
102
RTVSPropertyOp58
 70
     1
102
RTVSPropertyOp59
 70
     1
102
RTVSPropertyOp60
 70
     1
102
RTVSPropertyOp61
 70
     1
102
RTVSPropertyOp62
 70
     1
  0
XRECORD
  5
32E
102
{ACAD_REACTORS
330
32D
102
}
330
32D
100
AcDbXrecord
280
     1
102
RTVSPost2010Prop28
280
     0
102
RTVSPost2010PropOp28
 70
     1
102
RTVSPost2010Prop29
280
     1
102
RTVSPost2010PropOp29
 70
     1
102
RTVSPost2010Prop30
280
     1
102
RTVSPost2010PropOp30
 70
     1
102
RTVSPost2010Prop31
280
     0
102
RTVSPost2010PropOp31
 70
     1
102
RTVSPost2010Prop32
280
     0
102
RTVSPost2010PropOp32
 70
     1
102
RTVSPost2010Prop33
280
     0
102
RTVSPost2010PropOp33
 70
     1
102
RTVSPost2010Prop34
280
     0
102
RTVSPost2010PropOp34
 70
     1
102
RTVSPost2010Prop35
280
     0
102
RTVSPost2010PropOp35
 70
     1
102
RTVSPost2010Prop36
280
     0
102
RTVSPost2010PropOp36
 70
     1
102
RTVSPost2010Prop37
 90
       50
102
RTVSPost2010PropOp37
 70
     1
102
RTVSPost2010Prop38
140
0.0
102
RTVSPost2010PropOp38
 70
     1
102
RTVSPost2010Prop39
140
1.0
102
RTVSPost2010PropOp39
 70
     1
102
RTVSPost2010Prop40
 90
        0
102
RTVSPost2010PropOp40
 70
     1
102
RTVSPost2010Prop41ColorIndex
 90
       18
102
RTVSPost2010Prop41ColorRGB
 90
        0
102
RTVSPost2010PropOp41
 70
     1
102
RTVSPost2010Prop42
 90
       50
102
RTVSPost2010PropOp42
 70
     1
102
RTVSPost2010Prop43
 90
        3
102
RTVSPost2010PropOp43
 70
     1
102
RTVSPost2010Prop44ColorIndex
 90
        5
102
RTVSPost2010Prop44ColorRGB
 90
      255
102
RTVSPost2010PropOp44
 70
     1
102
RTVSPost2010Prop45
280
     0
102
RTVSPost2010PropOp45
 70
     1
102
RTVSPost2010Prop46
 90
       50
102
RTVSPost2010PropOp46
 70
     1
102
RTVSPost2010Prop47
 90
       50
102
RTVSPost2010PropOp47
 70
     1
102
RTVSPost2010Prop48
 90
       50
102
RTVSPost2010PropOp48
 70
     1
102
RTVSPost2010Prop49
280
     0
102
RTVSPost2010PropOp49
 70
     1
102
RTVSPost2010Prop50
 90
       50
102
RTVSPost2010PropOp50
 70
     1
102
RTVSPost2010Prop51ColorIndex
 90
      256
102
RTVSPost2010Prop51ColorRGB
 90
-16777216
102
RTVSPost2010PropOp51
 70
     0
102
RTVSPost2010Prop52
140
1.0
102
RTVSPost2010PropOp52
 70
     0
102
RTVSPost2010Prop53
 90
        2
102
RTVSPost2010PropOp53
 70
     1
102
RTVSPost2010Prop54
  1
strokes_ogs.tif
102
RTVSPost2010PropOp54
 70
     1
102
RTVSPost2010Prop55
280
     0
102
RTVSPost2010PropOp55
 70
     1
102
RTVSPost2010Prop56
140
1.0
102
RTVSPost2010PropOp56
 70
     1
102
RTVSPost2010Prop57
140
1.0
102
RTVSPost2010PropOp57
 70
     1
102
RTVSPropertyOp0
 70
     1
102
RTVSPropertyOp1
 70
     1
102
RTVSPropertyOp2
 70
     1
102
RTVSPropertyOp3
 70
     1
102
RTVSPropertyOp4
 70
     1
102
RTVSPropertyOp5
 70
     1
102
RTVSPropertyOp6
 70
     1
102
RTVSPropertyOp7
 70
     1
102
RTVSPropertyOp8
 70
     1
102
RTVSPropertyOp9
 70
     1
102
RTVSPropertyOp10
 70
     1
102
RTVSPropertyOp11
 70
     1
102
RTVSPropertyOp12
 70
     1
102
RTVSPropertyOp13
 70
     1
102
RTVSPropertyOp14
 70
     1
102
RTVSPropertyOp15
 70
     1
102
RTVSPropertyOp16
 70
     1
102
RTVSPropertyOp17
 70
     1
102
RTVSPropertyOp18
 70
     1
102
RTVSPropertyOp19
 70
     1
102
RTVSPropertyOp20
 70
     1
102
RTVSPropertyOp21
 70
     1
102
RTVSPropertyOp22
 70
     1
102
RTVSPropertyOp23
 70
     1
102
RTVSPropertyOp24
 70
     1
102
RTVSPropertyOp25
 70
     1
102
RTVSPropertyOp26
 70
     1
102
RTVSPropertyOp27
 70
     1
102
RTVSPropertyOp28
 70
     1
102
RTVSPropertyOp29
 70
     1
102
RTVSPropertyOp30
 70
     1
102
RTVSPropertyOp31
 70
     1
102
RTVSPropertyOp32
 70
     1
102
RTVSPropertyOp33
 70
     1
102
RTVSPropertyOp34
 70
     1
102
RTVSPropertyOp35
 70
     1
102
RTVSPropertyOp36
 70
     1
102
RTVSPropertyOp37
 70
     1
102
RTVSPropertyOp38
 70
     1
102
RTVSPropertyOp39
 70
     1
102
RTVSPropertyOp40
 70
     1
102
RTVSPropertyOp41
 70
     1
102
RTVSPropertyOp42
 70
     1
102
RTVSPropertyOp43
 70
     1
102
RTVSPropertyOp44
 70
     1
102
RTVSPropertyOp45
 70
     1
102
RTVSPropertyOp46
 70
     1
102
RTVSPropertyOp47
 70
     1
102
RTVSPropertyOp48
 70
     1
102
RTVSPropertyOp49
 70
     1
102
RTVSPropertyOp50
 70
     1
102
RTVSPropertyOp51
 70
     0
102
RTVSPropertyOp52
 70
     0
102
RTVSPropertyOp53
 70
     1
102
RTVSPropertyOp54
 70
     1
102
RTVSPropertyOp55
 70
     1
102
RTVSPropertyOp56
 70
     1
102
RTVSPropertyOp57
 70
     1
102
RTVSPropertyOp58
 70
     1
102
RTVSPropertyOp59
 70
     1
102
RTVSPropertyOp60
 70
     1
102
RTVSPropertyOp61
 70
     1
102
RTVSPropertyOp62
 70
     1
  0
XRECORD
  5
322
102
{ACAD_REACTORS
330
321
102
}
330
321
100
AcDbXrecord
280
     1
102
RTVSPost2010Prop28
280
     0
102
RTVSPost2010PropOp28
 70
     1
102
RTVSPost2010Prop29
280
     1
102
RTVSPost2010PropOp29
 70
     1
102
RTVSPost2010Prop30
280
     1
102
RTVSPost2010PropOp30
 70
     1
102
RTVSPost2010Prop31
280
     0
102
RTVSPost2010PropOp31
 70
     1
102
RTVSPost2010Prop32
280
     0
102
RTVSPost2010PropOp32
 70
     1
102
RTVSPost2010Prop33
280
     0
102
RTVSPost2010PropOp33
 70
     1
102
RTVSPost2010Prop34
280
     0
102
RTVSPost2010PropOp34
 70
     1
102
RTVSPost2010Prop35
280
     0
102
RTVSPost2010PropOp35
 70
     1
102
RTVSPost2010Prop36
280
     0
102
RTVSPost2010PropOp36
 70
     1
102
RTVSPost2010Prop37
 90
       50
102
RTVSPost2010PropOp37
 70
     1
102
RTVSPost2010Prop38
140
0.0
102
RTVSPost2010PropOp38
 70
     1
102
RTVSPost2010Prop39
140
1.0
102
RTVSPost2010PropOp39
 70
     1
102
RTVSPost2010Prop40
 90
        0
102
RTVSPost2010PropOp40
 70
     1
102
RTVSPost2010Prop41ColorIndex
 90
       18
102
RTVSPost2010Prop41ColorRGB
 90
        0
102
RTVSPost2010PropOp41
 70
     1
102
RTVSPost2010Prop42
 90
       50
102
RTVSPost2010PropOp42
 70
     1
102
RTVSPost2010Prop43
 90
        3
102
RTVSPost2010PropOp43
 70
     1
102
RTVSPost2010Prop44ColorIndex
 90
        5
102
RTVSPost2010Prop44ColorRGB
 90
      255
102
RTVSPost2010PropOp44
 70
     1
102
RTVSPost2010Prop45
280
     0
102
RTVSPost2010PropOp45
 70
     1
102
RTVSPost2010Prop46
 90
       50
102
RTVSPost2010PropOp46
 70
     1
102
RTVSPost2010Prop47
 90
       50
102
RTVSPost2010PropOp47
 70
     1
102
RTVSPost2010Prop48
 90
       50
102
RTVSPost2010PropOp48
 70
     1
102
RTVSPost2010Prop49
280
     0
102
RTVSPost2010PropOp49
 70
     1
102
RTVSPost2010Prop50
 90
       50
102
RTVSPost2010PropOp50
 70
     1
102
RTVSPost2010Prop51ColorIndex
 90
      256
102
RTVSPost2010Prop51ColorRGB
 90
-16777216
102
RTVSPost2010PropOp51
 70
     0
102
RTVSPost2010Prop52
140
1.0
102
RTVSPost2010PropOp52
 70
     0
102
RTVSPost2010Prop53
 90
        2
102
RTVSPost2010PropOp53
 70
     1
102
RTVSPost2010Prop54
  1
strokes_ogs.tif
102
RTVSPost2010PropOp54
 70
     1
102
RTVSPost2010Prop55
280
     0
102
RTVSPost2010PropOp55
 70
     1
102
RTVSPost2010Prop56
140
1.0
102
RTVSPost2010PropOp56
 70
     1
102
RTVSPost2010Prop57
140
1.0
102
RTVSPost2010PropOp57
 70
     1
102
RTVSPropertyOp0
 70
     1
102
RTVSPropertyOp1
 70
     1
102
RTVSPropertyOp2
 70
     1
102
RTVSPropertyOp3
 70
     1
102
RTVSPropertyOp4
 70
     1
102
RTVSPropertyOp5
 70
     1
102
RTVSPropertyOp6
 70
     1
102
RTVSPropertyOp7
 70
     1
102
RTVSPropertyOp8
 70
     1
102
RTVSPropertyOp9
 70
     1
102
RTVSPropertyOp10
 70
     1
102
RTVSPropertyOp11
 70
     1
102
RTVSPropertyOp12
 70
     1
102
RTVSPropertyOp13
 70
     1
102
RTVSPropertyOp14
 70
     1
102
RTVSPropertyOp15
 70
     1
102
RTVSPropertyOp16
 70
     1
102
RTVSPropertyOp17
 70
     1
102
RTVSPropertyOp18
 70
     1
102
RTVSPropertyOp19
 70
     1
102
RTVSPropertyOp20
 70
     1
102
RTVSPropertyOp21
 70
     1
102
RTVSPropertyOp22
 70
     1
102
RTVSPropertyOp23
 70
     1
102
RTVSPropertyOp24
 70
     1
102
RTVSPropertyOp25
 70
     1
102
RTVSPropertyOp26
 70
     1
102
RTVSPropertyOp27
 70
     1
102
RTVSPropertyOp28
 70
     1
102
RTVSPropertyOp29
 70
     1
102
RTVSPropertyOp30
 70
     1
102
RTVSPropertyOp31
 70
     1
102
RTVSPropertyOp32
 70
     1
102
RTVSPropertyOp33
 70
     1
102
RTVSPropertyOp34
 70
     1
102
RTVSPropertyOp35
 70
     1
102
RTVSPropertyOp36
 70
     1
102
RTVSPropertyOp37
 70
     1
102
RTVSPropertyOp38
 70
     1
102
RTVSPropertyOp39
 70
     1
102
RTVSPropertyOp40
 70
     1
102
RTVSPropertyOp41
 70
     1
102
RTVSPropertyOp42
 70
     1
102
RTVSPropertyOp43
 70
     1
102
RTVSPropertyOp44
 70
     1
102
RTVSPropertyOp45
 70
     1
102
RTVSPropertyOp46
 70
     1
102
RTVSPropertyOp47
 70
     1
102
RTVSPropertyOp48
 70
     1
102
RTVSPropertyOp49
 70
     1
102
RTVSPropertyOp50
 70
     1
102
RTVSPropertyOp51
 70
     0
102
RTVSPropertyOp52
 70
     0
102
RTVSPropertyOp53
 70
     1
102
RTVSPropertyOp54
 70
     1
102
RTVSPropertyOp55
 70
     1
102
RTVSPropertyOp56
 70
     1
102
RTVSPropertyOp57
 70
     1
102
RTVSPropertyOp58
 70
     1
102
RTVSPropertyOp59
 70
     1
102
RTVSPropertyOp60
 70
     1
102
RTVSPropertyOp61
 70
     1
102
RTVSPropertyOp62
 70
     1
  0
XRECORD
  5
33A
102
{ACAD_REACTORS
330
339
102
}
330
339
100
AcDbXrecord
280
     1
102
RTVSPost2010Prop28
280
     0
102
RTVSPost2010PropOp28
 70
     1
102
RTVSPost2010Prop29
280
     1
102
RTVSPost2010PropOp29
 70
     1
102
RTVSPost2010Prop30
280
     1
102
RTVSPost2010PropOp30
 70
     1
102
RTVSPost2010Prop31
280
     0
102
RTVSPost2010PropOp31
 70
     1
102
RTVSPost2010Prop32
280
     0
102
RTVSPost2010PropOp32
 70
     1
102
RTVSPost2010Prop33
280
     0
102
RTVSPost2010PropOp33
 70
     1
102
RTVSPost2010Prop34
280
     0
102
RTVSPost2010PropOp34
 70
     1
102
RTVSPost2010Prop35
280
     0
102
RTVSPost2010PropOp35
 70
     1
102
RTVSPost2010Prop36
280
     0
102
RTVSPost2010PropOp36
 70
     1
102
RTVSPost2010Prop37
 90
       50
102
RTVSPost2010PropOp37
 70
     1
102
RTVSPost2010Prop38
140
0.0
102
RTVSPost2010PropOp38
 70
     1
102
RTVSPost2010Prop39
140
1.0
102
RTVSPost2010PropOp39
 70
     1
102
RTVSPost2010Prop40
 90
        0
102
RTVSPost2010PropOp40
 70
     1
102
RTVSPost2010Prop41ColorIndex
 90
       18
102
RTVSPost2010Prop41ColorRGB
 90
        0
102
RTVSPost2010PropOp41
 70
     1
102
RTVSPost2010Prop42
 90
       50
102
RTVSPost2010PropOp42
 70
     1
102
RTVSPost2010Prop43
 90
        3
102
RTVSPost2010PropOp43
 70
     1
102
RTVSPost2010Prop44ColorIndex
 90
        5
102
RTVSPost2010Prop44ColorRGB
 90
      255
102
RTVSPost2010PropOp44
 70
     1
102
RTVSPost2010Prop45
280
     0
102
RTVSPost2010PropOp45
 70
     1
102
RTVSPost2010Prop46
 90
       50
102
RTVSPost2010PropOp46
 70
     1
102
RTVSPost2010Prop47
 90
       50
102
RTVSPost2010PropOp47
 70
     1
102
RTVSPost2010Prop48
 90
       50
102
RTVSPost2010PropOp48
 70
     1
102
RTVSPost2010Prop49
280
     0
102
RTVSPost2010PropOp49
 70
     1
102
RTVSPost2010Prop50
 90
       50
102
RTVSPost2010PropOp50
 70
     1
102
RTVSPost2010Prop51ColorIndex
 90
      256
102
RTVSPost2010Prop51ColorRGB
 90
-16777216
102
RTVSPost2010PropOp51
 70
     0
102
RTVSPost2010Prop52
140
1.0
102
RTVSPost2010PropOp52
 70
     0
102
RTVSPost2010Prop53
 90
        2
102
RTVSPost2010PropOp53
 70
     1
102
RTVSPost2010Prop54
  1
strokes_ogs.tif
102
RTVSPost2010PropOp54
 70
     1
102
RTVSPost2010Prop55
280
     0
102
RTVSPost2010PropOp55
 70
     1
102
RTVSPost2010Prop56
140
1.0
102
RTVSPost2010PropOp56
 70
     1
102
RTVSPost2010Prop57
140
1.0
102
RTVSPost2010PropOp57
 70
     1
102
RTVSPropertyOp0
 70
     1
102
RTVSPropertyOp1
 70
     1
102
RTVSPropertyOp2
 70
     1
102
RTVSPropertyOp3
 70
     1
102
RTVSPropertyOp4
 70
     1
102
RTVSPropertyOp5
 70
     1
102
RTVSPropertyOp6
 70
     1
102
RTVSPropertyOp7
 70
     1
102
RTVSPropertyOp8
 70
     1
102
RTVSPropertyOp9
 70
     1
102
RTVSPropertyOp10
 70
     1
102
RTVSPropertyOp11
 70
     1
102
RTVSPropertyOp12
 70
     1
102
RTVSPropertyOp13
 70
     1
102
RTVSPropertyOp14
 70
     1
102
RTVSPropertyOp15
 70
     1
102
RTVSPropertyOp16
 70
     1
102
RTVSPropertyOp17
 70
     1
102
RTVSPropertyOp18
 70
     1
102
RTVSPropertyOp19
 70
     1
102
RTVSPropertyOp20
 70
     1
102
RTVSPropertyOp21
 70
     1
102
RTVSPropertyOp22
 70
     1
102
RTVSPropertyOp23
 70
     1
102
RTVSPropertyOp24
 70
     1
102
RTVSPropertyOp25
 70
     1
102
RTVSPropertyOp26
 70
     1
102
RTVSPropertyOp27
 70
     1
102
RTVSPropertyOp28
 70
     1
102
RTVSPropertyOp29
 70
     1
102
RTVSPropertyOp30
 70
     1
102
RTVSPropertyOp31
 70
     1
102
RTVSPropertyOp32
 70
     1
102
RTVSPropertyOp33
 70
     1
102
RTVSPropertyOp34
 70
     1
102
RTVSPropertyOp35
 70
     1
102
RTVSPropertyOp36
 70
     1
102
RTVSPropertyOp37
 70
     1
102
RTVSPropertyOp38
 70
     1
102
RTVSPropertyOp39
 70
     1
102
RTVSPropertyOp40
 70
     1
102
RTVSPropertyOp41
 70
     1
102
RTVSPropertyOp42
 70
     1
102
RTVSPropertyOp43
 70
     1
102
RTVSPropertyOp44
 70
     1
102
RTVSPropertyOp45
 70
     1
102
RTVSPropertyOp46
 70
     1
102
RTVSPropertyOp47
 70
     1
102
RTVSPropertyOp48
 70
     1
102
RTVSPropertyOp49
 70
     1
102
RTVSPropertyOp50
 70
     1
102
RTVSPropertyOp51
 70
     0
102
RTVSPropertyOp52
 70
     0
102
RTVSPropertyOp53
 70
     1
102
RTVSPropertyOp54
 70
     1
102
RTVSPropertyOp55
 70
     1
102
RTVSPropertyOp56
 70
     1
102
RTVSPropertyOp57
 70
     1
102
RTVSPropertyOp58
 70
     1
102
RTVSPropertyOp59
 70
     1
102
RTVSPropertyOp60
 70
     1
102
RTVSPropertyOp61
 70
     1
102
RTVSPropertyOp62
 70
     1
  0
ENDSEC
  0
EOF
