  0
SECTION
  2
HEADER
  9
$ACADVER
  1
AC1014
  9
$ACADMAINTVER
 70
     0
  9
$DWGCODEPAGE
  3
ANSI_932
  9
$INSBASE
 10
0.0
 20
0.0
 30
0.0
  9
$EXTMIN
 10
-52.42878808671253
 20
-83.77776665258897
 30
-0.0015258207003583
  9
$EXTMAX
 10
0.04150201380412
 20
-0.0255772316295406
 30
0.0000000349246037
  9
$LIMMIN
 10
-52.42878808671253
 20
-83.77776665258897
  9
$LIMMAX
 10
0.04150201380412
 20
-0.0255772316295406
  9
$ORTHOMODE
 70
     0
  9
$REGENMODE
 70
     1
  9
$FILLMODE
 70
     1
  9
$QTEXTMODE
 70
     0
  9
$MIRRTEXT
 70
     0
  9
$DRAGMODE
 70
     2
  9
$LTSCALE
 40
3.0
  9
$OSMODE
 70
    37
  9
$ATTMODE
 70
     1
  9
$TEXTSIZE
 40
0.2
  9
$TRACEWID
 40
0.05
  9
$TEXTSTYLE
  7
STANDARD
  9
$CLAYER
  8
0
  9
$CELTYPE
  6
BYLAYER
  9
$CECOLOR
 62
   256
  9
$CELTSCALE
 40
1.0
  9
$DELOBJ
 70
     1
  9
$DISPSILH
 70
     0
  9
$DIMSCALE
 40
1.0
  9
$DIMASZ
 40
0.18
  9
$DIMEXO
 40
0.0625
  9
$DIMDLI
 40
0.38
  9
$DIMRND
 40
0.0
  9
$DIMDLE
 40
0.0
  9
$DIMEXE
 40
0.18
  9
$DIMTP
 40
0.0
  9
$DIMTM
 40
0.0
  9
$DIMTXT
 40
0.18
  9
$DIMCEN
 40
0.09
  9
$DIMTSZ
 40
0.0
  9
$DIMTOL
 70
     0
  9
$DIMLIM
 70
     0
  9
$DIMTIH
 70
     1
  9
$DIMTOH
 70
     1
  9
$DIMSE1
 70
     0
  9
$DIMSE2
 70
     0
  9
$DIMTAD
 70
     0
  9
$DIMZIN
 70
     0
  9
$DIMBLK
  1

  9
$DIMASO
 70
     1
  9
$DIMSHO
 70
     1
  9
$DIMPOST
  1

  9
$DIMAPOST
  1

  9
$DIMALT
 70
     0
  9
$DIMALTD
 70
     2
  9
$DIMALTF
 40
25.4
  9
$DIMLFAC
 40
1.0
  9
$DIMTOFL
 70
     0
  9
$DIMTVP
 40
0.0
  9
$DIMTIX
 70
     0
  9
$DIMSOXD
 70
     0
  9
$DIMSAH
 70
     0
  9
$DIMBLK1
  1

  9
$DIMBLK2
  1

  9
$DIMSTYLE
  2
STANDARD
  9
$DIMCLRD
 70
     0
  9
$DIMCLRE
 70
     0
  9
$DIMCLRT
 70
     0
  9
$DIMTFAC
 40
1.0
  9
$DIMGAP
 40
0.09
  9
$DIMJUST
 70
     0
  9
$DIMSD1
 70
     0
  9
$DIMSD2
 70
     0
  9
$DIMTOLJ
 70
     1
  9
$DIMTZIN
 70
     0
  9
$DIMALTZ
 70
     0
  9
$DIMALTTZ
 70
     0
  9
$DIMFIT
 70
     3
  9
$DIMUPT
 70
     0
  9
$DIMUNIT
 70
     2
  9
$DIMDEC
 70
     4
  9
$DIMTDEC
 70
     4
  9
$DIMALTU
 70
     2
  9
$DIMALTTD
 70
     2
  9
$DIMTXSTY
  7
STANDARD
  9
$DIMAUNIT
 70
     0
  9
$LUNITS
 70
     2
  9
$LUPREC
 70
     4
  9
$SKETCHINC
 40
0.1
  9
$FILLETRAD
 40
0.0
  9
$AUNITS
 70
     0
  9
$AUPREC
 70
     0
  9
$MENU
  1
.
  9
$ELEVATION
 40
0.0
  9
$PELEVATION
 40
0.0
  9
$THICKNESS
 40
0.0
  9
$LIMCHECK
 70
     0
  9
$BLIPMODE
 70
     1
  9
$CHAMFERA
 40
0.0
  9
$CHAMFERB
 40
0.0
  9
$CHAMFERC
 40
0.0
  9
$CHAMFERD
 40
0.0
  9
$SKPOLY
 70
     0
  9
$TDCREATE
 40
2457764.718038506
  9
$TDUPDATE
 40
2457773.712422430
  9
$TDINDWG
 40
0.0026722222
  9
$TDUSRTIMER
 40
0.0026721065
  9
$USRTIMER
 70
     1
  9
$ANGBASE
 50
0.0
  9
$ANGDIR
 70
     0
  9
$PDMODE
 70
     0
  9
$PDSIZE
 40
0.0
  9
$PLINEWID
 40
0.0
  9
$COORDS
 70
     2
  9
$SPLFRAME
 70
     0
  9
$SPLINETYPE
 70
     6
  9
$SPLINESEGS
 70
     8
  9
$ATTDIA
 70
     0
  9
$ATTREQ
 70
     1
  9
$HANDLING
 70
-16383
  9
$HANDSEED
  5
BC
  9
$SURFTAB1
 70
     6
  9
$SURFTAB2
 70
     6
  9
$SURFTYPE
 70
     6
  9
$SURFU
 70
     6
  9
$SURFV
 70
     6
  9
$UCSNAME
  2

  9
$UCSORG
 10
0.0
 20
0.0
 30
0.0
  9
$UCSXDIR
 10
1.0
 20
0.0
 30
0.0
  9
$UCSYDIR
 10
0.0
 20
1.0
 30
0.0
  9
$PUCSNAME
  2

  9
$PUCSORG
 10
0.0
 20
0.0
 30
0.0
  9
$PUCSXDIR
 10
1.0
 20
0.0
 30
0.0
  9
$PUCSYDIR
 10
0.0
 20
1.0
 30
0.0
  9
$USERI1
 70
     0
  9
$USERI2
 70
     1
  9
$USERI3
 70
     0
  9
$USERI4
 70
     0
  9
$USERI5
 70
     0
  9
$USERR1
 40
0.0
  9
$USERR2
 40
0.0
  9
$USERR3
 40
0.0
  9
$USERR4
 40
0.0
  9
$USERR5
 40
0.0
  9
$WORLDVIEW
 70
     1
  9
$SHADEDGE
 70
     3
  9
$SHADEDIF
 70
    70
  9
$TILEMODE
 70
     1
  9
$MAXACTVP
 70
    48
  9
$PINSBASE
 10
0.0
 20
0.0
 30
0.0
  9
$PLIMCHECK
 70
     0
  9
$PEXTMIN
 10
1.000000000000000E+20
 20
1.000000000000000E+20
 30
1.000000000000000E+20
  9
$PEXTMAX
 10
-1.000000000000000E+20
 20
-1.000000000000000E+20
 30
-1.000000000000000E+20
  9
$PLIMMIN
 10
0.0
 20
0.0
  9
$PLIMMAX
 10
12.0
 20
9.0
  9
$UNITMODE
 70
     0
  9
$VISRETAIN
 70
     1
  9
$PLINEGEN
 70
     0
  9
$PSLTSCALE
 70
     1
  9
$TREEDEPTH
 70
  3020
  9
$PICKSTYLE
 70
     2
  9
$CMLSTYLE
  2
STANDARD
  9
$CMLJUST
 70
     0
  9
$CMLSCALE
 40
1.0
  9
$PROXYGRAPHICS
 70
     1
  9
$MEASUREMENT
 70
     0
  0
ENDSEC
  0
SECTION
  2
CLASSES
  0
CLASS
  1
ACDBDICTIONARYWDFLT
  2
AcDbDictionaryWithDefault
  3
AutoCAD 2000
 90
        0
280
     0
281
     0
  0
CLASS
  1
ACDBPLACEHOLDER
  2
AcDbPlaceHolder
  3
AutoCAD 2000
 90
        0
280
     0
281
     0
  0
CLASS
  1
LAYOUT
  2
AcDbLayout
  3
AutoCAD 2000
 90
        0
280
     0
281
     0
  0
CLASS
  1
LONG_TRANSACTION
  2
AcDbLongTransaction
  3
AutoCAD 2000
 90
        0
280
     0
281
     0
  0
CLASS
  1
LWPOLYLINE
  2
AcDbPolyline
  3
AutoCAD 2000
 90
        0
280
     0
281
     1
  0
CLASS
  1
HATCH
  2
AcDbHatch
  3
AutoCAD 2000
 90
        0
280
     0
281
     1
  0
CLASS
  1
XRECORD
  2
AcDbXrecord
  3
AutoCAD 2000
 90
        0
280
     0
281
     0
  0
CLASS
  1
LONG_TRANSACTION
  2
AcDbLongTransaction
  3
AutoCAD 2000
 90
        0
280
     0
281
     0
  0
CLASS
  1
LWPOLYLINE
  2
AcDbPolyline
  3
AutoCAD 2000
 90
        0
280
     0
281
     1
  0
CLASS
  1
HATCH
  2
AcDbHatch
  3
AutoCAD 2000
 90
        0
280
     0
281
     1
  0
CLASS
  1
XRECORD
  2
AcDbXrecord
  3
AutoCAD 2000
 90
        0
280
     0
281
     0
  0
CLASS
  1
LONG_TRANSACTION
  2
AcDbLongTransaction
  3
AutoCAD 2000
 90
        0
280
     0
281
     0
  0
CLASS
  1
LWPOLYLINE
  2
AcDbPolyline
  3
AutoCAD 2000
 90
        0
280
     0
281
     1
  0
CLASS
  1
HATCH
  2
AcDbHatch
  3
AutoCAD 2000
 90
        0
280
     0
281
     1
  0
CLASS
  1
XRECORD
  2
AcDbXrecord
  3
AutoCAD 2000
 90
        0
280
     0
281
     0
  0
CLASS
  1
LONG_TRANSACTION
  2
AcDbLongTransaction
  3
AutoCAD 2000
 90
        0
280
     0
281
     0
  0
CLASS
  1
LWPOLYLINE
  2
AcDbPolyline
  3
AutoCAD 2000
 90
        0
280
     0
281
     1
  0
CLASS
  1
HATCH
  2
AcDbHatch
  3
AutoCAD 2000
 90
        0
280
     0
281
     1
  0
CLASS
  1
XRECORD
  2
AcDbXrecord
  3
AutoCAD 2000
 90
        0
280
     0
281
     0
  0
CLASS
  1
LONG_TRANSACTION
  2
AcDbLongTransaction
  3
AutoCAD 2000
 90
        0
280
     0
281
     0
  0
CLASS
  1
LWPOLYLINE
  2
AcDbPolyline
  3
AutoCAD 2000
 90
        0
280
     0
281
     1
  0
CLASS
  1
HATCH
  2
AcDbHatch
  3
AutoCAD 2000
 90
        0
280
     0
281
     1
  0
CLASS
  1
XRECORD
  2
AcDbXrecord
  3
AutoCAD 2000
 90
        0
280
     0
281
     0
  0
ENDSEC
  0
SECTION
  2
TABLES
  0
TABLE
  2
VPORT
  5
20
330
0
100
AcDbSymbolTable
 70
     2
  0
VPORT
  5
99
330
20
100
AcDbSymbolTableRecord
100
AcDbViewportTableRecord
  2
*ACTIVE
 70
     0
 10
0.0
 20
0.0
 11
1.0
 21
1.0
 12
-26.19364303645419
 22
-41.90167194210926
 13
0.0
 23
0.0
 14
1.0
 24
1.0
 15
0.0
 25
0.0
 16
0.0
 26
0.0
 36
1.0
 17
0.0
 27
0.0
 37
0.0
 40
94.3779597099858
 41
2.36255924170616
 42
50.0
 43
0.0
 44
0.0
 50
0.0
 51
0.0
 71
     0
 72
   100
 73
     1
 74
     0
 75
     0
 76
     0
 77
     0
 78
     0
  0
ENDTAB
  0
TABLE
  2
LTYPE
  5
1B
330
0
100
AcDbSymbolTable
 70
     1
  0
LTYPE
  5
1C
330
1B
100
AcDbSymbolTableRecord
100
AcDbLinetypeTableRecord
  2
BYBLOCK
 70
     0
  3

 72
    65
 73
     0
 40
0.0
  0
LTYPE
  5
1D
330
1B
100
AcDbSymbolTableRecord
100
AcDbLinetypeTableRecord
  2
BYLAYER
 70
     0
  3

 72
    65
 73
     0
 40
0.0
  0
LTYPE
  5
A
330
1B
100
AcDbSymbolTableRecord
100
AcDbLinetypeTableRecord
  2
CONTINUOUS
 70
     0
  3
実線
 72
    65
 73
     0
 40
0.0
  0
ENDTAB
  0
TABLE
  2
LAYER
  5
14
102
{ACAD_XDICTIONARY
360
15
102
}
330
0
100
AcDbSymbolTable
 70
     1
  0
LAYER
  5
6
330
14
100
AcDbSymbolTableRecord
100
AcDbLayerTableRecord
  2
0
 70
     0
 62
     7
  6
CONTINUOUS
  0
ENDTAB
  0
TABLE
  2
STYLE
  5
18
330
0
100
AcDbSymbolTable
 70
     2
  0
STYLE
  5
19
330
18
100
AcDbSymbolTableRecord
100
AcDbTextStyleTableRecord
  2
STANDARD
 70
     0
 40
0.0
 41
1.0
 50
0.0
 71
     0
 42
0.2
  3
txt
  4
bigfont.shx
  0
STYLE
  5
29
330
18
100
AcDbSymbolTableRecord
100
AcDbTextStyleTableRecord
  2
KOZSEATP
 70
     0
 40
2.0
 41
1.0
 50
0.0
 71
     0
 42
2.0
  3
txt.shx
  4
bigfont.shx
  0
ENDTAB
  0
TABLE
  2
VIEW
  5
1E
330
0
100
AcDbSymbolTable
 70
     0
  0
ENDTAB
  0
TABLE
  2
UCS
  5
1F
330
0
100
AcDbSymbolTable
 70
     0
  0
ENDTAB
  0
TABLE
  2
APPID
  5
22
330
0
100
AcDbSymbolTable
 70
     1
  0
APPID
  5
23
330
22
100
AcDbSymbolTableRecord
100
AcDbRegAppTableRecord
  2
ACAD
 70
     0
  0
ENDTAB
  0
TABLE
  2
DIMSTYLE
  5
24
330
0
100
AcDbSymbolTable
 70
     1
  0
DIMSTYLE
105
2B
330
24
100
AcDbSymbolTableRecord
100
AcDbDimStyleTableRecord
  2
STANDARD
 70
     0
  3

  4

  5

  6

  7

 40
1.0
 41
0.18
 42
0.0625
 43
0.38
 44
0.18
 45
0.0
 46
0.0
 47
0.0
 48
0.0
140
0.18
141
0.09
142
0.0
143
25.4
144
1.0
145
0.0
146
1.0
147
0.09
 71
     0
 72
     0
 73
     1
 74
     1
 75
     0
 76
     0
 77
     0
 78
     0
170
     0
171
     2
172
     0
173
     0
174
     0
175
     0
176
     0
177
     0
178
     0
270
     2
271
     4
272
     4
273
     2
274
     2
340
19
275
     0
280
     0
281
     0
282
     0
283
     1
284
     0
285
     0
286
     0
287
     3
288
     0
  0
ENDTAB
  0
TABLE
  2
BLOCK_RECORD
  5
1
330
0
100
AcDbSymbolTable
 70
     0
  0
BLOCK_RECORD
  5
2
102
{ACAD_XDICTIONARY
360
3
102
}
330
1
100
AcDbSymbolTableRecord
100
AcDbBlockTableRecord
  2
*MODEL_SPACE
  0
BLOCK_RECORD
  5
E
102
{ACAD_XDICTIONARY
360
F
102
}
330
1
100
AcDbSymbolTableRecord
100
AcDbBlockTableRecord
  2
*PAPER_SPACE
  0
ENDTAB
  0
ENDSEC
  0
SECTION
  2
BLOCKS
  0
BLOCK
  5
5
330
2
100
AcDbEntity
  8
0
100
AcDbBlockBegin
  2
*MODEL_SPACE
 70
     0
 10
0.0
 20
0.0
 30
0.0
  3
*MODEL_SPACE
  1

  0
ENDBLK
  5
B
330
2
100
AcDbEntity
  8
0
100
AcDbBlockEnd
  0
BLOCK
  5
11
330
E
100
AcDbEntity
 67
     1
  8
0
100
AcDbBlockBegin
  2
*PAPER_SPACE
 70
     0
 10
0.0
 20
0.0
 30
0.0
  3
*PAPER_SPACE
  1

  0
ENDBLK
  5
12
330
E
100
AcDbEntity
 67
     1
  8
0
100
AcDbBlockEnd
  0
ENDSEC
  0
SECTION
  2
ENTITIES
  0
TEXT
  5
2C
330
2
100
AcDbEntity
  8
0
100
AcDbText
 10
-30.53333333333331
 20
-83.75598621033486
 30
0.0
 40
2.0
  1
調光器との併用はできません
  7
KOZSEATP
 72
     2
 11
0.0
 21
-84.02265287700151
 31
0.0
100
AcDbText
 73
     1
  0
TEXT
  5
2D
330
2
100
AcDbEntity
  8
0
100
AcDbText
 10
-16.2
 20
-80.75598621033485
 30
0.0
 40
2.0
  1
器具高-60mm
  7
KOZSEATP
 72
     2
 11
0.0
 21
-81.02265287700152
 31
0.0
100
AcDbText
 73
     1
  0
TEXT
  5
2E
330
2
100
AcDbEntity
  8
0
100
AcDbText
 10
-12.06666666666666
 20
-77.75598621033485
 30
0.0
 40
2.0
  1
重-0.9kg
  7
KOZSEATP
 72
     2
 11
0.0
 21
-78.02265287700151
 31
0.0
100
AcDbText
 73
     1
  0
TEXT
  5
2F
330
2
100
AcDbEntity
  8
0
100
AcDbText
 10
-16.2
 20
-74.75598621033485
 30
0.0
 40
2.0
  1
色温度:5000K
  7
KOZSEATP
 72
     2
 11
0.0
 21
-75.02265287700152
 31
0.0
100
AcDbText
 73
     1
  0
TEXT
  5
30
330
2
100
AcDbEntity
  8
0
100
AcDbText
 10
-18.79999999999999
 20
-71.75598621033485
 30
0.0
 40
2.0
  1
定格光束:710 lm
  7
KOZSEATP
 72
     2
 11
0.0
 21
-72.02265287700152
 31
0.0
100
AcDbText
 73
     1
  0
TEXT
  5
31
330
2
100
AcDbEntity
  8
0
100
AcDbText
 10
-17.93333333333333
 20
-68.75598621033486
 30
0.0
 40
2.0
  1
消費電力:10.2W
  7
KOZSEATP
 72
     2
 11
0.0
 21
-69.02265287700152
 31
0.0
100
AcDbText
 73
     1
  0
TEXT
  5
32
330
2
100
AcDbEntity
  8
0
100
AcDbText
 10
-52.53333333333336
 20
-65.75598621033485
 30
0.0
 40
2.0
  1
エンドキャップ:プラスチック・ファインホワイト
  7
KOZSEATP
 72
     2
 11
0.0
 21
-66.02265287700152
 31
0.0
100
AcDbText
 73
     1
  0
TEXT
  5
33
330
2
100
AcDbEntity
  8
0
100
AcDbText
 10
-25.73333333333333
 20
-62.75598621033485
 30
0.0
 40
2.0
  1
アクリル・乳白色半透明
  7
KOZSEATP
 72
     2
 11
0.0
 21
-63.02265287700151
 31
0.0
100
AcDbText
 73
     1
  0
TEXT
  5
34
330
2
100
AcDbEntity
  8
0
100
AcDbText
 10
-28.26666666666667
 20
-59.75598621033485
 30
0.0
 40
2.0
  1
鋼・ファインホワイト塗装
  7
KOZSEATP
 72
     2
 11
0.0
 21
-60.02265287700152
 31
0.0
100
AcDbText
 73
     1
  0
TEXT
  5
35
330
2
100
AcDbEntity
  8
0
100
AcDbText
 10
-26.46666666666668
 20
-53.75598621033486
 30
0.0
 40
2.0
  1
FL20Wインバータ相当
  7
KOZSEATP
 72
     2
 11
0.0
 21
-54.02265287700152
 31
0.0
100
AcDbText
 73
     1
  0
TEXT
  5
36
330
2
100
AcDbEntity
  8
0
100
AcDbText
 10
-5.333333333333333
 20
-50.75598621033485
 30
0.0
 40
2.0
  1
LED
  7
KOZSEATP
 72
     2
 11
0.0
 21
-51.02265287700152
 31
0.0
100
AcDbText
 73
     1
  0
TEXT
  5
37
330
2
100
AcDbEntity
  8
0
100
AcDbText
 10
-15.33333333333333
 20
-47.75598621033485
 30
0.0
 40
2.0
  1
AB46897L
  7
KOZSEATP
 72
     2
 11
0.0
 21
-48.02265287700151
 31
0.0
100
AcDbText
 73
     1
  0
TEXT
  5
38
330
2
100
AcDbEntity
  8
0
100
AcDbText
 10
-9.066666666666666
 20
-44.75598621033485
 30
0.0
 40
2.0
  1
流し元灯
  7
KOZSEATP
 72
     2
 11
0.0
 21
-45.02265287700152
 31
0.0
100
AcDbText
 73
     1
  0
LINE
  5
39
330
2
100
AcDbEntity
  8
0
100
AcDbLine
 10
-0.6530210438966151
 20
-9.555961340831277
 30
0.0
 11
-1.412469559133683
 21
-9.446899017750066
 31
0.0
  0
LINE
  5
3A
330
2
100
AcDbEntity
  8
0
100
AcDbLine
 10
-7.415918726277993
 20
-18.89575297466447
 30
0.0
 11
-6.608124091610875
 21
-17.98691701217879
 31
0.0
  0
LINE
  5
3B
330
2
100
AcDbEntity
  8
0
100
AcDbLine
 10
-10.18784939873376
 20
-18.33442161132746
 30
0.0
 11
-7.415918726277993
 21
-18.89575297466447
 31
0.0
  0
LINE
  5
3C
330
2
100
AcDbEntity
  8
0
100
AcDbLine
 10
-9.380054764066528
 20
-17.42558564884216
 30
0.0
 11
-6.608124091610363
 21
-17.98691701217879
 31
0.0
  0
LINE
  5
3D
330
2
100
AcDbEntity
  8
0
100
AcDbLine
 10
-10.18784939873376
 20
-18.33442161132796
 30
0.0
 11
-9.380054764066528
 21
-17.42558564884216
 31
0.0
  0
LINE
  5
3E
330
2
100
AcDbEntity
  8
0
100
AcDbLine
 10
-5.977646874805259
 20
-19.66600358530263
 30
0.0
 11
-1.964857079758246
 21
-15.15128224510279
 31
0.0
  0
LINE
  5
3F
330
2
100
AcDbEntity
  8
0
100
AcDbLine
 10
-5.977646874805259
 20
-19.66600358530263
 30
0.0
 11
-1.964857079758701
 21
-15.1512822451038
 31
0.0
  0
LINE
  5
40
330
2
100
AcDbEntity
  8
0
100
AcDbLine
 10
-5.307446153777732
 20
-19.82982780019865
 30
0.0
 11
-1.480448130347667
 21
-15.52413761263693
 31
0.0
  0
LINE
  5
41
330
2
100
AcDbEntity
  8
0
100
AcDbLine
 10
-5.307446153777732
 20
-19.82982780019865
 30
0.0
 11
-1.480448130348463
 21
-15.52413761263795
 31
0.0
  0
LINE
  5
42
330
2
100
AcDbEntity
  8
0
100
AcDbLine
 10
-5.977646874805259
 20
-19.66600358530263
 30
0.0
 11
-5.307446153777732
 21
-19.82982780019865
 31
0.0
  0
ARC
  5
43
330
2
100
AcDbEntity
  8
0
100
AcDbCircle
 10
-7.366521708226287
 20
-11.73862738116511
 30
0.0
 40
6.389381345544917
100
AcDbArc
 50
327.7161885523178
 51
21.00413229785848
  0
ARC
  5
44
330
2
100
AcDbEntity
  8
0
100
AcDbCircle
 10
-7.62136424813633
 20
-11.63131657807582
 30
0.0
 40
7.270825700897903
100
AcDbArc
 50
327.6287619992225
 51
16.58491078037813
  0
LINE
  5
45
330
2
100
AcDbEntity
  8
0
100
AcDbLine
 10
-13.82874512368988
 20
-40.00220863681182
 30
0.0
 11
-13.1836586693289
 21
-40.00220863681182
 31
0.0
  0
LINE
  5
46
330
2
100
AcDbEntity
  8
0
100
AcDbLine
 10
-13.1836586693289
 20
-40.00220863681182
 30
0.0
 11
-13.1836586693289
 21
-38.71287113249903
 31
0.0
  0
LINE
  5
47
330
2
100
AcDbEntity
  8
0
100
AcDbLine
 10
-13.1836586693289
 20
-38.71287113249903
 30
0.0
 11
-13.82874512368988
 21
-38.71287113249903
 31
0.0
  0
LINE
  5
48
330
2
100
AcDbEntity
  8
0
100
AcDbLine
 10
-13.82874512368988
 20
-38.71287113249903
 30
0.0
 11
-13.82874512368988
 21
-40.00220863681182
 31
0.0
  0
LINE
  5
49
330
2
100
AcDbEntity
  8
0
100
AcDbLine
 10
-13.50620189650925
 20
-16.68404417957555
 30
0.0
 11
-13.50620189650925
 21
-38.71287113249903
 31
0.0
  0
LINE
  5
4A
330
2
100
AcDbEntity
  8
0
100
AcDbLine
 10
-47.03837450584489
 20
-0.0395183751273161
 30
0.0
 11
-46.25950669571785
 21
-0.1437692267207788
 31
0.0
  0
LINE
  5
4B
330
2
100
AcDbEntity
  8
0
100
AcDbLine
 10
-51.60099370481834
 20
-5.277662209090136
 30
0.0
 11
-51.6143358767585
 21
-10.14956061959815
 31
0.0
  0
LINE
  5
4C
330
2
100
AcDbEntity
  8
0
100
AcDbLine
 10
-51.6143358767585
 20
-10.14956061959815
 30
0.0
 11
-51.12992692734792
 21
-10.52241598713269
 31
0.0
  0
LINE
  5
4D
330
2
100
AcDbEntity
  8
0
100
AcDbLine
 10
-51.6143358767585
 20
-10.14956061959815
 30
0.0
 11
-47.60154608171092
 21
-5.634839279398315
 31
0.0
  0
LINE
  5
4E
330
2
100
AcDbEntity
  8
0
100
AcDbLine
 10
-51.6143358767585
 20
-10.14956061959815
 30
0.0
 11
-47.60154608171194
 21
-5.634839279399331
 31
0.0
  0
LINE
  5
4F
330
2
100
AcDbEntity
  8
0
100
AcDbLine
 10
-51.68709252671061
 20
-10.08489280946173
 30
0.0
 11
-47.67430273166405
 21
-5.570171469262904
 31
0.0
  0
LINE
  5
50
330
2
100
AcDbEntity
  8
0
100
AcDbLine
 10
-51.12992692734792
 20
-10.52241598713269
 30
0.0
 11
-47.11713713230159
 21
-6.007694646932849
 31
0.0
  0
LINE
  5
51
330
2
100
AcDbEntity
  8
0
100
AcDbLine
 10
-51.12992692734792
 20
-10.52241598713269
 30
0.0
 11
-47.11713713230216
 21
-6.007694646933359
 31
0.0
  0
LINE
  5
52
330
2
100
AcDbEntity
  8
0
100
AcDbLine
 10
-51.60099370481834
 20
-5.277662209090136
 30
0.0
 11
-47.03837450584489
 21
-0.0395183751273161
 31
0.0
  0
ARC
  5
53
330
2
100
AcDbEntity
  8
0
100
AcDbCircle
 10
-52.82974516582669
 20
-2.282616491667385
 30
0.0
 40
6.210592828524636
100
AcDbArc
 50
327.3327719907622
 51
21.17224821656303
  0
ARC
  5
54
330
2
100
AcDbEntity
  8
0
100
AcDbCircle
 10
-52.82974516582669
 20
-2.282616491667385
 30
0.0
 40
6.113250875698112
100
AcDbArc
 50
327.3327719907622
 51
21.17224821656303
  0
ARC
  5
55
330
2
100
AcDbEntity
  8
0
100
AcDbCircle
 10
-53.25805325008957
 20
-2.114873612371223
 30
0.0
 40
7.270825700897903
100
AcDbArc
 50
327.6287619992225
 51
15.72959896996994
  0
LINE
  5
56
330
2
100
AcDbEntity
  8
0
100
AcDbLine
 10
-51.12992692734792
 20
-10.52241598713269
 30
0.0
 11
-5.977646874805259
 21
-19.66600358530263
 31
0.0
  0
LINE
  5
57
330
2
100
AcDbEntity
  8
0
100
AcDbLine
 10
-49.29555409651993
 20
-8.458594409574441
 30
0.0
 11
-4.14327404397602
 21
-17.60218200774437
 31
0.0
  0
LINE
  5
58
330
2
100
AcDbEntity
  8
0
100
AcDbLine
 10
-46.24024603261966
 20
-0.2134824818408108
 30
0.0
 11
-1.36624040606182
 21
-9.542991192335875
 31
0.0
  0
LINE
  5
59
330
2
100
AcDbEntity
  8
0
100
AcDbLine
 10
-46.0923367184871
 20
-0.6701689518790488
 30
0.0
 11
-1.218331091929712
 21
-9.999677662374757
 31
0.0
  0
LINE
  5
5A
330
2
100
AcDbEntity
  8
0
100
AcDbLine
 10
-45.94472064193479
 20
-1.31961783768274
 30
0.0
 11
-1.070715015378084
 21
-10.64912654817768
 31
0.0
  0
LINE
  5
5B
330
2
100
AcDbEntity
  8
0
100
AcDbLine
 10
-45.8748896598878
 20
-1.858799698850026
 30
0.0
 11
-1.000884033330748
 21
-11.18830840934445
 31
0.0
  0
LINE
  5
5C
330
2
100
AcDbEntity
  8
0
100
AcDbLine
 10
-45.85115429248327
 20
-2.419419404876848
 30
0.0
 11
-0.9771486659259949
 21
-11.74892811537128
 31
0.0
  0
LINE
  5
5D
330
2
100
AcDbEntity
  8
0
100
AcDbLine
 10
-45.89038878888118
 20
-3.116179082968418
 30
0.0
 11
-1.016383162323847
 21
-12.44568779346336
 31
0.0
  0
LINE
  5
5E
330
2
100
AcDbEntity
  8
0
100
AcDbLine
 10
-46.00543390465946
 20
-3.804756122310379
 30
0.0
 11
-1.131428278102134
 21
-13.13426483280481
 31
0.0
  0
LINE
  5
5F
330
2
100
AcDbEntity
  8
0
100
AcDbLine
 10
-46.20209247162722
 20
-4.497538739097281
 30
0.0
 11
-1.328086845068924
 21
-13.82704744959235
 31
0.0
  0
LINE
  5
60
330
2
100
AcDbEntity
  8
0
100
AcDbLine
 10
-46.45928097867079
 20
-5.129667245634074
 30
0.0
 11
-1.585275352113455
 21
-14.45917595612914
 31
0.0
  0
LINE
  5
61
330
2
100
AcDbEntity
  8
0
100
AcDbLine
 10
-47.42250509879545
 20
-6.478419633445724
 30
0.0
 11
-2.548499472238063
 21
-15.80792834394028
 31
0.0
  0
LINE
  5
62
330
2
100
AcDbEntity
  8
0
100
AcDbLine
 10
-48.03233413307282
 20
-7.164527876226072
 30
0.0
 11
-3.158328506515488
 21
-16.49403658672038
 31
0.0
  0
LINE
  5
63
330
2
100
AcDbEntity
  8
0
100
AcDbLine
 10
-48.52520576854624
 20
-7.719049344905737
 30
0.0
 11
-3.651200141989193
 21
-17.04855805540004
 31
0.0
  0
LINE
  5
64
330
2
100
AcDbEntity
  8
0
100
AcDbLine
 10
-46.83886270631677
 20
-5.821773534609485
 30
0.0
 11
-1.964857079759269
 21
-15.15128224510456
 31
0.0
  0
ENDSEC
  0
SECTION
  2
OBJECTS
  0
DICTIONARY
  5
9
330
0
100
AcDbDictionary
  3
ACAD_GROUP
350
26
  3
ACAD_LAYOUT
350
D
  3
ACAD_MLINESTYLE
350
27
  3
ACAD_PLOTSETTINGS
350
28
  3
ACAD_PLOTSTYLENAME
350
8
  3
ACDBHEADERROUNDTRIPXREC
350
9A
  3
SIMPLE$CDFRECORD
350
6B
  3
SIMPLE$HISTROY
350
65
  3
SIMPLE$SYSTEM
350
6A
  0
DICTIONARY
  5
15
330
14
100
AcDbDictionary
280
     1
  3
ACAD_LAYERFILTERS
360
16
  3
ACAD_LAYERSTATES
360
17
  0
DICTIONARY
  5
3
330
2
100
AcDbDictionary
280
     1
  3
ACAD_LAYOUTSELFREF
360
BA
  0
DICTIONARY
  5
F
330
E
100
AcDbDictionary
280
     1
  3
ACAD_LAYOUTSELFREF
360
BB
  0
DICTIONARY
  5
26
102
{ACAD_REACTORS
330
9
102
}
330
9
100
AcDbDictionary
  0
DICTIONARY
  5
D
102
{ACAD_REACTORS
330
9
102
}
330
9
100
AcDbDictionary
  0
DICTIONARY
  5
27
102
{ACAD_REACTORS
330
9
102
}
330
9
100
AcDbDictionary
  3
STANDARD
350
2A
  0
DICTIONARY
  5
28
102
{ACAD_REACTORS
330
9
102
}
330
9
100
AcDbDictionary
  0
ACDBDICTIONARYWDFLT
  5
8
102
{ACAD_REACTORS
330
9
102
}
330
9
100
AcDbDictionary
281
     1
  3
Normal
350
7
100
AcDbDictionaryWithDefault
340
7
  0
DICTIONARY
  5
9A
102
{ACAD_REACTORS
330
9
102
}
330
9
100
AcDbDictionary
  3
CEPSNTYPE
350
A4
  3
FINGERPRINTGUID
350
A5
  3
HYPERLINKBASE
350
9D
  3
INSUNITS
350
A3
  3
LAYOUTDICT
350
9F
  3
LWETCUNION
350
A2
  3
PLOTSETDICT
350
A0
  3
PLOTSTYLNAMDICT
350
A1
  3
PSVPSCALE
350
A7
  3
PUCSBASE
350
AA
  3
PUCSORGBACK
350
B0
  3
PUCSORGBOTTOM
350
AC
  3
PUCSORGFRONT
350
AF
  3
PUCSORGLEFT
350
AD
  3
PUCSORGRIGHT
350
AE
  3
PUCSORGTOP
350
AB
  3
PUCSORTHOREF
350
A8
  3
PUCSORTHOVIEW
350
A9
  3
STYLESHEET
350
9E
  3
TSTACKALIGN
350
9B
  3
TSTACKSIZE
350
9C
  3
UCSBASE
350
B3
  3
UCSORGBACK
350
B9
  3
UCSORGBOTTOM
350
B5
  3
UCSORGFRONT
350
B8
  3
UCSORGLEFT
350
B6
  3
UCSORGRIGHT
350
B7
  3
UCSORGTOP
350
B4
  3
UCSORTHOREF
350
B1
  3
UCSORTHOVIEW
350
B2
  3
VERSIONGUID
350
A6
  0
XRECORD
  5
6B
102
{ACAD_REACTORS
330
9
102
}
330
9
100
AcDbXrecord
  1

  0
XRECORD
  5
65
102
{ACAD_REACTORS
330
9
102
}
330
9
100
AcDbXrecord
  1
2017年01月19日　16:57^J^J^J
  0
XRECORD
  5
6A
102
{ACAD_REACTORS
330
9
102
}
330
9
100
AcDbXrecord
  1
"14Q1FY",0,0,"1.25","0",0,0,0,1,"","",0,0,0,0,"",20,0,0,0,"\x81\x41\x81\x42\x81\x43\x81\x44\x81\x48\x81\x49\x81\x6A\x81\x6C\x81\x6E\x81\x70\x81\x72\x81\x74\x81\x76\x81\x78\x81\x7A\x29\x5D\x7D\xA3\xA4\xA1","\x81\x69\x81\x6B\x81\x6D\x81\x6F\x81\x71\x81\x73\x81\x75\x81\x77\x81\x79\x28\x5B\xA2\x7B","\x81\x69\x28\x81\x6A\x29\x81\x6D\x5B\x81\x6E\x5D\x81\x6F\x7B\x81\x70\x7D\x81\x75\xA2\x81\x76\xA3\x81\x41\xA4\x81\x42\xA1\x81\x43\x2C\x81\x44\x2E\x81\x45\xA5"
  2
50,"0",0,1,0
  3
|><@~^ %$~
  4
0,"0","0"
  6
0,0,0,0,0,"0",0
  8
0,""
 38
1.0
  0
DICTIONARY
  5
16
102
{ACAD_REACTORS
330
15
102
}
330
15
100
AcDbDictionary
280
     1
  0
DICTIONARY
  5
17
102
{ACAD_REACTORS
330
15
102
}
330
15
100
AcDbDictionary
  0
XRECORD
  5
BA
102
{ACAD_REACTORS
330
3
102
}
330
3
100
AcDbXrecord
340
2
  0
XRECORD
  5
BB
102
{ACAD_REACTORS
330
F
102
}
330
F
100
AcDbXrecord
340
E
  0
MLINESTYLE
  5
2A
102
{ACAD_REACTORS
330
27
102
}
330
27
100
AcDbMlineStyle
  2
STANDARD
 70
     0
  3

 62
   256
 51
90.0
 52
90.0
 71
     2
 49
0.5
 62
   256
  6
BYLAYER
 49
-0.5
 62
   256
  6
BYLAYER
  0
ACDBPLACEHOLDER
  5
7
102
{ACAD_REACTORS
330
8
102
}
330
8
100
AcDbPlaceHolder
280
     0
  0
XRECORD
  5
A4
102
{ACAD_REACTORS
330
9A
102
}
330
9A
100
AcDbXrecord
 90
        0
  0
XRECORD
  5
A5
102
{ACAD_REACTORS
330
9A
102
}
330
9A
100
AcDbXrecord
  1
{79A98651-2283-4CD6-B00C-76BA63A58833}
  0
XRECORD
  5
9D
102
{ACAD_REACTORS
330
9A
102
}
330
9A
100
AcDbXrecord
  1

  0
XRECORD
  5
A3
102
{ACAD_REACTORS
330
9A
102
}
330
9A
100
AcDbXrecord
 90
        0
  0
XRECORD
  5
9F
102
{ACAD_REACTORS
330
9A
102
}
330
9A
100
AcDbXrecord
340
D
  0
XRECORD
  5
A2
102
{ACAD_REACTORS
330
9A
102
}
330
9A
100
AcDbXrecord
 90
    10781
  0
XRECORD
  5
A0
102
{ACAD_REACTORS
330
9A
102
}
330
9A
100
AcDbXrecord
340
28
  0
XRECORD
  5
A1
102
{ACAD_REACTORS
330
9A
102
}
330
9A
100
AcDbXrecord
340
8
  0
XRECORD
  5
A7
102
{ACAD_REACTORS
330
9A
102
}
330
9A
100
AcDbXrecord
 40
0.0
  0
XRECORD
  5
AA
102
{ACAD_REACTORS
330
9A
102
}
330
9A
100
AcDbXrecord
340
0
  0
XRECORD
  5
B0
102
{ACAD_REACTORS
330
9A
102
}
330
9A
100
AcDbXrecord
 10
0.0
 20
0.0
 30
0.0
  0
XRECORD
  5
AC
102
{ACAD_REACTORS
330
9A
102
}
330
9A
100
AcDbXrecord
 10
0.0
 20
0.0
 30
0.0
  0
XRECORD
  5
AF
102
{ACAD_REACTORS
330
9A
102
}
330
9A
100
AcDbXrecord
 10
0.0
 20
0.0
 30
0.0
  0
XRECORD
  5
AD
102
{ACAD_REACTORS
330
9A
102
}
330
9A
100
AcDbXrecord
 10
0.0
 20
0.0
 30
0.0
  0
XRECORD
  5
AE
102
{ACAD_REACTORS
330
9A
102
}
330
9A
100
AcDbXrecord
 10
0.0
 20
0.0
 30
0.0
  0
XRECORD
  5
AB
102
{ACAD_REACTORS
330
9A
102
}
330
9A
100
AcDbXrecord
 10
0.0
 20
0.0
 30
0.0
  0
XRECORD
  5
A8
102
{ACAD_REACTORS
330
9A
102
}
330
9A
100
AcDbXrecord
340
0
  0
XRECORD
  5
A9
102
{ACAD_REACTORS
330
9A
102
}
330
9A
100
AcDbXrecord
 70
     0
  0
XRECORD
  5
9E
102
{ACAD_REACTORS
330
9A
102
}
330
9A
100
AcDbXrecord
  1

  0
XRECORD
  5
9B
102
{ACAD_REACTORS
330
9A
102
}
330
9A
100
AcDbXrecord
 90
        1
  0
XRECORD
  5
9C
102
{ACAD_REACTORS
330
9A
102
}
330
9A
100
AcDbXrecord
 90
       70
  0
XRECORD
  5
B3
102
{ACAD_REACTORS
330
9A
102
}
330
9A
100
AcDbXrecord
340
0
  0
XRECORD
  5
B9
102
{ACAD_REACTORS
330
9A
102
}
330
9A
100
AcDbXrecord
 10
0.0
 20
0.0
 30
0.0
  0
XRECORD
  5
B5
102
{ACAD_REACTORS
330
9A
102
}
330
9A
100
AcDbXrecord
 10
0.0
 20
0.0
 30
0.0
  0
XRECORD
  5
B8
102
{ACAD_REACTORS
330
9A
102
}
330
9A
100
AcDbXrecord
 10
0.0
 20
0.0
 30
0.0
  0
XRECORD
  5
B6
102
{ACAD_REACTORS
330
9A
102
}
330
9A
100
AcDbXrecord
 10
0.0
 20
0.0
 30
0.0
  0
XRECORD
  5
B7
102
{ACAD_REACTORS
330
9A
102
}
330
9A
100
AcDbXrecord
 10
0.0
 20
0.0
 30
0.0
  0
XRECORD
  5
B4
102
{ACAD_REACTORS
330
9A
102
}
330
9A
100
AcDbXrecord
 10
0.0
 20
0.0
 30
0.0
  0
XRECORD
  5
B1
102
{ACAD_REACTORS
330
9A
102
}
330
9A
100
AcDbXrecord
340
0
  0
XRECORD
  5
B2
102
{ACAD_REACTORS
330
9A
102
}
330
9A
100
AcDbXrecord
 70
     0
  0
XRECORD
  5
A6
102
{ACAD_REACTORS
330
9A
102
}
330
9A
100
AcDbXrecord
  1
{2244626B-B8BD-4E85-AD01-D9F1B79D9D0B}
  0
ENDSEC
  0
EOF
