  0
SECTION
  2
HEADER
  9
$ACADVER
  1
AC1015
  9
$ACADMAINTVER
 70
    20
  9
$DWGCODEPAGE
  3
ANSI_932
  9
$INSBASE
 10
0.0
 20
0.0
 30
0.0
  9
$EXTMIN
 10
0.1922705212982691
 20
0.1359627257752436
 30
-0.0015258207003583
  9
$EXTMAX
 10
4000.497446070072
 20
2770.235602385638
 30
0.0000000349246037
  9
$LIMMIN
 10
0.0
 20
0.0
  9
$LIMMAX
 10
12.0
 20
9.0
  9
$ORTHOMODE
 70
     0
  9
$REGENMODE
 70
     1
  9
$FILLMODE
 70
     1
  9
$QTEXTMODE
 70
     0
  9
$MIRRTEXT
 70
     0
  9
$LTSCALE
 40
10.0
  9
$ATTMODE
 70
     1
  9
$TEXTSIZE
 40
0.0
  9
$TRACEWID
 40
0.05
  9
$TEXTSTYLE
  7
STANDARD
  9
$CLAYER
  8
0
  9
$CELTYPE
  6
CONTINUOUS
  9
$CECOLOR
 62
   256
  9
$CELTSCALE
 40
1.0
  9
$DISPSILH
 70
     0
  9
$DIMSCALE
 40
1.0
  9
$DIMASZ
 40
0.18
  9
$DIMEXO
 40
0.0625
  9
$DIMDLI
 40
0.38
  9
$DIMRND
 40
0.0
  9
$DIMDLE
 40
0.0
  9
$DIMEXE
 40
0.18
  9
$DIMTP
 40
0.0
  9
$DIMTM
 40
0.0
  9
$DIMTXT
 40
0.18
  9
$DIMCEN
 40
0.09
  9
$DIMTSZ
 40
0.0
  9
$DIMTOL
 70
     0
  9
$DIMLIM
 70
     0
  9
$DIMTIH
 70
     1
  9
$DIMTOH
 70
     1
  9
$DIMSE1
 70
     0
  9
$DIMSE2
 70
     0
  9
$DIMTAD
 70
     0
  9
$DIMZIN
 70
     0
  9
$DIMBLK
  1

  9
$DIMASO
 70
     1
  9
$DIMSHO
 70
     1
  9
$DIMPOST
  1

  9
$DIMAPOST
  1

  9
$DIMALT
 70
     0
  9
$DIMALTD
 70
     2
  9
$DIMALTF
 40
25.4
  9
$DIMLFAC
 40
1.0
  9
$DIMTOFL
 70
     0
  9
$DIMTVP
 40
0.0
  9
$DIMTIX
 70
     0
  9
$DIMSOXD
 70
     0
  9
$DIMSAH
 70
     0
  9
$DIMBLK1
  1

  9
$DIMBLK2
  1

  9
$DIMSTYLE
  2
Standard
  9
$DIMCLRD
 70
     0
  9
$DIMCLRE
 70
     0
  9
$DIMCLRT
 70
     0
  9
$DIMTFAC
 40
1.0
  9
$DIMGAP
 40
0.09
  9
$DIMJUST
 70
     0
  9
$DIMSD1
 70
     0
  9
$DIMSD2
 70
     0
  9
$DIMTOLJ
 70
     1
  9
$DIMTZIN
 70
     0
  9
$DIMALTZ
 70
     0
  9
$DIMALTTZ
 70
     0
  9
$DIMUPT
 70
     0
  9
$DIMDEC
 70
     4
  9
$DIMTDEC
 70
     4
  9
$DIMALTU
 70
     2
  9
$DIMALTTD
 70
     2
  9
$DIMTXSTY
  7
STANDARD
  9
$DIMAUNIT
 70
     0
  9
$DIMADEC
 70
     0
  9
$DIMALTRND
 40
0.0
  9
$DIMAZIN
 70
     0
  9
$DIMDSEP
 70
    46
  9
$DIMATFIT
 70
     3
  9
$DIMFRAC
 70
     0
  9
$DIMLDRBLK
  1

  9
$DIMLUNIT
 70
     2
  9
$DIMLWD
 70
    -2
  9
$DIMLWE
 70
    -2
  9
$DIMTMOVE
 70
     0
  9
$LUNITS
 70
     2
  9
$LUPREC
 70
     4
  9
$SKETCHINC
 40
0.1
  9
$FILLETRAD
 40
0.0
  9
$AUNITS
 70
     0
  9
$AUPREC
 70
     0
  9
$MENU
  1
.
  9
$ELEVATION
 40
0.0
  9
$PELEVATION
 40
0.0
  9
$THICKNESS
 40
0.0
  9
$LIMCHECK
 70
     0
  9
$CHAMFERA
 40
0.0
  9
$CHAMFERB
 40
0.0
  9
$CHAMFERC
 40
0.0
  9
$CHAMFERD
 40
0.0
  9
$SKPOLY
 70
     0
  9
$TDCREATE
 40
2457358.761852894
  9
$TDUCREATE
 40
2457358.386852894
  9
$TDUPDATE
 40
2457358.762483391
  9
$TDUUPDATE
 40
2457358.387483391
  9
$TDINDWG
 40
0.0006308681
  9
$TDUSRTIMER
 40
0.0006308681
  9
$USRTIMER
 70
     1
  9
$ANGBASE
 50
0.0
  9
$ANGDIR
 70
     0
  9
$PDMODE
 70
     0
  9
$PDSIZE
 40
5.0
  9
$PLINEWID
 40
0.0
  9
$SPLFRAME
 70
     0
  9
$SPLINETYPE
 70
     6
  9
$SPLINESEGS
 70
     8
  9
$HANDSEED
  5
636
  9
$SURFTAB1
 70
     6
  9
$SURFTAB2
 70
     6
  9
$SURFTYPE
 70
     6
  9
$SURFU
 70
     6
  9
$SURFV
 70
     6
  9
$UCSBASE
  2

  9
$UCSNAME
  2

  9
$UCSORG
 10
0.0
 20
0.0
 30
0.0
  9
$UCSXDIR
 10
1.0
 20
0.0
 30
0.0
  9
$UCSYDIR
 10
0.0
 20
1.0
 30
0.0
  9
$UCSORTHOREF
  2

  9
$UCSORTHOVIEW
 70
     0
  9
$UCSORGTOP
 10
0.0
 20
0.0
 30
0.0
  9
$UCSORGBOTTOM
 10
0.0
 20
0.0
 30
0.0
  9
$UCSORGLEFT
 10
0.0
 20
0.0
 30
0.0
  9
$UCSORGRIGHT
 10
0.0
 20
0.0
 30
0.0
  9
$UCSORGFRONT
 10
0.0
 20
0.0
 30
0.0
  9
$UCSORGBACK
 10
0.0
 20
0.0
 30
0.0
  9
$PUCSBASE
  2

  9
$PUCSNAME
  2

  9
$PUCSORG
 10
0.0
 20
0.0
 30
0.0
  9
$PUCSXDIR
 10
1.0
 20
0.0
 30
0.0
  9
$PUCSYDIR
 10
0.0
 20
1.0
 30
0.0
  9
$PUCSORTHOREF
  2

  9
$PUCSORTHOVIEW
 70
     0
  9
$PUCSORGTOP
 10
0.0
 20
0.0
 30
0.0
  9
$PUCSORGBOTTOM
 10
0.0
 20
0.0
 30
0.0
  9
$PUCSORGLEFT
 10
0.0
 20
0.0
 30
0.0
  9
$PUCSORGRIGHT
 10
0.0
 20
0.0
 30
0.0
  9
$PUCSORGFRONT
 10
0.0
 20
0.0
 30
0.0
  9
$PUCSORGBACK
 10
0.0
 20
0.0
 30
0.0
  9
$USERI1
 70
     0
  9
$USERI2
 70
     0
  9
$USERI3
 70
     0
  9
$USERI4
 70
     0
  9
$USERI5
 70
     0
  9
$USERR1
 40
0.0
  9
$USERR2
 40
0.0
  9
$USERR3
 40
0.0
  9
$USERR4
 40
0.0
  9
$USERR5
 40
0.0
  9
$WORLDVIEW
 70
     1
  9
$SHADEDGE
 70
     3
  9
$SHADEDIF
 70
    70
  9
$TILEMODE
 70
     1
  9
$MAXACTVP
 70
    64
  9
$PINSBASE
 10
0.0
 20
0.0
 30
0.0
  9
$PLIMCHECK
 70
     0
  9
$PEXTMIN
 10
1.000000000000000E+20
 20
1.000000000000000E+20
 30
1.000000000000000E+20
  9
$PEXTMAX
 10
-1.000000000000000E+20
 20
-1.000000000000000E+20
 30
-1.000000000000000E+20
  9
$PLIMMIN
 10
0.0
 20
0.0
  9
$PLIMMAX
 10
12.0
 20
9.0
  9
$UNITMODE
 70
     0
  9
$VISRETAIN
 70
     1
  9
$PLINEGEN
 70
     0
  9
$PSLTSCALE
 70
     1
  9
$TREEDEPTH
 70
  3020
  9
$CMLSTYLE
  2
Standard
  9
$CMLJUST
 70
     0
  9
$CMLSCALE
 40
1.0
  9
$PROXYGRAPHICS
 70
     1
  9
$MEASUREMENT
 70
     0
  9
$CELWEIGHT
370
    -1
  9
$ENDCAPS
280
     0
  9
$JOINSTYLE
280
     0
  9
$LWDISPLAY
290
     0
  9
$INSUNITS
 70
     0
  9
$HYPERLINKBASE
  1

  9
$STYLESHEET
  1

  9
$XEDIT
290
     1
  9
$CEPSNTYPE
380
     0
  9
$PSTYLEMODE
290
     1
  9
$FINGERPRINTGUID
  2
{2A3E2038-84D9-4678-85E4-FBC633AB60A7}
  9
$VERSIONGUID
  2
{5DA75B52-2450-45CC-9142-C0440C2A502E}
  9
$EXTNAMES
290
     1
  9
$PSVPSCALE
 40
0.0
  9
$OLESTARTUP
290
     0
  0
ENDSEC
  0
SECTION
  2
CLASSES
  0
CLASS
  1
ACDBDICTIONARYWDFLT
  2
AcDbDictionaryWithDefault
  3
ObjectDBX Classes
 90
        0
280
     0
281
     0
  0
CLASS
  1
MATERIAL
  2
AcDbMaterial
  3
ObjectDBX Classes
 90
     1024
280
     0
281
     0
  0
CLASS
  1
VISUALSTYLE
  2
AcDbVisualStyle
  3
ObjectDBX Classes
 90
     4095
280
     0
281
     0
  0
CLASS
  1
TABLESTYLE
  2
AcDbTableStyle
  3
ObjectDBX Classes
 90
     4095
280
     0
281
     0
  0
CLASS
  1
DICTIONARYVAR
  2
AcDbDictionaryVar
  3
ObjectDBX Classes
 90
        0
280
     0
281
     0
  0
CLASS
  1
ACDBPLACEHOLDER
  2
AcDbPlaceHolder
  3
ObjectDBX Classes
 90
        0
280
     0
281
     0
  0
CLASS
  1
LAYOUT
  2
AcDbLayout
  3
ObjectDBX Classes
 90
        0
280
     0
281
     0
  0
ENDSEC
  0
SECTION
  2
TABLES
  0
TABLE
  2
VPORT
  5
8
330
0
100
AcDbSymbolTable
 70
     1
  0
VPORT
  5
51
330
8
100
AcDbSymbolTableRecord
100
AcDbViewportTableRecord
  2
*Active
 70
     0
 10
0.0
 20
0.0
 11
1.0
 21
1.0
 12
2000.248723035036
 22
1385.117801192819
 13
0.0
 23
0.0
 14
1.0
 24
1.0
 15
0.0
 25
0.0
 16
0.0
 26
0.0
 36
1.0
 17
0.0
 27
0.0
 37
0.0
 40
2791.490607007522
 41
1.544174135723431
 42
50.0
 43
0.0
 44
0.0
 50
0.0
 51
0.0
 71
     0
 72
   100
 73
     1
 74
     1
 75
     0
 76
     0
 77
     0
 78
     0
281
     0
 65
     1
110
0.0
120
0.0
130
0.0
111
1.0
121
0.0
131
0.0
112
0.0
122
1.0
132
0.0
 79
     0
146
0.0
  0
ENDTAB
  0
TABLE
  2
LTYPE
  5
5
330
0
100
AcDbSymbolTable
 70
     9
  0
LTYPE
  5
28
330
5
100
AcDbSymbolTableRecord
100
AcDbLinetypeTableRecord
  2
ByBlock
 70
     0
  3

 72
    65
 73
     0
 40
0.0
  0
LTYPE
  5
29
330
5
100
AcDbSymbolTableRecord
100
AcDbLinetypeTableRecord
  2
ByLayer
 70
     0
  3

 72
    65
 73
     0
 40
0.0
  0
LTYPE
  5
2A
330
5
100
AcDbSymbolTableRecord
100
AcDbLinetypeTableRecord
  2
CONTINUOUS
 70
     0
  3
SolidLine
 72
    65
 73
     0
 40
0.0
  0
LTYPE
  5
3A
330
5
100
AcDbSymbolTableRecord
100
AcDbLinetypeTableRecord
  2
DOT
 70
     0
  3
--  --  --  --  --  --  --  --     
 72
    65
 73
     2
 40
3.0
 49
1.0
 74
     0
 49
-2.0
 74
     0
  0
LTYPE
  5
3B
330
5
100
AcDbSymbolTableRecord
100
AcDbLinetypeTableRecord
  2
DASHED
 70
     0
  3
----    ----    ----    ----    
 72
    65
 73
     2
 40
5.0
 49
2.0
 74
     0
 49
-3.0
 74
     0
  0
LTYPE
  5
3C
330
5
100
AcDbSymbolTableRecord
100
AcDbLinetypeTableRecord
  2
DASHED2
 70
     0
  3
------  ------  ------  ------ 
 72
    65
 73
     2
 40
10.0
 49
4.0
 74
     0
 49
-6.0
 74
     0
  0
LTYPE
  5
3D
330
5
100
AcDbSymbolTableRecord
100
AcDbLinetypeTableRecord
  2
CENTER
 70
     0
  3
----- - ----- - ----- - ----- - 
 72
    65
 73
     4
 40
10.0
 49
6.0
 74
     0
 49
-3.0
 74
     0
 49
1.0
 74
     0
 49
-3.0
 74
     0
  0
LTYPE
  5
3E
330
5
100
AcDbSymbolTableRecord
100
AcDbLinetypeTableRecord
  2
CENTER2
 70
     0
  3
----------  --  ----------  -- 
 72
    65
 73
     4
 40
17.0
 49
12.0
 74
     0
 49
-5.0
 74
     0
 49
2.0
 74
     0
 49
-5.0
 74
     0
  0
LTYPE
  5
3F
330
5
100
AcDbSymbolTableRecord
100
AcDbLinetypeTableRecord
  2
PHANTOM
 70
     0
  3
--- - - --- - - --- - - --- - -
 72
    65
 73
     6
 40
13.0
 49
5.0
 74
     0
 49
-3.0
 74
     0
 49
1.0
 74
     0
 49
-3.0
 74
     0
 49
1.0
 74
     0
 49
-3.0
 74
     0
  0
LTYPE
  5
40
330
5
100
AcDbSymbolTableRecord
100
AcDbLinetypeTableRecord
  2
PHANTOM2
 70
     0
  3
--------  -  -  --------  -  -
 72
    65
 73
     6
 40
20.0
 49
6.0
 74
     0
 49
-5.0
 74
     0
 49
2.0
 74
     0
 49
-5.0
 74
     0
 49
2.0
 74
     0
 49
-5.0
 74
     0
  0
LTYPE
  5
41
330
5
100
AcDbSymbolTableRecord
100
AcDbLinetypeTableRecord
  2
HIDDEN
 70
     0
  3
-   -   -   -   -   -   -   -   
 72
    65
 73
     2
 40
3.0
 49
0.5
 74
     0
 49
-2.5
 74
     0
  0
ENDTAB
  0
TABLE
  2
LAYER
  5
2
330
0
100
AcDbSymbolTable
 70
     9
  0
LAYER
  5
25
330
2
100
AcDbSymbolTableRecord
100
AcDbLayerTableRecord
  2
0
 70
     0
 62
     7
  6
CONTINUOUS
370
    -3
390
F
  0
LAYER
  5
46
330
2
100
AcDbSymbolTableRecord
100
AcDbLayerTableRecord
  2
2-0
 70
     0
 62
     7
  6
CONTINUOUS
370
    -3
390
F
  0
LAYER
  5
47
330
2
100
AcDbSymbolTableRecord
100
AcDbLayerTableRecord
  2
4-0
 70
     0
 62
    -7
  6
CONTINUOUS
370
    -3
390
F
  0
LAYER
  5
48
330
2
100
AcDbSymbolTableRecord
100
AcDbLayerTableRecord
  2
5-0
 70
     0
 62
    -7
  6
CONTINUOUS
370
    -3
390
F
  0
LAYER
  5
49
330
2
100
AcDbSymbolTableRecord
100
AcDbLayerTableRecord
  2
6-0
 70
     0
 62
     7
  6
CONTINUOUS
370
    -3
390
F
  0
LAYER
  5
4A
330
2
100
AcDbSymbolTableRecord
100
AcDbLayerTableRecord
  2
8-0
 70
     0
 62
     7
  6
CONTINUOUS
370
    -3
390
F
  0
LAYER
  5
4B
330
2
100
AcDbSymbolTableRecord
100
AcDbLayerTableRecord
  2
9-0
 70
     0
 62
     1
  6
CONTINUOUS
370
    -3
390
F
  0
LAYER
  5
4C
330
2
100
AcDbSymbolTableRecord
100
AcDbLayerTableRecord
  2
C-0
 70
     0
 62
     5
  6
CONTINUOUS
370
    -3
390
F
  0
LAYER
  5
5A7
330
2
100
AcDbSymbolTableRecord
100
AcDbLayerTableRecord
  2
1-0
 70
     0
 62
     7
  6
CONTINUOUS
370
    -3
390
F
  0
ENDTAB
  0
TABLE
  2
STYLE
  5
3
330
0
100
AcDbSymbolTable
 70
     5
  0
STYLE
  5
26
330
3
100
AcDbSymbolTableRecord
100
AcDbTextStyleTableRecord
  2
STANDARD
 70
     0
 40
0.0
 41
1.0
 50
0.0
 71
     0
 42
0.0
  3
txt.shx
  4
extfont.shx
  0
STYLE
  5
42
330
3
100
AcDbSymbolTableRecord
100
AcDbTextStyleTableRecord
  2
TATEGAKI
 70
     4
 40
0.0
 41
1.0
 50
0.0
 71
     0
 42
0.0
  3
txt.shx
  4
extfont.shx
  0
STYLE
  5
43
330
3
100
AcDbSymbolTableRecord
100
AcDbTextStyleTableRecord
  2
DIM
 70
     0
 40
0.0
 41
0.75
 50
0.0
 71
     0
 42
0.0
  3
txt.shx
  4
extfont.shx
  0
STYLE
  5
44
330
3
100
AcDbSymbolTableRecord
100
AcDbTextStyleTableRecord
  2
_GOTHIC__
 70
     0
 40
0.0
 41
1.0
 50
0.0
 71
     0
 42
0.0
  3
MS Gothic
  4

  0
STYLE
  5
45
330
3
100
AcDbSymbolTableRecord
100
AcDbTextStyleTableRecord
  2
_TATEGOTHIC_
 70
     4
 40
0.0
 41
1.0
 50
0.0
 71
     0
 42
0.0
  3
@MS Gothic
  4

  0
ENDTAB
  0
TABLE
  2
VIEW
  5
6
330
0
100
AcDbSymbolTable
 70
     0
  0
ENDTAB
  0
TABLE
  2
UCS
  5
7
330
0
100
AcDbSymbolTable
 70
     0
  0
ENDTAB
  0
TABLE
  2
APPID
  5
9
330
0
100
AcDbSymbolTable
 70
     1
  0
APPID
  5
27
330
9
100
AcDbSymbolTableRecord
100
AcDbRegAppTableRecord
  2
ACAD
 70
     0
  0
ENDTAB
  0
TABLE
  2
DIMSTYLE
  5
A
330
0
100
AcDbSymbolTable
 70
     1
100
AcDbDimStyleTable
 71
     0
  0
DIMSTYLE
105
61C
330
A
100
AcDbSymbolTableRecord
100
AcDbDimStyleTableRecord
  2
Standard
 70
     0
340
26
  0
ENDTAB
  0
TABLE
  2
BLOCK_RECORD
  5
1
330
0
100
AcDbSymbolTable
 70
     1
  0
BLOCK_RECORD
  5
36
330
1
100
AcDbSymbolTableRecord
100
AcDbBlockTableRecord
  2
*Model_Space
340
39
  0
BLOCK_RECORD
  5
32
330
1
100
AcDbSymbolTableRecord
100
AcDbBlockTableRecord
  2
*Paper_Space
340
35
  0
ENDTAB
  0
ENDSEC
  0
SECTION
  2
BLOCKS
  0
BLOCK
  5
37
330
36
100
AcDbEntity
  8
0
100
AcDbBlockBegin
  2
*Model_Space
 70
     0
 10
0.0
 20
0.0
 30
0.0
  3
*Model_Space
  1

  0
ENDBLK
  5
38
330
36
100
AcDbEntity
  8
0
100
AcDbBlockEnd
  0
BLOCK
  5
33
330
32
100
AcDbEntity
 67
     1
  8
0
100
AcDbBlockBegin
  2
*Paper_Space
 70
     0
 10
0.0
 20
0.0
 30
0.0
  3
*Paper_Space
  1

  0
ENDBLK
  5
34
330
32
100
AcDbEntity
 67
     1
  8
0
100
AcDbBlockEnd
  0
ENDSEC
  0
SECTION
  2
ENTITIES
  0
LINE
  5
52
330
36
100
AcDbEntity
  8
8-0
  6
Continuous
 62
     7
100
AcDbLine
 10
0.381412840568
 20
0.163116338852
 30
0.0
 11
4000.381412840568
 21
0.163116338852
 31
0.0
  0
LINE
  5
53
330
36
100
AcDbEntity
  8
8-0
  6
Continuous
 62
     7
100
AcDbLine
 10
2191.944119840568
 20
200.163116338852
 30
0.0
 11
4000.381412840568
 21
200.163116338852
 31
0.0
  0
LINE
  5
54
330
36
100
AcDbEntity
  8
6-0
  6
Continuous
 62
     7
100
AcDbLine
 10
2191.944119840568
 20
140.163116338852
 30
0.0
 11
3050.381412840569
 21
140.163116338852
 31
0.0
  0
LINE
  5
55
330
36
100
AcDbEntity
  8
8-0
  6
Continuous
 62
     7
100
AcDbLine
 10
4000.381412840568
 20
0.163116338852
 30
0.0
 11
4000.381412840568
 21
2770.163116338852
 31
0.0
  0
LINE
  5
56
330
36
100
AcDbEntity
  8
8-0
  6
Continuous
 62
     7
100
AcDbLine
 10
4000.381412840568
 20
2770.163116338852
 30
0.0
 11
0.381412840568
 21
2770.163116338852
 31
0.0
  0
LINE
  5
57
330
36
100
AcDbEntity
  8
8-0
  6
Continuous
 62
     7
100
AcDbLine
 10
0.381412840568
 20
2770.163116338852
 30
0.0
 11
0.381412840568
 21
0.163116338852
 31
0.0
  0
LINE
  5
58
330
36
100
AcDbEntity
  8
6-0
  6
Continuous
 62
     7
100
AcDbLine
 10
3050.381412840569
 20
0.163116338852
 30
0.0
 11
3050.381412840569
 21
200.163116338852
 31
0.0
  0
LINE
  5
59
330
36
100
AcDbEntity
  8
8-0
  6
Continuous
 62
     7
100
AcDbLine
 10
2191.944119840568
 20
0.163116338852
 30
0.0
 11
2191.944119840568
 21
200.163116338852
 31
0.0
  0
TEXT
  5
5A
330
36
100
AcDbEntity
  8
C-0
 62
     5
100
AcDbText
 10
2615.233
 20
152.694
 30
0.0
 40
31.104
  1
品番
100
AcDbText
  0
TEXT
  5
5C
330
36
100
AcDbEntity
  8
C-0
 62
     5
100
AcDbText
 10
3253.941
 20
92.48299999999998
 30
0.0
 40
62.208
  1
アイオ産業株式会社
100
AcDbText
  0
TEXT
  5
5D
330
36
100
AcDbEntity
  8
C-0
 62
     5
100
AcDbText
 10
3328.322
 20
24.676
 30
0.0
 40
31.104
  1
アイオシステムキッチン事業部
100
AcDbText
  0
LINE
  5
5E
330
36
100
AcDbEntity
  8
2-0
  6
Continuous
 62
     7
100
AcDbLine
 10
3204.312033868236
 20
59.507133270233
 30
0.0
 11
3206.926797165384
 21
62.813588966919
 31
0.0
  0
LINE
  5
5F
330
36
100
AcDbEntity
  8
2-0
  6
Continuous
 62
     7
100
AcDbLine
 10
3206.926797165384
 20
62.813588966919
 30
0.0
 11
3209.31548489488
 21
66.286888162959
 31
0.0
  0
LINE
  5
60
330
36
100
AcDbEntity
  8
2-0
  6
Continuous
 62
     7
100
AcDbLine
 10
3209.31548489488
 20
66.286888162959
 30
0.0
 11
3211.46748459823
 21
69.91159968955599
 31
0.0
  0
LINE
  5
61
330
36
100
AcDbEntity
  8
2-0
  6
Continuous
 62
     7
100
AcDbLine
 10
3211.46748459823
 20
69.91159968955599
 30
0.0
 11
3213.373235374167
 21
73.671619683423
 31
0.0
  0
LINE
  5
62
330
36
100
AcDbEntity
  8
2-0
  6
Continuous
 62
     7
100
AcDbLine
 10
3213.373235374167
 20
73.671619683423
 30
0.0
 11
3215.024270355818
 21
77.550243133003
 31
0.0
  0
LINE
  5
63
330
36
100
AcDbEntity
  8
2-0
  6
Continuous
 62
     7
100
AcDbLine
 10
3215.024270355818
 20
77.550243133003
 30
0.0
 11
3216.413254327281
 21
81.53023809547301
 31
0.0
  0
LINE
  5
64
330
36
100
AcDbEntity
  8
2-0
  6
Continuous
 62
     7
100
AcDbLine
 10
3216.413254327281
 20
81.53023809547301
 30
0.0
 11
3217.534016312515
 21
85.59392225479399
 31
0.0
  0
LINE
  5
65
330
36
100
AcDbEntity
  8
2-0
  6
Continuous
 62
     7
100
AcDbLine
 10
3217.534016312515
 20
85.59392225479399
 30
0.0
 11
3218.381576991744
 21
89.72324148068301
 31
0.0
  0
LINE
  5
66
330
36
100
AcDbEntity
  8
2-0
  6
Continuous
 62
     7
100
AcDbLine
 10
3218.381576991744
 20
89.72324148068301
 30
0.0
 11
3218.952170823571
 21
93.89985003947099
 31
0.0
  0
LINE
  5
67
330
36
100
AcDbEntity
  8
2-0
  6
Continuous
 62
     7
100
AcDbLine
 10
3218.952170823571
 20
93.89985003947099
 30
0.0
 11
3219.243262774521
 21
98.10519210051202
 31
0.0
  0
LINE
  5
68
330
36
100
AcDbEntity
  8
2-0
  6
Continuous
 62
     7
100
AcDbLine
 10
3219.243262774521
 20
98.10519210051202
 30
0.0
 11
3219.253559581679
 21
102.320584175994
 31
0.0
  0
LINE
  5
69
330
36
100
AcDbEntity
  8
2-0
  6
Continuous
 62
     7
100
AcDbLine
 10
3219.253559581679
 20
102.320584175994
 30
0.0
 11
3218.983015498409
 21
106.527298127913
 31
0.0
  0
LINE
  5
6A
330
36
100
AcDbEntity
  8
2-0
  6
Continuous
 62
     7
100
AcDbLine
 10
3218.983015498409
 20
106.527298127913
 30
0.0
 11
3218.432832497582
 21
110.706644373425
 31
0.0
  0
LINE
  5
6B
330
36
100
AcDbEntity
  8
2-0
  6
Continuous
 62
     7
100
AcDbLine
 10
3218.432832497582
 20
110.706644373425
 30
0.0
 11
3217.605454931462
 21
114.840054918888
 31
0.0
  0
LINE
  5
6C
330
36
100
AcDbEntity
  8
2-0
  6
Continuous
 62
     7
100
AcDbLine
 10
3217.605454931462
 20
114.840054918888
 30
0.0
 11
3216.504558671942
 21
118.909165853729
 31
0.0
  0
LINE
  5
6D
330
36
100
AcDbEntity
  8
2-0
  6
Continuous
 62
     7
100
AcDbLine
 10
3216.504558671942
 20
118.909165853729
 30
0.0
 11
3215.135034779378
 21
122.895898937592
 31
0.0
  0
LINE
  5
6E
330
36
100
AcDbEntity
  8
2-0
  6
Continuous
 62
     7
100
AcDbLine
 10
3215.135034779378
 20
122.895898937592
 30
0.0
 11
3213.502967772603
 21
126.782541918321
 31
0.0
  0
LINE
  5
6F
330
36
100
AcDbEntity
  8
2-0
  6
Continuous
 62
     7
100
AcDbLine
 10
3213.502967772603
 20
126.782541918321
 30
0.0
 11
3211.61560859662
 21
130.551827223933
 31
0.0
  0
LINE
  5
70
330
36
100
AcDbEntity
  8
2-0
  6
Continuous
 62
     7
100
AcDbLine
 10
3211.61560859662
 20
130.551827223933
 30
0.0
 11
3209.481342408135
 21
134.187008678957
 31
0.0
  0
LINE
  5
71
330
36
100
AcDbEntity
  8
2-0
  6
Continuous
 62
     7
100
AcDbLine
 10
3209.481342408135
 20
134.187008678957
 30
0.0
 11
3207.109651321975
 21
137.671935904323
 31
0.0
  0
LINE
  5
72
330
36
100
AcDbEntity
  8
2-0
  6
Continuous
 62
     7
100
AcDbLine
 10
3207.109651321975
 20
137.671935904323
 30
0.0
 11
3204.511072283973
 21
140.991126070239
 31
0.0
  0
LINE
  5
73
330
36
100
AcDbEntity
  8
2-0
  6
Continuous
 62
     7
100
AcDbLine
 10
3204.511072283973
 20
140.991126070239
 30
0.0
 11
3201.697150257434
 21
144.129832683291
 31
0.0
  0
LINE
  5
74
330
36
100
AcDbEntity
  8
2-0
  6
Continuous
 62
     7
100
AcDbLine
 10
3201.697150257434
 20
144.129832683291
 30
0.0
 11
3198.680386931194
 21
147.07411110214
 31
0.0
  0
LINE
  5
75
330
36
100
AcDbEntity
  8
2-0
  6
Continuous
 62
     7
100
AcDbLine
 10
3198.680386931194
 20
147.07411110214
 30
0.0
 11
3195.474185177125
 21
149.810880490755
 31
0.0
  0
LINE
  5
76
330
36
100
AcDbEntity
  8
2-0
  6
Continuous
 62
     7
100
AcDbLine
 10
3195.474185177125
 20
149.810880490755
 30
0.0
 11
3192.092789503886
 21
152.327981933935
 31
0.0
  0
LINE
  5
77
330
36
100
AcDbEntity
  8
2-0
  6
Continuous
 62
     7
100
AcDbLine
 10
3192.092789503886
 20
152.327981933935
 30
0.0
 11
3188.551222771433
 21
154.614232456916
 31
0.0
  0
LINE
  5
78
330
36
100
AcDbEntity
  8
2-0
  6
Continuous
 62
     7
100
AcDbLine
 10
3188.551222771433
 20
154.614232456916
 30
0.0
 11
3184.865219447478
 21
156.659474709082
 31
0.0
  0
LINE
  5
79
330
36
100
AcDbEntity
  8
2-0
  6
Continuous
 62
     7
100
AcDbLine
 10
3184.865219447478
 20
156.659474709082
 30
0.0
 11
3181.051155702421
 21
158.454622091022
 31
0.0
  0
LINE
  5
7A
330
36
100
AcDbEntity
  8
2-0
  6
Continuous
 62
     7
100
AcDbLine
 10
3181.051155702421
 20
158.454622091022
 30
0.0
 11
3177.125976653319
 21
159.991699124465
 31
0.0
  0
LINE
  5
7B
330
36
100
AcDbEntity
  8
2-0
  6
Continuous
 62
     7
100
AcDbLine
 10
3177.125976653319
 20
159.991699124465
 30
0.0
 11
3173.107121080147
 21
161.263876885723
 31
0.0
  0
LINE
  5
7C
330
36
100
AcDbEntity
  8
2-0
  6
Continuous
 62
     7
100
AcDbLine
 10
3173.107121080147
 20
161.263876885723
 30
0.0
 11
3169.012443948812
 21
162.26550334522
 31
0.0
  0
LINE
  5
7D
330
36
100
AcDbEntity
  8
2-0
  6
Continuous
 62
     7
100
AcDbLine
 10
3169.012443948812
 20
162.26550334522
 30
0.0
 11
3164.86013708513
 21
162.992128478329
 31
0.0
  0
LINE
  5
7E
330
36
100
AcDbEntity
  8
2-0
  6
Continuous
 62
     7
100
AcDbLine
 10
3164.86013708513
 20
162.992128478329
 30
0.0
 11
3160.668648352213
 21
163.440524035926
 31
0.0
  0
LINE
  5
7F
330
36
100
AcDbEntity
  8
2-0
  6
Continuous
 62
     7
100
AcDbLine
 10
3160.668648352213
 20
163.440524035926
 30
0.0
 11
3156.456599690326
 21
163.608697886856
 31
0.0
  0
LINE
  5
80
330
36
100
AcDbEntity
  8
2-0
  6
Continuous
 62
     7
100
AcDbLine
 10
3156.456599690326
 20
163.608697886856
 30
0.0
 11
3152.242704383357
 21
163.495902868572
 31
0.0
  0
LINE
  5
81
330
36
100
AcDbEntity
  8
2-0
  6
Continuous
 62
     7
100
AcDbLine
 10
3152.242704383357
 20
163.495902868572
 30
0.0
 11
3148.045683919468
 21
163.102640106621
 31
0.0
  0
LINE
  5
82
330
36
100
AcDbEntity
  8
2-0
  6
Continuous
 62
     7
100
AcDbLine
 10
3148.045683919468
 20
163.102640106621
 30
0.0
 11
3143.884184815289
 21
162.430656788251
 31
0.0
  0
LINE
  5
83
330
36
100
AcDbEntity
  8
2-0
  6
Continuous
 62
     7
100
AcDbLine
 10
3143.884184815289
 20
162.430656788251
 30
0.0
 11
3139.776695773207
 21
161.482938400006
 31
0.0
  0
LINE
  5
84
330
36
100
AcDbEntity
  8
2-0
  6
Continuous
 62
     7
100
AcDbLine
 10
3139.776695773207
 20
161.482938400006
 30
0.0
 11
3135.741465539776
 21
160.263695463814
 31
0.0
  0
LINE
  5
85
330
36
100
AcDbEntity
  8
2-0
  6
Continuous
 62
     7
100
AcDbLine
 10
3135.741465539776
 20
160.263695463814
 30
0.0
 11
3131.79642183022
 21
158.77834483048
 31
0.0
  0
LINE
  5
86
330
36
100
AcDbEntity
  8
2-0
  6
Continuous
 62
     7
100
AcDbLine
 10
3131.79642183022
 20
158.77834483048
 30
0.0
 11
3127.959091679202
 21
157.033485613717
 31
0.0
  0
LINE
  5
87
330
36
100
AcDbEntity
  8
2-0
  6
Continuous
 62
     7
100
AcDbLine
 10
3127.959091679202
 20
157.033485613717
 30
0.0
 11
3124.246523571731
 21
155.036869871606
 31
0.0
  0
LINE
  5
88
330
36
100
AcDbEntity
  8
2-0
  6
Continuous
 62
     7
100
AcDbLine
 10
3124.246523571731
 20
155.036869871606
 30
0.0
 11
3120.675211700193
 21
152.797368165765
 31
0.0
  0
LINE
  5
89
330
36
100
AcDbEntity
  8
2-0
  6
Continuous
 62
     7
100
AcDbLine
 10
3120.675211700193
 20
152.797368165765
 30
0.0
 11
3117.261022683962
 21
150.3249301512339
 31
0.0
  0
LINE
  5
8A
330
36
100
AcDbEntity
  8
2-0
  6
Continuous
 62
     7
100
AcDbLine
 10
3117.261022683962
 20
150.3249301512339
 30
0.0
 11
3114.019125077212
 21
147.630540372157
 31
0.0
  0
LINE
  5
8B
330
36
100
AcDbEntity
  8
2-0
  6
Continuous
 62
     7
100
AcDbLine
 10
3114.019125077212
 20
147.630540372157
 30
0.0
 11
3110.963921978083
 21
144.726169459664
 31
0.0
  0
LINE
  5
8C
330
36
100
AcDbEntity
  8
2-0
  6
Continuous
 62
     7
100
AcDbLine
 10
3110.963921978083
 20
144.726169459664
 30
0.0
 11
3108.10898703862
 21
141.624720948775
 31
0.0
  0
LINE
  5
8D
330
36
100
AcDbEntity
  8
2-0
  6
Continuous
 62
     7
100
AcDbLine
 10
3108.10898703862
 20
141.624720948775
 30
0.0
 11
3105.467004159771
 21
138.339973950585
 31
0.0
  0
LINE
  5
8E
330
36
100
AcDbEntity
  8
2-0
  6
Continuous
 62
     7
100
AcDbLine
 10
3105.467004159771
 20
138.339973950585
 30
0.0
 11
3103.049711139362
 21
134.88652193445
 31
0.0
  0
LINE
  5
8F
330
36
100
AcDbEntity
  8
2-0
  6
Continuous
 62
     7
100
AcDbLine
 10
3103.049711139362
 20
134.88652193445
 30
0.0
 11
3100.867847523439
 21
131.279707892145
 31
0.0
  0
LINE
  5
90
330
36
100
AcDbEntity
  8
2-0
  6
Continuous
 62
     7
100
AcDbLine
 10
3100.867847523439
 20
131.279707892145
 30
0.0
 11
3098.93110689261
 21
127.53555617204
 31
0.0
  0
LINE
  5
91
330
36
100
AcDbEntity
  8
2-0
  6
Continuous
 62
     7
100
AcDbLine
 10
3098.93110689261
 20
127.53555617204
 30
0.0
 11
3097.248093795437
 21
123.670701286148
 31
0.0
  0
LINE
  5
92
330
36
100
AcDbEntity
  8
2-0
  6
Continuous
 62
     7
100
AcDbLine
 10
3097.248093795437
 20
123.670701286148
 30
0.0
 11
3095.826285520147
 21
119.702314006334
 31
0.0
  0
LINE
  5
93
330
36
100
AcDbEntity
  8
2-0
  6
Continuous
 62
     7
100
AcDbLine
 10
3095.826285520147
 20
119.702314006334
 30
0.0
 11
3094.671998874555
 21
115.648025078042
 31
0.0
  0
LINE
  5
94
330
36
100
AcDbEntity
  8
2-0
  6
Continuous
 62
     7
100
AcDbLine
 10
3094.671998874555
 20
115.648025078042
 30
0.0
 11
3093.790362121745
 21
111.525846890438
 31
0.0
  0
LINE
  5
95
330
36
100
AcDbEntity
  8
2-0
  6
Continuous
 62
     7
100
AcDbLine
 10
3093.790362121745
 20
111.525846890438
 30
0.0
 11
3093.185292196252
 21
107.354093450991
 31
0.0
  0
LINE
  5
96
330
36
100
AcDbEntity
  8
2-0
  6
Continuous
 62
     7
100
AcDbLine
 10
3093.185292196252
 20
107.354093450991
 30
0.0
 11
3092.859477301891
 21
103.151299020035
 31
0.0
  0
LINE
  5
97
330
36
100
AcDbEntity
  8
2-0
  6
Continuous
 62
     7
100
AcDbLine
 10
3092.859477301891
 20
103.151299020035
 30
0.0
 11
3092.814364968614
 21
98.936135766772
 31
0.0
  0
LINE
  5
98
330
36
100
AcDbEntity
  8
2-0
  6
Continuous
 62
     7
100
AcDbLine
 10
3092.814364968614
 20
98.936135766772
 30
0.0
 11
3093.050155621438
 21
94.727330812595
 31
0.0
  0
LINE
  5
99
330
36
100
AcDbEntity
  8
2-0
  6
Continuous
 62
     7
100
AcDbLine
 10
3093.050155621438
 20
94.727330812595
 30
0.0
 11
3093.565801689977
 21
90.54358303025102
 31
0.0
  0
LINE
  5
9A
330
36
100
AcDbEntity
  8
2-0
  6
Continuous
 62
     7
100
AcDbLine
 10
3093.565801689977
 20
90.54358303025102
 30
0.0
 11
3094.359012262604
 21
86.40347996852099
 31
0.0
  0
LINE
  5
9B
330
36
100
AcDbEntity
  8
2-0
  6
Continuous
 62
     7
100
AcDbLine
 10
3094.359012262604
 20
86.40347996852099
 30
0.0
 11
3095.426263264496
 21
82.32541527148299
 31
0.0
  0
LINE
  5
9C
330
36
100
AcDbEntity
  8
2-0
  6
Continuous
 62
     7
100
AcDbLine
 10
3095.426263264496
 20
82.32541527148299
 30
0.0
 11
3096.762813114399
 21
78.32750695925501
 31
0.0
  0
LINE
  5
9D
330
36
100
AcDbEntity
  8
2-0
  6
Continuous
 62
     7
100
AcDbLine
 10
3096.762813114399
 20
78.32750695925501
 30
0.0
 11
3098.362723790515
 21
74.42751693327799
 31
0.0
  0
LINE
  5
9E
330
36
100
AcDbEntity
  8
2-0
  6
Continuous
 62
     7
100
AcDbLine
 10
3098.362723790515
 20
74.42751693327799
 30
0.0
 11
3100.218887211936
 21
70.64277206377401
 31
0.0
  0
LINE
  5
9F
330
36
100
AcDbEntity
  8
2-0
  6
Continuous
 62
     7
100
AcDbLine
 10
3100.218887211936
 20
70.64277206377401
 30
0.0
 11
3102.323056818417
 21
66.99008720993901
 31
0.0
  0
LINE
  5
A0
330
36
100
AcDbEntity
  8
2-0
  6
Continuous
 62
     7
100
AcDbLine
 10
3102.323056818417
 20
66.99008720993901
 30
0.0
 11
3104.665884208178
 21
63.485690514922
 31
0.0
  0
LINE
  5
A1
330
36
100
AcDbEntity
  8
2-0
  6
Continuous
 62
     7
100
AcDbLine
 10
3104.665884208178
 20
63.485690514922
 30
0.0
 11
3107.236960670978
 21
60.145151307445
 31
0.0
  0
LINE
  5
A2
330
36
100
AcDbEntity
  8
2-0
  6
Continuous
 62
     7
100
AcDbLine
 10
3107.236960670978
 20
60.145151307445
 30
0.0
 11
3107.769867383163
 21
59.507133270233
 31
0.0
  0
LINE
  5
A3
330
36
100
AcDbEntity
  8
2-0
  6
Continuous
 62
     7
100
AcDbLine
 10
3227.623997794506
 20
100.367283036918
 30
0.0
 11
3227.464983263713
 21
105.135952001681
 31
0.0
  0
LINE
  5
A4
330
36
100
AcDbEntity
  8
2-0
  6
Continuous
 62
     7
100
AcDbLine
 10
3227.464983263713
 20
105.135952001681
 30
0.0
 11
3226.98864614087
 21
109.883434730653
 31
0.0
  0
LINE
  5
A5
330
36
100
AcDbEntity
  8
2-0
  6
Continuous
 62
     7
100
AcDbLine
 10
3226.98864614087
 20
109.883434730653
 30
0.0
 11
3226.197102695879
 21
114.588639114225
 31
0.0
  0
LINE
  5
A6
330
36
100
AcDbEntity
  8
2-0
  6
Continuous
 62
     7
100
AcDbLine
 10
3226.197102695879
 20
114.588639114225
 30
0.0
 11
3225.093869596846
 21
119.230660876959
 31
0.0
  0
LINE
  5
A7
330
36
100
AcDbEntity
  8
2-0
  6
Continuous
 62
     7
100
AcDbLine
 10
3225.093869596846
 20
119.230660876959
 30
0.0
 11
3223.683848286237
 21
123.788876451076
 31
0.0
  0
LINE
  5
A8
330
36
100
AcDbEntity
  8
2-0
  6
Continuous
 62
     7
100
AcDbLine
 10
3223.683848286237
 20
123.788876451076
 30
0.0
 11
3221.973303204755
 21
128.243034602815
 31
0.0
  0
LINE
  5
A9
330
36
100
AcDbEntity
  8
2-0
  6
Continuous
 62
     7
100
AcDbLine
 10
3221.973303204755
 20
128.243034602815
 30
0.0
 11
3219.969833959687
 21
132.573346404586
 31
0.0
  0
LINE
  5
AA
330
36
100
AcDbEntity
  8
2-0
  6
Continuous
 62
     7
100
AcDbLine
 10
3219.969833959687
 20
132.573346404586
 30
0.0
 11
3217.682341561387
 21
136.760573153188
 31
0.0
  0
LINE
  5
AB
330
36
100
AcDbEntity
  8
2-0
  6
Continuous
 62
     7
100
AcDbLine
 10
3217.682341561387
 20
136.760573153188
 30
0.0
 11
3215.120988877874
 21
140.786111843493
 31
0.0
  0
LINE
  5
AC
330
36
100
AcDbEntity
  8
2-0
  6
Continuous
 62
     7
100
AcDbLine
 10
3215.120988877874
 20
140.786111843493
 30
0.0
 11
3212.29715548326
 21
144.632077817854
 31
0.0
  0
LINE
  5
AD
330
36
100
AcDbEntity
  8
2-0
  6
Continuous
 62
     7
100
AcDbLine
 10
3212.29715548326
 20
144.632077817854
 30
0.0
 11
3209.223387100588
 21
148.281384224032
 31
0.0
  0
LINE
  5
AE
330
36
100
AcDbEntity
  8
2-0
  6
Continuous
 62
     7
100
AcDbLine
 10
3209.223387100588
 20
148.281384224032
 30
0.0
 11
3205.913339863721
 21
151.717817928643
 31
0.0
  0
LINE
  5
AF
330
36
100
AcDbEntity
  8
2-0
  6
Continuous
 62
     7
100
AcDbLine
 10
3205.913339863721
 20
151.717817928643
 30
0.0
 11
3202.38171964588
 21
154.926111548844
 31
0.0
  0
LINE
  5
B0
330
36
100
AcDbEntity
  8
2-0
  6
Continuous
 62
     7
100
AcDbLine
 10
3202.38171964588
 20
154.926111548844
 30
0.0
 11
3198.644216724418
 21
157.892011282236
 31
0.0
  0
LINE
  5
B1
330
36
100
AcDbEntity
  8
2-0
  6
Continuous
 62
     7
100
AcDbLine
 10
3198.644216724418
 20
157.892011282236
 30
0.0
 11
3194.717436072073
 21
160.602340233644
 31
0.0
  0
LINE
  5
B2
330
36
100
AcDbEntity
  8
2-0
  6
Continuous
 62
     7
100
AcDbLine
 10
3194.717436072073
 20
160.602340233644
 30
0.0
 11
3190.61882358442
 21
163.045056957402
 31
0.0
  0
LINE
  5
B3
330
36
100
AcDbEntity
  8
2-0
  6
Continuous
 62
     7
100
AcDbLine
 10
3190.61882358442
 20
163.045056957402
 30
0.0
 11
3186.366588571273
 21
165.209308955076
 31
0.0
  0
LINE
  5
B4
330
36
100
AcDbEntity
  8
2-0
  6
Continuous
 62
     7
100
AcDbLine
 10
3186.366588571273
 20
165.209308955076
 30
0.0
 11
3181.979622856386
 21
167.085480890926
 31
0.0
  0
LINE
  5
B5
330
36
100
AcDbEntity
  8
2-0
  6
Continuous
 62
     7
100
AcDbLine
 10
3181.979622856386
 20
167.085480890926
 30
0.0
 11
3177.477416844884
 21
168.665237310904
 31
0.0
  0
LINE
  5
B6
330
36
100
AcDbEntity
  8
2-0
  6
Continuous
 62
     7
100
AcDbLine
 10
3177.477416844884
 20
168.665237310904
 30
0.0
 11
3172.879972931322
 21
169.941559675405
 31
0.0
  0
LINE
  5
B7
330
36
100
AcDbEntity
  8
2-0
  6
Continuous
 62
     7
100
AcDbLine
 10
3172.879972931322
 20
169.941559675405
 30
0.0
 11
3168.207716633074
 21
170.908777541217
 31
0.0
  0
LINE
  5
B8
330
36
100
AcDbEntity
  8
2-0
  6
Continuous
 62
     7
100
AcDbLine
 10
3168.207716633074
 20
170.908777541217
 30
0.0
 11
3163.48140584387
 21
171.562593754161
 31
0.0
  0
LINE
  5
B9
330
36
100
AcDbEntity
  8
2-0
  6
Continuous
 62
     7
100
AcDbLine
 10
3163.48140584387
 20
171.562593754161
 30
0.0
 11
3158.722038610655
 21
171.900103540483
 31
0.0
  0
LINE
  5
BA
330
36
100
AcDbEntity
  8
2-0
  6
Continuous
 62
     7
100
AcDbLine
 10
3158.722038610655
 20
171.900103540483
 30
0.0
 11
3153.9507598435
 21
171.9198074121799
 31
0.0
  0
LINE
  5
BB
330
36
100
AcDbEntity
  8
2-0
  6
Continuous
 62
     7
100
AcDbLine
 10
3153.9507598435
 20
171.9198074121799
 30
0.0
 11
3149.188767373021
 21
171.621617828915
 31
0.0
  0
LINE
  5
BC
330
36
100
AcDbEntity
  8
2-0
  6
Continuous
 62
     7
100
AcDbLine
 10
3149.188767373021
 20
171.621617828915
 30
0.0
 11
3144.457217772689
 21
171.006859586953
 31
0.0
  0
LINE
  5
BD
330
36
100
AcDbEntity
  8
2-0
  6
Continuous
 62
     7
100
AcDbLine
 10
3144.457217772689
 20
171.006859586953
 30
0.0
 11
3139.777132364432
 21
170.078263933349
 31
0.0
  0
LINE
  5
BE
330
36
100
AcDbEntity
  8
2-0
  6
Continuous
 62
     7
100
AcDbLine
 10
3139.777132364432
 20
170.078263933349
 30
0.0
 11
3135.169303825143
 21
168.839956431569
 31
0.0
  0
LINE
  5
BF
330
36
100
AcDbEntity
  8
2-0
  6
Continuous
 62
     7
100
AcDbLine
 10
3135.169303825143
 20
168.839956431569
 30
0.0
 11
3130.65420380899
 21
167.297438632448
 31
0.0
  0
LINE
  5
C0
330
36
100
AcDbEntity
  8
2-0
  6
Continuous
 62
     7
100
AcDbLine
 10
3130.65420380899
 20
167.297438632448
 30
0.0
 11
3126.251891995996
 21
165.457563631898
 31
0.0
  0
LINE
  5
C1
330
36
100
AcDbEntity
  8
2-0
  6
Continuous
 62
     7
100
AcDbLine
 10
3126.251891995996
 20
165.457563631898
 30
0.0
 11
3121.981926970912
 21
163.328505623994
 31
0.0
  0
LINE
  5
C2
330
36
100
AcDbEntity
  8
2-0
  6
Continuous
 62
     7
100
AcDbLine
 10
3121.981926970912
 20
163.328505623994
 30
0.0
 11
3117.863279328362
 21
160.919723584668
 31
0.0
  0
LINE
  5
C3
330
36
100
AcDbEntity
  8
2-0
  6
Continuous
 62
     7
100
AcDbLine
 10
3117.863279328362
 20
160.919723584668
 30
0.0
 11
3113.914247390315
 21
158.241919247385
 31
0.0
  0
LINE
  5
C4
330
36
100
AcDbEntity
  8
2-0
  6
Continuous
 62
     7
100
AcDbLine
 10
3113.914247390315
 20
158.241919247385
 30
0.0
 11
3110.152375910332
 21
155.3069895575
 31
0.0
  0
LINE
  5
C5
330
36
100
AcDbEntity
  8
2-0
  6
Continuous
 62
     7
100
AcDbLine
 10
3110.152375910332
 20
155.3069895575
 30
0.0
 11
3106.594378125747
 21
152.127973816525
 31
0.0
  0
LINE
  5
C6
330
36
100
AcDbEntity
  8
2-0
  6
Continuous
 62
     7
100
AcDbLine
 10
3106.594378125747
 20
152.127973816525
 30
0.0
 11
3103.256061504129
 21
148.718995751135
 31
0.0
  0
LINE
  5
C7
330
36
100
AcDbEntity
  8
2-0
  6
Continuous
 62
     7
100
AcDbLine
 10
3103.256061504129
 20
148.718995751135
 30
0.0
 11
3100.152257513883
 21
145.0952007643
 31
0.0
  0
LINE
  5
C8
330
36
100
AcDbEntity
  8
2-0
  6
Continuous
 62
     7
100
AcDbLine
 10
3100.152257513883
 20
145.0952007643
 30
0.0
 11
3097.296755731025
 21
141.272688647304
 31
0.0
  0
LINE
  5
C9
330
36
100
AcDbEntity
  8
2-0
  6
Continuous
 62
     7
100
AcDbLine
 10
3097.296755731025
 20
141.272688647304
 30
0.0
 11
3094.702242574872
 21
137.268442051623
 31
0.0
  0
LINE
  5
CA
330
36
100
AcDbEntity
  8
2-0
  6
Continuous
 62
     7
100
AcDbLine
 10
3094.702242574872
 20
137.268442051623
 30
0.0
 11
3092.380244944833
 21
133.100251038415
 31
0.0
  0
LINE
  5
CB
330
36
100
AcDbEntity
  8
2-0
  6
Continuous
 62
     7
100
AcDbLine
 10
3092.380244944833
 20
133.100251038415
 30
0.0
 11
3090.341079008727
 21
128.78663404087
 31
0.0
  0
LINE
  5
CC
330
36
100
AcDbEntity
  8
2-0
  6
Continuous
 62
     7
100
AcDbLine
 10
3090.341079008727
 20
128.78663404087
 30
0.0
 11
3088.593804370112
 21
124.346755590535
 31
0.0
  0
LINE
  5
CD
330
36
100
AcDbEntity
  8
2-0
  6
Continuous
 62
     7
100
AcDbLine
 10
3088.593804370112
 20
124.346755590535
 30
0.0
 11
3087.146183818305
 21
119.800341173164
 31
0.0
  0
LINE
  5
CE
330
36
100
AcDbEntity
  8
2-0
  6
Continuous
 62
     7
100
AcDbLine
 10
3087.146183818305
 20
119.800341173164
 30
0.0
 11
3086.004648839864
 21
115.167589592356
 31
0.0
  0
LINE
  5
CF
330
36
100
AcDbEntity
  8
2-0
  6
Continuous
 62
     7
100
AcDbLine
 10
3086.004648839864
 20
115.167589592356
 30
0.0
 11
3085.174271044786
 21
110.469083230336
 31
0.0
  0
LINE
  5
D0
330
36
100
AcDbEntity
  8
2-0
  6
Continuous
 62
     7
100
AcDbLine
 10
3085.174271044786
 20
110.469083230336
 30
0.0
 11
3084.65873963438
 21
105.725696604583
 31
0.0
  0
LINE
  5
D1
330
36
100
AcDbEntity
  8
2-0
  6
Continuous
 62
     7
100
AcDbLine
 10
3084.65873963438
 20
105.725696604583
 30
0.0
 11
3084.46034501087
 21
100.958503626544
 31
0.0
  0
LINE
  5
D2
330
36
100
AcDbEntity
  8
2-0
  6
Continuous
 62
     7
100
AcDbLine
 10
3084.46034501087
 20
100.958503626544
 30
0.0
 11
3084.579968601611
 21
96.1886839745
 31
0.0
  0
LINE
  5
D3
330
36
100
AcDbEntity
  8
2-0
  6
Continuous
 62
     7
100
AcDbLine
 10
3084.579968601611
 20
96.1886839745
 30
0.0
 11
3085.017078943085
 21
91.43742899651
 31
0.0
  0
LINE
  5
D4
330
36
100
AcDbEntity
  8
2-0
  6
Continuous
 62
     7
100
AcDbLine
 10
3085.017078943085
 20
91.43742899651
 30
0.0
 11
3085.769734042076
 21
86.725847561529
 31
0.0
  0
LINE
  5
D5
330
36
100
AcDbEntity
  8
2-0
  6
Continuous
 62
     7
100
AcDbLine
 10
3085.769734042076
 20
86.725847561529
 30
0.0
 11
3086.834590003569
 21
82.07487227695001
 31
0.0
  0
LINE
  5
D6
330
36
100
AcDbEntity
  8
2-0
  6
Continuous
 62
     7
100
AcDbLine
 10
3086.834590003569
 20
82.07487227695001
 30
0.0
 11
3088.206915886988
 21
77.505166489244
 31
0.0
  0
LINE
  5
D7
330
36
100
AcDbEntity
  8
2-0
  6
Continuous
 62
     7
100
AcDbLine
 10
3088.206915886988
 20
77.505166489244
 30
0.0
 11
3089.880614724825
 21
73.037032480879
 31
0.0
  0
LINE
  5
D8
330
36
100
AcDbEntity
  8
2-0
  6
Continuous
 62
     7
100
AcDbLine
 10
3089.880614724825
 20
73.037032480879
 30
0.0
 11
3091.848250610229
 21
68.69032127135999
 31
0.0
  0
LINE
  5
D9
330
36
100
AcDbEntity
  8
2-0
  6
Continuous
 62
     7
100
AcDbLine
 10
3091.848250610229
 20
68.69032127135999
 30
0.0
 11
3094.101081733248
 21
64.484344423154
 31
0.0
  0
LINE
  5
DA
330
36
100
AcDbEntity
  8
2-0
  6
Continuous
 62
     7
100
AcDbLine
 10
3094.101081733248
 20
64.484344423154
 30
0.0
 11
3096.629099218928
 21
60.437788244305
 31
0.0
  0
LINE
  5
DB
330
36
100
AcDbEntity
  8
2-0
  6
Continuous
 62
     7
100
AcDbLine
 10
3096.629099218928
 20
60.437788244305
 30
0.0
 11
3099.421071594727
 21
56.568630768929
 31
0.0
  0
LINE
  5
DC
330
36
100
AcDbEntity
  8
2-0
  6
Continuous
 62
     7
100
AcDbLine
 10
3099.421071594727
 20
56.568630768929
 30
0.0
 11
3102.464594689692
 21
52.894061884433
 31
0.0
  0
LINE
  5
DD
330
36
100
AcDbEntity
  8
2-0
  6
Continuous
 62
     7
100
AcDbLine
 10
3102.464594689692
 20
52.894061884433
 30
0.0
 11
3105.74614674368
 21
49.430406960305
 31
0.0
  0
LINE
  5
DE
330
36
100
AcDbEntity
  8
2-0
  6
Continuous
 62
     7
100
AcDbLine
 10
3105.74614674368
 20
49.430406960305
 30
0.0
 11
3109.251148481831
 21
46.193054317784
 31
0.0
  0
LINE
  5
DF
330
36
100
AcDbEntity
  8
2-0
  6
Continuous
 62
     7
100
AcDbLine
 10
3109.251148481831
 20
46.193054317784
 30
0.0
 11
3112.964027887335
 21
43.19638686265
 31
0.0
  0
LINE
  5
E0
330
36
100
AcDbEntity
  8
2-0
  6
Continuous
 62
     7
100
AcDbLine
 10
3112.964027887335
 20
43.19638686265
 30
0.0
 11
3116.868289384778
 21
40.453718184872
 31
0.0
  0
LINE
  5
E1
330
36
100
AcDbEntity
  8
2-0
  6
Continuous
 62
     7
100
AcDbLine
 10
3116.868289384778
 20
40.453718184872
 30
0.0
 11
3120.946587126651
 21
37.977233409005
 31
0.0
  0
LINE
  5
E2
330
36
100
AcDbEntity
  8
2-0
  6
Continuous
 62
     7
100
AcDbLine
 10
3120.946587126651
 20
37.977233409005
 30
0.0
 11
3125.180802057467
 21
35.777935058139
 31
0.0
  0
LINE
  5
E3
330
36
100
AcDbEntity
  8
2-0
  6
Continuous
 62
     7
100
AcDbLine
 10
3125.180802057467
 20
35.777935058139
 30
0.0
 11
3129.552122413069
 21
33.865594171903
 31
0.0
  0
LINE
  5
E4
330
36
100
AcDbEntity
  8
2-0
  6
Continuous
 62
     7
100
AcDbLine
 10
3129.552122413069
 20
33.865594171903
 30
0.0
 11
3134.04112729751
 21
32.248706895705
 31
0.0
  0
LINE
  5
E5
330
36
100
AcDbEntity
  8
2-0
  6
Continuous
 62
     7
100
AcDbLine
 10
3134.04112729751
 20
32.248706895705
 30
0.0
 11
3138.627872966184
 21
30.934456734068
 31
0.0
  0
LINE
  5
E6
330
36
100
AcDbEntity
  8
2-0
  6
Continuous
 62
     7
100
AcDbLine
 10
3138.627872966184
 20
30.934456734068
 30
0.0
 11
3143.291981431867
 21
29.928682635768
 31
0.0
  0
LINE
  5
E7
330
36
100
AcDbEntity
  8
2-0
  6
Continuous
 62
     7
100
AcDbLine
 10
3143.291981431867
 20
29.928682635768
 30
0.0
 11
3148.012731000007
 21
29.235853052557
 31
0.0
  0
LINE
  5
E8
330
36
100
AcDbEntity
  8
2-0
  6
Continuous
 62
     7
100
AcDbLine
 10
3148.012731000007
 20
29.235853052557
 30
0.0
 11
3152.769148331042
 21
28.859046086738
 31
0.0
  0
LINE
  5
E9
330
36
100
AcDbEntity
  8
2-0
  6
Continuous
 62
     7
100
AcDbLine
 10
3152.769148331042
 20
28.859046086738
 30
0.0
 11
3157.540101620724
 21
28.799935815769
 31
0.0
  0
LINE
  5
EA
330
36
100
AcDbEntity
  8
2-0
  6
Continuous
 62
     7
100
AcDbLine
 10
3157.540101620724
 20
28.799935815769
 30
0.0
 11
3162.304394484468
 21
29.058784854679
 31
0.0
  0
LINE
  5
EB
330
36
100
AcDbEntity
  8
2-0
  6
Continuous
 62
     7
100
AcDbLine
 10
3162.304394484468
 20
29.058784854679
 30
0.0
 11
3167.040860128619
 21
29.634443189321
 31
0.0
  0
LINE
  5
EC
330
36
100
AcDbEntity
  8
2-0
  6
Continuous
 62
     7
100
AcDbLine
 10
3167.040860128619
 20
29.634443189321
 30
0.0
 11
3171.728455390255
 21
30.524353285653
 31
0.0
  0
LINE
  5
ED
330
36
100
AcDbEntity
  8
2-0
  6
Continuous
 62
     7
100
AcDbLine
 10
3171.728455390255
 20
30.524353285653
 30
0.0
 11
3176.34635422772
 21
31.724561452347
 31
0.0
  0
LINE
  5
EE
330
36
100
AcDbEntity
  8
2-0
  6
Continuous
 62
     7
100
AcDbLine
 10
3176.34635422772
 20
31.724561452347
 30
0.0
 11
3180.874040246536
 21
33.229735406243
 31
0.0
  0
LINE
  5
EF
330
36
100
AcDbEntity
  8
2-0
  6
Continuous
 62
     7
100
AcDbLine
 10
3180.874040246536
 20
33.229735406243
 30
0.0
 11
3185.291397849606
 21
35.03318796261
 31
0.0
  0
LINE
  5
F0
330
36
100
AcDbEntity
  8
2-0
  6
Continuous
 62
     7
100
AcDbLine
 10
3185.291397849606
 20
35.03318796261
 30
0.0
 11
3189.578801606766
 21
37.126906744958
 31
0.0
  0
LINE
  5
F1
330
36
100
AcDbEntity
  8
2-0
  6
Continuous
 62
     7
100
AcDbLine
 10
3189.578801606766
 20
37.126906744958
 30
0.0
 11
3193.717203446616
 21
39.501589782418
 31
0.0
  0
LINE
  5
F2
330
36
100
AcDbEntity
  8
2-0
  6
Continuous
 62
     7
100
AcDbLine
 10
3193.717203446616
 20
39.501589782418
 30
0.0
 11
3197.688217283265
 21
42.14668683651999
 31
0.0
  0
LINE
  5
F3
330
36
100
AcDbEntity
  8
2-0
  6
Continuous
 62
     7
100
AcDbLine
 10
3197.688217283265
 20
42.14668683651999
 30
0.0
 11
3201.474200702006
 21
45.05044627378199
 31
0.0
  0
LINE
  5
F4
330
36
100
AcDbEntity
  8
2-0
  6
Continuous
 62
     7
100
AcDbLine
 10
3201.474200702006
 20
45.05044627378199
 30
0.0
 11
3205.058333341017
 21
48.19996727584699
 31
0.0
  0
LINE
  5
F5
330
36
100
AcDbEntity
  8
2-0
  6
Continuous
 62
     7
100
AcDbLine
 10
3205.058333341017
 20
48.19996727584699
 30
0.0
 11
3208.424691620835
 21
51.581257155225
 31
0.0
  0
LINE
  5
F6
330
36
100
AcDbEntity
  8
2-0
  6
Continuous
 62
     7
100
AcDbLine
 10
3208.424691620835
 20
51.581257155225
 30
0.0
 11
3211.558319489615
 21
55.17929352197899
 31
0.0
  0
LINE
  5
F7
330
36
100
AcDbEntity
  8
2-0
  6
Continuous
 62
     7
100
AcDbLine
 10
3211.558319489615
 20
55.17929352197899
 30
0.0
 11
3214.445294869855
 21
58.978091025186
 31
0.0
  0
LINE
  5
F8
330
36
100
AcDbEntity
  8
2-0
  6
Continuous
 62
     7
100
AcDbLine
 10
3214.445294869855
 20
58.978091025186
 30
0.0
 11
3217.072791511384
 21
62.960772372625
 31
0.0
  0
LINE
  5
F9
330
36
100
AcDbEntity
  8
2-0
  6
Continuous
 62
     7
100
AcDbLine
 10
3217.072791511384
 20
62.960772372625
 30
0.0
 11
3219.429135975808
 21
67.10964331319001
 31
0.0
  0
LINE
  5
FA
330
36
100
AcDbEntity
  8
2-0
  6
Continuous
 62
     7
100
AcDbLine
 10
3219.429135975808
 20
67.10964331319001
 30
0.0
 11
3221.503859499244
 21
71.406271248885
 31
0.0
  0
LINE
  5
FB
330
36
100
AcDbEntity
  8
2-0
  6
Continuous
 62
     7
100
AcDbLine
 10
3221.503859499244
 20
71.406271248885
 30
0.0
 11
3223.287744502931
 21
75.83156712713999
 31
0.0
  0
LINE
  5
FC
330
36
100
AcDbEntity
  8
2-0
  6
Continuous
 62
     7
100
AcDbLine
 10
3223.287744502931
 20
75.83156712713999
 30
0.0
 11
3224.772865545079
 21
80.365870249635
 31
0.0
  0
LINE
  5
FD
330
36
100
AcDbEntity
  8
2-0
  6
Continuous
 62
     7
100
AcDbLine
 10
3224.772865545079
 20
80.365870249635
 30
0.0
 11
3225.952624531999
 21
84.989035620814
 31
0.0
  0
LINE
  5
FE
330
36
100
AcDbEntity
  8
2-0
  6
Continuous
 62
     7
100
AcDbLine
 10
3225.952624531999
 20
84.989035620814
 30
0.0
 11
3226.821780032124
 21
89.68052344805
 31
0.0
  0
LINE
  5
FF
330
36
100
AcDbEntity
  8
2-0
  6
Continuous
 62
     7
100
AcDbLine
 10
3226.821780032124
 20
89.68052344805
 30
0.0
 11
3227.376470562614
 21
94.419490395801
 31
0.0
  0
LINE
  5
100
330
36
100
AcDbEntity
  8
2-0
  6
Continuous
 62
     7
100
AcDbLine
 10
3227.376470562614
 20
94.419490395801
 30
0.0
 11
3227.614231745157
 21
99.18488218835801
 31
0.0
  0
LINE
  5
101
330
36
100
AcDbEntity
  8
2-0
  6
Continuous
 62
     7
100
AcDbLine
 10
3227.614231745157
 20
99.18488218835801
 30
0.0
 11
3227.623997794506
 21
100.367283036918
 31
0.0
  0
LINE
  5
102
330
36
100
AcDbEntity
  8
2-0
  6
Continuous
 62
     7
100
AcDbLine
 10
3228.041011115694
 20
100.367283036918
 30
0.0
 11
3227.881070231803
 21
105.163732301085
 31
0.0
  0
LINE
  5
103
330
36
100
AcDbEntity
  8
2-0
  6
Continuous
 62
     7
100
AcDbLine
 10
3227.881070231803
 20
105.163732301085
 30
0.0
 11
3227.401958165263
 21
109.938871907188
 31
0.0
  0
LINE
  5
104
330
36
100
AcDbEntity
  8
2-0
  6
Continuous
 62
     7
100
AcDbLine
 10
3227.401958165263
 20
109.938871907188
 30
0.0
 11
3226.605803514491
 21
114.671486871679
 31
0.0
  0
LINE
  5
105
330
36
100
AcDbEntity
  8
2-0
  6
Continuous
 62
     7
100
AcDbLine
 10
3226.605803514491
 20
114.671486871679
 30
0.0
 11
3225.496143434255
 21
119.340551139431
 31
0.0
  0
LINE
  5
106
330
36
100
AcDbEntity
  8
2-0
  6
Continuous
 62
     7
100
AcDbLine
 10
3225.496143434255
 20
119.340551139431
 30
0.0
 11
3224.077907920801
 21
123.925320998262
 31
0.0
  0
LINE
  5
107
330
36
100
AcDbEntity
  8
2-0
  6
Continuous
 62
     7
100
AcDbLine
 10
3224.077907920801
 20
123.925320998262
 30
0.0
 11
3222.357397908882
 21
128.405427239073
 31
0.0
  0
LINE
  5
108
330
36
100
AcDbEntity
  8
2-0
  6
Continuous
 62
     7
100
AcDbLine
 10
3222.357397908882
 20
128.405427239073
 30
0.0
 11
3220.342257277965
 21
132.760965652139
 31
0.0
  0
LINE
  5
109
330
36
100
AcDbEntity
  8
2-0
  6
Continuous
 62
     7
100
AcDbLine
 10
3220.342257277965
 20
132.760965652139
 30
0.0
 11
3218.041438892019
 21
136.972585457506
 31
0.0
  0
LINE
  5
10A
330
36
100
AcDbEntity
  8
2-0
  6
Continuous
 62
     7
100
AcDbLine
 10
3218.041438892019
 20
136.972585457506
 30
0.0
 11
3215.465164823744
 21
141.021575276609
 31
0.0
  0
LINE
  5
10B
330
36
100
AcDbEntity
  8
2-0
  6
Continuous
 62
     7
100
AcDbLine
 10
3215.465164823744
 20
141.021575276609
 30
0.0
 11
3212.624880939956
 21
144.889946263156
 31
0.0
  0
LINE
  5
10C
330
36
100
AcDbEntity
  8
2-0
  6
Continuous
 62
     7
100
AcDbLine
 10
3212.624880939956
 20
144.889946263156
 30
0.0
 11
3209.533206049913
 21
148.560512023953
 31
0.0
  0
LINE
  5
10D
330
36
100
AcDbEntity
  8
2-0
  6
Continuous
 62
     7
100
AcDbLine
 10
3209.533206049913
 20
148.560512023953
 30
0.0
 11
3206.203875842482
 21
152.016964974585
 31
0.0
  0
LINE
  5
10E
330
36
100
AcDbEntity
  8
2-0
  6
Continuous
 62
     7
100
AcDbLine
 10
3206.203875842482
 20
152.016964974585
 30
0.0
 11
3202.651681861236
 21
155.24394879073
 31
0.0
  0
LINE
  5
10F
330
36
100
AcDbEntity
  8
2-0
  6
Continuous
 62
     7
100
AcDbLine
 10
3202.651681861236
 20
155.24394879073
 30
0.0
 11
3198.892405788618
 21
158.227126633215
 31
0.0
  0
LINE
  5
110
330
36
100
AcDbEntity
  8
2-0
  6
Continuous
 62
     7
100
AcDbLine
 10
3198.892405788618
 20
158.227126633215
 30
0.0
 11
3194.942749331089
 21
160.953244843704
 31
0.0
  0
LINE
  5
111
330
36
100
AcDbEntity
  8
2-0
  6
Continuous
 62
     7
100
AcDbLine
 10
3194.942749331089
 20
160.953244843704
 30
0.0
 11
3190.820260016822
 21
163.410191828033
 31
0.0
  0
LINE
  5
112
330
36
100
AcDbEntity
  8
2-0
  6
Continuous
 62
     7
100
AcDbLine
 10
3190.820260016822
 20
163.410191828033
 30
0.0
 11
3186.543253235563
 21
165.587051865588
 31
0.0
  0
LINE
  5
113
330
36
100
AcDbEntity
  8
2-0
  6
Continuous
 62
     7
100
AcDbLine
 10
3186.543253235563
 20
165.587051865588
 30
0.0
 11
3182.130730867038
 21
167.474153605644
 31
0.0
  0
LINE
  5
114
330
36
100
AcDbEntity
  8
2-0
  6
Continuous
 62
     7
100
AcDbLine
 10
3182.130730867038
 20
167.474153605644
 30
0.0
 11
3177.602296859443
 21
169.063113035238
 31
0.0
  0
LINE
  5
115
330
36
100
AcDbEntity
  8
2-0
  6
Continuous
 62
     7
100
AcDbLine
 10
3177.602296859443
 20
169.063113035238
 30
0.0
 11
3172.978070133034
 21
170.346870727643
 31
0.0
  0
LINE
  5
116
330
36
100
AcDbEntity
  8
2-0
  6
Continuous
 62
     7
100
AcDbLine
 10
3172.978070133034
 20
170.346870727643
 30
0.0
 11
3168.278595195828
 21
171.319723205985
 31
0.0
  0
LINE
  5
117
330
36
100
AcDbEntity
  8
2-0
  6
Continuous
 62
     7
100
AcDbLine
 10
3168.278595195828
 20
171.319723205985
 30
0.0
 11
3163.524750868487
 21
171.977348282636
 31
0.0
  0
LINE
  5
118
330
36
100
AcDbEntity
  8
2-0
  6
Continuous
 62
     7
100
AcDbLine
 10
3163.524750868487
 20
171.977348282636
 30
0.0
 11
3158.73765752392
 21
172.316824261829
 31
0.0
  0
LINE
  5
119
330
36
100
AcDbEntity
  8
2-0
  6
Continuous
 62
     7
100
AcDbLine
 10
3158.73765752392
 20
172.316824261829
 30
0.0
 11
3153.938583253727
 21
172.336642920158
 31
0.0
  0
LINE
  5
11A
330
36
100
AcDbEntity
  8
2-0
  6
Continuous
 62
     7
100
AcDbLine
 10
3153.938583253727
 20
172.336642920158
 30
0.0
 11
3149.148849378347
 21
172.036716207316
 31
0.0
  0
LINE
  5
11B
330
36
100
AcDbEntity
  8
2-0
  6
Continuous
 62
     7
100
AcDbLine
 10
3149.148849378347
 20
172.036716207316
 30
0.0
 11
3144.389735720724
 21
171.418376637284
 31
0.0
  0
LINE
  5
11C
330
36
100
AcDbEntity
  8
2-0
  6
Continuous
 62
     7
100
AcDbLine
 10
3144.389735720724
 20
171.418376637284
 30
0.0
 11
3139.682386064344
 21
170.484371368234
 31
0.0
  0
LINE
  5
11D
330
36
100
AcDbEntity
  8
2-0
  6
Continuous
 62
     7
100
AcDbLine
 10
3139.682386064344
 20
170.484371368234
 30
0.0
 11
3135.047714215657
 21
169.238849997468
 31
0.0
  0
LINE
  5
11E
330
36
100
AcDbEntity
  8
2-0
  6
Continuous
 62
     7
100
AcDbLine
 10
3135.047714215657
 20
169.238849997468
 30
0.0
 11
3130.506311088256
 21
167.687346125584
 31
0.0
  0
LINE
  5
11F
330
36
100
AcDbEntity
  8
2-0
  6
Continuous
 62
     7
100
AcDbLine
 10
3130.506311088256
 20
167.687346125584
 30
0.0
 11
3126.078353221585
 21
165.836752771809
 31
0.0
  0
LINE
  5
120
330
36
100
AcDbEntity
  8
2-0
  6
Continuous
 62
     7
100
AcDbLine
 10
3126.078353221585
 20
165.836752771809
 30
0.0
 11
3121.783513140646
 21
163.695291749699
 31
0.0
  0
LINE
  5
121
330
36
100
AcDbEntity
  8
2-0
  6
Continuous
 62
     7
100
AcDbLine
 10
3121.783513140646
 20
163.695291749699
 30
0.0
 11
3117.64087195493
 21
161.272477139283
 31
0.0
  0
LINE
  5
122
330
36
100
AcDbEntity
  8
2-0
  6
Continuous
 62
     7
100
AcDbLine
 10
3117.64087195493
 20
161.272477139283
 30
0.0
 11
3113.668834584885
 21
158.579073017912
 31
0.0
  0
LINE
  5
123
330
36
100
AcDbEntity
  8
2-0
  6
Continuous
 62
     7
100
AcDbLine
 10
3113.668834584885
 20
158.579073017912
 30
0.0
 11
3109.88504799257
 21
155.62704563764
 31
0.0
  0
LINE
  5
124
330
36
100
AcDbEntity
  8
2-0
  6
Continuous
 62
     7
100
AcDbLine
 10
3109.88504799257
 20
155.62704563764
 30
0.0
 11
3106.306322779752
 21
152.429510261574
 31
0.0
  0
LINE
  5
125
330
36
100
AcDbEntity
  8
2-0
  6
Continuous
 62
     7
100
AcDbLine
 10
3106.306322779752
 20
152.429510261574
 30
0.0
 11
3102.948558501787
 21
149.000672895398
 31
0.0
  0
LINE
  5
126
330
36
100
AcDbEntity
  8
2-0
  6
Continuous
 62
     7
100
AcDbLine
 10
3102.948558501787
 20
149.000672895398
 30
0.0
 11
3099.826673029103
 21
145.355767172955
 31
0.0
  0
LINE
  5
127
330
36
100
AcDbEntity
  8
2-0
  6
Continuous
 62
     7
100
AcDbLine
 10
3099.826673029103
 20
145.355767172955
 30
0.0
 11
3096.954536270099
 21
141.510986676277
 31
0.0
  0
LINE
  5
128
330
36
100
AcDbEntity
  8
2-0
  6
Continuous
 62
     7
100
AcDbLine
 10
3096.954536270099
 20
141.510986676277
 30
0.0
 11
3094.344908549938
 21
137.483412990764
 31
0.0
  0
LINE
  5
129
330
36
100
AcDbEntity
  8
2-0
  6
Continuous
 62
     7
100
AcDbLine
 10
3094.344908549938
 20
137.483412990764
 30
0.0
 11
3092.009383919001
 21
133.290939815138
 31
0.0
  0
LINE
  5
12A
330
36
100
AcDbEntity
  8
2-0
  6
Continuous
 62
     7
100
AcDbLine
 10
3092.009383919001
 20
133.290939815138
 30
0.0
 11
3089.958338642839
 21
128.952193463344
 31
0.0
  0
LINE
  5
12B
330
36
100
AcDbEntity
  8
2-0
  6
Continuous
 62
     7
100
AcDbLine
 10
3089.958338642839
 20
128.952193463344
 30
0.0
 11
3088.200885102531
 21
124.486450111591
 31
0.0
  0
LINE
  5
12C
330
36
100
AcDbEntity
  8
2-0
  6
Continuous
 62
     7
100
AcDbLine
 10
3088.200885102531
 20
124.486450111591
 30
0.0
 11
3086.744831310201
 21
119.913550158179
 31
0.0
  0
LINE
  5
12D
330
36
100
AcDbEntity
  8
2-0
  6
Continuous
 62
     7
100
AcDbLine
 10
3086.744831310201
 20
119.913550158179
 30
0.0
 11
3085.596646219596
 21
115.25381007661
 31
0.0
  0
LINE
  5
12E
330
36
100
AcDbEntity
  8
2-0
  6
Continuous
 62
     7
100
AcDbLine
 10
3085.596646219596
 20
115.25381007661
 30
0.0
 11
3084.761430985826
 21
110.527932153584
 31
0.0
  0
LINE
  5
12F
330
36
100
AcDbEntity
  8
2-0
  6
Continuous
 62
     7
100
AcDbLine
 10
3084.761430985826
 20
110.527932153584
 30
0.0
 11
3084.242896301961
 21
105.756912512909
 31
0.0
  0
LINE
  5
130
330
36
100
AcDbEntity
  8
2-0
  6
Continuous
 62
     7
100
AcDbLine
 10
3084.242896301961
 20
105.756912512909
 30
0.0
 11
3084.043345913166
 21
100.961947833956
 31
0.0
  0
LINE
  5
131
330
36
100
AcDbEntity
  8
2-0
  6
Continuous
 62
     7
100
AcDbLine
 10
3084.043345913166
 20
100.961947833956
 30
0.0
 11
3084.163666381631
 21
96.16434117907701
 31
0.0
  0
LINE
  5
132
330
36
100
AcDbEntity
  8
2-0
  6
Continuous
 62
     7
100
AcDbLine
 10
3084.163666381631
 20
96.16434117907701
 30
0.0
 11
3084.603323147745
 21
91.385407348391
 31
0.0
  0
LINE
  5
133
330
36
100
AcDbEntity
  8
2-0
  6
Continuous
 62
     7
100
AcDbLine
 10
3084.603323147745
 20
91.385407348391
 30
0.0
 11
3085.360362905046
 21
86.646378182418
 31
0.0
  0
LINE
  5
134
330
36
100
AcDbEntity
  8
2-0
  6
Continuous
 62
     7
100
AcDbLine
 10
3085.360362905046
 20
86.646378182418
 30
0.0
 11
3086.43142227836
 21
81.968308233293
 31
0.0
  0
LINE
  5
135
330
36
100
AcDbEntity
  8
2-0
  6
Continuous
 62
     7
100
AcDbLine
 10
3086.43142227836
 20
81.968308233293
 30
0.0
 11
3087.811742766606
 21
77.37198122362601
 31
0.0
  0
LINE
  5
136
330
36
100
AcDbEntity
  8
2-0
  6
Continuous
 62
     7
100
AcDbLine
 10
3087.811742766606
 20
77.37198122362601
 30
0.0
 11
3089.495191883855
 21
72.87781770860999
 31
0.0
  0
LINE
  5
137
330
36
100
AcDbEntity
  8
2-0
  6
Continuous
 62
     7
100
AcDbLine
 10
3089.495191883855
 20
72.87781770860999
 30
0.0
 11
3091.474290404728
 21
68.505784351607
 31
0.0
  0
LINE
  5
138
330
36
100
AcDbEntity
  8
2-0
  6
Continuous
 62
     7
100
AcDbLine
 10
3091.474290404728
 20
68.505784351607
 30
0.0
 11
3093.740245593093
 21
64.275305216286
 31
0.0
  0
LINE
  5
139
330
36
100
AcDbEntity
  8
2-0
  6
Continuous
 62
     7
100
AcDbLine
 10
3093.740245593093
 20
64.275305216286
 30
0.0
 11
3096.282990266416
 21
60.205175469416
 31
0.0
  0
LINE
  5
13A
330
36
100
AcDbEntity
  8
2-0
  6
Continuous
 62
     7
100
AcDbLine
 10
3096.282990266416
 20
60.205175469416
 30
0.0
 11
3099.091227522228
 21
56.31347787773099
 31
0.0
  0
LINE
  5
13B
330
36
100
AcDbEntity
  8
2-0
  6
Continuous
 62
     7
100
AcDbLine
 10
3099.091227522228
 20
56.31347787773099
 30
0.0
 11
3102.152480927987
 21
52.617502469832
 31
0.0
  0
LINE
  5
13C
330
36
100
AcDbEntity
  8
2-0
  6
Continuous
 62
     7
100
AcDbLine
 10
3102.152480927987
 20
52.617502469832
 30
0.0
 11
3105.453149951354
 21
49.13366972008
 31
0.0
  0
LINE
  5
13D
330
36
100
AcDbEntity
  8
2-0
  6
Continuous
 62
     7
100
AcDbLine
 10
3105.453149951354
 20
49.13366972008
 30
0.0
 11
3108.97857038462
 21
45.87745759573
 31
0.0
  0
LINE
  5
13E
330
36
100
AcDbEntity
  8
2-0
  6
Continuous
 62
     7
100
AcDbLine
 10
3108.97857038462
 20
45.87745759573
 30
0.0
 11
3112.713079494828
 21
42.863332791442
 31
0.0
  0
LINE
  5
13F
330
36
100
AcDbEntity
  8
2-0
  6
Continuous
 62
     7
100
AcDbLine
 10
3112.713079494828
 20
42.863332791442
 30
0.0
 11
3116.64008561014
 21
40.10468645666999
 31
0.0
  0
LINE
  5
140
330
36
100
AcDbEntity
  8
2-0
  6
Continuous
 62
     7
100
AcDbLine
 10
3116.64008561014
 20
40.10468645666999
 30
0.0
 11
3120.742141833294
 21
37.613774701482
 31
0.0
  0
LINE
  5
141
330
36
100
AcDbEntity
  8
2-0
  6
Continuous
 62
     7
100
AcDbLine
 10
3120.742141833294
 20
37.613774701482
 30
0.0
 11
3125.001023554653
 21
35.401664145131
 31
0.0
  0
LINE
  5
142
330
36
100
AcDbEntity
  8
2-0
  6
Continuous
 62
     7
100
AcDbLine
 10
3125.001023554653
 20
35.401664145131
 30
0.0
 11
3129.397809420478
 21
33.478182749294
 31
0.0
  0
LINE
  5
143
330
36
100
AcDbEntity
  8
2-0
  6
Continuous
 62
     7
100
AcDbLine
 10
3129.397809420478
 20
33.478182749294
 30
0.0
 11
3133.912965396689
 21
31.851876154421
 31
0.0
  0
LINE
  5
144
330
36
100
AcDbEntity
  8
2-0
  6
Continuous
 62
     7
100
AcDbLine
 10
3133.912965396689
 20
31.851876154421
 30
0.0
 11
3138.526431554648
 21
30.52996971317
 31
0.0
  0
LINE
  5
145
330
36
100
AcDbEntity
  8
2-0
  6
Continuous
 62
     7
100
AcDbLine
 10
3138.526431554648
 20
30.52996971317
 30
0.0
 11
3143.217711193374
 21
29.518336389624
 31
0.0
  0
LINE
  5
146
330
36
100
AcDbEntity
  8
2-0
  6
Continuous
 62
     7
100
AcDbLine
 10
3143.217711193374
 20
29.518336389624
 30
0.0
 11
3147.96596190227
 21
28.821470666895
 31
0.0
  0
LINE
  5
147
330
36
100
AcDbEntity
  8
2-0
  6
Continuous
 62
     7
100
AcDbLine
 10
3147.96596190227
 20
28.821470666895
 30
0.0
 11
3152.750088159743
 21
28.44246857904
 31
0.0
  0
LINE
  5
148
330
36
100
AcDbEntity
  8
2-0
  6
Continuous
 62
     7
100
AcDbLine
 10
3152.750088159743
 20
28.44246857904
 30
0.0
 11
3157.548835056365
 21
28.383013956001
 31
0.0
  0
LINE
  5
149
330
36
100
AcDbEntity
  8
2-0
  6
Continuous
 62
     7
100
AcDbLine
 10
3157.548835056365
 20
28.383013956001
 30
0.0
 11
3162.340882726153
 21
28.643370942696
 31
0.0
  0
LINE
  5
14A
330
36
100
AcDbEntity
  8
2-0
  6
Continuous
 62
     7
100
AcDbLine
 10
3162.340882726153
 20
28.643370942696
 30
0.0
 11
3167.104941066439
 21
29.222382825468
 31
0.0
  0
LINE
  5
14B
330
36
100
AcDbEntity
  8
2-0
  6
Continuous
 62
     7
100
AcDbLine
 10
3167.104941066439
 20
29.222382825468
 30
0.0
 11
3171.81984432551
 21
30.117477171138
 31
0.0
  0
LINE
  5
14C
330
36
100
AcDbEntity
  8
2-0
  6
Continuous
 62
     7
100
AcDbLine
 10
3171.81984432551
 20
30.117477171138
 30
0.0
 11
3176.464645137776
 21
31.3246772558
 31
0.0
  0
LINE
  5
14D
330
36
100
AcDbEntity
  8
2-0
  6
Continuous
 62
     7
100
AcDbLine
 10
3176.464645137776
 20
31.3246772558
 30
0.0
 11
3181.018707588703
 21
32.838619732612
 31
0.0
  0
LINE
  5
14E
330
36
100
AcDbEntity
  8
2-0
  6
Continuous
 62
     7
100
AcDbLine
 10
3181.018707588703
 20
32.838619732612
 30
0.0
 11
3185.461798896021
 21
34.652578460061
 31
0.0
  0
LINE
  5
14F
330
36
100
AcDbEntity
  8
2-0
  6
Continuous
 62
     7
100
AcDbLine
 10
3185.461798896021
 20
34.652578460061
 30
0.0
 11
3189.774179299898
 21
36.758494384856
 31
0.0
  0
LINE
  5
150
330
36
100
AcDbEntity
  8
2-0
  6
Continuous
 62
     7
100
AcDbLine
 10
3189.774179299898
 20
36.758494384856
 30
0.0
 11
3193.936689762723
 21
39.147011346679
 31
0.0
  0
LINE
  5
151
330
36
100
AcDbEntity
  8
2-0
  6
Continuous
 62
     7
100
AcDbLine
 10
3193.936689762723
 20
39.147011346679
 30
0.0
 11
3197.930837088851
 21
41.80751764572099
 31
0.0
  0
LINE
  5
152
330
36
100
AcDbEntity
  8
2-0
  6
Continuous
 62
     7
100
AcDbLine
 10
3197.930837088851
 20
41.80751764572099
 30
0.0
 11
3201.738876086138
 21
44.72819318832899
 31
0.0
  0
LINE
  5
153
330
36
100
AcDbEntity
  8
2-0
  6
Continuous
 62
     7
100
AcDbLine
 10
3201.738876086138
 20
44.72819318832899
 30
0.0
 11
3205.34388840427
 21
47.896062001296
 31
0.0
  0
LINE
  5
154
330
36
100
AcDbEntity
  8
2-0
  6
Continuous
 62
     7
100
AcDbLine
 10
3205.34388840427
 20
47.896062001296
 30
0.0
 11
3208.729857699576
 21
51.297049881503
 31
0.0
  0
LINE
  5
155
330
36
100
AcDbEntity
  8
2-0
  6
Continuous
 62
     7
100
AcDbLine
 10
3208.729857699576
 20
51.297049881503
 30
0.0
 11
3211.881740792413
 21
54.916046924764
 31
0.0
  0
LINE
  5
156
330
36
100
AcDbEntity
  8
2-0
  6
Continuous
 62
     7
100
AcDbLine
 10
3211.881740792413
 20
54.916046924764
 30
0.0
 11
3214.785534501003
 21
58.73697465609001
 31
0.0
  0
LINE
  5
157
330
36
100
AcDbEntity
  8
2-0
  6
Continuous
 62
     7
100
AcDbLine
 10
3214.785534501003
 20
58.73697465609001
 30
0.0
 11
3217.428337854725
 21
62.74285746311499
 31
0.0
  0
LINE
  5
158
330
36
100
AcDbEntity
  8
2-0
  6
Continuous
 62
     7
100
AcDbLine
 10
3217.428337854725
 20
62.74285746311499
 30
0.0
 11
3219.798409410545
 21
66.91589801532099
 31
0.0
  0
LINE
  5
159
330
36
100
AcDbEntity
  8
2-0
  6
Continuous
 62
     7
100
AcDbLine
 10
3219.798409410545
 20
66.91589801532099
 30
0.0
 11
3221.885219417881
 21
71.237556333993
 31
0.0
  0
LINE
  5
15A
330
36
100
AcDbEntity
  8
2-0
  6
Continuous
 62
     7
100
AcDbLine
 10
3221.885219417881
 20
71.237556333993
 30
0.0
 11
3223.679496600156
 21
75.688632161615
 31
0.0
  0
LINE
  5
15B
330
36
100
AcDbEntity
  8
2-0
  6
Continuous
 62
     7
100
AcDbLine
 10
3223.679496600156
 20
75.688632161615
 30
0.0
 11
3225.173269345223
 21
80.24935026473899
 31
0.0
  0
LINE
  5
15C
330
36
100
AcDbEntity
  8
2-0
  6
Continuous
 62
     7
100
AcDbLine
 10
3225.173269345223
 20
80.24935026473899
 30
0.0
 11
3226.359901121622
 21
84.899448291374
 31
0.0
  0
LINE
  5
15D
330
36
100
AcDbEntity
  8
2-0
  6
Continuous
 62
     7
100
AcDbLine
 10
3226.359901121622
 20
84.899448291374
 30
0.0
 11
3227.234119963361
 21
89.61826679252601
 31
0.0
  0
LINE
  5
15E
330
36
100
AcDbEntity
  8
2-0
  6
Continuous
 62
     7
100
AcDbLine
 10
3227.234119963361
 20
89.61826679252601
 30
0.0
 11
3227.792041892198
 21
94.384841007976
 31
0.0
  0
LINE
  5
15F
330
36
100
AcDbEntity
  8
2-0
  6
Continuous
 62
     7
100
AcDbLine
 10
3227.792041892198
 20
94.384841007976
 30
0.0
 11
3228.031188173368
 21
99.17799400848402
 31
0.0
  0
LINE
  5
160
330
36
100
AcDbEntity
  8
2-0
  6
Continuous
 62
     7
100
AcDbLine
 10
3228.031188173368
 20
99.17799400848402
 30
0.0
 11
3228.041011115694
 21
100.367283036918
 31
0.0
  0
LINE
  5
161
330
36
100
AcDbEntity
  8
2-0
  6
Continuous
 62
     7
100
AcDbLine
 10
3228.458024436884
 20
100.367283036918
 30
0.0
 11
3228.297157199893
 21
105.19151260049
 31
0.0
  0
LINE
  5
162
330
36
100
AcDbEntity
  8
2-0
  6
Continuous
 62
     7
100
AcDbLine
 10
3228.297157199893
 20
105.19151260049
 30
0.0
 11
3227.815270189655
 21
109.994309083722
 31
0.0
  0
LINE
  5
163
330
36
100
AcDbEntity
  8
2-0
  6
Continuous
 62
     7
100
AcDbLine
 10
3227.815270189655
 20
109.994309083722
 30
0.0
 11
3227.014504333105
 21
114.754334629132
 31
0.0
  0
LINE
  5
164
330
36
100
AcDbEntity
  8
2-0
  6
Continuous
 62
     7
100
AcDbLine
 10
3227.014504333105
 20
114.754334629132
 30
0.0
 11
3225.898417271663
 21
119.450441401903
 31
0.0
  0
LINE
  5
165
330
36
100
AcDbEntity
  8
2-0
  6
Continuous
 62
     7
100
AcDbLine
 10
3225.898417271663
 20
119.450441401903
 30
0.0
 11
3224.471967555366
 21
124.061765545449
 31
0.0
  0
LINE
  5
166
330
36
100
AcDbEntity
  8
2-0
  6
Continuous
 62
     7
100
AcDbLine
 10
3224.471967555366
 20
124.061765545449
 30
0.0
 11
3222.74149261301
 21
128.567819875332
 31
0.0
  0
LINE
  5
167
330
36
100
AcDbEntity
  8
2-0
  6
Continuous
 62
     7
100
AcDbLine
 10
3222.74149261301
 20
128.567819875332
 30
0.0
 11
3220.714680596244
 21
132.948584899693
 31
0.0
  0
LINE
  5
168
330
36
100
AcDbEntity
  8
2-0
  6
Continuous
 62
     7
100
AcDbLine
 10
3220.714680596244
 20
132.948584899693
 30
0.0
 11
3218.400536222651
 21
137.184597761825
 31
0.0
  0
LINE
  5
169
330
36
100
AcDbEntity
  8
2-0
  6
Continuous
 62
     7
100
AcDbLine
 10
3218.400536222651
 20
137.184597761825
 30
0.0
 11
3215.809340769613
 21
141.257038709724
 31
0.0
  0
LINE
  5
16A
330
36
100
AcDbEntity
  8
2-0
  6
Continuous
 62
     7
100
AcDbLine
 10
3215.809340769613
 20
141.257038709724
 30
0.0
 11
3212.952606396655
 21
145.147814708457
 31
0.0
  0
LINE
  5
16B
330
36
100
AcDbEntity
  8
2-0
  6
Continuous
 62
     7
100
AcDbLine
 10
3212.952606396655
 20
145.147814708457
 30
0.0
 11
3209.843024999238
 21
148.839639823874
 31
0.0
  0
LINE
  5
16C
330
36
100
AcDbEntity
  8
2-0
  6
Continuous
 62
     7
100
AcDbLine
 10
3209.843024999238
 20
148.839639823874
 30
0.0
 11
3206.494411821241
 21
152.316112020527
 31
0.0
  0
LINE
  5
16D
330
36
100
AcDbEntity
  8
2-0
  6
Continuous
 62
     7
100
AcDbLine
 10
3206.494411821241
 20
152.316112020527
 30
0.0
 11
3202.921644076591
 21
155.561786032617
 31
0.0
  0
LINE
  5
16E
330
36
100
AcDbEntity
  8
2-0
  6
Continuous
 62
     7
100
AcDbLine
 10
3202.921644076591
 20
155.561786032617
 30
0.0
 11
3199.140594852817
 21
158.562241984194
 31
0.0
  0
LINE
  5
16F
330
36
100
AcDbEntity
  8
2-0
  6
Continuous
 62
     7
100
AcDbLine
 10
3199.140594852817
 20
158.562241984194
 30
0.0
 11
3195.168062590106
 21
161.304149453763
 31
0.0
  0
LINE
  5
170
330
36
100
AcDbEntity
  8
2-0
  6
Continuous
 62
     7
100
AcDbLine
 10
3195.168062590106
 20
161.304149453763
 30
0.0
 11
3191.021696449225
 21
163.775326698664
 31
0.0
  0
LINE
  5
171
330
36
100
AcDbEntity
  8
2-0
  6
Continuous
 62
     7
100
AcDbLine
 10
3191.021696449225
 20
163.775326698664
 30
0.0
 11
3186.719917899852
 21
165.964794776099
 31
0.0
  0
LINE
  5
172
330
36
100
AcDbEntity
  8
2-0
  6
Continuous
 62
     7
100
AcDbLine
 10
3186.719917899852
 20
165.964794776099
 30
0.0
 11
3182.281838877692
 21
167.862826320362
 31
0.0
  0
LINE
  5
173
330
36
100
AcDbEntity
  8
2-0
  6
Continuous
 62
     7
100
AcDbLine
 10
3182.281838877692
 20
167.862826320362
 30
0.0
 11
3177.727176874002
 21
169.460988759571
 31
0.0
  0
LINE
  5
174
330
36
100
AcDbEntity
  8
2-0
  6
Continuous
 62
     7
100
AcDbLine
 10
3177.727176874002
 20
169.460988759571
 30
0.0
 11
3173.076167334746
 21
170.752181779881
 31
0.0
  0
LINE
  5
175
330
36
100
AcDbEntity
  8
2-0
  6
Continuous
 62
     7
100
AcDbLine
 10
3173.076167334746
 20
170.752181779881
 30
0.0
 11
3168.349473758582
 21
171.730668870753
 31
0.0
  0
LINE
  5
176
330
36
100
AcDbEntity
  8
2-0
  6
Continuous
 62
     7
100
AcDbLine
 10
3168.349473758582
 20
171.730668870753
 30
0.0
 11
3163.568095893103
 21
172.392102811112
 31
0.0
  0
LINE
  5
177
330
36
100
AcDbEntity
  8
2-0
  6
Continuous
 62
     7
100
AcDbLine
 10
3163.568095893103
 20
172.392102811112
 30
0.0
 11
3158.753276437185
 21
172.733544983174
 31
0.0
  0
LINE
  5
178
330
36
100
AcDbEntity
  8
2-0
  6
Continuous
 62
     7
100
AcDbLine
 10
3158.753276437185
 20
172.733544983174
 30
0.0
 11
3153.926406663956
 21
172.753478428136
 31
0.0
  0
LINE
  5
179
330
36
100
AcDbEntity
  8
2-0
  6
Continuous
 62
     7
100
AcDbLine
 10
3153.926406663956
 20
172.753478428136
 30
0.0
 11
3149.108931383674
 21
172.451814585717
 31
0.0
  0
LINE
  5
17A
330
36
100
AcDbEntity
  8
2-0
  6
Continuous
 62
     7
100
AcDbLine
 10
3149.108931383674
 20
172.451814585717
 30
0.0
 11
3144.32225366876
 21
171.829893687614
 31
0.0
  0
LINE
  5
17B
330
36
100
AcDbEntity
  8
2-0
  6
Continuous
 62
     7
100
AcDbLine
 10
3144.32225366876
 20
171.829893687614
 30
0.0
 11
3139.587639764255
 21
170.89047880312
 31
0.0
  0
LINE
  5
17C
330
36
100
AcDbEntity
  8
2-0
  6
Continuous
 62
     7
100
AcDbLine
 10
3139.587639764255
 20
170.89047880312
 30
0.0
 11
3134.926124606172
 21
169.637743563366
 31
0.0
  0
LINE
  5
17D
330
36
100
AcDbEntity
  8
2-0
  6
Continuous
 62
     7
100
AcDbLine
 10
3134.926124606172
 20
169.637743563366
 30
0.0
 11
3130.358418367521
 21
168.07725361872
 31
0.0
  0
LINE
  5
17E
330
36
100
AcDbEntity
  8
2-0
  6
Continuous
 62
     7
100
AcDbLine
 10
3130.358418367521
 20
168.07725361872
 30
0.0
 11
3125.904814447174
 21
166.215941911719
 31
0.0
  0
LINE
  5
17F
330
36
100
AcDbEntity
  8
2-0
  6
Continuous
 62
     7
100
AcDbLine
 10
3125.904814447174
 20
166.215941911719
 30
0.0
 11
3121.585099310383
 21
164.062077875404
 31
0.0
  0
LINE
  5
180
330
36
100
AcDbEntity
  8
2-0
  6
Continuous
 62
     7
100
AcDbLine
 10
3121.585099310383
 20
164.062077875404
 30
0.0
 11
3117.418464581499
 21
161.625230693897
 31
0.0
  0
LINE
  5
181
330
36
100
AcDbEntity
  8
2-0
  6
Continuous
 62
     7
100
AcDbLine
 10
3117.418464581499
 20
161.625230693897
 30
0.0
 11
3113.423421779454
 21
158.916226788439
 31
0.0
  0
LINE
  5
182
330
36
100
AcDbEntity
  8
2-0
  6
Continuous
 62
     7
100
AcDbLine
 10
3113.423421779454
 20
158.916226788439
 30
0.0
 11
3109.617720074808
 21
155.94710171778
 31
0.0
  0
LINE
  5
183
330
36
100
AcDbEntity
  8
2-0
  6
Continuous
 62
     7
100
AcDbLine
 10
3109.617720074808
 20
155.94710171778
 30
0.0
 11
3106.018267433756
 21
152.731046706623
 31
0.0
  0
LINE
  5
184
330
36
100
AcDbEntity
  8
2-0
  6
Continuous
 62
     7
100
AcDbLine
 10
3106.018267433756
 20
152.731046706623
 30
0.0
 11
3102.641055499445
 21
149.282350039662
 31
0.0
  0
LINE
  5
185
330
36
100
AcDbEntity
  8
2-0
  6
Continuous
 62
     7
100
AcDbLine
 10
3102.641055499445
 20
149.282350039662
 30
0.0
 11
3099.501088544321
 21
145.616333581611
 31
0.0
  0
LINE
  5
186
330
36
100
AcDbEntity
  8
2-0
  6
Continuous
 62
     7
100
AcDbLine
 10
3099.501088544321
 20
145.616333581611
 30
0.0
 11
3096.61231680917
 21
141.74928470525
 31
0.0
  0
LINE
  5
187
330
36
100
AcDbEntity
  8
2-0
  6
Continuous
 62
     7
100
AcDbLine
 10
3096.61231680917
 20
141.74928470525
 30
0.0
 11
3093.987574525006
 21
137.698383929905
 31
0.0
  0
LINE
  5
188
330
36
100
AcDbEntity
  8
2-0
  6
Continuous
 62
     7
100
AcDbLine
 10
3093.987574525006
 20
137.698383929905
 30
0.0
 11
3091.638522893168
 21
133.48162859186
 31
0.0
  0
LINE
  5
189
330
36
100
AcDbEntity
  8
2-0
  6
Continuous
 62
     7
100
AcDbLine
 10
3091.638522893168
 20
133.48162859186
 30
0.0
 11
3089.575598276952
 21
129.117752885818
 31
0.0
  0
LINE
  5
18A
330
36
100
AcDbEntity
  8
2-0
  6
Continuous
 62
     7
100
AcDbLine
 10
3089.575598276952
 20
129.117752885818
 30
0.0
 11
3087.807965834949
 21
124.626144632647
 31
0.0
  0
LINE
  5
18B
330
36
100
AcDbEntity
  8
2-0
  6
Continuous
 62
     7
100
AcDbLine
 10
3087.807965834949
 20
124.626144632647
 30
0.0
 11
3086.343478802098
 21
120.026759143195
 31
0.0
  0
LINE
  5
18C
330
36
100
AcDbEntity
  8
2-0
  6
Continuous
 62
     7
100
AcDbLine
 10
3086.343478802098
 20
120.026759143195
 30
0.0
 11
3085.188643599329
 21
115.340030560865
 31
0.0
  0
LINE
  5
18D
330
36
100
AcDbEntity
  8
2-0
  6
Continuous
 62
     7
100
AcDbLine
 10
3085.188643599329
 20
115.340030560865
 30
0.0
 11
3084.348590926866
 21
110.586781076831
 31
0.0
  0
LINE
  5
18E
330
36
100
AcDbEntity
  8
2-0
  6
Continuous
 62
     7
100
AcDbLine
 10
3084.348590926866
 20
110.586781076831
 30
0.0
 11
3083.827052969543
 21
105.788128421236
 31
0.0
  0
LINE
  5
18F
330
36
100
AcDbEntity
  8
2-0
  6
Continuous
 62
     7
100
AcDbLine
 10
3083.827052969543
 20
105.788128421236
 30
0.0
 11
3083.626346815464
 21
100.965392041369
 31
0.0
  0
LINE
  5
190
330
36
100
AcDbEntity
  8
2-0
  6
Continuous
 62
     7
100
AcDbLine
 10
3083.626346815464
 20
100.965392041369
 30
0.0
 11
3083.74736416165
 21
96.13999838365501
 31
0.0
  0
LINE
  5
191
330
36
100
AcDbEntity
  8
2-0
  6
Continuous
 62
     7
100
AcDbLine
 10
3083.74736416165
 20
96.13999838365501
 30
0.0
 11
3084.189567352406
 21
91.33338570027099
 31
0.0
  0
LINE
  5
192
330
36
100
AcDbEntity
  8
2-0
  6
Continuous
 62
     7
100
AcDbLine
 10
3084.189567352406
 20
91.33338570027099
 30
0.0
 11
3084.950991768016
 21
86.566908803307
 31
0.0
  0
LINE
  5
193
330
36
100
AcDbEntity
  8
2-0
  6
Continuous
 62
     7
100
AcDbLine
 10
3084.950991768016
 20
86.566908803307
 30
0.0
 11
3086.028254553152
 21
81.861744189636
 31
0.0
  0
LINE
  5
194
330
36
100
AcDbEntity
  8
2-0
  6
Continuous
 62
     7
100
AcDbLine
 10
3086.028254553152
 20
81.861744189636
 30
0.0
 11
3087.416569646225
 21
77.238795958007
 31
0.0
  0
LINE
  5
195
330
36
100
AcDbEntity
  8
2-0
  6
Continuous
 62
     7
100
AcDbLine
 10
3087.416569646225
 20
77.238795958007
 30
0.0
 11
3089.109769042886
 21
72.71860293634
 31
0.0
  0
LINE
  5
196
330
36
100
AcDbEntity
  8
2-0
  6
Continuous
 62
     7
100
AcDbLine
 10
3089.109769042886
 20
72.71860293634
 30
0.0
 11
3091.100330199228
 21
68.321247431854
 31
0.0
  0
LINE
  5
197
330
36
100
AcDbEntity
  8
2-0
  6
Continuous
 62
     7
100
AcDbLine
 10
3091.100330199228
 20
68.321247431854
 30
0.0
 11
3093.379409452939
 21
64.066266009418
 31
0.0
  0
LINE
  5
198
330
36
100
AcDbEntity
  8
2-0
  6
Continuous
 62
     7
100
AcDbLine
 10
3093.379409452939
 20
64.066266009418
 30
0.0
 11
3095.936881313905
 21
59.972562694528
 31
0.0
  0
LINE
  5
199
330
36
100
AcDbEntity
  8
2-0
  6
Continuous
 62
     7
100
AcDbLine
 10
3095.936881313905
 20
59.972562694528
 30
0.0
 11
3098.761383449729
 21
56.05832498653199
 31
0.0
  0
LINE
  5
19A
330
36
100
AcDbEntity
  8
2-0
  6
Continuous
 62
     7
100
AcDbLine
 10
3098.761383449729
 20
56.05832498653199
 30
0.0
 11
3101.840367166283
 21
52.340943055231
 31
0.0
  0
LINE
  5
19B
330
36
100
AcDbEntity
  8
2-0
  6
Continuous
 62
     7
100
AcDbLine
 10
3101.840367166283
 20
52.340943055231
 30
0.0
 11
3105.160153159027
 21
48.83693247985601
 31
0.0
  0
LINE
  5
19C
330
36
100
AcDbEntity
  8
2-0
  6
Continuous
 62
     7
100
AcDbLine
 10
3105.160153159027
 20
48.83693247985601
 30
0.0
 11
3108.70599228741
 21
45.561860873677
 31
0.0
  0
LINE
  5
19D
330
36
100
AcDbEntity
  8
2-0
  6
Continuous
 62
     7
100
AcDbLine
 10
3108.70599228741
 20
45.561860873677
 30
0.0
 11
3112.462131102322
 21
42.53027872023499
 31
0.0
  0
LINE
  5
19E
330
36
100
AcDbEntity
  8
2-0
  6
Continuous
 62
     7
100
AcDbLine
 10
3112.462131102322
 20
42.53027872023499
 30
0.0
 11
3116.411881835504
 21
39.755654728469
 31
0.0
  0
LINE
  5
19F
330
36
100
AcDbEntity
  8
2-0
  6
Continuous
 62
     7
100
AcDbLine
 10
3116.411881835504
 20
39.755654728469
 30
0.0
 11
3120.537696539938
 21
37.250315993959
 31
0.0
  0
LINE
  5
1A0
330
36
100
AcDbEntity
  8
2-0
  6
Continuous
 62
     7
100
AcDbLine
 10
3120.537696539938
 20
37.250315993959
 30
0.0
 11
3124.821245051841
 21
35.025393232123
 31
0.0
  0
LINE
  5
1A1
330
36
100
AcDbEntity
  8
2-0
  6
Continuous
 62
     7
100
AcDbLine
 10
3124.821245051841
 20
35.025393232123
 30
0.0
 11
3129.243496427888
 21
33.090771326686
 31
0.0
  0
LINE
  5
1A2
330
36
100
AcDbEntity
  8
2-0
  6
Continuous
 62
     7
100
AcDbLine
 10
3129.243496427888
 20
33.090771326686
 30
0.0
 11
3133.784803495869
 21
31.455045413137
 31
0.0
  0
LINE
  5
1A3
330
36
100
AcDbEntity
  8
2-0
  6
Continuous
 62
     7
100
AcDbLine
 10
3133.784803495869
 20
31.455045413137
 30
0.0
 11
3138.42499014311
 21
30.125482692271
 31
0.0
  0
LINE
  5
1A4
330
36
100
AcDbEntity
  8
2-0
  6
Continuous
 62
     7
100
AcDbLine
 10
3138.42499014311
 20
30.125482692271
 30
0.0
 11
3143.143440954883
 21
29.10799014348
 31
0.0
  0
LINE
  5
1A5
330
36
100
AcDbEntity
  8
2-0
  6
Continuous
 62
     7
100
AcDbLine
 10
3143.143440954883
 20
29.10799014348
 30
0.0
 11
3147.919192804533
 21
28.407088281234
 31
0.0
  0
LINE
  5
1A6
330
36
100
AcDbEntity
  8
2-0
  6
Continuous
 62
     7
100
AcDbLine
 10
3147.919192804533
 20
28.407088281234
 30
0.0
 11
3152.731027988443
 21
28.025891071342
 31
0.0
  0
LINE
  5
1A7
330
36
100
AcDbEntity
  8
2-0
  6
Continuous
 62
     7
100
AcDbLine
 10
3152.731027988443
 20
28.025891071342
 30
0.0
 11
3157.557568492005
 21
27.966092096234
 31
0.0
  0
LINE
  5
1A8
330
36
100
AcDbEntity
  8
2-0
  6
Continuous
 62
     7
100
AcDbLine
 10
3157.557568492005
 20
27.966092096234
 30
0.0
 11
3162.377370967838
 21
28.227957030713
 31
0.0
  0
LINE
  5
1A9
330
36
100
AcDbEntity
  8
2-0
  6
Continuous
 62
     7
100
AcDbLine
 10
3162.377370967838
 20
28.227957030713
 30
0.0
 11
3167.169022004259
 21
28.810322461616
 31
0.0
  0
LINE
  5
1AA
330
36
100
AcDbEntity
  8
2-0
  6
Continuous
 62
     7
100
AcDbLine
 10
3167.169022004259
 20
28.810322461616
 30
0.0
 11
3171.911233260765
 21
29.710601056623
 31
0.0
  0
LINE
  5
1AB
330
36
100
AcDbEntity
  8
2-0
  6
Continuous
 62
     7
100
AcDbLine
 10
3171.911233260765
 20
29.710601056623
 30
0.0
 11
3176.582936047832
 21
30.924793059253
 31
0.0
  0
LINE
  5
1AC
330
36
100
AcDbEntity
  8
2-0
  6
Continuous
 62
     7
100
AcDbLine
 10
3176.582936047832
 20
30.924793059253
 30
0.0
 11
3181.163374930871
 21
32.447504058981
 31
0.0
  0
LINE
  5
1AD
330
36
100
AcDbEntity
  8
2-0
  6
Continuous
 62
     7
100
AcDbLine
 10
3181.163374930871
 20
32.447504058981
 30
0.0
 11
3185.632199942436
 21
34.271968957512
 31
0.0
  0
LINE
  5
1AE
330
36
100
AcDbEntity
  8
2-0
  6
Continuous
 62
     7
100
AcDbLine
 10
3185.632199942436
 20
34.271968957512
 30
0.0
 11
3189.96955699303
 21
36.390082024753
 31
0.0
  0
LINE
  5
1AF
330
36
100
AcDbEntity
  8
2-0
  6
Continuous
 62
     7
100
AcDbLine
 10
3189.96955699303
 20
36.390082024753
 30
0.0
 11
3194.156176078831
 21
38.792432910939
 31
0.0
  0
LINE
  5
1B0
330
36
100
AcDbEntity
  8
2-0
  6
Continuous
 62
     7
100
AcDbLine
 10
3194.156176078831
 20
38.792432910939
 30
0.0
 11
3198.173456894436
 21
41.46834845492199
 31
0.0
  0
LINE
  5
1B1
330
36
100
AcDbEntity
  8
2-0
  6
Continuous
 62
     7
100
AcDbLine
 10
3198.173456894436
 20
41.46834845492199
 30
0.0
 11
3202.00355147027
 21
44.405940102875
 31
0.0
  0
LINE
  5
1B2
330
36
100
AcDbEntity
  8
2-0
  6
Continuous
 62
     7
100
AcDbLine
 10
3202.00355147027
 20
44.405940102875
 30
0.0
 11
3205.629443467523
 21
47.59215672674399
 31
0.0
  0
LINE
  5
1B3
330
36
100
AcDbEntity
  8
2-0
  6
Continuous
 62
     7
100
AcDbLine
 10
3205.629443467523
 20
47.59215672674399
 30
0.0
 11
3209.035023778314
 21
51.01284260778
 31
0.0
  0
LINE
  5
1B4
330
36
100
AcDbEntity
  8
2-0
  6
Continuous
 62
     7
100
AcDbLine
 10
3209.035023778314
 20
51.01284260778
 30
0.0
 11
3212.205162095213
 21
54.652800327548
 31
0.0
  0
LINE
  5
1B5
330
36
100
AcDbEntity
  8
2-0
  6
Continuous
 62
     7
100
AcDbLine
 10
3212.205162095213
 20
54.652800327548
 30
0.0
 11
3215.125774132151
 21
58.495858286994
 31
0.0
  0
LINE
  5
1B6
330
36
100
AcDbEntity
  8
2-0
  6
Continuous
 62
     7
100
AcDbLine
 10
3215.125774132151
 20
58.495858286994
 30
0.0
 11
3217.783884198065
 21
62.524942553605
 31
0.0
  0
LINE
  5
1B7
330
36
100
AcDbEntity
  8
2-0
  6
Continuous
 62
     7
100
AcDbLine
 10
3217.783884198065
 20
62.524942553605
 30
0.0
 11
3220.167682845284
 21
66.72215271745099
 31
0.0
  0
LINE
  5
1B8
330
36
100
AcDbEntity
  8
2-0
  6
Continuous
 62
     7
100
AcDbLine
 10
3220.167682845284
 20
66.72215271745099
 30
0.0
 11
3222.266579336518
 21
71.068841419102
 31
0.0
  0
LINE
  5
1B9
330
36
100
AcDbEntity
  8
2-0
  6
Continuous
 62
     7
100
AcDbLine
 10
3222.266579336518
 20
71.068841419102
 30
0.0
 11
3224.071248697381
 21
75.54569719608899
 31
0.0
  0
LINE
  5
1BA
330
36
100
AcDbEntity
  8
2-0
  6
Continuous
 62
     7
100
AcDbLine
 10
3224.071248697381
 20
75.54569719608899
 30
0.0
 11
3225.573673145365
 21
80.13283027984298
 31
0.0
  0
LINE
  5
1BB
330
36
100
AcDbEntity
  8
2-0
  6
Continuous
 62
     7
100
AcDbLine
 10
3225.573673145365
 20
80.13283027984298
 30
0.0
 11
3226.767177711242
 21
84.809860961933
 31
0.0
  0
LINE
  5
1BC
330
36
100
AcDbEntity
  8
2-0
  6
Continuous
 62
     7
100
AcDbLine
 10
3226.767177711242
 20
84.809860961933
 30
0.0
 11
3227.646459894598
 21
89.55601013700301
 31
0.0
  0
LINE
  5
1BD
330
36
100
AcDbEntity
  8
2-0
  6
Continuous
 62
     7
100
AcDbLine
 10
3227.646459894598
 20
89.55601013700301
 30
0.0
 11
3228.207613221783
 21
94.35019162015199
 31
0.0
  0
LINE
  5
1BE
330
36
100
AcDbEntity
  8
2-0
  6
Continuous
 62
     7
100
AcDbLine
 10
3228.207613221783
 20
94.35019162015199
 30
0.0
 11
3228.448144601581
 21
99.17110582860999
 31
0.0
  0
LINE
  5
1BF
330
36
100
AcDbEntity
  8
2-0
  6
Continuous
 62
     7
100
AcDbLine
 10
3228.448144601581
 20
99.17110582860999
 30
0.0
 11
3228.458024436884
 21
100.367283036918
 31
0.0
  0
LINE
  5
1C0
330
36
100
AcDbEntity
  8
2-0
  6
Continuous
 62
     7
100
AcDbLine
 10
3228.875037758074
 20
100.367283036918
 30
0.0
 11
3228.713244167984
 21
105.219292899895
 31
0.0
  0
LINE
  5
1C1
330
36
100
AcDbEntity
  8
2-0
  6
Continuous
 62
     7
100
AcDbLine
 10
3228.713244167984
 20
105.219292899895
 30
0.0
 11
3228.228582214048
 21
110.049746260256
 31
0.0
  0
LINE
  5
1C2
330
36
100
AcDbEntity
  8
2-0
  6
Continuous
 62
     7
100
AcDbLine
 10
3228.228582214048
 20
110.049746260256
 30
0.0
 11
3227.423205151717
 21
114.837182386586
 31
0.0
  0
LINE
  5
1C3
330
36
100
AcDbEntity
  8
2-0
  6
Continuous
 62
     7
100
AcDbLine
 10
3227.423205151717
 20
114.837182386586
 30
0.0
 11
3226.300691109073
 21
119.560331664375
 31
0.0
  0
LINE
  5
1C4
330
36
100
AcDbEntity
  8
2-0
  6
Continuous
 62
     7
100
AcDbLine
 10
3226.300691109073
 20
119.560331664375
 30
0.0
 11
3224.86602718993
 21
124.198210092636
 31
0.0
  0
LINE
  5
1C5
330
36
100
AcDbEntity
  8
2-0
  6
Continuous
 62
     7
100
AcDbLine
 10
3224.86602718993
 20
124.198210092636
 30
0.0
 11
3223.125587317137
 21
128.73021251159
 31
0.0
  0
LINE
  5
1C6
330
36
100
AcDbEntity
  8
2-0
  6
Continuous
 62
     7
100
AcDbLine
 10
3223.125587317137
 20
128.73021251159
 30
0.0
 11
3221.087103914521
 21
133.136204147246
 31
0.0
  0
LINE
  5
1C7
330
36
100
AcDbEntity
  8
2-0
  6
Continuous
 62
     7
100
AcDbLine
 10
3221.087103914521
 20
133.136204147246
 30
0.0
 11
3218.759633553285
 21
137.396610066144
 31
0.0
  0
LINE
  5
1C8
330
36
100
AcDbEntity
  8
2-0
  6
Continuous
 62
     7
100
AcDbLine
 10
3218.759633553285
 20
137.396610066144
 30
0.0
 11
3216.153516715483
 21
141.492502142839
 31
0.0
  0
LINE
  5
1C9
330
36
100
AcDbEntity
  8
2-0
  6
Continuous
 62
     7
100
AcDbLine
 10
3216.153516715483
 20
141.492502142839
 30
0.0
 11
3213.280331853351
 21
145.405683153759
 31
0.0
  0
LINE
  5
1CA
330
36
100
AcDbEntity
  8
2-0
  6
Continuous
 62
     7
100
AcDbLine
 10
3213.280331853351
 20
145.405683153759
 30
0.0
 11
3210.152843948564
 21
149.118767623795
 31
0.0
  0
LINE
  5
1CB
330
36
100
AcDbEntity
  8
2-0
  6
Continuous
 62
     7
100
AcDbLine
 10
3210.152843948564
 20
149.118767623795
 30
0.0
 11
3206.784947800001
 21
152.615259066469
 31
0.0
  0
LINE
  5
1CC
330
36
100
AcDbEntity
  8
2-0
  6
Continuous
 62
     7
100
AcDbLine
 10
3206.784947800001
 20
152.615259066469
 30
0.0
 11
3203.191606291947
 21
155.879623274504
 31
0.0
  0
LINE
  5
1CD
330
36
100
AcDbEntity
  8
2-0
  6
Continuous
 62
     7
100
AcDbLine
 10
3203.191606291947
 20
155.879623274504
 30
0.0
 11
3199.388783917016
 21
158.897357335173
 31
0.0
  0
LINE
  5
1CE
330
36
100
AcDbEntity
  8
2-0
  6
Continuous
 62
     7
100
AcDbLine
 10
3199.388783917016
 20
158.897357335173
 30
0.0
 11
3195.393375849122
 21
161.655054063823
 31
0.0
  0
LINE
  5
1CF
330
36
100
AcDbEntity
  8
2-0
  6
Continuous
 62
     7
100
AcDbLine
 10
3195.393375849122
 20
161.655054063823
 30
0.0
 11
3191.223132881628
 21
164.140461569295
 31
0.0
  0
LINE
  5
1D0
330
36
100
AcDbEntity
  8
2-0
  6
Continuous
 62
     7
100
AcDbLine
 10
3191.223132881628
 20
164.140461569295
 30
0.0
 11
3186.896582564142
 21
166.34253768661
 31
0.0
  0
LINE
  5
1D1
330
36
100
AcDbEntity
  8
2-0
  6
Continuous
 62
     7
100
AcDbLine
 10
3186.896582564142
 20
166.34253768661
 30
0.0
 11
3182.432946888345
 21
168.25149903508
 31
0.0
  0
LINE
  5
1D2
330
36
100
AcDbEntity
  8
2-0
  6
Continuous
 62
     7
100
AcDbLine
 10
3182.432946888345
 20
168.25149903508
 30
0.0
 11
3177.852056888562
 21
169.858864483904
 31
0.0
  0
LINE
  5
1D3
330
36
100
AcDbEntity
  8
2-0
  6
Continuous
 62
     7
100
AcDbLine
 10
3177.852056888562
 20
169.858864483904
 30
0.0
 11
3173.174264536458
 21
171.157492832119
 31
0.0
  0
LINE
  5
1D4
330
36
100
AcDbEntity
  8
2-0
  6
Continuous
 62
     7
100
AcDbLine
 10
3173.174264536458
 20
171.157492832119
 30
0.0
 11
3168.420352321336
 21
172.141614535521
 31
0.0
  0
LINE
  5
1D5
330
36
100
AcDbEntity
  8
2-0
  6
Continuous
 62
     7
100
AcDbLine
 10
3168.420352321336
 20
172.141614535521
 30
0.0
 11
3163.61144091772
 21
172.806857339587
 31
0.0
  0
LINE
  5
1D6
330
36
100
AcDbEntity
  8
2-0
  6
Continuous
 62
     7
100
AcDbLine
 10
3163.61144091772
 20
172.806857339587
 30
0.0
 11
3158.768895350452
 21
173.150265704519
 31
0.0
  0
LINE
  5
1D7
330
36
100
AcDbEntity
  8
2-0
  6
Continuous
 62
     7
100
AcDbLine
 10
3158.768895350452
 20
173.150265704519
 30
0.0
 11
3153.914230074183
 21
173.170313936114
 31
0.0
  0
LINE
  5
1D8
330
36
100
AcDbEntity
  8
2-0
  6
Continuous
 62
     7
100
AcDbLine
 10
3153.914230074183
 20
173.170313936114
 30
0.0
 11
3149.069013389
 21
172.866912964118
 31
0.0
  0
LINE
  5
1D9
330
36
100
AcDbEntity
  8
2-0
  6
Continuous
 62
     7
100
AcDbLine
 10
3149.069013389
 20
172.866912964118
 30
0.0
 11
3144.254771616797
 21
172.241410737944
 31
0.0
  0
LINE
  5
1DA
330
36
100
AcDbEntity
  8
2-0
  6
Continuous
 62
     7
100
AcDbLine
 10
3144.254771616797
 20
172.241410737944
 30
0.0
 11
3139.492893464165
 21
171.296586238005
 31
0.0
  0
LINE
  5
1DB
330
36
100
AcDbEntity
  8
2-0
  6
Continuous
 62
     7
100
AcDbLine
 10
3139.492893464165
 20
171.296586238005
 30
0.0
 11
3134.804534996687
 21
170.036637129265
 31
0.0
  0
LINE
  5
1DC
330
36
100
AcDbEntity
  8
2-0
  6
Continuous
 62
     7
100
AcDbLine
 10
3134.804534996687
 20
170.036637129265
 30
0.0
 11
3130.210525646787
 21
168.467161111856
 31
0.0
  0
LINE
  5
1DD
330
36
100
AcDbEntity
  8
2-0
  6
Continuous
 62
     7
100
AcDbLine
 10
3130.210525646787
 20
168.467161111856
 30
0.0
 11
3125.731275672762
 21
166.595131051629
 31
0.0
  0
LINE
  5
1DE
330
36
100
AcDbEntity
  8
2-0
  6
Continuous
 62
     7
100
AcDbLine
 10
3125.731275672762
 20
166.595131051629
 30
0.0
 11
3121.386685480118
 21
164.428864001109
 31
0.0
  0
LINE
  5
1DF
330
36
100
AcDbEntity
  8
2-0
  6
Continuous
 62
     7
100
AcDbLine
 10
3121.386685480118
 20
164.428864001109
 30
0.0
 11
3117.196057208069
 21
161.977984248512
 31
0.0
  0
LINE
  5
1E0
330
36
100
AcDbEntity
  8
2-0
  6
Continuous
 62
     7
100
AcDbLine
 10
3117.196057208069
 20
161.977984248512
 30
0.0
 11
3113.178008974025
 21
159.253380558966
 31
0.0
  0
LINE
  5
1E1
330
36
100
AcDbEntity
  8
2-0
  6
Continuous
 62
     7
100
AcDbLine
 10
3113.178008974025
 20
159.253380558966
 30
0.0
 11
3109.350392157046
 21
156.267157797921
 31
0.0
  0
LINE
  5
1E2
330
36
100
AcDbEntity
  8
2-0
  6
Continuous
 62
     7
100
AcDbLine
 10
3109.350392157046
 20
156.267157797921
 30
0.0
 11
3105.73021208776
 21
153.032583151673
 31
0.0
  0
LINE
  5
1E3
330
36
100
AcDbEntity
  8
2-0
  6
Continuous
 62
     7
100
AcDbLine
 10
3105.73021208776
 20
153.032583151673
 30
0.0
 11
3102.333552497104
 21
149.564027183925
 31
0.0
  0
LINE
  5
1E4
330
36
100
AcDbEntity
  8
2-0
  6
Continuous
 62
     7
100
AcDbLine
 10
3102.333552497104
 20
149.564027183925
 30
0.0
 11
3099.17550405954
 21
145.876899990266
 31
0.0
  0
LINE
  5
1E5
330
36
100
AcDbEntity
  8
2-0
  6
Continuous
 62
     7
100
AcDbLine
 10
3099.17550405954
 20
145.876899990266
 30
0.0
 11
3096.270097348243
 21
141.987582734223
 31
0.0
  0
LINE
  5
1E6
330
36
100
AcDbEntity
  8
2-0
  6
Continuous
 62
     7
100
AcDbLine
 10
3096.270097348243
 20
141.987582734223
 30
0.0
 11
3093.630240500074
 21
137.913354869047
 31
0.0
  0
LINE
  5
1E7
330
36
100
AcDbEntity
  8
2-0
  6
Continuous
 62
     7
100
AcDbLine
 10
3093.630240500074
 20
137.913354869047
 30
0.0
 11
3091.267661867336
 21
133.672317368583
 31
0.0
  0
LINE
  5
1E8
330
36
100
AcDbEntity
  8
2-0
  6
Continuous
 62
     7
100
AcDbLine
 10
3091.267661867336
 20
133.672317368583
 30
0.0
 11
3089.192857911064
 21
129.283312308293
 31
0.0
  0
LINE
  5
1E9
330
36
100
AcDbEntity
  8
2-0
  6
Continuous
 62
     7
100
AcDbLine
 10
3089.192857911064
 20
129.283312308293
 30
0.0
 11
3087.415046567369
 21
124.765839153703
 31
0.0
  0
LINE
  5
1EA
330
36
100
AcDbEntity
  8
2-0
  6
Continuous
 62
     7
100
AcDbLine
 10
3087.415046567369
 20
124.765839153703
 30
0.0
 11
3085.942126293992
 21
120.13996812821
 31
0.0
  0
LINE
  5
1EB
330
36
100
AcDbEntity
  8
2-0
  6
Continuous
 62
     7
100
AcDbLine
 10
3085.942126293992
 20
120.13996812821
 30
0.0
 11
3084.780640979062
 21
115.426251045119
 31
0.0
  0
LINE
  5
1EC
330
36
100
AcDbEntity
  8
2-0
  6
Continuous
 62
     7
100
AcDbLine
 10
3084.780640979062
 20
115.426251045119
 30
0.0
 11
3083.935750867905
 21
110.645630000078
 31
0.0
  0
LINE
  5
1ED
330
36
100
AcDbEntity
  8
2-0
  6
Continuous
 62
     7
100
AcDbLine
 10
3083.935750867905
 20
110.645630000078
 30
0.0
 11
3083.411209637123
 21
105.819344329562
 31
0.0
  0
LINE
  5
1EE
330
36
100
AcDbEntity
  8
2-0
  6
Continuous
 62
     7
100
AcDbLine
 10
3083.411209637123
 20
105.819344329562
 30
0.0
 11
3083.209347717762
 21
100.968836248781
 31
0.0
  0
LINE
  5
1EF
330
36
100
AcDbEntity
  8
2-0
  6
Continuous
 62
     7
100
AcDbLine
 10
3083.209347717762
 20
100.968836248781
 30
0.0
 11
3083.33106194167
 21
96.11565558823301
 31
0.0
  0
LINE
  5
1F0
330
36
100
AcDbEntity
  8
2-0
  6
Continuous
 62
     7
100
AcDbLine
 10
3083.33106194167
 20
96.11565558823301
 30
0.0
 11
3083.775811557067
 21
91.28136405215199
 31
0.0
  0
LINE
  5
1F1
330
36
100
AcDbEntity
  8
2-0
  6
Continuous
 62
     7
100
AcDbLine
 10
3083.775811557067
 20
91.28136405215199
 30
0.0
 11
3084.541620630985
 21
86.48743942419599
 31
0.0
  0
LINE
  5
1F2
330
36
100
AcDbEntity
  8
2-0
  6
Continuous
 62
     7
100
AcDbLine
 10
3084.541620630985
 20
86.48743942419599
 30
0.0
 11
3085.625086827944
 21
81.75518014597999
 31
0.0
  0
LINE
  5
1F3
330
36
100
AcDbEntity
  8
2-0
  6
Continuous
 62
     7
100
AcDbLine
 10
3085.625086827944
 20
81.75518014597999
 30
0.0
 11
3087.021396525844
 21
77.10561069238799
 31
0.0
  0
LINE
  5
1F4
330
36
100
AcDbEntity
  8
2-0
  6
Continuous
 62
     7
100
AcDbLine
 10
3087.021396525844
 20
77.10561069238799
 30
0.0
 11
3088.724346201916
 21
72.55938816407099
 31
0.0
  0
LINE
  5
1F5
330
36
100
AcDbEntity
  8
2-0
  6
Continuous
 62
     7
100
AcDbLine
 10
3088.724346201916
 20
72.55938816407099
 30
0.0
 11
3090.726369993728
 21
68.136710512101
 31
0.0
  0
LINE
  5
1F6
330
36
100
AcDbEntity
  8
2-0
  6
Continuous
 62
     7
100
AcDbLine
 10
3090.726369993728
 20
68.136710512101
 30
0.0
 11
3093.018573312784
 21
63.857226802549
 31
0.0
  0
LINE
  5
1F7
330
36
100
AcDbEntity
  8
2-0
  6
Continuous
 62
     7
100
AcDbLine
 10
3093.018573312784
 20
63.857226802549
 30
0.0
 11
3095.590772361394
 21
59.73994991964
 31
0.0
  0
LINE
  5
1F8
330
36
100
AcDbEntity
  8
2-0
  6
Continuous
 62
     7
100
AcDbLine
 10
3095.590772361394
 20
59.73994991964
 30
0.0
 11
3098.431539377231
 21
55.803172095334
 31
0.0
  0
LINE
  5
1F9
330
36
100
AcDbEntity
  8
2-0
  6
Continuous
 62
     7
100
AcDbLine
 10
3098.431539377231
 20
55.803172095334
 30
0.0
 11
3101.528253404579
 21
52.06438364063
 31
0.0
  0
LINE
  5
1FA
330
36
100
AcDbEntity
  8
2-0
  6
Continuous
 62
     7
100
AcDbLine
 10
3101.528253404579
 20
52.06438364063
 30
0.0
 11
3104.8671563667
 21
48.540195239631
 31
0.0
  0
LINE
  5
1FB
330
36
100
AcDbEntity
  8
2-0
  6
Continuous
 62
     7
100
AcDbLine
 10
3104.8671563667
 20
48.540195239631
 30
0.0
 11
3108.433414190198
 21
45.246264151624
 31
0.0
  0
LINE
  5
1FC
330
36
100
AcDbEntity
  8
2-0
  6
Continuous
 62
     7
100
AcDbLine
 10
3108.433414190198
 20
45.246264151624
 30
0.0
 11
3112.211182709814
 21
42.197224649027
 31
0.0
  0
LINE
  5
1FD
330
36
100
AcDbEntity
  8
2-0
  6
Continuous
 62
     7
100
AcDbLine
 10
3112.211182709814
 20
42.197224649027
 30
0.0
 11
3116.183678060867
 21
39.406623000267
 31
0.0
  0
LINE
  5
1FE
330
36
100
AcDbEntity
  8
2-0
  6
Continuous
 62
     7
100
AcDbLine
 10
3116.183678060867
 20
39.406623000267
 30
0.0
 11
3120.333251246581
 21
36.886857286436
 31
0.0
  0
LINE
  5
1FF
330
36
100
AcDbEntity
  8
2-0
  6
Continuous
 62
     7
100
AcDbLine
 10
3120.333251246581
 20
36.886857286436
 30
0.0
 11
3124.641466549026
 21
34.649122319115
 31
0.0
  0
LINE
  5
200
330
36
100
AcDbEntity
  8
2-0
  6
Continuous
 62
     7
100
AcDbLine
 10
3124.641466549026
 20
34.649122319115
 30
0.0
 11
3129.089183435298
 21
32.703359904077
 31
0.0
  0
LINE
  5
201
330
36
100
AcDbEntity
  8
2-0
  6
Continuous
 62
     7
100
AcDbLine
 10
3129.089183435298
 20
32.703359904077
 30
0.0
 11
3133.656641595048
 21
31.058214671853
 31
0.0
  0
LINE
  5
202
330
36
100
AcDbEntity
  8
2-0
  6
Continuous
 62
     7
100
AcDbLine
 10
3133.656641595048
 20
31.058214671853
 30
0.0
 11
3138.323548731573
 21
29.720995671373
 31
0.0
  0
LINE
  5
203
330
36
100
AcDbEntity
  8
2-0
  6
Continuous
 62
     7
100
AcDbLine
 10
3138.323548731573
 20
29.720995671373
 30
0.0
 11
3143.069170716389
 21
28.697643897337
 31
0.0
  0
LINE
  5
204
330
36
100
AcDbEntity
  8
2-0
  6
Continuous
 62
     7
100
AcDbLine
 10
3143.069170716389
 20
28.697643897337
 30
0.0
 11
3147.872423706797
 21
27.992705895572
 31
0.0
  0
LINE
  5
205
330
36
100
AcDbEntity
  8
2-0
  6
Continuous
 62
     7
100
AcDbLine
 10
3147.872423706797
 20
27.992705895572
 30
0.0
 11
3152.711967817145
 21
27.609313563644
 31
0.0
  0
LINE
  5
206
330
36
100
AcDbEntity
  8
2-0
  6
Continuous
 62
     7
100
AcDbLine
 10
3152.711967817145
 20
27.609313563644
 30
0.0
 11
3157.566301927646
 21
27.549170236467
 31
0.0
  0
LINE
  5
207
330
36
100
AcDbEntity
  8
2-0
  6
Continuous
 62
     7
100
AcDbLine
 10
3157.566301927646
 20
27.549170236467
 30
0.0
 11
3162.413859209522
 21
27.812543118731
 31
0.0
  0
LINE
  5
208
330
36
100
AcDbEntity
  8
2-0
  6
Continuous
 62
     7
100
AcDbLine
 10
3162.413859209522
 20
27.812543118731
 30
0.0
 11
3167.233102942079
 21
28.398262097764
 31
0.0
  0
LINE
  5
209
330
36
100
AcDbEntity
  8
2-0
  6
Continuous
 62
     7
100
AcDbLine
 10
3167.233102942079
 20
28.398262097764
 30
0.0
 11
3172.00262219602
 21
29.303724942107
 31
0.0
  0
LINE
  5
20A
330
36
100
AcDbEntity
  8
2-0
  6
Continuous
 62
     7
100
AcDbLine
 10
3172.00262219602
 20
29.303724942107
 30
0.0
 11
3176.701226957888
 21
30.524908862706
 31
0.0
  0
LINE
  5
20B
330
36
100
AcDbEntity
  8
2-0
  6
Continuous
 62
     7
100
AcDbLine
 10
3176.701226957888
 20
30.524908862706
 30
0.0
 11
3181.308042273039
 21
32.05638838535
 31
0.0
  0
LINE
  5
20C
330
36
100
AcDbEntity
  8
2-0
  6
Continuous
 62
     7
100
AcDbLine
 10
3181.308042273039
 20
32.05638838535
 30
0.0
 11
3185.80260098885
 21
33.891359454963
 31
0.0
  0
LINE
  5
20D
330
36
100
AcDbEntity
  8
2-0
  6
Continuous
 62
     7
100
AcDbLine
 10
3185.80260098885
 20
33.891359454963
 30
0.0
 11
3190.164934686161
 21
36.02166966465
 31
0.0
  0
LINE
  5
20E
330
36
100
AcDbEntity
  8
2-0
  6
Continuous
 62
     7
100
AcDbLine
 10
3190.164934686161
 20
36.02166966465
 30
0.0
 11
3194.375662394938
 21
38.4378544752
 31
0.0
  0
LINE
  5
20F
330
36
100
AcDbEntity
  8
2-0
  6
Continuous
 62
     7
100
AcDbLine
 10
3194.375662394938
 20
38.4378544752
 30
0.0
 11
3198.416076700022
 21
41.129179264123
 31
0.0
  0
LINE
  5
210
330
36
100
AcDbEntity
  8
2-0
  6
Continuous
 62
     7
100
AcDbLine
 10
3198.416076700022
 20
41.129179264123
 30
0.0
 11
3202.268226854403
 21
44.083687017422
 31
0.0
  0
LINE
  5
211
330
36
100
AcDbEntity
  8
2-0
  6
Continuous
 62
     7
100
AcDbLine
 10
3202.268226854403
 20
44.083687017422
 30
0.0
 11
3205.914998530776
 21
47.288251452193
 31
0.0
  0
LINE
  5
212
330
36
100
AcDbEntity
  8
2-0
  6
Continuous
 62
     7
100
AcDbLine
 10
3205.914998530776
 20
47.288251452193
 30
0.0
 11
3209.340189857054
 21
50.728635334058
 31
0.0
  0
LINE
  5
213
330
36
100
AcDbEntity
  8
2-0
  6
Continuous
 62
     7
100
AcDbLine
 10
3209.340189857054
 20
50.728635334058
 30
0.0
 11
3212.528583398012
 21
54.38955373033301
 31
0.0
  0
LINE
  5
214
330
36
100
AcDbEntity
  8
2-0
  6
Continuous
 62
     7
100
AcDbLine
 10
3212.528583398012
 20
54.38955373033301
 30
0.0
 11
3215.466013763299
 21
58.25474191789799
 31
0.0
  0
LINE
  5
215
330
36
100
AcDbEntity
  8
2-0
  6
Continuous
 62
     7
100
AcDbLine
 10
3215.466013763299
 20
58.25474191789799
 30
0.0
 11
3218.139430541407
 21
62.307027644095
 31
0.0
  0
LINE
  5
216
330
36
100
AcDbEntity
  8
2-0
  6
Continuous
 62
     7
100
AcDbLine
 10
3218.139430541407
 20
62.307027644095
 30
0.0
 11
3220.536956280022
 21
66.528407419582
 31
0.0
  0
LINE
  5
217
330
36
100
AcDbEntity
  8
2-0
  6
Continuous
 62
     7
100
AcDbLine
 10
3220.536956280022
 20
66.528407419582
 30
0.0
 11
3222.647939255156
 21
70.900126504211
 31
0.0
  0
LINE
  5
218
330
36
100
AcDbEntity
  8
2-0
  6
Continuous
 62
     7
100
AcDbLine
 10
3222.647939255156
 20
70.900126504211
 30
0.0
 11
3224.463000794605
 21
75.402762230563
 31
0.0
  0
LINE
  5
219
330
36
100
AcDbEntity
  8
2-0
  6
Continuous
 62
     7
100
AcDbLine
 10
3224.463000794605
 20
75.402762230563
 30
0.0
 11
3225.974076945509
 21
80.01631029494701
 31
0.0
  0
LINE
  5
21A
330
36
100
AcDbEntity
  8
2-0
  6
Continuous
 62
     7
100
AcDbLine
 10
3225.974076945509
 20
80.01631029494701
 30
0.0
 11
3227.174454300863
 21
84.72027363249301
 31
0.0
  0
LINE
  5
21B
330
36
100
AcDbEntity
  8
2-0
  6
Continuous
 62
     7
100
AcDbLine
 10
3227.174454300863
 20
84.72027363249301
 30
0.0
 11
3228.058799825835
 21
89.49375348147899
 31
0.0
  0
LINE
  5
21C
330
36
100
AcDbEntity
  8
2-0
  6
Continuous
 62
     7
100
AcDbLine
 10
3228.058799825835
 20
89.49375348147899
 30
0.0
 11
3228.623184551369
 21
94.315542232327
 31
0.0
  0
LINE
  5
21D
330
36
100
AcDbEntity
  8
2-0
  6
Continuous
 62
     7
100
AcDbLine
 10
3228.623184551369
 20
94.315542232327
 30
0.0
 11
3228.865101029793
 21
99.164217648736
 31
0.0
  0
LINE
  5
21E
330
36
100
AcDbEntity
  8
2-0
  6
Continuous
 62
     7
100
AcDbLine
 10
3228.865101029793
 20
99.164217648736
 30
0.0
 11
3228.875037758074
 21
100.367283036918
 31
0.0
  0
LINE
  5
21F
330
36
100
AcDbEntity
  8
2-0
  6
Continuous
 62
     7
100
AcDbLine
 10
3229.292051079264
 20
100.367283036918
 30
0.0
 11
3229.129331136074
 21
105.247073199299
 31
0.0
  0
LINE
  5
220
330
36
100
AcDbEntity
  8
2-0
  6
Continuous
 62
     7
100
AcDbLine
 10
3229.129331136074
 20
105.247073199299
 30
0.0
 11
3228.641894238442
 21
110.10518343679
 31
0.0
  0
LINE
  5
221
330
36
100
AcDbEntity
  8
2-0
  6
Continuous
 62
     7
100
AcDbLine
 10
3228.641894238442
 20
110.10518343679
 30
0.0
 11
3227.831905970329
 21
114.920030144039
 31
0.0
  0
LINE
  5
222
330
36
100
AcDbEntity
  8
2-0
  6
Continuous
 62
     7
100
AcDbLine
 10
3227.831905970329
 20
114.920030144039
 30
0.0
 11
3226.702964946481
 21
119.670221926847
 31
0.0
  0
LINE
  5
223
330
36
100
AcDbEntity
  8
2-0
  6
Continuous
 62
     7
100
AcDbLine
 10
3226.702964946481
 20
119.670221926847
 30
0.0
 11
3225.260086824494
 21
124.334654639823
 31
0.0
  0
LINE
  5
224
330
36
100
AcDbEntity
  8
2-0
  6
Continuous
 62
     7
100
AcDbLine
 10
3225.260086824494
 20
124.334654639823
 30
0.0
 11
3223.509682021264
 21
128.892605147849
 31
0.0
  0
LINE
  5
225
330
36
100
AcDbEntity
  8
2-0
  6
Continuous
 62
     7
100
AcDbLine
 10
3223.509682021264
 20
128.892605147849
 30
0.0
 11
3221.459527232799
 21
133.3238233948
 31
0.0
  0
LINE
  5
226
330
36
100
AcDbEntity
  8
2-0
  6
Continuous
 62
     7
100
AcDbLine
 10
3221.459527232799
 20
133.3238233948
 30
0.0
 11
3219.118730883916
 21
137.608622370462
 31
0.0
  0
LINE
  5
227
330
36
100
AcDbEntity
  8
2-0
  6
Continuous
 62
     7
100
AcDbLine
 10
3219.118730883916
 20
137.608622370462
 30
0.0
 11
3216.497692661353
 21
141.727965575955
 31
0.0
  0
LINE
  5
228
330
36
100
AcDbEntity
  8
2-0
  6
Continuous
 62
     7
100
AcDbLine
 10
3216.497692661353
 20
141.727965575955
 30
0.0
 11
3213.608057310048
 21
145.663551599061
 31
0.0
  0
LINE
  5
229
330
36
100
AcDbEntity
  8
2-0
  6
Continuous
 62
     7
100
AcDbLine
 10
3213.608057310048
 20
145.663551599061
 30
0.0
 11
3210.46266289789
 21
149.397895423715
 31
0.0
  0
LINE
  5
22A
330
36
100
AcDbEntity
  8
2-0
  6
Continuous
 62
     7
100
AcDbLine
 10
3210.46266289789
 20
149.397895423715
 30
0.0
 11
3207.075483778761
 21
152.914406112411
 31
0.0
  0
LINE
  5
22B
330
36
100
AcDbEntity
  8
2-0
  6
Continuous
 62
     7
100
AcDbLine
 10
3207.075483778761
 20
152.914406112411
 30
0.0
 11
3203.461568507303
 21
156.19746051639
 31
0.0
  0
LINE
  5
22C
330
36
100
AcDbEntity
  8
2-0
  6
Continuous
 62
     7
100
AcDbLine
 10
3203.461568507303
 20
156.19746051639
 30
0.0
 11
3199.636972981215
 21
159.232472686152
 31
0.0
  0
LINE
  5
22D
330
36
100
AcDbEntity
  8
2-0
  6
Continuous
 62
     7
100
AcDbLine
 10
3199.636972981215
 20
159.232472686152
 30
0.0
 11
3195.618689108139
 21
162.005958673883
 31
0.0
  0
LINE
  5
22E
330
36
100
AcDbEntity
  8
2-0
  6
Continuous
 62
     7
100
AcDbLine
 10
3195.618689108139
 20
162.005958673883
 30
0.0
 11
3191.424569314031
 21
164.505596439927
 31
0.0
  0
LINE
  5
22F
330
36
100
AcDbEntity
  8
2-0
  6
Continuous
 62
     7
100
AcDbLine
 10
3191.424569314031
 20
164.505596439927
 30
0.0
 11
3187.07324722843
 21
166.720280597121
 31
0.0
  0
LINE
  5
230
330
36
100
AcDbEntity
  8
2-0
  6
Continuous
 62
     7
100
AcDbLine
 10
3187.07324722843
 20
166.720280597121
 30
0.0
 11
3182.584054898998
 21
168.640171749798
 31
0.0
  0
LINE
  5
231
330
36
100
AcDbEntity
  8
2-0
  6
Continuous
 62
     7
100
AcDbLine
 10
3182.584054898998
 20
168.640171749798
 30
0.0
 11
3177.976936903121
 21
170.256740208237
 31
0.0
  0
LINE
  5
232
330
36
100
AcDbEntity
  8
2-0
  6
Continuous
 62
     7
100
AcDbLine
 10
3177.976936903121
 20
170.256740208237
 30
0.0
 11
3173.272361738169
 21
171.562803884357
 31
0.0
  0
LINE
  5
233
330
36
100
AcDbEntity
  8
2-0
  6
Continuous
 62
     7
100
AcDbLine
 10
3173.272361738169
 20
171.562803884357
 30
0.0
 11
3168.49123088409
 21
172.55256020029
 31
0.0
  0
LINE
  5
234
330
36
100
AcDbEntity
  8
2-0
  6
Continuous
 62
     7
100
AcDbLine
 10
3168.49123088409
 20
172.55256020029
 30
0.0
 11
3163.654785942338
 21
173.221611868062
 31
0.0
  0
LINE
  5
235
330
36
100
AcDbEntity
  8
2-0
  6
Continuous
 62
     7
100
AcDbLine
 10
3163.654785942338
 20
173.221611868062
 30
0.0
 11
3158.784514263716
 21
173.566986425864
 31
0.0
  0
LINE
  5
236
330
36
100
AcDbEntity
  8
2-0
  6
Continuous
 62
     7
100
AcDbLine
 10
3158.784514263716
 20
173.566986425864
 30
0.0
 11
3153.902053484411
 21
173.5871494440919
 31
0.0
  0
LINE
  5
237
330
36
100
AcDbEntity
  8
2-0
  6
Continuous
 62
     7
100
AcDbLine
 10
3153.902053484411
 20
173.5871494440919
 30
0.0
 11
3149.029095394327
 21
173.28201134252
 31
0.0
  0
LINE
  5
238
330
36
100
AcDbEntity
  8
2-0
  6
Continuous
 62
     7
100
AcDbLine
 10
3149.029095394327
 20
173.28201134252
 30
0.0
 11
3144.187289564831
 21
172.652927788275
 31
0.0
  0
LINE
  5
239
330
36
100
AcDbEntity
  8
2-0
  6
Continuous
 62
     7
100
AcDbLine
 10
3144.187289564831
 20
172.652927788275
 30
0.0
 11
3139.398147164076
 21
171.702693672891
 31
0.0
  0
LINE
  5
23A
330
36
100
AcDbEntity
  8
2-0
  6
Continuous
 62
     7
100
AcDbLine
 10
3139.398147164076
 20
171.702693672891
 30
0.0
 11
3134.682945387202
 21
170.435530695163
 31
0.0
  0
LINE
  5
23B
330
36
100
AcDbEntity
  8
2-0
  6
Continuous
 62
     7
100
AcDbLine
 10
3134.682945387202
 20
170.435530695163
 30
0.0
 11
3130.062632926053
 21
168.857068604992
 31
0.0
  0
LINE
  5
23C
330
36
100
AcDbEntity
  8
2-0
  6
Continuous
 62
     7
100
AcDbLine
 10
3130.062632926053
 20
168.857068604992
 30
0.0
 11
3125.557736898351
 21
166.974320191539
 31
0.0
  0
LINE
  5
23D
330
36
100
AcDbEntity
  8
2-0
  6
Continuous
 62
     7
100
AcDbLine
 10
3125.557736898351
 20
166.974320191539
 30
0.0
 11
3121.188271649853
 21
164.795650126814
 31
0.0
  0
LINE
  5
23E
330
36
100
AcDbEntity
  8
2-0
  6
Continuous
 62
     7
100
AcDbLine
 10
3121.188271649853
 20
164.795650126814
 30
0.0
 11
3116.973649834637
 21
162.330737803127
 31
0.0
  0
LINE
  5
23F
330
36
100
AcDbEntity
  8
2-0
  6
Continuous
 62
     7
100
AcDbLine
 10
3116.973649834637
 20
162.330737803127
 30
0.0
 11
3112.932596168593
 21
159.590534329493
 31
0.0
  0
LINE
  5
240
330
36
100
AcDbEntity
  8
2-0
  6
Continuous
 62
     7
100
AcDbLine
 10
3112.932596168593
 20
159.590534329493
 30
0.0
 11
3109.083064239283
 21
156.587213878061
 31
0.0
  0
LINE
  5
241
330
36
100
AcDbEntity
  8
2-0
  6
Continuous
 62
     7
100
AcDbLine
 10
3109.083064239283
 20
156.587213878061
 30
0.0
 11
3105.442156741764
 21
153.334119596722
 31
0.0
  0
LINE
  5
242
330
36
100
AcDbEntity
  8
2-0
  6
Continuous
 62
     7
100
AcDbLine
 10
3105.442156741764
 20
153.334119596722
 30
0.0
 11
3102.026049494761
 21
149.845704328188
 31
0.0
  0
LINE
  5
243
330
36
100
AcDbEntity
  8
2-0
  6
Continuous
 62
     7
100
AcDbLine
 10
3102.026049494761
 20
149.845704328188
 30
0.0
 11
3098.84991957476
 21
146.137466398922
 31
0.0
  0
LINE
  5
244
330
36
100
AcDbEntity
  8
2-0
  6
Continuous
 62
     7
100
AcDbLine
 10
3098.84991957476
 20
146.137466398922
 30
0.0
 11
3095.927877887316
 21
142.225880763196
 31
0.0
  0
LINE
  5
245
330
36
100
AcDbEntity
  8
2-0
  6
Continuous
 62
     7
100
AcDbLine
 10
3095.927877887316
 20
142.225880763196
 30
0.0
 11
3093.272906475141
 21
138.128325808188
 31
0.0
  0
LINE
  5
246
330
36
100
AcDbEntity
  8
2-0
  6
Continuous
 62
     7
100
AcDbLine
 10
3093.272906475141
 20
138.128325808188
 30
0.0
 11
3090.896800841502
 21
133.863006145306
 31
0.0
  0
LINE
  5
247
330
36
100
AcDbEntity
  8
2-0
  6
Continuous
 62
     7
100
AcDbLine
 10
3090.896800841502
 20
133.863006145306
 30
0.0
 11
3088.810117545176
 21
129.448871730767
 31
0.0
  0
LINE
  5
248
330
36
100
AcDbEntity
  8
2-0
  6
Continuous
 62
     7
100
AcDbLine
 10
3088.810117545176
 20
129.448871730767
 30
0.0
 11
3087.022127299787
 21
124.905533674758
 31
0.0
  0
LINE
  5
249
330
36
100
AcDbEntity
  8
2-0
  6
Continuous
 62
     7
100
AcDbLine
 10
3087.022127299787
 20
124.905533674758
 30
0.0
 11
3085.540773785889
 21
120.253177113225
 31
0.0
  0
LINE
  5
24A
330
36
100
AcDbEntity
  8
2-0
  6
Continuous
 62
     7
100
AcDbLine
 10
3085.540773785889
 20
120.253177113225
 30
0.0
 11
3084.372638358795
 21
115.512471529374
 31
0.0
  0
LINE
  5
24B
330
36
100
AcDbEntity
  8
2-0
  6
Continuous
 62
     7
100
AcDbLine
 10
3084.372638358795
 20
115.512471529374
 30
0.0
 11
3083.522910808945
 21
110.704478923326
 31
0.0
  0
LINE
  5
24C
330
36
100
AcDbEntity
  8
2-0
  6
Continuous
 62
     7
100
AcDbLine
 10
3083.522910808945
 20
110.704478923326
 30
0.0
 11
3082.995366304706
 21
105.850560237889
 31
0.0
  0
LINE
  5
24D
330
36
100
AcDbEntity
  8
2-0
  6
Continuous
 62
     7
100
AcDbLine
 10
3082.995366304706
 20
105.850560237889
 30
0.0
 11
3082.792348620058
 21
100.972280456193
 31
0.0
  0
LINE
  5
24E
330
36
100
AcDbEntity
  8
2-0
  6
Continuous
 62
     7
100
AcDbLine
 10
3082.792348620058
 20
100.972280456193
 30
0.0
 11
3082.914759721689
 21
96.09131279281001
 31
0.0
  0
LINE
  5
24F
330
36
100
AcDbEntity
  8
2-0
  6
Continuous
 62
     7
100
AcDbLine
 10
3082.914759721689
 20
96.09131279281001
 30
0.0
 11
3083.362055761728
 21
91.229342404032
 31
0.0
  0
LINE
  5
250
330
36
100
AcDbEntity
  8
2-0
  6
Continuous
 62
     7
100
AcDbLine
 10
3083.362055761728
 20
91.229342404032
 30
0.0
 11
3084.132249493955
 21
86.40797004508499
 31
0.0
  0
LINE
  5
251
330
36
100
AcDbEntity
  8
2-0
  6
Continuous
 62
     7
100
AcDbLine
 10
3084.132249493955
 20
86.40797004508499
 30
0.0
 11
3085.221919102737
 21
81.648616102323
 31
0.0
  0
LINE
  5
252
330
36
100
AcDbEntity
  8
2-0
  6
Continuous
 62
     7
100
AcDbLine
 10
3085.221919102737
 20
81.648616102323
 30
0.0
 11
3086.626223405464
 21
76.97242542677
 31
0.0
  0
LINE
  5
253
330
36
100
AcDbEntity
  8
2-0
  6
Continuous
 62
     7
100
AcDbLine
 10
3086.626223405464
 20
76.97242542677
 30
0.0
 11
3088.338923360946
 21
72.400173391802
 31
0.0
  0
LINE
  5
254
330
36
100
AcDbEntity
  8
2-0
  6
Continuous
 62
     7
100
AcDbLine
 10
3088.338923360946
 20
72.400173391802
 30
0.0
 11
3090.352409788227
 21
67.95217359234801
 31
0.0
  0
LINE
  5
255
330
36
100
AcDbEntity
  8
2-0
  6
Continuous
 62
     7
100
AcDbLine
 10
3090.352409788227
 20
67.95217359234801
 30
0.0
 11
3092.657737172629
 21
63.648187595681
 31
0.0
  0
LINE
  5
256
330
36
100
AcDbEntity
  8
2-0
  6
Continuous
 62
     7
100
AcDbLine
 10
3092.657737172629
 20
63.648187595681
 30
0.0
 11
3095.244663408882
 21
59.507337144752
 31
0.0
  0
LINE
  5
257
330
36
100
AcDbEntity
  8
2-0
  6
Continuous
 62
     7
100
AcDbLine
 10
3095.244663408882
 20
59.507337144752
 30
0.0
 11
3098.101695304731
 21
55.54801920413599
 31
0.0
  0
LINE
  5
258
330
36
100
AcDbEntity
  8
2-0
  6
Continuous
 62
     7
100
AcDbLine
 10
3098.101695304731
 20
55.54801920413599
 30
0.0
 11
3101.216139642874
 21
51.787824226029
 31
0.0
  0
LINE
  5
259
330
36
100
AcDbEntity
  8
2-0
  6
Continuous
 62
     7
100
AcDbLine
 10
3101.216139642874
 20
51.787824226029
 30
0.0
 11
3104.574159574374
 21
48.243457999406
 31
0.0
  0
LINE
  5
25A
330
36
100
AcDbEntity
  8
2-0
  6
Continuous
 62
     7
100
AcDbLine
 10
3104.574159574374
 20
48.243457999406
 30
0.0
 11
3108.160836092988
 21
44.93066742957
 31
0.0
  0
LINE
  5
25B
330
36
100
AcDbEntity
  8
2-0
  6
Continuous
 62
     7
100
AcDbLine
 10
3108.160836092988
 20
44.93066742957
 30
0.0
 11
3111.960234317307
 21
41.86417057781899
 31
0.0
  0
LINE
  5
25C
330
36
100
AcDbEntity
  8
2-0
  6
Continuous
 62
     7
100
AcDbLine
 10
3111.960234317307
 20
41.86417057781899
 30
0.0
 11
3115.955474286231
 21
39.05759127206501
 31
0.0
  0
LINE
  5
25D
330
36
100
AcDbEntity
  8
2-0
  6
Continuous
 62
     7
100
AcDbLine
 10
3115.955474286231
 20
39.05759127206501
 30
0.0
 11
3120.128805953225
 21
36.52339857891301
 31
0.0
  0
LINE
  5
25E
330
36
100
AcDbEntity
  8
2-0
  6
Continuous
 62
     7
100
AcDbLine
 10
3120.128805953225
 20
36.52339857891301
 30
0.0
 11
3124.461688046213
 21
34.272851406107
 31
0.0
  0
LINE
  5
25F
330
36
100
AcDbEntity
  8
2-0
  6
Continuous
 62
     7
100
AcDbLine
 10
3124.461688046213
 20
34.272851406107
 30
0.0
 11
3128.934870442707
 21
32.315948481469
 31
0.0
  0
LINE
  5
260
330
36
100
AcDbEntity
  8
2-0
  6
Continuous
 62
     7
100
AcDbLine
 10
3128.934870442707
 20
32.315948481469
 30
0.0
 11
3133.528479694228
 21
30.661383930569
 31
0.0
  0
LINE
  5
261
330
36
100
AcDbEntity
  8
2-0
  6
Continuous
 62
     7
100
AcDbLine
 10
3133.528479694228
 20
30.661383930569
 30
0.0
 11
3138.222107320036
 21
29.316508650474
 31
0.0
  0
LINE
  5
262
330
36
100
AcDbEntity
  8
2-0
  6
Continuous
 62
     7
100
AcDbLine
 10
3138.222107320036
 20
29.316508650474
 30
0.0
 11
3142.994900477896
 21
28.287297651193
 31
0.0
  0
LINE
  5
263
330
36
100
AcDbEntity
  8
2-0
  6
Continuous
 62
     7
100
AcDbLine
 10
3142.994900477896
 20
28.287297651193
 30
0.0
 11
3147.825654609059
 21
27.57832350991
 31
0.0
  0
LINE
  5
264
330
36
100
AcDbEntity
  8
2-0
  6
Continuous
 62
     7
100
AcDbLine
 10
3147.825654609059
 20
27.57832350991
 30
0.0
 11
3152.692907645845
 21
27.192736055945
 31
0.0
  0
LINE
  5
265
330
36
100
AcDbEntity
  8
2-0
  6
Continuous
 62
     7
100
AcDbLine
 10
3152.692907645845
 20
27.192736055945
 30
0.0
 11
3157.575035363286
 21
27.132248376699
 31
0.0
  0
LINE
  5
266
330
36
100
AcDbEntity
  8
2-0
  6
Continuous
 62
     7
100
AcDbLine
 10
3157.575035363286
 20
27.132248376699
 30
0.0
 11
3162.450347451207
 21
27.397129206748
 31
0.0
  0
LINE
  5
267
330
36
100
AcDbEntity
  8
2-0
  6
Continuous
 62
     7
100
AcDbLine
 10
3162.450347451207
 20
27.397129206748
 30
0.0
 11
3167.297183879899
 21
27.986201733912
 31
0.0
  0
LINE
  5
268
330
36
100
AcDbEntity
  8
2-0
  6
Continuous
 62
     7
100
AcDbLine
 10
3167.297183879899
 20
27.986201733912
 30
0.0
 11
3172.094011131274
 21
28.896848827592
 31
0.0
  0
LINE
  5
269
330
36
100
AcDbEntity
  8
2-0
  6
Continuous
 62
     7
100
AcDbLine
 10
3172.094011131274
 20
28.896848827592
 30
0.0
 11
3176.819517867944
 21
30.125024666159
 31
0.0
  0
LINE
  5
26A
330
36
100
AcDbEntity
  8
2-0
  6
Continuous
 62
     7
100
AcDbLine
 10
3176.819517867944
 20
30.125024666159
 30
0.0
 11
3181.452709615207
 21
31.665272711718
 31
0.0
  0
LINE
  5
26B
330
36
100
AcDbEntity
  8
2-0
  6
Continuous
 62
     7
100
AcDbLine
 10
3181.452709615207
 20
31.665272711718
 30
0.0
 11
3185.973002035265
 21
33.510749952414
 31
0.0
  0
LINE
  5
26C
330
36
100
AcDbEntity
  8
2-0
  6
Continuous
 62
     7
100
AcDbLine
 10
3185.973002035265
 20
33.510749952414
 30
0.0
 11
3190.360312379294
 21
35.653257304548
 31
0.0
  0
LINE
  5
26D
330
36
100
AcDbEntity
  8
2-0
  6
Continuous
 62
     7
100
AcDbLine
 10
3190.360312379294
 20
35.653257304548
 30
0.0
 11
3194.595148711046
 21
38.08327603946001
 31
0.0
  0
LINE
  5
26E
330
36
100
AcDbEntity
  8
2-0
  6
Continuous
 62
     7
100
AcDbLine
 10
3194.595148711046
 20
38.08327603946001
 30
0.0
 11
3198.658696505608
 21
40.790010073324
 31
0.0
  0
LINE
  5
26F
330
36
100
AcDbEntity
  8
2-0
  6
Continuous
 62
     7
100
AcDbLine
 10
3198.658696505608
 20
40.790010073324
 30
0.0
 11
3202.532902238536
 21
43.761433931968
 31
0.0
  0
LINE
  5
270
330
36
100
AcDbEntity
  8
2-0
  6
Continuous
 62
     7
100
AcDbLine
 10
3202.532902238536
 20
43.761433931968
 30
0.0
 11
3206.20055359403
 21
46.984346177641
 31
0.0
  0
LINE
  5
271
330
36
100
AcDbEntity
  8
2-0
  6
Continuous
 62
     7
100
AcDbLine
 10
3206.20055359403
 20
46.984346177641
 30
0.0
 11
3209.645355935793
 21
50.444428060336
 31
0.0
  0
LINE
  5
272
330
36
100
AcDbEntity
  8
2-0
  6
Continuous
 62
     7
100
AcDbLine
 10
3209.645355935793
 20
50.444428060336
 30
0.0
 11
3212.852004700811
 21
54.12630713311699
 31
0.0
  0
LINE
  5
273
330
36
100
AcDbEntity
  8
2-0
  6
Continuous
 62
     7
100
AcDbLine
 10
3212.852004700811
 20
54.12630713311699
 30
0.0
 11
3215.806253394446
 21
58.013625548802
 31
0.0
  0
LINE
  5
274
330
36
100
AcDbEntity
  8
2-0
  6
Continuous
 62
     7
100
AcDbLine
 10
3215.806253394446
 20
58.013625548802
 30
0.0
 11
3218.494976884747
 21
62.089112734585
 31
0.0
  0
LINE
  5
275
330
36
100
AcDbEntity
  8
2-0
  6
Continuous
 62
     7
100
AcDbLine
 10
3218.494976884747
 20
62.089112734585
 30
0.0
 11
3220.90622971476
 21
66.334662121712
 31
0.0
  0
LINE
  5
276
330
36
100
AcDbEntity
  8
2-0
  6
Continuous
 62
     7
100
AcDbLine
 10
3220.90622971476
 20
66.334662121712
 30
0.0
 11
3223.029299173792
 21
70.73141158932
 31
0.0
  0
LINE
  5
277
330
36
100
AcDbEntity
  8
2-0
  6
Continuous
 62
     7
100
AcDbLine
 10
3223.029299173792
 20
70.73141158932
 30
0.0
 11
3224.85475289183
 21
75.259827265037
 31
0.0
  0
LINE
  5
278
330
36
100
AcDbEntity
  8
2-0
  6
Continuous
 62
     7
100
AcDbLine
 10
3224.85475289183
 20
75.259827265037
 30
0.0
 11
3226.374480745653
 21
79.899790310051
 31
0.0
  0
LINE
  5
279
330
36
100
AcDbEntity
  8
2-0
  6
Continuous
 62
     7
100
AcDbLine
 10
3226.374480745653
 20
79.899790310051
 30
0.0
 11
3227.581730890484
 21
84.63068630305199
 31
0.0
  0
LINE
  5
27A
330
36
100
AcDbEntity
  8
2-0
  6
Continuous
 62
     7
100
AcDbLine
 10
3227.581730890484
 20
84.63068630305199
 30
0.0
 11
3228.471139757072
 21
89.43149682595601
 31
0.0
  0
LINE
  5
27B
330
36
100
AcDbEntity
  8
2-0
  6
Continuous
 62
     7
100
AcDbLine
 10
3228.471139757072
 20
89.43149682595601
 30
0.0
 11
3229.038755880953
 21
94.280892844502
 31
0.0
  0
LINE
  5
27C
330
36
100
AcDbEntity
  8
2-0
  6
Continuous
 62
     7
100
AcDbLine
 10
3229.038755880953
 20
94.280892844502
 30
0.0
 11
3229.282057458006
 21
99.15732946886102
 31
0.0
  0
LINE
  5
27D
330
36
100
AcDbEntity
  8
2-0
  6
Continuous
 62
     7
100
AcDbLine
 10
3229.282057458006
 20
99.15732946886102
 30
0.0
 11
3229.292051079264
 21
100.367283036918
 31
0.0
  0
LINE
  5
27E
330
36
100
AcDbEntity
  8
2-0
  6
Continuous
 62
     7
100
AcDbLine
 10
3229.500557739858
 20
100.367283036918
 30
0.0
 11
3229.337374620119
 21
105.260963349002
 31
0.0
  0
LINE
  5
27F
330
36
100
AcDbEntity
  8
2-0
  6
Continuous
 62
     7
100
AcDbLine
 10
3229.337374620119
 20
105.260963349002
 30
0.0
 11
3228.848550250638
 21
110.132902025057
 31
0.0
  0
LINE
  5
280
330
36
100
AcDbEntity
  8
2-0
  6
Continuous
 62
     7
100
AcDbLine
 10
3228.848550250638
 20
110.132902025057
 30
0.0
 11
3228.036256379636
 21
114.961454022766
 31
0.0
  0
LINE
  5
281
330
36
100
AcDbEntity
  8
2-0
  6
Continuous
 62
     7
100
AcDbLine
 10
3228.036256379636
 20
114.961454022766
 30
0.0
 11
3226.904101865186
 21
119.725167058083
 31
0.0
  0
LINE
  5
282
330
36
100
AcDbEntity
  8
2-0
  6
Continuous
 62
     7
100
AcDbLine
 10
3226.904101865186
 20
119.725167058083
 30
0.0
 11
3225.457116641775
 21
124.402876913416
 31
0.0
  0
LINE
  5
283
330
36
100
AcDbEntity
  8
2-0
  6
Continuous
 62
     7
100
AcDbLine
 10
3225.457116641775
 20
124.402876913416
 30
0.0
 11
3223.701729373328
 21
128.973801465978
 31
0.0
  0
LINE
  5
284
330
36
100
AcDbEntity
  8
2-0
  6
Continuous
 62
     7
100
AcDbLine
 10
3223.701729373328
 20
128.973801465978
 30
0.0
 11
3221.645738891938
 21
133.417633018577
 31
0.0
  0
LINE
  5
285
330
36
100
AcDbEntity
  8
2-0
  6
Continuous
 62
     7
100
AcDbLine
 10
3221.645738891938
 20
133.417633018577
 30
0.0
 11
3219.298279549232
 21
137.714628522621
 31
0.0
  0
LINE
  5
286
330
36
100
AcDbEntity
  8
2-0
  6
Continuous
 62
     7
100
AcDbLine
 10
3219.298279549232
 20
137.714628522621
 30
0.0
 11
3216.669780634287
 21
141.845697292513
 31
0.0
  0
LINE
  5
287
330
36
100
AcDbEntity
  8
2-0
  6
Continuous
 62
     7
100
AcDbLine
 10
3216.669780634287
 20
141.845697292513
 30
0.0
 11
3213.771920038397
 21
145.792485821712
 31
0.0
  0
LINE
  5
288
330
36
100
AcDbEntity
  8
2-0
  6
Continuous
 62
     7
100
AcDbLine
 10
3213.771920038397
 20
145.792485821712
 30
0.0
 11
3210.617572372552
 21
149.537459323676
 31
0.0
  0
LINE
  5
289
330
36
100
AcDbEntity
  8
2-0
  6
Continuous
 62
     7
100
AcDbLine
 10
3210.617572372552
 20
149.537459323676
 30
0.0
 11
3207.220751768141
 21
153.063979635382
 31
0.0
  0
LINE
  5
28A
330
36
100
AcDbEntity
  8
2-0
  6
Continuous
 62
     7
100
AcDbLine
 10
3207.220751768141
 20
153.063979635382
 30
0.0
 11
3203.59654961498
 21
156.356379137334
 31
0.0
  0
LINE
  5
28B
330
36
100
AcDbEntity
  8
2-0
  6
Continuous
 62
     7
100
AcDbLine
 10
3203.59654961498
 20
156.356379137334
 30
0.0
 11
3199.761067513315
 21
159.400030361641
 31
0.0
  0
LINE
  5
28C
330
36
100
AcDbEntity
  8
2-0
  6
Continuous
 62
     7
100
AcDbLine
 10
3199.761067513315
 20
159.400030361641
 30
0.0
 11
3195.731345737647
 21
162.181410978913
 31
0.0
  0
LINE
  5
28D
330
36
100
AcDbEntity
  8
2-0
  6
Continuous
 62
     7
100
AcDbLine
 10
3195.731345737647
 20
162.181410978913
 30
0.0
 11
3191.525287530232
 21
164.688163875242
 31
0.0
  0
LINE
  5
28E
330
36
100
AcDbEntity
  8
2-0
  6
Continuous
 62
     7
100
AcDbLine
 10
3191.525287530232
 20
164.688163875242
 30
0.0
 11
3187.161579560575
 21
166.9091520523769
 31
0.0
  0
LINE
  5
28F
330
36
100
AcDbEntity
  8
2-0
  6
Continuous
 62
     7
100
AcDbLine
 10
3187.161579560575
 20
166.9091520523769
 30
0.0
 11
3182.659608904325
 21
168.834508107157
 31
0.0
  0
LINE
  5
290
330
36
100
AcDbEntity
  8
2-0
  6
Continuous
 62
     7
100
AcDbLine
 10
3182.659608904325
 20
168.834508107157
 30
0.0
 11
3178.0393769104
 21
170.455678070403
 31
0.0
  0
LINE
  5
291
330
36
100
AcDbEntity
  8
2-0
  6
Continuous
 62
     7
100
AcDbLine
 10
3178.0393769104
 20
170.455678070403
 30
0.0
 11
3173.321410339025
 21
171.765459410476
 31
0.0
  0
LINE
  5
292
330
36
100
AcDbEntity
  8
2-0
  6
Continuous
 62
     7
100
AcDbLine
 10
3173.321410339025
 20
171.765459410476
 30
0.0
 11
3168.526670165467
 21
172.758033032674
 31
0.0
  0
LINE
  5
293
330
36
100
AcDbEntity
  8
2-0
  6
Continuous
 62
     7
100
AcDbLine
 10
3168.526670165467
 20
172.758033032674
 30
0.0
 11
3163.676458454646
 21
173.4289891322999
 31
0.0
  0
LINE
  5
294
330
36
100
AcDbEntity
  8
2-0
  6
Continuous
 62
     7
100
AcDbLine
 10
3163.676458454646
 20
173.4289891322999
 30
0.0
 11
3158.792323720349
 21
173.775346786536
 31
0.0
  0
LINE
  5
295
330
36
100
AcDbEntity
  8
2-0
  6
Continuous
 62
     7
100
AcDbLine
 10
3158.792323720349
 20
173.775346786536
 30
0.0
 11
3153.895965189525
 21
173.795567198081
 31
0.0
  0
LINE
  5
296
330
36
100
AcDbEntity
  8
2-0
  6
Continuous
 62
     7
100
AcDbLine
 10
3153.895965189525
 20
173.795567198081
 30
0.0
 11
3149.00913639699
 21
173.48956053172
 31
0.0
  0
LINE
  5
297
330
36
100
AcDbEntity
  8
2-0
  6
Continuous
 62
     7
100
AcDbLine
 10
3149.00913639699
 20
173.48956053172
 30
0.0
 11
3144.15354853885
 21
172.85868631344
 31
0.0
  0
LINE
  5
298
330
36
100
AcDbEntity
  8
2-0
  6
Continuous
 62
     7
100
AcDbLine
 10
3144.15354853885
 20
172.85868631344
 30
0.0
 11
3139.350774014031
 21
171.905747390334
 31
0.0
  0
LINE
  5
299
330
36
100
AcDbEntity
  8
2-0
  6
Continuous
 62
     7
100
AcDbLine
 10
3139.350774014031
 20
171.905747390334
 30
0.0
 11
3134.62215058246
 21
170.634977478112
 31
0.0
  0
LINE
  5
29A
330
36
100
AcDbEntity
  8
2-0
  6
Continuous
 62
     7
100
AcDbLine
 10
3134.62215058246
 20
170.634977478112
 30
0.0
 11
3129.988686565685
 21
169.05202235156
 31
0.0
  0
LINE
  5
29B
330
36
100
AcDbEntity
  8
2-0
  6
Continuous
 62
     7
100
AcDbLine
 10
3129.988686565685
 20
169.05202235156
 30
0.0
 11
3125.470967511147
 21
167.163914761494
 31
0.0
  0
LINE
  5
29C
330
36
100
AcDbEntity
  8
2-0
  6
Continuous
 62
     7
100
AcDbLine
 10
3125.470967511147
 20
167.163914761494
 30
0.0
 11
3121.089064734721
 21
164.979043189667
 31
0.0
  0
LINE
  5
29D
330
36
100
AcDbEntity
  8
2-0
  6
Continuous
 62
     7
100
AcDbLine
 10
3121.089064734721
 20
164.979043189667
 30
0.0
 11
3116.862446147921
 21
162.507114580435
 31
0.0
  0
LINE
  5
29E
330
36
100
AcDbEntity
  8
2-0
  6
Continuous
 62
     7
100
AcDbLine
 10
3116.862446147921
 20
162.507114580435
 30
0.0
 11
3112.809889765879
 21
159.759111214756
 31
0.0
  0
LINE
  5
29F
330
36
100
AcDbEntity
  8
2-0
  6
Continuous
 62
     7
100
AcDbLine
 10
3112.809889765879
 20
159.759111214756
 30
0.0
 11
3108.949400280403
 21
156.747241918131
 31
0.0
  0
LINE
  5
2A0
330
36
100
AcDbEntity
  8
2-0
  6
Continuous
 62
     7
100
AcDbLine
 10
3108.949400280403
 20
156.747241918131
 30
0.0
 11
3105.298129068766
 21
153.484887819247
 31
0.0
  0
LINE
  5
2A1
330
36
100
AcDbEntity
  8
2-0
  6
Continuous
 62
     7
100
AcDbLine
 10
3105.298129068766
 20
153.484887819247
 30
0.0
 11
3101.872297993589
 21
149.98654290032
 31
0.0
  0
LINE
  5
2A2
330
36
100
AcDbEntity
  8
2-0
  6
Continuous
 62
     7
100
AcDbLine
 10
3101.872297993589
 20
149.98654290032
 30
0.0
 11
3098.687127332369
 21
146.26774960325
 31
0.0
  0
LINE
  5
2A3
330
36
100
AcDbEntity
  8
2-0
  6
Continuous
 62
     7
100
AcDbLine
 10
3098.687127332369
 20
146.26774960325
 30
0.0
 11
3095.756768156852
 21
142.345029777682
 31
0.0
  0
LINE
  5
2A4
330
36
100
AcDbEntity
  8
2-0
  6
Continuous
 62
     7
100
AcDbLine
 10
3095.756768156852
 20
142.345029777682
 30
0.0
 11
3093.094239462675
 21
138.235811277758
 31
0.0
  0
LINE
  5
2A5
330
36
100
AcDbEntity
  8
2-0
  6
Continuous
 62
     7
100
AcDbLine
 10
3093.094239462675
 20
138.235811277758
 30
0.0
 11
3090.711370328586
 21
133.958350533667
 31
0.0
  0
LINE
  5
2A6
330
36
100
AcDbEntity
  8
2-0
  6
Continuous
 62
     7
100
AcDbLine
 10
3090.711370328586
 20
133.958350533667
 30
0.0
 11
3088.618747362233
 21
129.531651442004
 31
0.0
  0
LINE
  5
2A7
330
36
100
AcDbEntity
  8
2-0
  6
Continuous
 62
     7
100
AcDbLine
 10
3088.618747362233
 20
129.531651442004
 30
0.0
 11
3086.825667665996
 21
124.975380935286
 31
0.0
  0
LINE
  5
2A8
330
36
100
AcDbEntity
  8
2-0
  6
Continuous
 62
     7
100
AcDbLine
 10
3086.825667665996
 20
124.975380935286
 30
0.0
 11
3085.340097531836
 21
120.309781605732
 31
0.0
  0
LINE
  5
2A9
330
36
100
AcDbEntity
  8
2-0
  6
Continuous
 62
     7
100
AcDbLine
 10
3085.340097531836
 20
120.309781605732
 30
0.0
 11
3084.168637048663
 21
115.555581771501
 31
0.0
  0
LINE
  5
2AA
330
36
100
AcDbEntity
  8
2-0
  6
Continuous
 62
     7
100
AcDbLine
 10
3084.168637048663
 20
115.555581771501
 30
0.0
 11
3083.316490779465
 21
110.73390338495
 31
0.0
  0
LINE
  5
2AB
330
36
100
AcDbEntity
  8
2-0
  6
Continuous
 62
     7
100
AcDbLine
 10
3083.316490779465
 20
110.73390338495
 30
0.0
 11
3082.787444638495
 21
105.866168192052
 31
0.0
  0
LINE
  5
2AC
330
36
100
AcDbEntity
  8
2-0
  6
Continuous
 62
     7
100
AcDbLine
 10
3082.787444638495
 20
105.866168192052
 30
0.0
 11
3082.583849071206
 21
100.974002559899
 31
0.0
  0
LINE
  5
2AD
330
36
100
AcDbEntity
  8
2-0
  6
Continuous
 62
     7
100
AcDbLine
 10
3082.583849071206
 20
100.974002559899
 30
0.0
 11
3082.7066086117
 21
96.07914139509899
 31
0.0
  0
LINE
  5
2AE
330
36
100
AcDbEntity
  8
2-0
  6
Continuous
 62
     7
100
AcDbLine
 10
3082.7066086117
 20
96.07914139509899
 30
0.0
 11
3083.155177864059
 21
91.20333157997299
 31
0.0
  0
LINE
  5
2AF
330
36
100
AcDbEntity
  8
2-0
  6
Continuous
 62
     7
100
AcDbLine
 10
3083.155177864059
 20
91.20333157997299
 30
0.0
 11
3083.927563925441
 21
86.36823535552901
 31
0.0
  0
LINE
  5
2B0
330
36
100
AcDbEntity
  8
2-0
  6
Continuous
 62
     7
100
AcDbLine
 10
3083.927563925441
 20
86.36823535552901
 30
0.0
 11
3085.020335240133
 21
81.595334080494
 31
0.0
  0
LINE
  5
2B1
330
36
100
AcDbEntity
  8
2-0
  6
Continuous
 62
     7
100
AcDbLine
 10
3085.020335240133
 20
81.595334080494
 30
0.0
 11
3086.428636845273
 21
76.90583279396
 31
0.0
  0
LINE
  5
2B2
330
36
100
AcDbEntity
  8
2-0
  6
Continuous
 62
     7
100
AcDbLine
 10
3086.428636845273
 20
76.90583279396
 30
0.0
 11
3088.146211940462
 21
72.320566005667
 31
0.0
  0
LINE
  5
2B3
330
36
100
AcDbEntity
  8
2-0
  6
Continuous
 62
     7
100
AcDbLine
 10
3088.146211940462
 20
72.320566005667
 30
0.0
 11
3090.165429685477
 21
67.85990513247199
 31
0.0
  0
LINE
  5
2B4
330
36
100
AcDbEntity
  8
2-0
  6
Continuous
 62
     7
100
AcDbLine
 10
3090.165429685477
 20
67.85990513247199
 30
0.0
 11
3092.477319102552
 21
63.543667992247
 31
0.0
  0
LINE
  5
2B5
330
36
100
AcDbEntity
  8
2-0
  6
Continuous
 62
     7
100
AcDbLine
 10
3092.477319102552
 20
63.543667992247
 30
0.0
 11
3095.071608932627
 21
59.39103075730699
 31
0.0
  0
LINE
  5
2B6
330
36
100
AcDbEntity
  8
2-0
  6
Continuous
 62
     7
100
AcDbLine
 10
3095.071608932627
 20
59.39103075730699
 30
0.0
 11
3097.936773268481
 21
55.420442758537
 31
0.0
  0
LINE
  5
2B7
330
36
100
AcDbEntity
  8
2-0
  6
Continuous
 62
     7
100
AcDbLine
 10
3097.936773268481
 20
55.420442758537
 30
0.0
 11
3101.060082762022
 21
51.649544518728
 31
0.0
  0
LINE
  5
2B8
330
36
100
AcDbEntity
  8
2-0
  6
Continuous
 62
     7
100
AcDbLine
 10
3101.060082762022
 20
51.649544518728
 30
0.0
 11
3104.42766117821
 21
48.095089379294
 31
0.0
  0
LINE
  5
2B9
330
36
100
AcDbEntity
  8
2-0
  6
Continuous
 62
     7
100
AcDbLine
 10
3104.42766117821
 20
48.095089379294
 30
0.0
 11
3108.024547044382
 21
44.77286906854399
 31
0.0
  0
LINE
  5
2BA
330
36
100
AcDbEntity
  8
2-0
  6
Continuous
 62
     7
100
AcDbLine
 10
3108.024547044382
 20
44.77286906854399
 30
0.0
 11
3111.834760121054
 21
41.69764354221499
 31
0.0
  0
LINE
  5
2BB
330
36
100
AcDbEntity
  8
2-0
  6
Continuous
 62
     7
100
AcDbLine
 10
3111.834760121054
 20
41.69764354221499
 30
0.0
 11
3115.841372398912
 21
38.883075407965
 31
0.0
  0
LINE
  5
2BC
330
36
100
AcDbEntity
  8
2-0
  6
Continuous
 62
     7
100
AcDbLine
 10
3115.841372398912
 20
38.883075407965
 30
0.0
 11
3120.026583306547
 21
36.34166922515201
 31
0.0
  0
LINE
  5
2BD
330
36
100
AcDbEntity
  8
2-0
  6
Continuous
 62
     7
100
AcDbLine
 10
3120.026583306547
 20
36.34166922515201
 30
0.0
 11
3124.371798794806
 21
34.084715949603
 31
0.0
  0
LINE
  5
2BE
330
36
100
AcDbEntity
  8
2-0
  6
Continuous
 62
     7
100
AcDbLine
 10
3124.371798794806
 20
34.084715949603
 30
0.0
 11
3128.857713946411
 21
32.122242770164
 31
0.0
  0
LINE
  5
2BF
330
36
100
AcDbEntity
  8
2-0
  6
Continuous
 62
     7
100
AcDbLine
 10
3128.857713946411
 20
32.122242770164
 30
0.0
 11
3133.464398743818
 21
30.46296855992701
 31
0.0
  0
LINE
  5
2C0
330
36
100
AcDbEntity
  8
2-0
  6
Continuous
 62
     7
100
AcDbLine
 10
3133.464398743818
 20
30.46296855992701
 30
0.0
 11
3138.171386614267
 21
29.114265140025
 31
0.0
  0
LINE
  5
2C1
330
36
100
AcDbEntity
  8
2-0
  6
Continuous
 62
     7
100
AcDbLine
 10
3138.171386614267
 20
29.114265140025
 30
0.0
 11
3142.95776535865
 21
28.082124528121
 31
0.0
  0
LINE
  5
2C2
330
36
100
AcDbEntity
  8
2-0
  6
Continuous
 62
     7
100
AcDbLine
 10
3142.95776535865
 20
28.082124528121
 30
0.0
 11
3147.80227006019
 21
27.371132317079
 31
0.0
  0
LINE
  5
2C3
330
36
100
AcDbEntity
  8
2-0
  6
Continuous
 62
     7
100
AcDbLine
 10
3147.80227006019
 20
27.371132317079
 30
0.0
 11
3152.683377560195
 21
26.984447302096
 31
0.0
  0
LINE
  5
2C4
330
36
100
AcDbEntity
  8
2-0
  6
Continuous
 62
     7
100
AcDbLine
 10
3152.683377560195
 20
26.984447302096
 30
0.0
 11
3157.579402081106
 21
26.923787446816
 31
0.0
  0
LINE
  5
2C5
330
36
100
AcDbEntity
  8
2-0
  6
Continuous
 62
     7
100
AcDbLine
 10
3157.579402081106
 20
26.923787446816
 30
0.0
 11
3162.468591572049
 21
27.189422250757
 31
0.0
  0
LINE
  5
2C6
330
36
100
AcDbEntity
  8
2-0
  6
Continuous
 62
     7
100
AcDbLine
 10
3162.468591572049
 20
27.189422250757
 30
0.0
 11
3167.329224348809
 21
27.780171551986
 31
0.0
  0
LINE
  5
2C7
330
36
100
AcDbEntity
  8
2-0
  6
Continuous
 62
     7
100
AcDbLine
 10
3167.329224348809
 20
27.780171551986
 30
0.0
 11
3172.139705598901
 21
28.693410770335
 31
0.0
  0
LINE
  5
2C8
330
36
100
AcDbEntity
  8
2-0
  6
Continuous
 62
     7
100
AcDbLine
 10
3172.139705598901
 20
28.693410770335
 30
0.0
 11
3176.878663322972
 21
29.925082567886
 31
0.0
  0
LINE
  5
2C9
330
36
100
AcDbEntity
  8
2-0
  6
Continuous
 62
     7
100
AcDbLine
 10
3176.878663322972
 20
29.925082567886
 30
0.0
 11
3181.525043286291
 21
31.469714874903
 31
0.0
  0
LINE
  5
2CA
330
36
100
AcDbEntity
  8
2-0
  6
Continuous
 62
     7
100
AcDbLine
 10
3181.525043286291
 20
31.469714874903
 30
0.0
 11
3186.058202558474
 21
33.320445201139
 31
0.0
  0
LINE
  5
2CB
330
36
100
AcDbEntity
  8
2-0
  6
Continuous
 62
     7
100
AcDbLine
 10
3186.058202558474
 20
33.320445201139
 30
0.0
 11
3190.458001225859
 21
35.469051124496
 31
0.0
  0
LINE
  5
2CC
330
36
100
AcDbEntity
  8
2-0
  6
Continuous
 62
     7
100
AcDbLine
 10
3190.458001225859
 20
35.469051124496
 30
0.0
 11
3194.7048918691
 21
37.905986821591
 31
0.0
  0
LINE
  5
2CD
330
36
100
AcDbEntity
  8
2-0
  6
Continuous
 62
     7
100
AcDbLine
 10
3194.7048918691
 20
37.905986821591
 30
0.0
 11
3198.780006408401
 21
40.620425477924
 31
0.0
  0
LINE
  5
2CE
330
36
100
AcDbEntity
  8
2-0
  6
Continuous
 62
     7
100
AcDbLine
 10
3198.780006408401
 20
40.620425477924
 30
0.0
 11
3202.665239930602
 21
43.600307389242
 31
0.0
  0
LINE
  5
2CF
330
36
100
AcDbEntity
  8
2-0
  6
Continuous
 62
     7
100
AcDbLine
 10
3202.665239930602
 20
43.600307389242
 30
0.0
 11
3206.343331125656
 21
46.832393540365
 31
0.0
  0
LINE
  5
2D0
330
36
100
AcDbEntity
  8
2-0
  6
Continuous
 62
     7
100
AcDbLine
 10
3206.343331125656
 20
46.832393540365
 30
0.0
 11
3209.797938975162
 21
50.302324423475
 31
0.0
  0
LINE
  5
2D1
330
36
100
AcDbEntity
  8
2-0
  6
Continuous
 62
     7
100
AcDbLine
 10
3209.797938975162
 20
50.302324423475
 30
0.0
 11
3213.01371535221
 21
53.994683834509
 31
0.0
  0
LINE
  5
2D2
330
36
100
AcDbEntity
  8
2-0
  6
Continuous
 62
     7
100
AcDbLine
 10
3213.01371535221
 20
53.994683834509
 30
0.0
 11
3215.976373210021
 21
57.89306736425399
 31
0.0
  0
LINE
  5
2D3
330
36
100
AcDbEntity
  8
2-0
  6
Continuous
 62
     7
100
AcDbLine
 10
3215.976373210021
 20
57.89306736425399
 30
0.0
 11
3218.672750056418
 21
61.98015527983
 31
0.0
  0
LINE
  5
2D4
330
36
100
AcDbEntity
  8
2-0
  6
Continuous
 62
     7
100
AcDbLine
 10
3218.672750056418
 20
61.98015527983
 30
0.0
 11
3221.09086643213
 21
66.23778947277799
 31
0.0
  0
LINE
  5
2D5
330
36
100
AcDbEntity
  8
2-0
  6
Continuous
 62
     7
100
AcDbLine
 10
3221.09086643213
 20
66.23778947277799
 30
0.0
 11
3223.219979133111
 21
70.647054131874
 31
0.0
  0
LINE
  5
2D6
330
36
100
AcDbEntity
  8
2-0
  6
Continuous
 62
     7
100
AcDbLine
 10
3223.219979133111
 20
70.647054131874
 30
0.0
 11
3225.050628940442
 21
75.18835978227399
 31
0.0
  0
LINE
  5
2D7
330
36
100
AcDbEntity
  8
2-0
  6
Continuous
 62
     7
100
AcDbLine
 10
3225.050628940442
 20
75.18835978227399
 30
0.0
 11
3226.574682645725
 21
79.84153031760399
 31
0.0
  0
LINE
  5
2D8
330
36
100
AcDbEntity
  8
2-0
  6
Continuous
 62
     7
100
AcDbLine
 10
3226.574682645725
 20
79.84153031760399
 30
0.0
 11
3227.785369185295
 21
84.585892638332
 31
0.0
  0
LINE
  5
2D9
330
36
100
AcDbEntity
  8
2-0
  6
Continuous
 62
     7
100
AcDbLine
 10
3227.785369185295
 20
84.585892638332
 30
0.0
 11
3228.677309722691
 21
89.40036849819401
 31
0.0
  0
LINE
  5
2DA
330
36
100
AcDbEntity
  8
2-0
  6
Continuous
 62
     7
100
AcDbLine
 10
3228.677309722691
 20
89.40036849819401
 30
0.0
 11
3229.246541545746
 21
94.26356815059
 31
0.0
  0
LINE
  5
2DB
330
36
100
AcDbEntity
  8
2-0
  6
Continuous
 62
     7
100
AcDbLine
 10
3229.246541545746
 20
94.26356815059
 30
0.0
 11
3229.490535672112
 21
99.153885378924
 31
0.0
  0
LINE
  5
2DC
330
36
100
AcDbEntity
  8
2-0
  6
Continuous
 62
     7
100
AcDbLine
 10
3229.490535672112
 20
99.153885378924
 30
0.0
 11
3229.500557739858
 21
100.367283036918
 31
0.0
  0
LINE
  5
2DD
330
36
100
AcDbEntity
  8
2-0
  6
Continuous
 62
     7
100
AcDbLine
 10
3229.083544418669
 20
100.367283036918
 30
0.0
 11
3228.921287652029
 21
105.233183049597
 31
0.0
  0
LINE
  5
2DE
330
36
100
AcDbEntity
  8
2-0
  6
Continuous
 62
     7
100
AcDbLine
 10
3228.921287652029
 20
105.233183049597
 30
0.0
 11
3228.435238226245
 21
110.077464848523
 31
0.0
  0
LINE
  5
2DF
330
36
100
AcDbEntity
  8
2-0
  6
Continuous
 62
     7
100
AcDbLine
 10
3228.435238226245
 20
110.077464848523
 30
0.0
 11
3227.627555561023
 21
114.878606265312
 31
0.0
  0
LINE
  5
2E0
330
36
100
AcDbEntity
  8
2-0
  6
Continuous
 62
     7
100
AcDbLine
 10
3227.627555561023
 20
114.878606265312
 30
0.0
 11
3226.501828027776
 21
119.615276795611
 31
0.0
  0
LINE
  5
2E1
330
36
100
AcDbEntity
  8
2-0
  6
Continuous
 62
     7
100
AcDbLine
 10
3226.501828027776
 20
119.615276795611
 30
0.0
 11
3225.063057007212
 21
124.266432366229
 31
0.0
  0
LINE
  5
2E2
330
36
100
AcDbEntity
  8
2-0
  6
Continuous
 62
     7
100
AcDbLine
 10
3225.063057007212
 20
124.266432366229
 30
0.0
 11
3223.317634669201
 21
128.81140882972
 31
0.0
  0
LINE
  5
2E3
330
36
100
AcDbEntity
  8
2-0
  6
Continuous
 62
     7
100
AcDbLine
 10
3223.317634669201
 20
128.81140882972
 30
0.0
 11
3221.27331557366
 21
133.230013771023
 31
0.0
  0
LINE
  5
2E4
330
36
100
AcDbEntity
  8
2-0
  6
Continuous
 62
     7
100
AcDbLine
 10
3221.27331557366
 20
133.230013771023
 30
0.0
 11
3218.9391822186
 21
137.502616218303
 31
0.0
  0
LINE
  5
2E5
330
36
100
AcDbEntity
  8
2-0
  6
Continuous
 62
     7
100
AcDbLine
 10
3218.9391822186
 20
137.502616218303
 30
0.0
 11
3216.325604688418
 21
141.610233859397
 31
0.0
  0
LINE
  5
2E6
330
36
100
AcDbEntity
  8
2-0
  6
Continuous
 62
     7
100
AcDbLine
 10
3216.325604688418
 20
141.610233859397
 30
0.0
 11
3213.4441945817
 21
145.53461737641
 31
0.0
  0
LINE
  5
2E7
330
36
100
AcDbEntity
  8
2-0
  6
Continuous
 62
     7
100
AcDbLine
 10
3213.4441945817
 20
145.53461737641
 30
0.0
 11
3210.307753423227
 21
149.258331523755
 31
0.0
  0
LINE
  5
2E8
330
36
100
AcDbEntity
  8
2-0
  6
Continuous
 62
     7
100
AcDbLine
 10
3210.307753423227
 20
149.258331523755
 30
0.0
 11
3206.930215789382
 21
152.76483258944
 31
0.0
  0
LINE
  5
2E9
330
36
100
AcDbEntity
  8
2-0
  6
Continuous
 62
     7
100
AcDbLine
 10
3206.930215789382
 20
152.76483258944
 30
0.0
 11
3203.326587399625
 21
156.038541895447
 31
0.0
  0
LINE
  5
2EA
330
36
100
AcDbEntity
  8
2-0
  6
Continuous
 62
     7
100
AcDbLine
 10
3203.326587399625
 20
156.038541895447
 30
0.0
 11
3199.512878449115
 21
159.064915010662
 31
0.0
  0
LINE
  5
2EB
330
36
100
AcDbEntity
  8
2-0
  6
Continuous
 62
     7
100
AcDbLine
 10
3199.512878449115
 20
159.064915010662
 30
0.0
 11
3195.506032478631
 21
161.830506368853
 31
0.0
  0
LINE
  5
2EC
330
36
100
AcDbEntity
  8
2-0
  6
Continuous
 62
     7
100
AcDbLine
 10
3195.506032478631
 20
161.830506368853
 30
0.0
 11
3191.323851097829
 21
164.323029004611
 31
0.0
  0
LINE
  5
2ED
330
36
100
AcDbEntity
  8
2-0
  6
Continuous
 62
     7
100
AcDbLine
 10
3191.323851097829
 20
164.323029004611
 30
0.0
 11
3186.984914896285
 21
166.531409141865
 31
0.0
  0
LINE
  5
2EE
330
36
100
AcDbEntity
  8
2-0
  6
Continuous
 62
     7
100
AcDbLine
 10
3186.984914896285
 20
166.531409141865
 30
0.0
 11
3182.508500893672
 21
168.445835392439
 31
0.0
  0
LINE
  5
2EF
330
36
100
AcDbEntity
  8
2-0
  6
Continuous
 62
     7
100
AcDbLine
 10
3182.508500893672
 20
168.445835392439
 30
0.0
 11
3177.914496895841
 21
170.05780234607
 31
0.0
  0
LINE
  5
2F0
330
36
100
AcDbEntity
  8
2-0
  6
Continuous
 62
     7
100
AcDbLine
 10
3177.914496895841
 20
170.05780234607
 30
0.0
 11
3173.223313137313
 21
171.360148358238
 31
0.0
  0
LINE
  5
2F1
330
36
100
AcDbEntity
  8
2-0
  6
Continuous
 62
     7
100
AcDbLine
 10
3173.223313137313
 20
171.360148358238
 30
0.0
 11
3168.455791602713
 21
172.347087367906
 31
0.0
  0
LINE
  5
2F2
330
36
100
AcDbEntity
  8
2-0
  6
Continuous
 62
     7
100
AcDbLine
 10
3168.455791602713
 20
172.347087367906
 30
0.0
 11
3163.63311343003
 21
173.014234603825
 31
0.0
  0
LINE
  5
2F3
330
36
100
AcDbEntity
  8
2-0
  6
Continuous
 62
     7
100
AcDbLine
 10
3163.63311343003
 20
173.014234603825
 30
0.0
 11
3158.776704807084
 21
173.358626065191
 31
0.0
  0
LINE
  5
2F4
330
36
100
AcDbEntity
  8
2-0
  6
Continuous
 62
     7
100
AcDbLine
 10
3158.776704807084
 20
173.358626065191
 30
0.0
 11
3153.908141779297
 21
173.378731690103
 31
0.0
  0
LINE
  5
2F5
330
36
100
AcDbEntity
  8
2-0
  6
Continuous
 62
     7
100
AcDbLine
 10
3153.908141779297
 20
173.378731690103
 30
0.0
 11
3149.049054391664
 21
173.074462153319
 31
0.0
  0
LINE
  5
2F6
330
36
100
AcDbEntity
  8
2-0
  6
Continuous
 62
     7
100
AcDbLine
 10
3149.049054391664
 20
173.074462153319
 30
0.0
 11
3144.221030590813
 21
172.44716926311
 31
0.0
  0
LINE
  5
2F7
330
36
100
AcDbEntity
  8
2-0
  6
Continuous
 62
     7
100
AcDbLine
 10
3144.221030590813
 20
172.44716926311
 30
0.0
 11
3139.44552031412
 21
171.499639955448
 31
0.0
  0
LINE
  5
2F8
330
36
100
AcDbEntity
  8
2-0
  6
Continuous
 62
     7
100
AcDbLine
 10
3139.44552031412
 20
171.499639955448
 30
0.0
 11
3134.743740191944
 21
170.236083912214
 31
0.0
  0
LINE
  5
2F9
330
36
100
AcDbEntity
  8
2-0
  6
Continuous
 62
     7
100
AcDbLine
 10
3134.743740191944
 20
170.236083912214
 30
0.0
 11
3130.13657928642
 21
168.662114858424
 31
0.0
  0
LINE
  5
2FA
330
36
100
AcDbEntity
  8
2-0
  6
Continuous
 62
     7
100
AcDbLine
 10
3130.13657928642
 20
168.662114858424
 30
0.0
 11
3125.644506285557
 21
166.784725621584
 31
0.0
  0
LINE
  5
2FB
330
36
100
AcDbEntity
  8
2-0
  6
Continuous
 62
     7
100
AcDbLine
 10
3125.644506285557
 20
166.784725621584
 30
0.0
 11
3121.287478564986
 21
164.612257063962
 31
0.0
  0
LINE
  5
2FC
330
36
100
AcDbEntity
  8
2-0
  6
Continuous
 62
     7
100
AcDbLine
 10
3121.287478564986
 20
164.612257063962
 30
0.0
 11
3117.084853521352
 21
162.15436102582
 31
0.0
  0
LINE
  5
2FD
330
36
100
AcDbEntity
  8
2-0
  6
Continuous
 62
     7
100
AcDbLine
 10
3117.084853521352
 20
162.15436102582
 30
0.0
 11
3113.055302571308
 21
159.421957444229
 31
0.0
  0
LINE
  5
2FE
330
36
100
AcDbEntity
  8
2-0
  6
Continuous
 62
     7
100
AcDbLine
 10
3113.055302571308
 20
159.421957444229
 30
0.0
 11
3109.216728198164
 21
156.427185837991
 31
0.0
  0
LINE
  5
2FF
330
36
100
AcDbEntity
  8
2-0
  6
Continuous
 62
     7
100
AcDbLine
 10
3109.216728198164
 20
156.427185837991
 30
0.0
 11
3105.586184414762
 21
153.183351374197
 31
0.0
  0
LINE
  5
300
330
36
100
AcDbEntity
  8
2-0
  6
Continuous
 62
     7
100
AcDbLine
 10
3105.586184414762
 20
153.183351374197
 30
0.0
 11
3102.179800995932
 21
149.704865756056
 31
0.0
  0
LINE
  5
301
330
36
100
AcDbEntity
  8
2-0
  6
Continuous
 62
     7
100
AcDbLine
 10
3102.179800995932
 20
149.704865756056
 30
0.0
 11
3099.012711817151
 21
146.007183194594
 31
0.0
  0
LINE
  5
302
330
36
100
AcDbEntity
  8
2-0
  6
Continuous
 62
     7
100
AcDbLine
 10
3099.012711817151
 20
146.007183194594
 30
0.0
 11
3096.098987617779
 21
142.10673174871
 31
0.0
  0
LINE
  5
303
330
36
100
AcDbEntity
  8
2-0
  6
Continuous
 62
     7
100
AcDbLine
 10
3096.098987617779
 20
142.10673174871
 30
0.0
 11
3093.451573487607
 21
138.020840338617
 31
0.0
  0
LINE
  5
304
330
36
100
AcDbEntity
  8
2-0
  6
Continuous
 62
     7
100
AcDbLine
 10
3093.451573487607
 20
138.020840338617
 30
0.0
 11
3091.082231354418
 21
133.767661756944
 31
0.0
  0
LINE
  5
305
330
36
100
AcDbEntity
  8
2-0
  6
Continuous
 62
     7
100
AcDbLine
 10
3091.082231354418
 20
133.767661756944
 30
0.0
 11
3089.001487728121
 21
129.36609201953
 31
0.0
  0
LINE
  5
306
330
36
100
AcDbEntity
  8
2-0
  6
Continuous
 62
     7
100
AcDbLine
 10
3089.001487728121
 20
129.36609201953
 30
0.0
 11
3087.218586933577
 21
124.83568641423
 31
0.0
  0
LINE
  5
307
330
36
100
AcDbEntity
  8
2-0
  6
Continuous
 62
     7
100
AcDbLine
 10
3087.218586933577
 20
124.83568641423
 30
0.0
 11
3085.74145003994
 21
120.196572620717
 31
0.0
  0
LINE
  5
308
330
36
100
AcDbEntity
  8
2-0
  6
Continuous
 62
     7
100
AcDbLine
 10
3085.74145003994
 20
120.196572620717
 30
0.0
 11
3084.576639668929
 21
115.469361287247
 31
0.0
  0
LINE
  5
309
330
36
100
AcDbEntity
  8
2-0
  6
Continuous
 62
     7
100
AcDbLine
 10
3084.576639668929
 20
115.469361287247
 30
0.0
 11
3083.729330838425
 21
110.675054461702
 31
0.0
  0
LINE
  5
30A
330
36
100
AcDbEntity
  8
2-0
  6
Continuous
 62
     7
100
AcDbLine
 10
3083.729330838425
 20
110.675054461702
 30
0.0
 11
3083.203287970914
 21
105.834952283726
 31
0.0
  0
LINE
  5
30B
330
36
100
AcDbEntity
  8
2-0
  6
Continuous
 62
     7
100
AcDbLine
 10
3083.203287970914
 20
105.834952283726
 30
0.0
 11
3083.000848168909
 21
100.970558352487
 31
0.0
  0
LINE
  5
30C
330
36
100
AcDbEntity
  8
2-0
  6
Continuous
 62
     7
100
AcDbLine
 10
3083.000848168909
 20
100.970558352487
 30
0.0
 11
3083.12291083168
 21
96.10348419052099
 31
0.0
  0
LINE
  5
30D
330
36
100
AcDbEntity
  8
2-0
  6
Continuous
 62
     7
100
AcDbLine
 10
3083.12291083168
 20
96.10348419052099
 30
0.0
 11
3083.568933659398
 21
91.255353228092
 31
0.0
  0
LINE
  5
30E
330
36
100
AcDbEntity
  8
2-0
  6
Continuous
 62
     7
100
AcDbLine
 10
3083.568933659398
 20
91.255353228092
 30
0.0
 11
3084.33693506247
 21
86.44770473464001
 31
0.0
  0
LINE
  5
30F
330
36
100
AcDbEntity
  8
2-0
  6
Continuous
 62
     7
100
AcDbLine
 10
3084.33693506247
 20
86.44770473464001
 30
0.0
 11
3085.423502965341
 21
81.70189812415101
 31
0.0
  0
LINE
  5
310
330
36
100
AcDbEntity
  8
2-0
  6
Continuous
 62
     7
100
AcDbLine
 10
3085.423502965341
 20
81.70189812415101
 30
0.0
 11
3086.823809965653
 21
77.03901805957901
 31
0.0
  0
LINE
  5
311
330
36
100
AcDbEntity
  8
2-0
  6
Continuous
 62
     7
100
AcDbLine
 10
3086.823809965653
 20
77.03901805957901
 30
0.0
 11
3088.531634781432
 21
72.479780777936
 31
0.0
  0
LINE
  5
312
330
36
100
AcDbEntity
  8
2-0
  6
Continuous
 62
     7
100
AcDbLine
 10
3088.531634781432
 20
72.479780777936
 30
0.0
 11
3090.539389890977
 21
68.04444205222499
 31
0.0
  0
LINE
  5
313
330
36
100
AcDbEntity
  8
2-0
  6
Continuous
 62
     7
100
AcDbLine
 10
3090.539389890977
 20
68.04444205222499
 30
0.0
 11
3092.838155242707
 21
63.752707199115
 31
0.0
  0
LINE
  5
314
330
36
100
AcDbEntity
  8
2-0
  6
Continuous
 62
     7
100
AcDbLine
 10
3092.838155242707
 20
63.752707199115
 30
0.0
 11
3095.417717885138
 21
59.623643532196
 31
0.0
  0
LINE
  5
315
330
36
100
AcDbEntity
  8
2-0
  6
Continuous
 62
     7
100
AcDbLine
 10
3095.417717885138
 20
59.623643532196
 30
0.0
 11
3098.266617340981
 21
55.675595649735
 31
0.0
  0
LINE
  5
316
330
36
100
AcDbEntity
  8
2-0
  6
Continuous
 62
     7
100
AcDbLine
 10
3098.266617340981
 20
55.675595649735
 30
0.0
 11
3101.372196523727
 21
51.926103933329
 31
0.0
  0
LINE
  5
317
330
36
100
AcDbEntity
  8
2-0
  6
Continuous
 62
     7
100
AcDbLine
 10
3101.372196523727
 20
51.926103933329
 30
0.0
 11
3104.720657970537
 21
48.39182661951899
 31
0.0
  0
LINE
  5
318
330
36
100
AcDbEntity
  8
2-0
  6
Continuous
 62
     7
100
AcDbLine
 10
3104.720657970537
 20
48.39182661951899
 30
0.0
 11
3108.297125141593
 21
45.08846579059699
 31
0.0
  0
LINE
  5
319
330
36
100
AcDbEntity
  8
2-0
  6
Continuous
 62
     7
100
AcDbLine
 10
3108.297125141593
 20
45.08846579059699
 30
0.0
 11
3112.085708513561
 21
42.030697613423
 31
0.0
  0
LINE
  5
31A
330
36
100
AcDbEntity
  8
2-0
  6
Continuous
 62
     7
100
AcDbLine
 10
3112.085708513561
 20
42.030697613423
 30
0.0
 11
3116.069576173549
 21
39.232107136166
 31
0.0
  0
LINE
  5
31B
330
36
100
AcDbEntity
  8
2-0
  6
Continuous
 62
     7
100
AcDbLine
 10
3116.069576173549
 20
39.232107136166
 30
0.0
 11
3120.231028599903
 21
36.705127932675
 31
0.0
  0
LINE
  5
31C
330
36
100
AcDbEntity
  8
2-0
  6
Continuous
 62
     7
100
AcDbLine
 10
3120.231028599903
 20
36.705127932675
 30
0.0
 11
3124.55157729762
 21
34.460986862611
 31
0.0
  0
LINE
  5
31D
330
36
100
AcDbEntity
  8
2-0
  6
Continuous
 62
     7
100
AcDbLine
 10
3124.55157729762
 20
34.460986862611
 30
0.0
 11
3129.012026939002
 21
32.509654192773
 31
0.0
  0
LINE
  5
31E
330
36
100
AcDbEntity
  8
2-0
  6
Continuous
 62
     7
100
AcDbLine
 10
3129.012026939002
 20
32.509654192773
 30
0.0
 11
3133.592560644638
 21
30.859799301211
 31
0.0
  0
LINE
  5
31F
330
36
100
AcDbEntity
  8
2-0
  6
Continuous
 62
     7
100
AcDbLine
 10
3133.592560644638
 20
30.859799301211
 30
0.0
 11
3138.272828025804
 21
29.518752160924
 31
0.0
  0
LINE
  5
320
330
36
100
AcDbEntity
  8
2-0
  6
Continuous
 62
     7
100
AcDbLine
 10
3138.272828025804
 20
29.518752160924
 30
0.0
 11
3143.032035597142
 21
28.492470774265
 31
0.0
  0
LINE
  5
321
330
36
100
AcDbEntity
  8
2-0
  6
Continuous
 62
     7
100
AcDbLine
 10
3143.032035597142
 20
28.492470774265
 30
0.0
 11
3147.849039157927
 21
27.785514702741
 31
0.0
  0
LINE
  5
322
330
36
100
AcDbEntity
  8
2-0
  6
Continuous
 62
     7
100
AcDbLine
 10
3147.849039157927
 20
27.785514702741
 30
0.0
 11
3152.702437731495
 21
27.40102480979401
 31
0.0
  0
LINE
  5
323
330
36
100
AcDbEntity
  8
2-0
  6
Continuous
 62
     7
100
AcDbLine
 10
3152.702437731495
 20
27.40102480979401
 30
0.0
 11
3157.570668645466
 21
27.340709306583
 31
0.0
  0
LINE
  5
324
330
36
100
AcDbEntity
  8
2-0
  6
Continuous
 62
     7
100
AcDbLine
 10
3157.570668645466
 20
27.340709306583
 30
0.0
 11
3162.432103330365
 21
27.60483616274
 31
0.0
  0
LINE
  5
325
330
36
100
AcDbEntity
  8
2-0
  6
Continuous
 62
     7
100
AcDbLine
 10
3162.432103330365
 20
27.60483616274
 30
0.0
 11
3167.265143410989
 21
28.192231915838
 31
0.0
  0
LINE
  5
326
330
36
100
AcDbEntity
  8
2-0
  6
Continuous
 62
     7
100
AcDbLine
 10
3167.265143410989
 20
28.192231915838
 30
0.0
 11
3172.048316663647
 21
29.10028688485
 31
0.0
  0
LINE
  5
327
330
36
100
AcDbEntity
  8
2-0
  6
Continuous
 62
     7
100
AcDbLine
 10
3172.048316663647
 20
29.10028688485
 30
0.0
 11
3176.760372412916
 21
30.324966764433
 31
0.0
  0
LINE
  5
328
330
36
100
AcDbEntity
  8
2-0
  6
Continuous
 62
     7
100
AcDbLine
 10
3176.760372412916
 20
30.324966764433
 30
0.0
 11
3181.380375944123
 21
31.860830548534
 31
0.0
  0
LINE
  5
329
330
36
100
AcDbEntity
  8
2-0
  6
Continuous
 62
     7
100
AcDbLine
 10
3181.380375944123
 20
31.860830548534
 30
0.0
 11
3185.887801512058
 21
33.701054703688
 31
0.0
  0
LINE
  5
32A
330
36
100
AcDbEntity
  8
2-0
  6
Continuous
 62
     7
100
AcDbLine
 10
3185.887801512058
 20
33.701054703688
 30
0.0
 11
3190.262623532727
 21
35.837463484599
 31
0.0
  0
LINE
  5
32B
330
36
100
AcDbEntity
  8
2-0
  6
Continuous
 62
     7
100
AcDbLine
 10
3190.262623532727
 20
35.837463484599
 30
0.0
 11
3194.485405552992
 21
38.26056525733
 31
0.0
  0
LINE
  5
32C
330
36
100
AcDbEntity
  8
2-0
  6
Continuous
 62
     7
100
AcDbLine
 10
3194.485405552992
 20
38.26056525733
 30
0.0
 11
3198.537386602815
 21
40.95959466872399
 31
0.0
  0
LINE
  5
32D
330
36
100
AcDbEntity
  8
2-0
  6
Continuous
 62
     7
100
AcDbLine
 10
3198.537386602815
 20
40.95959466872399
 30
0.0
 11
3202.400564546469
 21
43.922560474695
 31
0.0
  0
LINE
  5
32E
330
36
100
AcDbEntity
  8
2-0
  6
Continuous
 62
     7
100
AcDbLine
 10
3202.400564546469
 20
43.922560474695
 30
0.0
 11
3206.057776062403
 21
47.13629881491701
 31
0.0
  0
LINE
  5
32F
330
36
100
AcDbEntity
  8
2-0
  6
Continuous
 62
     7
100
AcDbLine
 10
3206.057776062403
 20
47.13629881491701
 30
0.0
 11
3209.492772896423
 21
50.586531697197
 31
0.0
  0
LINE
  5
330
330
36
100
AcDbEntity
  8
2-0
  6
Continuous
 62
     7
100
AcDbLine
 10
3209.492772896423
 20
50.586531697197
 30
0.0
 11
3212.690294049411
 21
54.25793043172499
 31
0.0
  0
LINE
  5
331
330
36
100
AcDbEntity
  8
2-0
  6
Continuous
 62
     7
100
AcDbLine
 10
3212.690294049411
 20
54.25793043172499
 30
0.0
 11
3215.636133578872
 21
58.13418373335
 31
0.0
  0
LINE
  5
332
330
36
100
AcDbEntity
  8
2-0
  6
Continuous
 62
     7
100
AcDbLine
 10
3215.636133578872
 20
58.13418373335
 30
0.0
 11
3218.317203713077
 21
62.19807018934
 31
0.0
  0
LINE
  5
333
330
36
100
AcDbEntity
  8
2-0
  6
Continuous
 62
     7
100
AcDbLine
 10
3218.317203713077
 20
62.19807018934
 30
0.0
 11
3220.72159299739
 21
66.431534770647
 31
0.0
  0
LINE
  5
334
330
36
100
AcDbEntity
  8
2-0
  6
Continuous
 62
     7
100
AcDbLine
 10
3220.72159299739
 20
66.431534770647
 30
0.0
 11
3222.838619214474
 21
70.815769046765
 31
0.0
  0
LINE
  5
335
330
36
100
AcDbEntity
  8
2-0
  6
Continuous
 62
     7
100
AcDbLine
 10
3222.838619214474
 20
70.815769046765
 30
0.0
 11
3224.658876843218
 21
75.3312947478
 31
0.0
  0
LINE
  5
336
330
36
100
AcDbEntity
  8
2-0
  6
Continuous
 62
     7
100
AcDbLine
 10
3224.658876843218
 20
75.3312947478
 30
0.0
 11
3226.174278845581
 21
79.95805030249901
 31
0.0
  0
LINE
  5
337
330
36
100
AcDbEntity
  8
2-0
  6
Continuous
 62
     7
100
AcDbLine
 10
3226.174278845581
 20
79.95805030249901
 30
0.0
 11
3227.378092595674
 21
84.67547996777199
 31
0.0
  0
LINE
  5
338
330
36
100
AcDbEntity
  8
2-0
  6
Continuous
 62
     7
100
AcDbLine
 10
3227.378092595674
 20
84.67547996777199
 30
0.0
 11
3228.264969791454
 21
89.46262515371699
 31
0.0
  0
LINE
  5
339
330
36
100
AcDbEntity
  8
2-0
  6
Continuous
 62
     7
100
AcDbLine
 10
3228.264969791454
 20
89.46262515371699
 30
0.0
 11
3228.830970216161
 21
94.29821753841499
 31
0.0
  0
LINE
  5
33A
330
36
100
AcDbEntity
  8
2-0
  6
Continuous
 62
     7
100
AcDbLine
 10
3228.830970216161
 20
94.29821753841499
 30
0.0
 11
3229.0735792439
 21
99.16077355879801
 31
0.0
  0
LINE
  5
33B
330
36
100
AcDbEntity
  8
2-0
  6
Continuous
 62
     7
100
AcDbLine
 10
3229.0735792439
 20
99.16077355879801
 30
0.0
 11
3229.083544418669
 21
100.367283036918
 31
0.0
  0
LINE
  5
33C
330
36
100
AcDbEntity
  8
2-0
  6
Continuous
 62
     7
100
AcDbLine
 10
3228.666531097479
 20
100.367283036918
 30
0.0
 11
3228.505200683939
 21
105.205402750192
 31
0.0
  0
LINE
  5
33D
330
36
100
AcDbEntity
  8
2-0
  6
Continuous
 62
     7
100
AcDbLine
 10
3228.505200683939
 20
105.205402750192
 30
0.0
 11
3228.021926201852
 21
110.022027671989
 31
0.0
  0
LINE
  5
33E
330
36
100
AcDbEntity
  8
2-0
  6
Continuous
 62
     7
100
AcDbLine
 10
3228.021926201852
 20
110.022027671989
 30
0.0
 11
3227.21885474241
 21
114.795758507859
 31
0.0
  0
LINE
  5
33F
330
36
100
AcDbEntity
  8
2-0
  6
Continuous
 62
     7
100
AcDbLine
 10
3227.21885474241
 20
114.795758507859
 30
0.0
 11
3226.099554190368
 21
119.505386533139
 31
0.0
  0
LINE
  5
340
330
36
100
AcDbEntity
  8
2-0
  6
Continuous
 62
     7
100
AcDbLine
 10
3226.099554190368
 20
119.505386533139
 30
0.0
 11
3224.668997372648
 21
124.129987819043
 31
0.0
  0
LINE
  5
341
330
36
100
AcDbEntity
  8
2-0
  6
Continuous
 62
     7
100
AcDbLine
 10
3224.668997372648
 20
124.129987819043
 30
0.0
 11
3222.933539965073
 21
128.649016193461
 31
0.0
  0
LINE
  5
342
330
36
100
AcDbEntity
  8
2-0
  6
Continuous
 62
     7
100
AcDbLine
 10
3222.933539965073
 20
128.649016193461
 30
0.0
 11
3220.900892255382
 21
133.04239452347
 31
0.0
  0
LINE
  5
343
330
36
100
AcDbEntity
  8
2-0
  6
Continuous
 62
     7
100
AcDbLine
 10
3220.900892255382
 20
133.04239452347
 30
0.0
 11
3218.580084887968
 21
137.290603913984
 31
0.0
  0
LINE
  5
344
330
36
100
AcDbEntity
  8
2-0
  6
Continuous
 62
     7
100
AcDbLine
 10
3218.580084887968
 20
137.290603913984
 30
0.0
 11
3215.981428742548
 21
141.374770426282
 31
0.0
  0
LINE
  5
345
330
36
100
AcDbEntity
  8
2-0
  6
Continuous
 62
     7
100
AcDbLine
 10
3215.981428742548
 20
141.374770426282
 30
0.0
 11
3213.116469125002
 21
145.276748931108
 31
0.0
  0
LINE
  5
346
330
36
100
AcDbEntity
  8
2-0
  6
Continuous
 62
     7
100
AcDbLine
 10
3213.116469125002
 20
145.276748931108
 30
0.0
 11
3209.997934473901
 21
148.979203723834
 31
0.0
  0
LINE
  5
347
330
36
100
AcDbEntity
  8
2-0
  6
Continuous
 62
     7
100
AcDbLine
 10
3209.997934473901
 20
148.979203723834
 30
0.0
 11
3206.639679810621
 21
152.465685543498
 31
0.0
  0
LINE
  5
348
330
36
100
AcDbEntity
  8
2-0
  6
Continuous
 62
     7
100
AcDbLine
 10
3206.639679810621
 20
152.465685543498
 30
0.0
 11
3203.056625184269
 21
155.72070465356
 31
0.0
  0
LINE
  5
349
330
36
100
AcDbEntity
  8
2-0
  6
Continuous
 62
     7
100
AcDbLine
 10
3203.056625184269
 20
155.72070465356
 30
0.0
 11
3199.264689384916
 21
158.729799659683
 31
0.0
  0
LINE
  5
34A
330
36
100
AcDbEntity
  8
2-0
  6
Continuous
 62
     7
100
AcDbLine
 10
3199.264689384916
 20
158.729799659683
 30
0.0
 11
3195.280719219614
 21
161.479601758793
 31
0.0
  0
LINE
  5
34B
330
36
100
AcDbEntity
  8
2-0
  6
Continuous
 62
     7
100
AcDbLine
 10
3195.280719219614
 20
161.479601758793
 30
0.0
 11
3191.122414665427
 21
163.95789413398
 31
0.0
  0
LINE
  5
34C
330
36
100
AcDbEntity
  8
2-0
  6
Continuous
 62
     7
100
AcDbLine
 10
3191.122414665427
 20
163.95789413398
 30
0.0
 11
3186.808250231996
 21
166.153666231354
 31
0.0
  0
LINE
  5
34D
330
36
100
AcDbEntity
  8
2-0
  6
Continuous
 62
     7
100
AcDbLine
 10
3186.808250231996
 20
166.153666231354
 30
0.0
 11
3182.357392883018
 21
168.057162677721
 31
0.0
  0
LINE
  5
34E
330
36
100
AcDbEntity
  8
2-0
  6
Continuous
 62
     7
100
AcDbLine
 10
3182.357392883018
 20
168.057162677721
 30
0.0
 11
3177.789616881282
 21
169.659926621737
 31
0.0
  0
LINE
  5
34F
330
36
100
AcDbEntity
  8
2-0
  6
Continuous
 62
     7
100
AcDbLine
 10
3177.789616881282
 20
169.659926621737
 30
0.0
 11
3173.125215935602
 21
170.954837306
 31
0.0
  0
LINE
  5
350
330
36
100
AcDbEntity
  8
2-0
  6
Continuous
 62
     7
100
AcDbLine
 10
3173.125215935602
 20
170.954837306
 30
0.0
 11
3168.384913039959
 21
171.936141703137
 31
0.0
  0
LINE
  5
351
330
36
100
AcDbEntity
  8
2-0
  6
Continuous
 62
     7
100
AcDbLine
 10
3168.384913039959
 20
171.936141703137
 30
0.0
 11
3163.589768405412
 21
172.599480075349
 31
0.0
  0
LINE
  5
352
330
36
100
AcDbEntity
  8
2-0
  6
Continuous
 62
     7
100
AcDbLine
 10
3163.589768405412
 20
172.599480075349
 30
0.0
 11
3158.761085893818
 21
172.941905343846
 31
0.0
  0
LINE
  5
353
330
36
100
AcDbEntity
  8
2-0
  6
Continuous
 62
     7
100
AcDbLine
 10
3158.761085893818
 20
172.941905343846
 30
0.0
 11
3153.920318369069
 21
172.961896182125
 31
0.0
  0
LINE
  5
354
330
36
100
AcDbEntity
  8
2-0
  6
Continuous
 62
     7
100
AcDbLine
 10
3153.920318369069
 20
172.961896182125
 30
0.0
 11
3149.088972386338
 21
172.6593637749179
 31
0.0
  0
LINE
  5
355
330
36
100
AcDbEntity
  8
2-0
  6
Continuous
 62
     7
100
AcDbLine
 10
3149.088972386338
 20
172.6593637749179
 30
0.0
 11
3144.288512642778
 21
172.035652212779
 31
0.0
  0
LINE
  5
356
330
36
100
AcDbEntity
  8
2-0
  6
Continuous
 62
     7
100
AcDbLine
 10
3144.288512642778
 20
172.035652212779
 30
0.0
 11
3139.54026661421
 21
171.093532520563
 31
0.0
  0
LINE
  5
357
330
36
100
AcDbEntity
  8
2-0
  6
Continuous
 62
     7
100
AcDbLine
 10
3139.54026661421
 20
171.093532520563
 30
0.0
 11
3134.865329801429
 21
169.837190346315
 31
0.0
  0
LINE
  5
358
330
36
100
AcDbEntity
  8
2-0
  6
Continuous
 62
     7
100
AcDbLine
 10
3134.865329801429
 20
169.837190346315
 30
0.0
 11
3130.284472007154
 21
168.272207365288
 31
0.0
  0
LINE
  5
359
330
36
100
AcDbEntity
  8
2-0
  6
Continuous
 62
     7
100
AcDbLine
 10
3130.284472007154
 20
168.272207365288
 30
0.0
 11
3125.818045059969
 21
166.405536481674
 31
0.0
  0
LINE
  5
35A
330
36
100
AcDbEntity
  8
2-0
  6
Continuous
 62
     7
100
AcDbLine
 10
3125.818045059969
 20
166.405536481674
 30
0.0
 11
3121.48589239525
 21
164.245470938257
 31
0.0
  0
LINE
  5
35B
330
36
100
AcDbEntity
  8
2-0
  6
Continuous
 62
     7
100
AcDbLine
 10
3121.48589239525
 20
164.245470938257
 30
0.0
 11
3117.307260894783
 21
161.801607471205
 31
0.0
  0
LINE
  5
35C
330
36
100
AcDbEntity
  8
2-0
  6
Continuous
 62
     7
100
AcDbLine
 10
3117.307260894783
 20
161.801607471205
 30
0.0
 11
3113.300715376739
 21
159.084803673702
 31
0.0
  0
LINE
  5
35D
330
36
100
AcDbEntity
  8
2-0
  6
Continuous
 62
     7
100
AcDbLine
 10
3113.300715376739
 20
159.084803673702
 30
0.0
 11
3109.484056115926
 21
156.107129757851
 31
0.0
  0
LINE
  5
35E
330
36
100
AcDbEntity
  8
2-0
  6
Continuous
 62
     7
100
AcDbLine
 10
3109.484056115926
 20
156.107129757851
 30
0.0
 11
3105.874239760758
 21
152.881814929148
 31
0.0
  0
LINE
  5
35F
330
36
100
AcDbEntity
  8
2-0
  6
Continuous
 62
     7
100
AcDbLine
 10
3105.874239760758
 20
152.881814929148
 30
0.0
 11
3102.487303998274
 21
149.423188611793
 31
0.0
  0
LINE
  5
360
330
36
100
AcDbEntity
  8
2-0
  6
Continuous
 62
     7
100
AcDbLine
 10
3102.487303998274
 20
149.423188611793
 30
0.0
 11
3099.338296301932
 21
145.746616785939
 31
0.0
  0
LINE
  5
361
330
36
100
AcDbEntity
  8
2-0
  6
Continuous
 62
     7
100
AcDbLine
 10
3099.338296301932
 20
145.746616785939
 30
0.0
 11
3096.441207078707
 21
141.868433719737
 31
0.0
  0
LINE
  5
362
330
36
100
AcDbEntity
  8
2-0
  6
Continuous
 62
     7
100
AcDbLine
 10
3096.441207078707
 20
141.868433719737
 30
0.0
 11
3093.808907512541
 21
137.805869399476
 31
0.0
  0
LINE
  5
363
330
36
100
AcDbEntity
  8
2-0
  6
Continuous
 62
     7
100
AcDbLine
 10
3093.808907512541
 20
137.805869399476
 30
0.0
 11
3091.453092380251
 21
133.576972980222
 31
0.0
  0
LINE
  5
364
330
36
100
AcDbEntity
  8
2-0
  6
Continuous
 62
     7
100
AcDbLine
 10
3091.453092380251
 20
133.576972980222
 30
0.0
 11
3089.384228094008
 21
129.200532597055
 31
0.0
  0
LINE
  5
365
330
36
100
AcDbEntity
  8
2-0
  6
Continuous
 62
     7
100
AcDbLine
 10
3089.384228094008
 20
129.200532597055
 30
0.0
 11
3087.611506201159
 21
124.695991893175
 31
0.0
  0
LINE
  5
366
330
36
100
AcDbEntity
  8
2-0
  6
Continuous
 62
     7
100
AcDbLine
 10
3087.611506201159
 20
124.695991893175
 30
0.0
 11
3086.142802548045
 21
120.083363635702
 31
0.0
  0
LINE
  5
367
330
36
100
AcDbEntity
  8
2-0
  6
Continuous
 62
     7
100
AcDbLine
 10
3086.142802548045
 20
120.083363635702
 30
0.0
 11
3084.984642289196
 21
115.383140802992
 31
0.0
  0
LINE
  5
368
330
36
100
AcDbEntity
  8
2-0
  6
Continuous
 62
     7
100
AcDbLine
 10
3084.984642289196
 20
115.383140802992
 30
0.0
 11
3084.142170897385
 21
110.616205538455
 31
0.0
  0
LINE
  5
369
330
36
100
AcDbEntity
  8
2-0
  6
Continuous
 62
     7
100
AcDbLine
 10
3084.142170897385
 20
110.616205538455
 30
0.0
 11
3083.619131303332
 21
105.803736375399
 31
0.0
  0
LINE
  5
36A
330
36
100
AcDbEntity
  8
2-0
  6
Continuous
 62
     7
100
AcDbLine
 10
3083.619131303332
 20
105.803736375399
 30
0.0
 11
3083.417847266612
 21
100.967114145075
 31
0.0
  0
LINE
  5
36B
330
36
100
AcDbEntity
  8
2-0
  6
Continuous
 62
     7
100
AcDbLine
 10
3083.417847266612
 20
100.967114145075
 30
0.0
 11
3083.53921305166
 21
96.12782698594401
 31
0.0
  0
LINE
  5
36C
330
36
100
AcDbEntity
  8
2-0
  6
Continuous
 62
     7
100
AcDbLine
 10
3083.53921305166
 20
96.12782698594401
 30
0.0
 11
3083.982689454737
 21
91.30737487621201
 31
0.0
  0
LINE
  5
36D
330
36
100
AcDbEntity
  8
2-0
  6
Continuous
 62
     7
100
AcDbLine
 10
3083.982689454737
 20
91.30737487621201
 30
0.0
 11
3084.7463061995
 21
86.52717411375098
 31
0.0
  0
LINE
  5
36E
330
36
100
AcDbEntity
  8
2-0
  6
Continuous
 62
     7
100
AcDbLine
 10
3084.7463061995
 20
86.52717411375098
 30
0.0
 11
3085.826670690548
 21
81.808462167808
 31
0.0
  0
LINE
  5
36F
330
36
100
AcDbEntity
  8
2-0
  6
Continuous
 62
     7
100
AcDbLine
 10
3085.826670690548
 20
81.808462167808
 30
0.0
 11
3087.218983086036
 21
77.172203325198
 31
0.0
  0
LINE
  5
370
330
36
100
AcDbEntity
  8
2-0
  6
Continuous
 62
     7
100
AcDbLine
 10
3087.218983086036
 20
77.172203325198
 30
0.0
 11
3088.917057622401
 21
72.638995550206
 31
0.0
  0
LINE
  5
371
330
36
100
AcDbEntity
  8
2-0
  6
Continuous
 62
     7
100
AcDbLine
 10
3088.917057622401
 20
72.638995550206
 30
0.0
 11
3090.913350096478
 21
68.22897897197799
 31
0.0
  0
LINE
  5
372
330
36
100
AcDbEntity
  8
2-0
  6
Continuous
 62
     7
100
AcDbLine
 10
3090.913350096478
 20
68.22897897197799
 30
0.0
 11
3093.198991382862
 21
63.961746405984
 31
0.0
  0
LINE
  5
373
330
36
100
AcDbEntity
  8
2-0
  6
Continuous
 62
     7
100
AcDbLine
 10
3093.198991382862
 20
63.961746405984
 30
0.0
 11
3095.76382683765
 21
59.85625630708399
 31
0.0
  0
LINE
  5
374
330
36
100
AcDbEntity
  8
2-0
  6
Continuous
 62
     7
100
AcDbLine
 10
3095.76382683765
 20
59.85625630708399
 30
0.0
 11
3098.59646141348
 21
55.93074854093299
 31
0.0
  0
LINE
  5
375
330
36
100
AcDbEntity
  8
2-0
  6
Continuous
 62
     7
100
AcDbLine
 10
3098.59646141348
 20
55.93074854093299
 30
0.0
 11
3101.684310285431
 21
52.202663347931
 31
0.0
  0
LINE
  5
376
330
36
100
AcDbEntity
  8
2-0
  6
Continuous
 62
     7
100
AcDbLine
 10
3101.684310285431
 20
52.202663347931
 30
0.0
 11
3105.013654762864
 21
48.688563859743
 31
0.0
  0
LINE
  5
377
330
36
100
AcDbEntity
  8
2-0
  6
Continuous
 62
     7
100
AcDbLine
 10
3105.013654762864
 20
48.688563859743
 30
0.0
 11
3108.569703238804
 21
45.40406251264999
 31
0.0
  0
LINE
  5
378
330
36
100
AcDbEntity
  8
2-0
  6
Continuous
 62
     7
100
AcDbLine
 10
3108.569703238804
 20
45.40406251264999
 30
0.0
 11
3112.336656906068
 21
42.363751684631
 31
0.0
  0
LINE
  5
379
330
36
100
AcDbEntity
  8
2-0
  6
Continuous
 62
     7
100
AcDbLine
 10
3112.336656906068
 20
42.363751684631
 30
0.0
 11
3116.297779948186
 21
39.581138864368
 31
0.0
  0
LINE
  5
37A
330
36
100
AcDbEntity
  8
2-0
  6
Continuous
 62
     7
100
AcDbLine
 10
3116.297779948186
 20
39.581138864368
 30
0.0
 11
3120.43547389326
 21
37.068586640198
 31
0.0
  0
LINE
  5
37B
330
36
100
AcDbEntity
  8
2-0
  6
Continuous
 62
     7
100
AcDbLine
 10
3120.43547389326
 20
37.068586640198
 30
0.0
 11
3124.731355800433
 21
34.837257775619
 31
0.0
  0
LINE
  5
37C
330
36
100
AcDbEntity
  8
2-0
  6
Continuous
 62
     7
100
AcDbLine
 10
3124.731355800433
 20
34.837257775619
 30
0.0
 11
3129.166339931593
 21
32.897065615382
 31
0.0
  0
LINE
  5
37D
330
36
100
AcDbEntity
  8
2-0
  6
Continuous
 62
     7
100
AcDbLine
 10
3129.166339931593
 20
32.897065615382
 30
0.0
 11
3133.720722545459
 21
31.256630042495
 31
0.0
  0
LINE
  5
37E
330
36
100
AcDbEntity
  8
2-0
  6
Continuous
 62
     7
100
AcDbLine
 10
3133.720722545459
 20
31.256630042495
 30
0.0
 11
3138.374269437341
 21
29.923239181822
 31
0.0
  0
LINE
  5
37F
330
36
100
AcDbEntity
  8
2-0
  6
Continuous
 62
     7
100
AcDbLine
 10
3138.374269437341
 20
29.923239181822
 30
0.0
 11
3143.106305835635
 21
28.902817020409
 31
0.0
  0
LINE
  5
380
330
36
100
AcDbEntity
  8
2-0
  6
Continuous
 62
     7
100
AcDbLine
 10
3143.106305835635
 20
28.902817020409
 30
0.0
 11
3147.895808255664
 21
28.199897088403
 31
0.0
  0
LINE
  5
381
330
36
100
AcDbEntity
  8
2-0
  6
Continuous
 62
     7
100
AcDbLine
 10
3147.895808255664
 20
28.199897088403
 30
0.0
 11
3152.721497902794
 21
27.817602317493
 31
0.0
  0
LINE
  5
382
330
36
100
AcDbEntity
  8
2-0
  6
Continuous
 62
     7
100
AcDbLine
 10
3152.721497902794
 20
27.817602317493
 30
0.0
 11
3157.561935209826
 21
27.75763116635
 31
0.0
  0
LINE
  5
383
330
36
100
AcDbEntity
  8
2-0
  6
Continuous
 62
     7
100
AcDbLine
 10
3157.561935209826
 20
27.75763116635
 30
0.0
 11
3162.39561508868
 21
28.020250074722
 31
0.0
  0
LINE
  5
384
330
36
100
AcDbEntity
  8
2-0
  6
Continuous
 62
     7
100
AcDbLine
 10
3162.39561508868
 20
28.020250074722
 30
0.0
 11
3167.201062473169
 21
28.60429227969
 31
0.0
  0
LINE
  5
385
330
36
100
AcDbEntity
  8
2-0
  6
Continuous
 62
     7
100
AcDbLine
 10
3167.201062473169
 20
28.60429227969
 30
0.0
 11
3171.956927728392
 21
29.507162999365
 31
0.0
  0
LINE
  5
386
330
36
100
AcDbEntity
  8
2-0
  6
Continuous
 62
     7
100
AcDbLine
 10
3171.956927728392
 20
29.507162999365
 30
0.0
 11
3176.64208150286
 21
30.72485096098
 31
0.0
  0
LINE
  5
387
330
36
100
AcDbEntity
  8
2-0
  6
Continuous
 62
     7
100
AcDbLine
 10
3176.64208150286
 20
30.72485096098
 30
0.0
 11
3181.235708601955
 21
32.251946222165
 31
0.0
  0
LINE
  5
388
330
36
100
AcDbEntity
  8
2-0
  6
Continuous
 62
     7
100
AcDbLine
 10
3181.235708601955
 20
32.251946222165
 30
0.0
 11
3185.717400465643
 21
34.081664206237
 31
0.0
  0
LINE
  5
389
330
36
100
AcDbEntity
  8
2-0
  6
Continuous
 62
     7
100
AcDbLine
 10
3185.717400465643
 20
34.081664206237
 30
0.0
 11
3190.067245839595
 21
36.205875844702
 31
0.0
  0
LINE
  5
38A
330
36
100
AcDbEntity
  8
2-0
  6
Continuous
 62
     7
100
AcDbLine
 10
3190.067245839595
 20
36.205875844702
 30
0.0
 11
3194.265919236885
 21
38.615143693069
 31
0.0
  0
LINE
  5
38B
330
36
100
AcDbEntity
  8
2-0
  6
Continuous
 62
     7
100
AcDbLine
 10
3194.265919236885
 20
38.615143693069
 30
0.0
 11
3198.294766797229
 21
41.29876385952299
 31
0.0
  0
LINE
  5
38C
330
36
100
AcDbEntity
  8
2-0
  6
Continuous
 62
     7
100
AcDbLine
 10
3198.294766797229
 20
41.29876385952299
 30
0.0
 11
3202.135889162336
 21
44.244813560149
 31
0.0
  0
LINE
  5
38D
330
36
100
AcDbEntity
  8
2-0
  6
Continuous
 62
     7
100
AcDbLine
 10
3202.135889162336
 20
44.244813560149
 30
0.0
 11
3205.77222099915
 21
47.440204089468
 31
0.0
  0
LINE
  5
38E
330
36
100
AcDbEntity
  8
2-0
  6
Continuous
 62
     7
100
AcDbLine
 10
3205.77222099915
 20
47.440204089468
 30
0.0
 11
3209.187606817683
 21
50.870738970919
 31
0.0
  0
LINE
  5
38F
330
36
100
AcDbEntity
  8
2-0
  6
Continuous
 62
     7
100
AcDbLine
 10
3209.187606817683
 20
50.870738970919
 30
0.0
 11
3212.366872746612
 21
54.52117702894
 31
0.0
  0
LINE
  5
390
330
36
100
AcDbEntity
  8
2-0
  6
Continuous
 62
     7
100
AcDbLine
 10
3212.366872746612
 20
54.52117702894
 30
0.0
 11
3215.295893947724
 21
58.375300102446
 31
0.0
  0
LINE
  5
391
330
36
100
AcDbEntity
  8
2-0
  6
Continuous
 62
     7
100
AcDbLine
 10
3215.295893947724
 20
58.375300102446
 30
0.0
 11
3217.961657369736
 21
62.41598509885
 31
0.0
  0
LINE
  5
392
330
36
100
AcDbEntity
  8
2-0
  6
Continuous
 62
     7
100
AcDbLine
 10
3217.961657369736
 20
62.41598509885
 30
0.0
 11
3220.352319562653
 21
66.625280068517
 31
0.0
  0
LINE
  5
393
330
36
100
AcDbEntity
  8
2-0
  6
Continuous
 62
     7
100
AcDbLine
 10
3220.352319562653
 20
66.625280068517
 30
0.0
 11
3222.457259295837
 21
70.984483961656
 31
0.0
  0
LINE
  5
394
330
36
100
AcDbEntity
  8
2-0
  6
Continuous
 62
     7
100
AcDbLine
 10
3222.457259295837
 20
70.984483961656
 30
0.0
 11
3224.267124745993
 21
75.474229713326
 31
0.0
  0
LINE
  5
395
330
36
100
AcDbEntity
  8
2-0
  6
Continuous
 62
     7
100
AcDbLine
 10
3224.267124745993
 20
75.474229713326
 30
0.0
 11
3225.773875045437
 21
80.074570287395
 31
0.0
  0
LINE
  5
396
330
36
100
AcDbEntity
  8
2-0
  6
Continuous
 62
     7
100
AcDbLine
 10
3225.773875045437
 20
80.074570287395
 30
0.0
 11
3226.970816006053
 21
84.765067297213
 31
0.0
  0
LINE
  5
397
330
36
100
AcDbEntity
  8
2-0
  6
Continuous
 62
     7
100
AcDbLine
 10
3226.970816006053
 20
84.765067297213
 30
0.0
 11
3227.852629860216
 21
89.52488180924101
 31
0.0
  0
LINE
  5
398
330
36
100
AcDbEntity
  8
2-0
  6
Continuous
 62
     7
100
AcDbLine
 10
3227.852629860216
 20
89.52488180924101
 30
0.0
 11
3228.415398886575
 21
94.332866926239
 31
0.0
  0
LINE
  5
399
330
36
100
AcDbEntity
  8
2-0
  6
Continuous
 62
     7
100
AcDbLine
 10
3228.415398886575
 20
94.332866926239
 30
0.0
 11
3228.656622815687
 21
99.16766173867301
 31
0.0
  0
LINE
  5
39A
330
36
100
AcDbEntity
  8
2-0
  6
Continuous
 62
     7
100
AcDbLine
 10
3228.656622815687
 20
99.16766173867301
 30
0.0
 11
3228.666531097479
 21
100.367283036918
 31
0.0
  0
LINE
  5
39B
330
36
100
AcDbEntity
  8
2-0
  6
Continuous
 62
     7
100
AcDbLine
 10
3228.249517776289
 20
100.367283036918
 30
0.0
 11
3228.089113715848
 21
105.177622450788
 31
0.0
  0
LINE
  5
39C
330
36
100
AcDbEntity
  8
2-0
  6
Continuous
 62
     7
100
AcDbLine
 10
3228.089113715848
 20
105.177622450788
 30
0.0
 11
3227.608614177459
 21
109.966590495455
 31
0.0
  0
LINE
  5
39D
330
36
100
AcDbEntity
  8
2-0
  6
Continuous
 62
     7
100
AcDbLine
 10
3227.608614177459
 20
109.966590495455
 30
0.0
 11
3226.810153923798
 21
114.712910750406
 31
0.0
  0
LINE
  5
39E
330
36
100
AcDbEntity
  8
2-0
  6
Continuous
 62
     7
100
AcDbLine
 10
3226.810153923798
 20
114.712910750406
 30
0.0
 11
3225.697280352959
 21
119.395496270667
 31
0.0
  0
LINE
  5
39F
330
36
100
AcDbEntity
  8
2-0
  6
Continuous
 62
     7
100
AcDbLine
 10
3225.697280352959
 20
119.395496270667
 30
0.0
 11
3224.274937738084
 21
123.993543271856
 31
0.0
  0
LINE
  5
3A0
330
36
100
AcDbEntity
  8
2-0
  6
Continuous
 62
     7
100
AcDbLine
 10
3224.274937738084
 20
123.993543271856
 30
0.0
 11
3222.549445260946
 21
128.486623557203
 31
0.0
  0
LINE
  5
3A1
330
36
100
AcDbEntity
  8
2-0
  6
Continuous
 62
     7
100
AcDbLine
 10
3222.549445260946
 20
128.486623557203
 30
0.0
 11
3220.528468937104
 21
132.854775275916
 31
0.0
  0
LINE
  5
3A2
330
36
100
AcDbEntity
  8
2-0
  6
Continuous
 62
     7
100
AcDbLine
 10
3220.528468937104
 20
132.854775275916
 30
0.0
 11
3218.220987557336
 21
137.078591609666
 31
0.0
  0
LINE
  5
3A3
330
36
100
AcDbEntity
  8
2-0
  6
Continuous
 62
     7
100
AcDbLine
 10
3218.220987557336
 20
137.078591609666
 30
0.0
 11
3215.637252796678
 21
141.139306993166
 31
0.0
  0
LINE
  5
3A4
330
36
100
AcDbEntity
  8
2-0
  6
Continuous
 62
     7
100
AcDbLine
 10
3215.637252796678
 20
141.139306993166
 30
0.0
 11
3212.788743668305
 21
145.018880485807
 31
0.0
  0
LINE
  5
3A5
330
36
100
AcDbEntity
  8
2-0
  6
Continuous
 62
     7
100
AcDbLine
 10
3212.788743668305
 20
145.018880485807
 30
0.0
 11
3209.688115524576
 21
148.700075923913
 31
0.0
  0
LINE
  5
3A6
330
36
100
AcDbEntity
  8
2-0
  6
Continuous
 62
     7
100
AcDbLine
 10
3209.688115524576
 20
148.700075923913
 30
0.0
 11
3206.349143831861
 21
152.166538497556
 31
0.0
  0
LINE
  5
3A7
330
36
100
AcDbEntity
  8
2-0
  6
Continuous
 62
     7
100
AcDbLine
 10
3206.349143831861
 20
152.166538497556
 30
0.0
 11
3202.786662968915
 21
155.402867411674
 31
0.0
  0
LINE
  5
3A8
330
36
100
AcDbEntity
  8
2-0
  6
Continuous
 62
     7
100
AcDbLine
 10
3202.786662968915
 20
155.402867411674
 30
0.0
 11
3199.016500320717
 21
158.394684308704
 31
0.0
  0
LINE
  5
3A9
330
36
100
AcDbEntity
  8
2-0
  6
Continuous
 62
     7
100
AcDbLine
 10
3199.016500320717
 20
158.394684308704
 30
0.0
 11
3195.055405960598
 21
161.128697148733
 31
0.0
  0
LINE
  5
3AA
330
36
100
AcDbEntity
  8
2-0
  6
Continuous
 62
     7
100
AcDbLine
 10
3195.055405960598
 20
161.128697148733
 30
0.0
 11
3190.920978233025
 21
163.592759263349
 31
0.0
  0
LINE
  5
3AB
330
36
100
AcDbEntity
  8
2-0
  6
Continuous
 62
     7
100
AcDbLine
 10
3190.920978233025
 20
163.592759263349
 30
0.0
 11
3186.631585567707
 21
165.775923320843
 31
0.0
  0
LINE
  5
3AC
330
36
100
AcDbEntity
  8
2-0
  6
Continuous
 62
     7
100
AcDbLine
 10
3186.631585567707
 20
165.775923320843
 30
0.0
 11
3182.206284872365
 21
167.668489963003
 31
0.0
  0
LINE
  5
3AD
330
36
100
AcDbEntity
  8
2-0
  6
Continuous
 62
     7
100
AcDbLine
 10
3182.206284872365
 20
167.668489963003
 30
0.0
 11
3177.664736866722
 21
169.262050897404
 31
0.0
  0
LINE
  5
3AE
330
36
100
AcDbEntity
  8
2-0
  6
Continuous
 62
     7
100
AcDbLine
 10
3177.664736866722
 20
169.262050897404
 30
0.0
 11
3173.02711873389
 21
170.549526253762
 31
0.0
  0
LINE
  5
3AF
330
36
100
AcDbEntity
  8
2-0
  6
Continuous
 62
     7
100
AcDbLine
 10
3173.02711873389
 20
170.549526253762
 30
0.0
 11
3168.314034477206
 21
171.525196038369
 31
0.0
  0
LINE
  5
3B0
330
36
100
AcDbEntity
  8
2-0
  6
Continuous
 62
     7
100
AcDbLine
 10
3168.314034477206
 20
171.525196038369
 30
0.0
 11
3163.546423380795
 21
172.184725546874
 31
0.0
  0
LINE
  5
3B1
330
36
100
AcDbEntity
  8
2-0
  6
Continuous
 62
     7
100
AcDbLine
 10
3163.546423380795
 20
172.184725546874
 30
0.0
 11
3158.745466980553
 21
172.525184622501
 31
0.0
  0
LINE
  5
3B2
330
36
100
AcDbEntity
  8
2-0
  6
Continuous
 62
     7
100
AcDbLine
 10
3158.745466980553
 20
172.525184622501
 30
0.0
 11
3153.932494958841
 21
172.545060674147
 31
0.0
  0
LINE
  5
3B3
330
36
100
AcDbEntity
  8
2-0
  6
Continuous
 62
     7
100
AcDbLine
 10
3153.932494958841
 20
172.545060674147
 30
0.0
 11
3149.128890381011
 21
172.244265396517
 31
0.0
  0
LINE
  5
3B4
330
36
100
AcDbEntity
  8
2-0
  6
Continuous
 62
     7
100
AcDbLine
 10
3149.128890381011
 20
172.244265396517
 30
0.0
 11
3144.355994694742
 21
171.624135162449
 31
0.0
  0
LINE
  5
3B5
330
36
100
AcDbEntity
  8
2-0
  6
Continuous
 62
     7
100
AcDbLine
 10
3144.355994694742
 20
171.624135162449
 30
0.0
 11
3139.635012914299
 21
170.687425085677
 31
0.0
  0
LINE
  5
3B6
330
36
100
AcDbEntity
  8
2-0
  6
Continuous
 62
     7
100
AcDbLine
 10
3139.635012914299
 20
170.687425085677
 30
0.0
 11
3134.986919410914
 21
169.438296780417
 31
0.0
  0
LINE
  5
3B7
330
36
100
AcDbEntity
  8
2-0
  6
Continuous
 62
     7
100
AcDbLine
 10
3134.986919410914
 20
169.438296780417
 30
0.0
 11
3130.432364727889
 21
167.882299872152
 31
0.0
  0
LINE
  5
3B8
330
36
100
AcDbEntity
  8
2-0
  6
Continuous
 62
     7
100
AcDbLine
 10
3130.432364727889
 20
167.882299872152
 30
0.0
 11
3125.991583834379
 21
166.026347341764
 31
0.0
  0
LINE
  5
3B9
330
36
100
AcDbEntity
  8
2-0
  6
Continuous
 62
     7
100
AcDbLine
 10
3125.991583834379
 20
166.026347341764
 30
0.0
 11
3121.684306225514
 21
163.878684812552
 31
0.0
  0
LINE
  5
3BA
330
36
100
AcDbEntity
  8
2-0
  6
Continuous
 62
     7
100
AcDbLine
 10
3121.684306225514
 20
163.878684812552
 30
0.0
 11
3117.529668268214
 21
161.44885391659
 31
0.0
  0
LINE
  5
3BB
330
36
100
AcDbEntity
  8
2-0
  6
Continuous
 62
     7
100
AcDbLine
 10
3117.529668268214
 20
161.44885391659
 30
0.0
 11
3113.54612818217
 21
158.7476499031749
 31
0.0
  0
LINE
  5
3BC
330
36
100
AcDbEntity
  8
2-0
  6
Continuous
 62
     7
100
AcDbLine
 10
3113.54612818217
 20
158.7476499031749
 30
0.0
 11
3109.751384033689
 21
155.78707367771
 31
0.0
  0
LINE
  5
3BD
330
36
100
AcDbEntity
  8
2-0
  6
Continuous
 62
     7
100
AcDbLine
 10
3109.751384033689
 20
155.78707367771
 30
0.0
 11
3106.162295106753
 21
152.580278484099
 31
0.0
  0
LINE
  5
3BE
330
36
100
AcDbEntity
  8
2-0
  6
Continuous
 62
     7
100
AcDbLine
 10
3106.162295106753
 20
152.580278484099
 30
0.0
 11
3102.794807000616
 21
149.14151146753
 31
0.0
  0
LINE
  5
3BF
330
36
100
AcDbEntity
  8
2-0
  6
Continuous
 62
     7
100
AcDbLine
 10
3102.794807000616
 20
149.14151146753
 30
0.0
 11
3099.663880786712
 21
145.486050377283
 31
0.0
  0
LINE
  5
3C0
330
36
100
AcDbEntity
  8
2-0
  6
Continuous
 62
     7
100
AcDbLine
 10
3099.663880786712
 20
145.486050377283
 30
0.0
 11
3096.783426539634
 21
141.630135690764
 31
0.0
  0
LINE
  5
3C1
330
36
100
AcDbEntity
  8
2-0
  6
Continuous
 62
     7
100
AcDbLine
 10
3096.783426539634
 20
141.630135690764
 30
0.0
 11
3094.166241537472
 21
137.590898460335
 31
0.0
  0
LINE
  5
3C2
330
36
100
AcDbEntity
  8
2-0
  6
Continuous
 62
     7
100
AcDbLine
 10
3094.166241537472
 20
137.590898460335
 30
0.0
 11
3091.823953406084
 21
133.386284203499
 31
0.0
  0
LINE
  5
3C3
330
36
100
AcDbEntity
  8
2-0
  6
Continuous
 62
     7
100
AcDbLine
 10
3091.823953406084
 20
133.386284203499
 30
0.0
 11
3089.766968459895
 21
129.034973174581
 31
0.0
  0
LINE
  5
3C4
330
36
100
AcDbEntity
  8
2-0
  6
Continuous
 62
     7
100
AcDbLine
 10
3089.766968459895
 20
129.034973174581
 30
0.0
 11
3088.00442546874
 21
124.556297372119
 31
0.0
  0
LINE
  5
3C5
330
36
100
AcDbEntity
  8
2-0
  6
Continuous
 62
     7
100
AcDbLine
 10
3088.00442546874
 20
124.556297372119
 30
0.0
 11
3086.544155056149
 21
119.970154650687
 31
0.0
  0
LINE
  5
3C6
330
36
100
AcDbEntity
  8
2-0
  6
Continuous
 62
     7
100
AcDbLine
 10
3086.544155056149
 20
119.970154650687
 30
0.0
 11
3085.392644909463
 21
115.296920318737
 31
0.0
  0
LINE
  5
3C7
330
36
100
AcDbEntity
  8
2-0
  6
Continuous
 62
     7
100
AcDbLine
 10
3085.392644909463
 20
115.296920318737
 30
0.0
 11
3084.555010956346
 21
110.557356615207
 31
0.0
  0
LINE
  5
3C8
330
36
100
AcDbEntity
  8
2-0
  6
Continuous
 62
     7
100
AcDbLine
 10
3084.555010956346
 20
110.557356615207
 30
0.0
 11
3084.034974635751
 21
105.772520467073
 31
0.0
  0
LINE
  5
3C9
330
36
100
AcDbEntity
  8
2-0
  6
Continuous
 62
     7
100
AcDbLine
 10
3084.034974635751
 20
105.772520467073
 30
0.0
 11
3083.834846364315
 21
100.963669937663
 31
0.0
  0
LINE
  5
3CA
330
36
100
AcDbEntity
  8
2-0
  6
Continuous
 62
     7
100
AcDbLine
 10
3083.834846364315
 20
100.963669937663
 30
0.0
 11
3083.955515271641
 21
96.15216978136601
 31
0.0
  0
LINE
  5
3CB
330
36
100
AcDbEntity
  8
2-0
  6
Continuous
 62
     7
100
AcDbLine
 10
3083.955515271641
 20
96.15216978136601
 30
0.0
 11
3084.396445250077
 21
91.359396524331
 31
0.0
  0
LINE
  5
3CC
330
36
100
AcDbEntity
  8
2-0
  6
Continuous
 62
     7
100
AcDbLine
 10
3084.396445250077
 20
91.359396524331
 30
0.0
 11
3085.155677336531
 21
86.606643492863
 31
0.0
  0
LINE
  5
3CD
330
36
100
AcDbEntity
  8
2-0
  6
Continuous
 62
     7
100
AcDbLine
 10
3085.155677336531
 20
86.606643492863
 30
0.0
 11
3086.229838415756
 21
81.91502621146499
 31
0.0
  0
LINE
  5
3CE
330
36
100
AcDbEntity
  8
2-0
  6
Continuous
 62
     7
100
AcDbLine
 10
3086.229838415756
 20
81.91502621146499
 30
0.0
 11
3087.614156206416
 21
77.30538859081601
 31
0.0
  0
LINE
  5
3CF
330
36
100
AcDbEntity
  8
2-0
  6
Continuous
 62
     7
100
AcDbLine
 10
3087.614156206416
 20
77.30538859081601
 30
0.0
 11
3089.30248046337
 21
72.798210322475
 31
0.0
  0
LINE
  5
3D0
330
36
100
AcDbEntity
  8
2-0
  6
Continuous
 62
     7
100
AcDbLine
 10
3089.30248046337
 20
72.798210322475
 30
0.0
 11
3091.287310301979
 21
68.41351589173
 31
0.0
  0
LINE
  5
3D1
330
36
100
AcDbEntity
  8
2-0
  6
Continuous
 62
     7
100
AcDbLine
 10
3091.287310301979
 20
68.41351589173
 30
0.0
 11
3093.559827523016
 21
64.170785612852
 31
0.0
  0
LINE
  5
3D2
330
36
100
AcDbEntity
  8
2-0
  6
Continuous
 62
     7
100
AcDbLine
 10
3093.559827523016
 20
64.170785612852
 30
0.0
 11
3096.109935790162
 21
60.088869081972
 31
0.0
  0
LINE
  5
3D3
330
36
100
AcDbEntity
  8
2-0
  6
Continuous
 62
     7
100
AcDbLine
 10
3096.109935790162
 20
60.088869081972
 30
0.0
 11
3098.926305485978
 21
56.185901432132
 31
0.0
  0
LINE
  5
3D4
330
36
100
AcDbEntity
  8
2-0
  6
Continuous
 62
     7
100
AcDbLine
 10
3098.926305485978
 20
56.185901432132
 30
0.0
 11
3101.996424047135
 21
52.47922276253199
 31
0.0
  0
LINE
  5
3D5
330
36
100
AcDbEntity
  8
2-0
  6
Continuous
 62
     7
100
AcDbLine
 10
3101.996424047135
 20
52.47922276253199
 30
0.0
 11
3105.306651555191
 21
48.98530109996801
 31
0.0
  0
LINE
  5
3D6
330
36
100
AcDbEntity
  8
2-0
  6
Continuous
 62
     7
100
AcDbLine
 10
3105.306651555191
 20
48.98530109996801
 30
0.0
 11
3108.842281336014
 21
45.719659234704
 31
0.0
  0
LINE
  5
3D7
330
36
100
AcDbEntity
  8
2-0
  6
Continuous
 62
     7
100
AcDbLine
 10
3108.842281336014
 20
45.719659234704
 30
0.0
 11
3112.587605298575
 21
42.696805755838
 31
0.0
  0
LINE
  5
3D8
330
36
100
AcDbEntity
  8
2-0
  6
Continuous
 62
     7
100
AcDbLine
 10
3112.587605298575
 20
42.696805755838
 30
0.0
 11
3116.525983722822
 21
39.93017059257
 31
0.0
  0
LINE
  5
3D9
330
36
100
AcDbEntity
  8
2-0
  6
Continuous
 62
     7
100
AcDbLine
 10
3116.525983722822
 20
39.93017059257
 30
0.0
 11
3120.639919186616
 21
37.432045347721
 31
0.0
  0
LINE
  5
3DA
330
36
100
AcDbEntity
  8
2-0
  6
Continuous
 62
     7
100
AcDbLine
 10
3120.639919186616
 20
37.432045347721
 30
0.0
 11
3124.911134303247
 21
35.213528688627
 31
0.0
  0
LINE
  5
3DB
330
36
100
AcDbEntity
  8
2-0
  6
Continuous
 62
     7
100
AcDbLine
 10
3124.911134303247
 20
35.213528688627
 30
0.0
 11
3129.320652924183
 21
33.28447703799
 31
0.0
  0
LINE
  5
3DC
330
36
100
AcDbEntity
  8
2-0
  6
Continuous
 62
     7
100
AcDbLine
 10
3129.320652924183
 20
33.28447703799
 30
0.0
 11
3133.84888444628
 21
31.653460783779
 31
0.0
  0
LINE
  5
3DD
330
36
100
AcDbEntity
  8
2-0
  6
Continuous
 62
     7
100
AcDbLine
 10
3133.84888444628
 20
31.653460783779
 30
0.0
 11
3138.475710848878
 21
30.32772620272
 31
0.0
  0
LINE
  5
3DE
330
36
100
AcDbEntity
  8
2-0
  6
Continuous
 62
     7
100
AcDbLine
 10
3138.475710848878
 20
30.32772620272
 30
0.0
 11
3143.180576074128
 21
29.313163266552
 31
0.0
  0
LINE
  5
3DF
330
36
100
AcDbEntity
  8
2-0
  6
Continuous
 62
     7
100
AcDbLine
 10
3143.180576074128
 20
29.313163266552
 30
0.0
 11
3147.942577353401
 21
28.614279474065
 31
0.0
  0
LINE
  5
3E0
330
36
100
AcDbEntity
  8
2-0
  6
Continuous
 62
     7
100
AcDbLine
 10
3147.942577353401
 20
28.614279474065
 30
0.0
 11
3152.740558074093
 21
28.234179825191
 31
0.0
  0
LINE
  5
3E1
330
36
100
AcDbEntity
  8
2-0
  6
Continuous
 62
     7
100
AcDbLine
 10
3152.740558074093
 20
28.234179825191
 30
0.0
 11
3157.553201774185
 21
28.174553026118
 31
0.0
  0
LINE
  5
3E2
330
36
100
AcDbEntity
  8
2-0
  6
Continuous
 62
     7
100
AcDbLine
 10
3157.553201774185
 20
28.174553026118
 30
0.0
 11
3162.359126846995
 21
28.435663986705
 31
0.0
  0
LINE
  5
3E3
330
36
100
AcDbEntity
  8
2-0
  6
Continuous
 62
     7
100
AcDbLine
 10
3162.359126846995
 20
28.435663986705
 30
0.0
 11
3167.13698153535
 21
29.016352643542
 31
0.0
  0
LINE
  5
3E4
330
36
100
AcDbEntity
  8
2-0
  6
Continuous
 62
     7
100
AcDbLine
 10
3167.13698153535
 20
29.016352643542
 30
0.0
 11
3171.865538793137
 21
29.91403911388
 31
0.0
  0
LINE
  5
3E5
330
36
100
AcDbEntity
  8
2-0
  6
Continuous
 62
     7
100
AcDbLine
 10
3171.865538793137
 20
29.91403911388
 30
0.0
 11
3176.523790592804
 21
31.124735157527
 31
0.0
  0
LINE
  5
3E6
330
36
100
AcDbEntity
  8
2-0
  6
Continuous
 62
     7
100
AcDbLine
 10
3176.523790592804
 20
31.124735157527
 30
0.0
 11
3181.091041259787
 21
32.64306189579599
 31
0.0
  0
LINE
  5
3E7
330
36
100
AcDbEntity
  8
2-0
  6
Continuous
 62
     7
100
AcDbLine
 10
3181.091041259787
 20
32.64306189579599
 30
0.0
 11
3185.546999419228
 21
34.462273708786
 31
0.0
  0
LINE
  5
3E8
330
36
100
AcDbEntity
  8
2-0
  6
Continuous
 62
     7
100
AcDbLine
 10
3185.546999419228
 20
34.462273708786
 30
0.0
 11
3189.871868146463
 21
36.574288204804
 31
0.0
  0
LINE
  5
3E9
330
36
100
AcDbEntity
  8
2-0
  6
Continuous
 62
     7
100
AcDbLine
 10
3189.871868146463
 20
36.574288204804
 30
0.0
 11
3194.046432920777
 21
38.969722128809
 31
0.0
  0
LINE
  5
3EA
330
36
100
AcDbEntity
  8
2-0
  6
Continuous
 62
     7
100
AcDbLine
 10
3194.046432920777
 20
38.969722128809
 30
0.0
 11
3198.052146991643
 21
41.63793305032199
 31
0.0
  0
LINE
  5
3EB
330
36
100
AcDbEntity
  8
2-0
  6
Continuous
 62
     7
100
AcDbLine
 10
3198.052146991643
 20
41.63793305032199
 30
0.0
 11
3201.871213778204
 21
44.567066645602
 31
0.0
  0
LINE
  5
3EC
330
36
100
AcDbEntity
  8
2-0
  6
Continuous
 62
     7
100
AcDbLine
 10
3201.871213778204
 20
44.567066645602
 30
0.0
 11
3205.486665935897
 21
47.74410936402
 31
0.0
  0
LINE
  5
3ED
330
36
100
AcDbEntity
  8
2-0
  6
Continuous
 62
     7
100
AcDbLine
 10
3205.486665935897
 20
47.74410936402
 30
0.0
 11
3208.882440738945
 21
51.154946244642
 31
0.0
  0
LINE
  5
3EE
330
36
100
AcDbEntity
  8
2-0
  6
Continuous
 62
     7
100
AcDbLine
 10
3208.882440738945
 20
51.154946244642
 30
0.0
 11
3212.043451443813
 21
54.784423626156
 31
0.0
  0
LINE
  5
3EF
330
36
100
AcDbEntity
  8
2-0
  6
Continuous
 62
     7
100
AcDbLine
 10
3212.043451443813
 20
54.784423626156
 30
0.0
 11
3214.955654316576
 21
58.616416471542
 31
0.0
  0
LINE
  5
3F0
330
36
100
AcDbEntity
  8
2-0
  6
Continuous
 62
     7
100
AcDbLine
 10
3214.955654316576
 20
58.616416471542
 30
0.0
 11
3217.606111026395
 21
62.63390000836
 31
0.0
  0
LINE
  5
3F1
330
36
100
AcDbEntity
  8
2-0
  6
Continuous
 62
     7
100
AcDbLine
 10
3217.606111026395
 20
62.63390000836
 30
0.0
 11
3219.983046127914
 21
66.819025366386
 31
0.0
  0
LINE
  5
3F2
330
36
100
AcDbEntity
  8
2-0
  6
Continuous
 62
     7
100
AcDbLine
 10
3219.983046127914
 20
66.819025366386
 30
0.0
 11
3222.0758993772
 21
71.153198876548
 31
0.0
  0
LINE
  5
3F3
330
36
100
AcDbEntity
  8
2-0
  6
Continuous
 62
     7
100
AcDbLine
 10
3222.0758993772
 20
71.153198876548
 30
0.0
 11
3223.875372648769
 21
75.61716467885199
 31
0.0
  0
LINE
  5
3F4
330
36
100
AcDbEntity
  8
2-0
  6
Continuous
 62
     7
100
AcDbLine
 10
3223.875372648769
 20
75.61716467885199
 30
0.0
 11
3225.373471245293
 21
80.19109027229101
 31
0.0
  0
LINE
  5
3F5
330
36
100
AcDbEntity
  8
2-0
  6
Continuous
 62
     7
100
AcDbLine
 10
3225.373471245293
 20
80.19109027229101
 30
0.0
 11
3226.563539416432
 21
84.85465462665301
 31
0.0
  0
LINE
  5
3F6
330
36
100
AcDbEntity
  8
2-0
  6
Continuous
 62
     7
100
AcDbLine
 10
3226.563539416432
 20
84.85465462665301
 30
0.0
 11
3227.440289928979
 21
89.58713846476401
 31
0.0
  0
LINE
  5
3F7
330
36
100
AcDbEntity
  8
2-0
  6
Continuous
 62
     7
100
AcDbLine
 10
3227.440289928979
 20
89.58713846476401
 30
0.0
 11
3227.99982755699
 21
94.367516314064
 31
0.0
  0
LINE
  5
3F8
330
36
100
AcDbEntity
  8
2-0
  6
Continuous
 62
     7
100
AcDbLine
 10
3227.99982755699
 20
94.367516314064
 30
0.0
 11
3228.239666387475
 21
99.174549918547
 31
0.0
  0
LINE
  5
3F9
330
36
100
AcDbEntity
  8
2-0
  6
Continuous
 62
     7
100
AcDbLine
 10
3228.239666387475
 20
99.174549918547
 30
0.0
 11
3228.249517776289
 21
100.367283036918
 31
0.0
  0
LINE
  5
3FA
330
36
100
AcDbEntity
  8
2-0
  6
Continuous
 62
     7
100
AcDbLine
 10
3227.832504455101
 20
100.367283036918
 30
0.0
 11
3227.673026747758
 21
105.149842151383
 31
0.0
  0
LINE
  5
3FB
330
36
100
AcDbEntity
  8
2-0
  6
Continuous
 62
     7
100
AcDbLine
 10
3227.673026747758
 20
105.149842151383
 30
0.0
 11
3227.195302153066
 21
109.911153318921
 31
0.0
  0
LINE
  5
3FC
330
36
100
AcDbEntity
  8
2-0
  6
Continuous
 62
     7
100
AcDbLine
 10
3227.195302153066
 20
109.911153318921
 30
0.0
 11
3226.401453105185
 21
114.630062992952
 31
0.0
  0
LINE
  5
3FD
330
36
100
AcDbEntity
  8
2-0
  6
Continuous
 62
     7
100
AcDbLine
 10
3226.401453105185
 20
114.630062992952
 30
0.0
 11
3225.295006515551
 21
119.285606008195
 31
0.0
  0
LINE
  5
3FE
330
36
100
AcDbEntity
  8
2-0
  6
Continuous
 62
     7
100
AcDbLine
 10
3225.295006515551
 20
119.285606008195
 30
0.0
 11
3223.88087810352
 21
123.857098724669
 31
0.0
  0
LINE
  5
3FF
330
36
100
AcDbEntity
  8
2-0
  6
Continuous
 62
     7
100
AcDbLine
 10
3223.88087810352
 20
123.857098724669
 30
0.0
 11
3222.165350556819
 21
128.324230920944
 31
0.0
  0
LINE
  5
400
330
36
100
AcDbEntity
  8
2-0
  6
Continuous
 62
     7
100
AcDbLine
 10
3222.165350556819
 20
128.324230920944
 30
0.0
 11
3220.156045618826
 21
132.667156028363
 31
0.0
  0
LINE
  5
401
330
36
100
AcDbEntity
  8
2-0
  6
Continuous
 62
     7
100
AcDbLine
 10
3220.156045618826
 20
132.667156028363
 30
0.0
 11
3217.861890226703
 21
136.866579305347
 31
0.0
  0
LINE
  5
402
330
36
100
AcDbEntity
  8
2-0
  6
Continuous
 62
     7
100
AcDbLine
 10
3217.861890226703
 20
136.866579305347
 30
0.0
 11
3215.293076850809
 21
140.903843560051
 31
0.0
  0
LINE
  5
403
330
36
100
AcDbEntity
  8
2-0
  6
Continuous
 62
     7
100
AcDbLine
 10
3215.293076850809
 20
140.903843560051
 30
0.0
 11
3212.461018211609
 21
144.761012040505
 31
0.0
  0
LINE
  5
404
330
36
100
AcDbEntity
  8
2-0
  6
Continuous
 62
     7
100
AcDbLine
 10
3212.461018211609
 20
144.761012040505
 30
0.0
 11
3209.378296575251
 21
148.420948123992
 31
0.0
  0
LINE
  5
405
330
36
100
AcDbEntity
  8
2-0
  6
Continuous
 62
     7
100
AcDbLine
 10
3209.378296575251
 20
148.420948123992
 30
0.0
 11
3206.058607853102
 21
151.867391451614
 31
0.0
  0
LINE
  5
406
330
36
100
AcDbEntity
  8
2-0
  6
Continuous
 62
     7
100
AcDbLine
 10
3206.058607853102
 20
151.867391451614
 30
0.0
 11
3202.516700753558
 21
155.085030169787
 31
0.0
  0
LINE
  5
407
330
36
100
AcDbEntity
  8
2-0
  6
Continuous
 62
     7
100
AcDbLine
 10
3202.516700753558
 20
155.085030169787
 30
0.0
 11
3198.768311256518
 21
158.059568957725
 31
0.0
  0
LINE
  5
408
330
36
100
AcDbEntity
  8
2-0
  6
Continuous
 62
     7
100
AcDbLine
 10
3198.768311256518
 20
158.059568957725
 30
0.0
 11
3194.830092701581
 21
160.777792538674
 31
0.0
  0
LINE
  5
409
330
36
100
AcDbEntity
  8
2-0
  6
Continuous
 62
     7
100
AcDbLine
 10
3194.830092701581
 20
160.777792538674
 30
0.0
 11
3190.719541800621
 21
163.227624392718
 31
0.0
  0
LINE
  5
40A
330
36
100
AcDbEntity
  8
2-0
  6
Continuous
 62
     7
100
AcDbLine
 10
3190.719541800621
 20
163.227624392718
 30
0.0
 11
3186.454920903418
 21
165.398180410332
 31
0.0
  0
LINE
  5
40B
330
36
100
AcDbEntity
  8
2-0
  6
Continuous
 62
     7
100
AcDbLine
 10
3186.454920903418
 20
165.398180410332
 30
0.0
 11
3182.055176861712
 21
167.279817248285
 31
0.0
  0
LINE
  5
40C
330
36
100
AcDbEntity
  8
2-0
  6
Continuous
 62
     7
100
AcDbLine
 10
3182.055176861712
 20
167.279817248285
 30
0.0
 11
3177.539856852164
 21
168.864175173071
 31
0.0
  0
LINE
  5
40D
330
36
100
AcDbEntity
  8
2-0
  6
Continuous
 62
     7
100
AcDbLine
 10
3177.539856852164
 20
168.864175173071
 30
0.0
 11
3172.929021532179
 21
170.144215201524
 31
0.0
  0
LINE
  5
40E
330
36
100
AcDbEntity
  8
2-0
  6
Continuous
 62
     7
100
AcDbLine
 10
3172.929021532179
 20
170.144215201524
 30
0.0
 11
3168.243155914451
 21
171.114250373601
 31
0.0
  0
LINE
  5
40F
330
36
100
AcDbEntity
  8
2-0
  6
Continuous
 62
     7
100
AcDbLine
 10
3168.243155914451
 20
171.114250373601
 30
0.0
 11
3163.503078356178
 21
171.769971018398
 31
0.0
  0
LINE
  5
410
330
36
100
AcDbEntity
  8
2-0
  6
Continuous
 62
     7
100
AcDbLine
 10
3163.503078356178
 20
171.769971018398
 30
0.0
 11
3158.729848067287
 21
172.108463901156
 31
0.0
  0
LINE
  5
411
330
36
100
AcDbEntity
  8
2-0
  6
Continuous
 62
     7
100
AcDbLine
 10
3158.729848067287
 20
172.108463901156
 30
0.0
 11
3153.944671548613
 21
172.128225166169
 31
0.0
  0
LINE
  5
412
330
36
100
AcDbEntity
  8
2-0
  6
Continuous
 62
     7
100
AcDbLine
 10
3153.944671548613
 20
172.128225166169
 30
0.0
 11
3149.168808375685
 21
171.829167018116
 31
0.0
  0
LINE
  5
413
330
36
100
AcDbEntity
  8
2-0
  6
Continuous
 62
     7
100
AcDbLine
 10
3149.168808375685
 20
171.829167018116
 30
0.0
 11
3144.423476746708
 21
171.212618112118
 31
0.0
  0
LINE
  5
414
330
36
100
AcDbEntity
  8
2-0
  6
Continuous
 62
     7
100
AcDbLine
 10
3144.423476746708
 20
171.212618112118
 30
0.0
 11
3139.729759214388
 21
170.281317650791
 31
0.0
  0
LINE
  5
415
330
36
100
AcDbEntity
  8
2-0
  6
Continuous
 62
     7
100
AcDbLine
 10
3139.729759214388
 20
170.281317650791
 30
0.0
 11
3135.108509020399
 21
169.039403214519
 31
0.0
  0
LINE
  5
416
330
36
100
AcDbEntity
  8
2-0
  6
Continuous
 62
     7
100
AcDbLine
 10
3135.108509020399
 20
169.039403214519
 30
0.0
 11
3130.580257448623
 21
167.492392379016
 31
0.0
  0
LINE
  5
417
330
36
100
AcDbEntity
  8
2-0
  6
Continuous
 62
     7
100
AcDbLine
 10
3130.580257448623
 20
167.492392379016
 30
0.0
 11
3126.16512260879
 21
165.647158201854
 31
0.0
  0
LINE
  5
418
330
36
100
AcDbEntity
  8
2-0
  6
Continuous
 62
     7
100
AcDbLine
 10
3126.16512260879
 20
165.647158201854
 30
0.0
 11
3121.882720055779
 21
163.511898686847
 31
0.0
  0
LINE
  5
419
330
36
100
AcDbEntity
  8
2-0
  6
Continuous
 62
     7
100
AcDbLine
 10
3121.882720055779
 20
163.511898686847
 30
0.0
 11
3117.752075641645
 21
161.096100361975
 31
0.0
  0
LINE
  5
41A
330
36
100
AcDbEntity
  8
2-0
  6
Continuous
 62
     7
100
AcDbLine
 10
3117.752075641645
 20
161.096100361975
 30
0.0
 11
3113.7915409876
 21
158.4104961326479
 31
0.0
  0
LINE
  5
41B
330
36
100
AcDbEntity
  8
2-0
  6
Continuous
 62
     7
100
AcDbLine
 10
3113.7915409876
 20
158.4104961326479
 30
0.0
 11
3110.018711951451
 21
155.46701759757
 31
0.0
  0
LINE
  5
41C
330
36
100
AcDbEntity
  8
2-0
  6
Continuous
 62
     7
100
AcDbLine
 10
3110.018711951451
 20
155.46701759757
 30
0.0
 11
3106.450350452749
 21
152.27874203905
 31
0.0
  0
LINE
  5
41D
330
36
100
AcDbEntity
  8
2-0
  6
Continuous
 62
     7
100
AcDbLine
 10
3106.450350452749
 20
152.27874203905
 30
0.0
 11
3103.102310002958
 21
148.859834323267
 31
0.0
  0
LINE
  5
41E
330
36
100
AcDbEntity
  8
2-0
  6
Continuous
 62
     7
100
AcDbLine
 10
3103.102310002958
 20
148.859834323267
 30
0.0
 11
3099.989465271493
 21
145.225483968627
 31
0.0
  0
LINE
  5
41F
330
36
100
AcDbEntity
  8
2-0
  6
Continuous
 62
     7
100
AcDbLine
 10
3099.989465271493
 20
145.225483968627
 30
0.0
 11
3097.125646000562
 21
141.391837661791
 31
0.0
  0
LINE
  5
420
330
36
100
AcDbEntity
  8
2-0
  6
Continuous
 62
     7
100
AcDbLine
 10
3097.125646000562
 20
141.391837661791
 30
0.0
 11
3094.523575562404
 21
137.375927521193
 31
0.0
  0
LINE
  5
421
330
36
100
AcDbEntity
  8
2-0
  6
Continuous
 62
     7
100
AcDbLine
 10
3094.523575562404
 20
137.375927521193
 30
0.0
 11
3092.194814431918
 21
133.195595426776
 31
0.0
  0
LINE
  5
422
330
36
100
AcDbEntity
  8
2-0
  6
Continuous
 62
     7
100
AcDbLine
 10
3092.194814431918
 20
133.195595426776
 30
0.0
 11
3090.149708825783
 21
128.869413752107
 31
0.0
  0
LINE
  5
423
330
36
100
AcDbEntity
  8
2-0
  6
Continuous
 62
     7
100
AcDbLine
 10
3090.149708825783
 20
128.869413752107
 30
0.0
 11
3088.397344736321
 21
124.416602851063
 31
0.0
  0
LINE
  5
424
330
36
100
AcDbEntity
  8
2-0
  6
Continuous
 62
     7
100
AcDbLine
 10
3088.397344736321
 20
124.416602851063
 30
0.0
 11
3086.945507564253
 21
119.856945665672
 31
0.0
  0
LINE
  5
425
330
36
100
AcDbEntity
  8
2-0
  6
Continuous
 62
     7
100
AcDbLine
 10
3086.945507564253
 20
119.856945665672
 30
0.0
 11
3085.800647529729
 21
115.210699834483
 31
0.0
  0
LINE
  5
426
330
36
100
AcDbEntity
  8
2-0
  6
Continuous
 62
     7
100
AcDbLine
 10
3085.800647529729
 20
115.210699834483
 30
0.0
 11
3084.967851015306
 21
110.49850769196
 31
0.0
  0
LINE
  5
427
330
36
100
AcDbEntity
  8
2-0
  6
Continuous
 62
     7
100
AcDbLine
 10
3084.967851015306
 20
110.49850769196
 30
0.0
 11
3084.45081796817
 21
105.741304558746
 31
0.0
  0
LINE
  5
428
330
36
100
AcDbEntity
  8
2-0
  6
Continuous
 62
     7
100
AcDbLine
 10
3084.45081796817
 20
105.741304558746
 30
0.0
 11
3084.251845462018
 21
100.96022573025
 31
0.0
  0
LINE
  5
429
330
36
100
AcDbEntity
  8
2-0
  6
Continuous
 62
     7
100
AcDbLine
 10
3084.251845462018
 20
100.96022573025
 30
0.0
 11
3084.371817491621
 21
96.17651257678801
 31
0.0
  0
LINE
  5
42A
330
36
100
AcDbEntity
  8
2-0
  6
Continuous
 62
     7
100
AcDbLine
 10
3084.371817491621
 20
96.17651257678801
 30
0.0
 11
3084.810201045415
 21
91.41141817245001
 31
0.0
  0
LINE
  5
42B
330
36
100
AcDbEntity
  8
2-0
  6
Continuous
 62
     7
100
AcDbLine
 10
3084.810201045415
 20
91.41141817245001
 30
0.0
 11
3085.565048473561
 21
86.68611287197398
 31
0.0
  0
LINE
  5
42C
330
36
100
AcDbEntity
  8
2-0
  6
Continuous
 62
     7
100
AcDbLine
 10
3085.565048473561
 20
86.68611287197398
 30
0.0
 11
3086.633006140964
 21
82.021590255121
 31
0.0
  0
LINE
  5
42D
330
36
100
AcDbEntity
  8
2-0
  6
Continuous
 62
     7
100
AcDbLine
 10
3086.633006140964
 20
82.021590255121
 30
0.0
 11
3088.009329326797
 21
77.438573856435
 31
0.0
  0
LINE
  5
42E
330
36
100
AcDbEntity
  8
2-0
  6
Continuous
 62
     7
100
AcDbLine
 10
3088.009329326797
 20
77.438573856435
 30
0.0
 11
3089.68790330434
 21
72.957425094744
 31
0.0
  0
LINE
  5
42F
330
36
100
AcDbEntity
  8
2-0
  6
Continuous
 62
     7
100
AcDbLine
 10
3089.68790330434
 20
72.957425094744
 30
0.0
 11
3091.66127050748
 21
68.598052811483
 31
0.0
  0
LINE
  5
430
330
36
100
AcDbEntity
  8
2-0
  6
Continuous
 62
     7
100
AcDbLine
 10
3091.66127050748
 20
68.598052811483
 30
0.0
 11
3093.920663663171
 21
64.37982481971999
 31
0.0
  0
LINE
  5
431
330
36
100
AcDbEntity
  8
2-0
  6
Continuous
 62
     7
100
AcDbLine
 10
3093.920663663171
 20
64.37982481971999
 30
0.0
 11
3096.456044742672
 21
60.321481856861
 31
0.0
  0
LINE
  5
432
330
36
100
AcDbEntity
  8
2-0
  6
Continuous
 62
     7
100
AcDbLine
 10
3096.456044742672
 20
60.321481856861
 30
0.0
 11
3099.256149558478
 21
56.44105432333
 31
0.0
  0
LINE
  5
433
330
36
100
AcDbEntity
  8
2-0
  6
Continuous
 62
     7
100
AcDbLine
 10
3099.256149558478
 20
56.44105432333
 30
0.0
 11
3102.308537808839
 21
52.755782177133
 31
0.0
  0
LINE
  5
434
330
36
100
AcDbEntity
  8
2-0
  6
Continuous
 62
     7
100
AcDbLine
 10
3102.308537808839
 20
52.755782177133
 30
0.0
 11
3105.599648347517
 21
49.282038340193
 31
0.0
  0
LINE
  5
435
330
36
100
AcDbEntity
  8
2-0
  6
Continuous
 62
     7
100
AcDbLine
 10
3105.599648347517
 20
49.282038340193
 30
0.0
 11
3109.114859433225
 21
46.035255956757
 31
0.0
  0
LINE
  5
436
330
36
100
AcDbEntity
  8
2-0
  6
Continuous
 62
     7
100
AcDbLine
 10
3109.114859433225
 20
46.035255956757
 30
0.0
 11
3112.838553691082
 21
43.029859827046
 31
0.0
  0
LINE
  5
437
330
36
100
AcDbEntity
  8
2-0
  6
Continuous
 62
     7
100
AcDbLine
 10
3112.838553691082
 20
43.029859827046
 30
0.0
 11
3116.75418749746
 21
40.27920232077099
 31
0.0
  0
LINE
  5
438
330
36
100
AcDbEntity
  8
2-0
  6
Continuous
 62
     7
100
AcDbLine
 10
3116.75418749746
 20
40.27920232077099
 30
0.0
 11
3120.844364479973
 21
37.795504055244
 31
0.0
  0
LINE
  5
439
330
36
100
AcDbEntity
  8
2-0
  6
Continuous
 62
     7
100
AcDbLine
 10
3120.844364479973
 20
37.795504055244
 30
0.0
 11
3125.09091280606
 21
35.589799601635
 31
0.0
  0
LINE
  5
43A
330
36
100
AcDbEntity
  8
2-0
  6
Continuous
 62
     7
100
AcDbLine
 10
3125.09091280606
 20
35.589799601635
 30
0.0
 11
3129.474965916774
 21
33.671888460599
 31
0.0
  0
LINE
  5
43B
330
36
100
AcDbEntity
  8
2-0
  6
Continuous
 62
     7
100
AcDbLine
 10
3129.474965916774
 20
33.671888460599
 30
0.0
 11
3133.977046347101
 21
32.05029152506301
 31
0.0
  0
LINE
  5
43C
330
36
100
AcDbEntity
  8
2-0
  6
Continuous
 62
     7
100
AcDbLine
 10
3133.977046347101
 20
32.05029152506301
 30
0.0
 11
3138.577152260416
 21
30.732213223619
 31
0.0
  0
LINE
  5
43D
330
36
100
AcDbEntity
  8
2-0
  6
Continuous
 62
     7
100
AcDbLine
 10
3138.577152260416
 20
30.732213223619
 30
0.0
 11
3143.254846312621
 21
29.723509512696
 31
0.0
  0
LINE
  5
43E
330
36
100
AcDbEntity
  8
2-0
  6
Continuous
 62
     7
100
AcDbLine
 10
3143.254846312621
 20
29.723509512696
 30
0.0
 11
3147.989346451138
 21
29.028661859726
 31
0.0
  0
LINE
  5
43F
330
36
100
AcDbEntity
  8
2-0
  6
Continuous
 62
     7
100
AcDbLine
 10
3147.989346451138
 20
29.028661859726
 30
0.0
 11
3152.759618245392
 21
28.650757332889
 31
0.0
  0
LINE
  5
440
330
36
100
AcDbEntity
  8
2-0
  6
Continuous
 62
     7
100
AcDbLine
 10
3152.759618245392
 20
28.650757332889
 30
0.0
 11
3157.544468338544
 21
28.591474885885
 31
0.0
  0
LINE
  5
441
330
36
100
AcDbEntity
  8
2-0
  6
Continuous
 62
     7
100
AcDbLine
 10
3157.544468338544
 20
28.591474885885
 30
0.0
 11
3162.32263860531
 21
28.851077898687
 31
0.0
  0
LINE
  5
442
330
36
100
AcDbEntity
  8
2-0
  6
Continuous
 62
     7
100
AcDbLine
 10
3162.32263860531
 20
28.851077898687
 30
0.0
 11
3167.07290059753
 21
29.428413007394
 31
0.0
  0
LINE
  5
443
330
36
100
AcDbEntity
  8
2-0
  6
Continuous
 62
     7
100
AcDbLine
 10
3167.07290059753
 20
29.428413007394
 30
0.0
 11
3171.774149857882
 21
30.320915228395
 31
0.0
  0
LINE
  5
444
330
36
100
AcDbEntity
  8
2-0
  6
Continuous
 62
     7
100
AcDbLine
 10
3171.774149857882
 20
30.320915228395
 30
0.0
 11
3176.405499682747
 21
31.524619354074
 31
0.0
  0
LINE
  5
445
330
36
100
AcDbEntity
  8
2-0
  6
Continuous
 62
     7
100
AcDbLine
 10
3176.405499682747
 20
31.524619354074
 30
0.0
 11
3180.946373917619
 21
33.034177569428
 31
0.0
  0
LINE
  5
446
330
36
100
AcDbEntity
  8
2-0
  6
Continuous
 62
     7
100
AcDbLine
 10
3180.946373917619
 20
33.034177569428
 30
0.0
 11
3185.376598372813
 21
34.842883211335
 31
0.0
  0
LINE
  5
447
330
36
100
AcDbEntity
  8
2-0
  6
Continuous
 62
     7
100
AcDbLine
 10
3185.376598372813
 20
34.842883211335
 30
0.0
 11
3189.676490453332
 21
36.942700564907
 31
0.0
  0
LINE
  5
448
330
36
100
AcDbEntity
  8
2-0
  6
Continuous
 62
     7
100
AcDbLine
 10
3189.676490453332
 20
36.942700564907
 30
0.0
 11
3193.82694660467
 21
39.324300564548
 31
0.0
  0
LINE
  5
449
330
36
100
AcDbEntity
  8
2-0
  6
Continuous
 62
     7
100
AcDbLine
 10
3193.82694660467
 20
39.324300564548
 30
0.0
 11
3197.809527186057
 21
41.977102241121
 31
0.0
  0
LINE
  5
44A
330
36
100
AcDbEntity
  8
2-0
  6
Continuous
 62
     7
100
AcDbLine
 10
3197.809527186057
 20
41.977102241121
 30
0.0
 11
3201.606538394072
 21
44.889319731055
 31
0.0
  0
LINE
  5
44B
330
36
100
AcDbEntity
  8
2-0
  6
Continuous
 62
     7
100
AcDbLine
 10
3201.606538394072
 20
44.889319731055
 30
0.0
 11
3205.201110872643
 21
48.048014638572
 31
0.0
  0
LINE
  5
44C
330
36
100
AcDbEntity
  8
2-0
  6
Continuous
 62
     7
100
AcDbLine
 10
3205.201110872643
 20
48.048014638572
 30
0.0
 11
3208.577274660206
 21
51.439153518364
 31
0.0
  0
LINE
  5
44D
330
36
100
AcDbEntity
  8
2-0
  6
Continuous
 62
     7
100
AcDbLine
 10
3208.577274660206
 20
51.439153518364
 30
0.0
 11
3211.720030141014
 21
55.047670223372
 31
0.0
  0
LINE
  5
44E
330
36
100
AcDbEntity
  8
2-0
  6
Continuous
 62
     7
100
AcDbLine
 10
3211.720030141014
 20
55.047670223372
 30
0.0
 11
3214.615414685428
 21
58.857532840638
 31
0.0
  0
LINE
  5
44F
330
36
100
AcDbEntity
  8
2-0
  6
Continuous
 62
     7
100
AcDbLine
 10
3214.615414685428
 20
58.857532840638
 30
0.0
 11
3217.250564683054
 21
62.85181491787
 31
0.0
  0
LINE
  5
450
330
36
100
AcDbEntity
  8
2-0
  6
Continuous
 62
     7
100
AcDbLine
 10
3217.250564683054
 20
62.85181491787
 30
0.0
 11
3219.613772693178
 21
67.012770664256
 31
0.0
  0
LINE
  5
451
330
36
100
AcDbEntity
  8
2-0
  6
Continuous
 62
     7
100
AcDbLine
 10
3219.613772693178
 20
67.012770664256
 30
0.0
 11
3221.694539458562
 21
71.321913791439
 31
0.0
  0
LINE
  5
452
330
36
100
AcDbEntity
  8
2-0
  6
Continuous
 62
     7
100
AcDbLine
 10
3221.694539458562
 20
71.321913791439
 30
0.0
 11
3223.483620551544
 21
75.760099644378
 31
0.0
  0
LINE
  5
453
330
36
100
AcDbEntity
  8
2-0
  6
Continuous
 62
     7
100
AcDbLine
 10
3223.483620551544
 20
75.760099644378
 30
0.0
 11
3224.973067445151
 21
80.30761025718701
 31
0.0
  0
LINE
  5
454
330
36
100
AcDbEntity
  8
2-0
  6
Continuous
 62
     7
100
AcDbLine
 10
3224.973067445151
 20
80.30761025718701
 30
0.0
 11
3226.156262826811
 21
84.94424195609401
 31
0.0
  0
LINE
  5
455
330
36
100
AcDbEntity
  8
2-0
  6
Continuous
 62
     7
100
AcDbLine
 10
3226.156262826811
 20
84.94424195609401
 30
0.0
 11
3227.027949997742
 21
89.64939512028799
 31
0.0
  0
LINE
  5
456
330
36
100
AcDbEntity
  8
2-0
  6
Continuous
 62
     7
100
AcDbLine
 10
3227.027949997742
 20
89.64939512028799
 30
0.0
 11
3227.584256227405
 21
94.402165701889
 31
0.0
  0
LINE
  5
457
330
36
100
AcDbEntity
  8
2-0
  6
Continuous
 62
     7
100
AcDbLine
 10
3227.584256227405
 20
94.402165701889
 30
0.0
 11
3227.822709959263
 21
99.18143809842099
 31
0.0
  0
LINE
  5
458
330
36
100
AcDbEntity
  8
2-0
  6
Continuous
 62
     7
100
AcDbLine
 10
3227.822709959263
 20
99.18143809842099
 30
0.0
 11
3227.832504455101
 21
100.367283036918
 31
0.0
  0
LINE
  5
459
330
36
100
AcDbEntity
  8
2-0
  6
Continuous
 62
     7
100
AcDbLine
 10
3227.832504455101
 20
100.367283036918
 30
0.0
 11
3227.673026747758
 21
105.149842151383
 31
0.0
  0
LINE
  5
45A
330
36
100
AcDbEntity
  8
2-0
  6
Continuous
 62
     7
100
AcDbLine
 10
3227.673026747758
 20
105.149842151383
 30
0.0
 11
3227.195302153066
 21
109.911153318921
 31
0.0
  0
LINE
  5
45B
330
36
100
AcDbEntity
  8
2-0
  6
Continuous
 62
     7
100
AcDbLine
 10
3227.195302153066
 20
109.911153318921
 30
0.0
 11
3226.401453105185
 21
114.630062992952
 31
0.0
  0
LINE
  5
45C
330
36
100
AcDbEntity
  8
2-0
  6
Continuous
 62
     7
100
AcDbLine
 10
3226.401453105185
 20
114.630062992952
 30
0.0
 11
3225.295006515551
 21
119.285606008195
 31
0.0
  0
LINE
  5
45D
330
36
100
AcDbEntity
  8
2-0
  6
Continuous
 62
     7
100
AcDbLine
 10
3225.295006515551
 20
119.285606008195
 30
0.0
 11
3223.88087810352
 21
123.857098724669
 31
0.0
  0
LINE
  5
45E
330
36
100
AcDbEntity
  8
2-0
  6
Continuous
 62
     7
100
AcDbLine
 10
3223.88087810352
 20
123.857098724669
 30
0.0
 11
3222.165350556819
 21
128.324230920944
 31
0.0
  0
LINE
  5
45F
330
36
100
AcDbEntity
  8
2-0
  6
Continuous
 62
     7
100
AcDbLine
 10
3222.165350556819
 20
128.324230920944
 30
0.0
 11
3220.156045618826
 21
132.667156028363
 31
0.0
  0
LINE
  5
460
330
36
100
AcDbEntity
  8
2-0
  6
Continuous
 62
     7
100
AcDbLine
 10
3220.156045618826
 20
132.667156028363
 30
0.0
 11
3217.861890226703
 21
136.866579305347
 31
0.0
  0
LINE
  5
461
330
36
100
AcDbEntity
  8
2-0
  6
Continuous
 62
     7
100
AcDbLine
 10
3217.861890226703
 20
136.866579305347
 30
0.0
 11
3215.293076850809
 21
140.903843560051
 31
0.0
  0
LINE
  5
462
330
36
100
AcDbEntity
  8
2-0
  6
Continuous
 62
     7
100
AcDbLine
 10
3215.293076850809
 20
140.903843560051
 30
0.0
 11
3212.461018211609
 21
144.761012040505
 31
0.0
  0
LINE
  5
463
330
36
100
AcDbEntity
  8
2-0
  6
Continuous
 62
     7
100
AcDbLine
 10
3212.461018211609
 20
144.761012040505
 30
0.0
 11
3209.378296575251
 21
148.420948123992
 31
0.0
  0
LINE
  5
464
330
36
100
AcDbEntity
  8
2-0
  6
Continuous
 62
     7
100
AcDbLine
 10
3209.378296575251
 20
148.420948123992
 30
0.0
 11
3206.058607853102
 21
151.867391451614
 31
0.0
  0
LINE
  5
465
330
36
100
AcDbEntity
  8
2-0
  6
Continuous
 62
     7
100
AcDbLine
 10
3206.058607853102
 20
151.867391451614
 30
0.0
 11
3202.516700753558
 21
155.085030169787
 31
0.0
  0
LINE
  5
466
330
36
100
AcDbEntity
  8
2-0
  6
Continuous
 62
     7
100
AcDbLine
 10
3202.516700753558
 20
155.085030169787
 30
0.0
 11
3198.768311256518
 21
158.059568957725
 31
0.0
  0
LINE
  5
467
330
36
100
AcDbEntity
  8
2-0
  6
Continuous
 62
     7
100
AcDbLine
 10
3198.768311256518
 20
158.059568957725
 30
0.0
 11
3194.830092701581
 21
160.777792538674
 31
0.0
  0
LINE
  5
468
330
36
100
AcDbEntity
  8
2-0
  6
Continuous
 62
     7
100
AcDbLine
 10
3194.830092701581
 20
160.777792538674
 30
0.0
 11
3190.719541800621
 21
163.227624392718
 31
0.0
  0
LINE
  5
469
330
36
100
AcDbEntity
  8
2-0
  6
Continuous
 62
     7
100
AcDbLine
 10
3190.719541800621
 20
163.227624392718
 30
0.0
 11
3186.454920903418
 21
165.398180410332
 31
0.0
  0
LINE
  5
46A
330
36
100
AcDbEntity
  8
2-0
  6
Continuous
 62
     7
100
AcDbLine
 10
3186.454920903418
 20
165.398180410332
 30
0.0
 11
3182.055176861712
 21
167.279817248285
 31
0.0
  0
LINE
  5
46B
330
36
100
AcDbEntity
  8
2-0
  6
Continuous
 62
     7
100
AcDbLine
 10
3182.055176861712
 20
167.279817248285
 30
0.0
 11
3177.539856852164
 21
168.864175173071
 31
0.0
  0
LINE
  5
46C
330
36
100
AcDbEntity
  8
2-0
  6
Continuous
 62
     7
100
AcDbLine
 10
3177.539856852164
 20
168.864175173071
 30
0.0
 11
3172.929021532179
 21
170.144215201524
 31
0.0
  0
LINE
  5
46D
330
36
100
AcDbEntity
  8
2-0
  6
Continuous
 62
     7
100
AcDbLine
 10
3172.929021532179
 20
170.144215201524
 30
0.0
 11
3168.243155914451
 21
171.114250373601
 31
0.0
  0
LINE
  5
46E
330
36
100
AcDbEntity
  8
2-0
  6
Continuous
 62
     7
100
AcDbLine
 10
3168.243155914451
 20
171.114250373601
 30
0.0
 11
3163.503078356178
 21
171.769971018398
 31
0.0
  0
LINE
  5
46F
330
36
100
AcDbEntity
  8
2-0
  6
Continuous
 62
     7
100
AcDbLine
 10
3163.503078356178
 20
171.769971018398
 30
0.0
 11
3158.729848067287
 21
172.108463901156
 31
0.0
  0
LINE
  5
470
330
36
100
AcDbEntity
  8
2-0
  6
Continuous
 62
     7
100
AcDbLine
 10
3158.729848067287
 20
172.108463901156
 30
0.0
 11
3153.944671548613
 21
172.128225166169
 31
0.0
  0
LINE
  5
471
330
36
100
AcDbEntity
  8
2-0
  6
Continuous
 62
     7
100
AcDbLine
 10
3153.944671548613
 20
172.128225166169
 30
0.0
 11
3149.168808375685
 21
171.829167018116
 31
0.0
  0
LINE
  5
472
330
36
100
AcDbEntity
  8
2-0
  6
Continuous
 62
     7
100
AcDbLine
 10
3149.168808375685
 20
171.829167018116
 30
0.0
 11
3144.423476746708
 21
171.212618112118
 31
0.0
  0
LINE
  5
473
330
36
100
AcDbEntity
  8
2-0
  6
Continuous
 62
     7
100
AcDbLine
 10
3144.423476746708
 20
171.212618112118
 30
0.0
 11
3139.729759214388
 21
170.281317650791
 31
0.0
  0
LINE
  5
474
330
36
100
AcDbEntity
  8
2-0
  6
Continuous
 62
     7
100
AcDbLine
 10
3139.729759214388
 20
170.281317650791
 30
0.0
 11
3135.108509020399
 21
169.039403214519
 31
0.0
  0
LINE
  5
475
330
36
100
AcDbEntity
  8
2-0
  6
Continuous
 62
     7
100
AcDbLine
 10
3135.108509020399
 20
169.039403214519
 30
0.0
 11
3130.580257448623
 21
167.492392379016
 31
0.0
  0
LINE
  5
476
330
36
100
AcDbEntity
  8
2-0
  6
Continuous
 62
     7
100
AcDbLine
 10
3130.580257448623
 20
167.492392379016
 30
0.0
 11
3126.16512260879
 21
165.647158201854
 31
0.0
  0
LINE
  5
477
330
36
100
AcDbEntity
  8
2-0
  6
Continuous
 62
     7
100
AcDbLine
 10
3126.16512260879
 20
165.647158201854
 30
0.0
 11
3121.882720055779
 21
163.511898686847
 31
0.0
  0
LINE
  5
478
330
36
100
AcDbEntity
  8
2-0
  6
Continuous
 62
     7
100
AcDbLine
 10
3121.882720055779
 20
163.511898686847
 30
0.0
 11
3117.752075641645
 21
161.096100361975
 31
0.0
  0
LINE
  5
479
330
36
100
AcDbEntity
  8
2-0
  6
Continuous
 62
     7
100
AcDbLine
 10
3117.752075641645
 20
161.096100361975
 30
0.0
 11
3113.7915409876
 21
158.4104961326479
 31
0.0
  0
LINE
  5
47A
330
36
100
AcDbEntity
  8
2-0
  6
Continuous
 62
     7
100
AcDbLine
 10
3113.7915409876
 20
158.4104961326479
 30
0.0
 11
3110.018711951451
 21
155.46701759757
 31
0.0
  0
LINE
  5
47B
330
36
100
AcDbEntity
  8
2-0
  6
Continuous
 62
     7
100
AcDbLine
 10
3110.018711951451
 20
155.46701759757
 30
0.0
 11
3106.450350452749
 21
152.27874203905
 31
0.0
  0
LINE
  5
47C
330
36
100
AcDbEntity
  8
2-0
  6
Continuous
 62
     7
100
AcDbLine
 10
3106.450350452749
 20
152.27874203905
 30
0.0
 11
3103.102310002958
 21
148.859834323267
 31
0.0
  0
LINE
  5
47D
330
36
100
AcDbEntity
  8
2-0
  6
Continuous
 62
     7
100
AcDbLine
 10
3103.102310002958
 20
148.859834323267
 30
0.0
 11
3099.989465271493
 21
145.225483968627
 31
0.0
  0
LINE
  5
47E
330
36
100
AcDbEntity
  8
2-0
  6
Continuous
 62
     7
100
AcDbLine
 10
3099.989465271493
 20
145.225483968627
 30
0.0
 11
3097.125646000562
 21
141.391837661791
 31
0.0
  0
LINE
  5
47F
330
36
100
AcDbEntity
  8
2-0
  6
Continuous
 62
     7
100
AcDbLine
 10
3097.125646000562
 20
141.391837661791
 30
0.0
 11
3094.523575562404
 21
137.375927521193
 31
0.0
  0
LINE
  5
480
330
36
100
AcDbEntity
  8
2-0
  6
Continuous
 62
     7
100
AcDbLine
 10
3094.523575562404
 20
137.375927521193
 30
0.0
 11
3092.194814431918
 21
133.195595426776
 31
0.0
  0
LINE
  5
481
330
36
100
AcDbEntity
  8
2-0
  6
Continuous
 62
     7
100
AcDbLine
 10
3092.194814431918
 20
133.195595426776
 30
0.0
 11
3090.149708825783
 21
128.869413752107
 31
0.0
  0
LINE
  5
482
330
36
100
AcDbEntity
  8
2-0
  6
Continuous
 62
     7
100
AcDbLine
 10
3090.149708825783
 20
128.869413752107
 30
0.0
 11
3088.397344736321
 21
124.416602851063
 31
0.0
  0
LINE
  5
483
330
36
100
AcDbEntity
  8
2-0
  6
Continuous
 62
     7
100
AcDbLine
 10
3088.397344736321
 20
124.416602851063
 30
0.0
 11
3086.945507564253
 21
119.856945665672
 31
0.0
  0
LINE
  5
484
330
36
100
AcDbEntity
  8
2-0
  6
Continuous
 62
     7
100
AcDbLine
 10
3086.945507564253
 20
119.856945665672
 30
0.0
 11
3085.800647529729
 21
115.210699834483
 31
0.0
  0
LINE
  5
485
330
36
100
AcDbEntity
  8
2-0
  6
Continuous
 62
     7
100
AcDbLine
 10
3085.800647529729
 20
115.210699834483
 30
0.0
 11
3084.967851015306
 21
110.49850769196
 31
0.0
  0
LINE
  5
486
330
36
100
AcDbEntity
  8
2-0
  6
Continuous
 62
     7
100
AcDbLine
 10
3084.967851015306
 20
110.49850769196
 30
0.0
 11
3084.45081796817
 21
105.741304558746
 31
0.0
  0
LINE
  5
487
330
36
100
AcDbEntity
  8
2-0
  6
Continuous
 62
     7
100
AcDbLine
 10
3084.45081796817
 20
105.741304558746
 30
0.0
 11
3084.251845462018
 21
100.96022573025
 31
0.0
  0
LINE
  5
488
330
36
100
AcDbEntity
  8
2-0
  6
Continuous
 62
     7
100
AcDbLine
 10
3084.251845462018
 20
100.96022573025
 30
0.0
 11
3084.371817491621
 21
96.17651257678801
 31
0.0
  0
LINE
  5
489
330
36
100
AcDbEntity
  8
2-0
  6
Continuous
 62
     7
100
AcDbLine
 10
3084.371817491621
 20
96.17651257678801
 30
0.0
 11
3084.810201045415
 21
91.41141817245001
 31
0.0
  0
LINE
  5
48A
330
36
100
AcDbEntity
  8
2-0
  6
Continuous
 62
     7
100
AcDbLine
 10
3084.810201045415
 20
91.41141817245001
 30
0.0
 11
3085.565048473561
 21
86.68611287197398
 31
0.0
  0
LINE
  5
48B
330
36
100
AcDbEntity
  8
2-0
  6
Continuous
 62
     7
100
AcDbLine
 10
3085.565048473561
 20
86.68611287197398
 30
0.0
 11
3086.633006140964
 21
82.021590255121
 31
0.0
  0
LINE
  5
48C
330
36
100
AcDbEntity
  8
2-0
  6
Continuous
 62
     7
100
AcDbLine
 10
3086.633006140964
 20
82.021590255121
 30
0.0
 11
3088.009329326797
 21
77.438573856435
 31
0.0
  0
LINE
  5
48D
330
36
100
AcDbEntity
  8
2-0
  6
Continuous
 62
     7
100
AcDbLine
 10
3088.009329326797
 20
77.438573856435
 30
0.0
 11
3089.68790330434
 21
72.957425094744
 31
0.0
  0
LINE
  5
48E
330
36
100
AcDbEntity
  8
2-0
  6
Continuous
 62
     7
100
AcDbLine
 10
3089.68790330434
 20
72.957425094744
 30
0.0
 11
3091.66127050748
 21
68.598052811483
 31
0.0
  0
LINE
  5
48F
330
36
100
AcDbEntity
  8
2-0
  6
Continuous
 62
     7
100
AcDbLine
 10
3091.66127050748
 20
68.598052811483
 30
0.0
 11
3093.920663663171
 21
64.37982481971999
 31
0.0
  0
LINE
  5
490
330
36
100
AcDbEntity
  8
2-0
  6
Continuous
 62
     7
100
AcDbLine
 10
3093.920663663171
 20
64.37982481971999
 30
0.0
 11
3096.456044742672
 21
60.321481856861
 31
0.0
  0
LINE
  5
491
330
36
100
AcDbEntity
  8
2-0
  6
Continuous
 62
     7
100
AcDbLine
 10
3096.456044742672
 20
60.321481856861
 30
0.0
 11
3099.256149558478
 21
56.44105432333
 31
0.0
  0
LINE
  5
492
330
36
100
AcDbEntity
  8
2-0
  6
Continuous
 62
     7
100
AcDbLine
 10
3099.256149558478
 20
56.44105432333
 30
0.0
 11
3102.308537808839
 21
52.755782177133
 31
0.0
  0
LINE
  5
493
330
36
100
AcDbEntity
  8
2-0
  6
Continuous
 62
     7
100
AcDbLine
 10
3102.308537808839
 20
52.755782177133
 30
0.0
 11
3105.599648347517
 21
49.282038340193
 31
0.0
  0
LINE
  5
494
330
36
100
AcDbEntity
  8
2-0
  6
Continuous
 62
     7
100
AcDbLine
 10
3105.599648347517
 20
49.282038340193
 30
0.0
 11
3109.114859433225
 21
46.035255956757
 31
0.0
  0
LINE
  5
495
330
36
100
AcDbEntity
  8
2-0
  6
Continuous
 62
     7
100
AcDbLine
 10
3109.114859433225
 20
46.035255956757
 30
0.0
 11
3112.838553691082
 21
43.029859827046
 31
0.0
  0
LINE
  5
496
330
36
100
AcDbEntity
  8
2-0
  6
Continuous
 62
     7
100
AcDbLine
 10
3112.838553691082
 20
43.029859827046
 30
0.0
 11
3116.75418749746
 21
40.27920232077099
 31
0.0
  0
LINE
  5
497
330
36
100
AcDbEntity
  8
2-0
  6
Continuous
 62
     7
100
AcDbLine
 10
3116.75418749746
 20
40.27920232077099
 30
0.0
 11
3120.844364479973
 21
37.795504055244
 31
0.0
  0
LINE
  5
498
330
36
100
AcDbEntity
  8
2-0
  6
Continuous
 62
     7
100
AcDbLine
 10
3120.844364479973
 20
37.795504055244
 30
0.0
 11
3125.09091280606
 21
35.589799601635
 31
0.0
  0
LINE
  5
499
330
36
100
AcDbEntity
  8
2-0
  6
Continuous
 62
     7
100
AcDbLine
 10
3125.09091280606
 20
35.589799601635
 30
0.0
 11
3129.474965916774
 21
33.671888460599
 31
0.0
  0
LINE
  5
49A
330
36
100
AcDbEntity
  8
2-0
  6
Continuous
 62
     7
100
AcDbLine
 10
3129.474965916774
 20
33.671888460599
 30
0.0
 11
3133.977046347101
 21
32.05029152506301
 31
0.0
  0
LINE
  5
49B
330
36
100
AcDbEntity
  8
2-0
  6
Continuous
 62
     7
100
AcDbLine
 10
3133.977046347101
 20
32.05029152506301
 30
0.0
 11
3138.577152260416
 21
30.732213223619
 31
0.0
  0
LINE
  5
49C
330
36
100
AcDbEntity
  8
2-0
  6
Continuous
 62
     7
100
AcDbLine
 10
3138.577152260416
 20
30.732213223619
 30
0.0
 11
3143.254846312621
 21
29.723509512696
 31
0.0
  0
LINE
  5
49D
330
36
100
AcDbEntity
  8
2-0
  6
Continuous
 62
     7
100
AcDbLine
 10
3143.254846312621
 20
29.723509512696
 30
0.0
 11
3147.989346451138
 21
29.028661859726
 31
0.0
  0
LINE
  5
49E
330
36
100
AcDbEntity
  8
2-0
  6
Continuous
 62
     7
100
AcDbLine
 10
3147.989346451138
 20
29.028661859726
 30
0.0
 11
3152.759618245392
 21
28.650757332889
 31
0.0
  0
LINE
  5
49F
330
36
100
AcDbEntity
  8
2-0
  6
Continuous
 62
     7
100
AcDbLine
 10
3152.759618245392
 20
28.650757332889
 30
0.0
 11
3157.544468338544
 21
28.591474885885
 31
0.0
  0
LINE
  5
4A0
330
36
100
AcDbEntity
  8
2-0
  6
Continuous
 62
     7
100
AcDbLine
 10
3157.544468338544
 20
28.591474885885
 30
0.0
 11
3162.32263860531
 21
28.851077898687
 31
0.0
  0
LINE
  5
4A1
330
36
100
AcDbEntity
  8
2-0
  6
Continuous
 62
     7
100
AcDbLine
 10
3162.32263860531
 20
28.851077898687
 30
0.0
 11
3167.07290059753
 21
29.428413007394
 31
0.0
  0
LINE
  5
4A2
330
36
100
AcDbEntity
  8
2-0
  6
Continuous
 62
     7
100
AcDbLine
 10
3167.07290059753
 20
29.428413007394
 30
0.0
 11
3171.774149857882
 21
30.320915228395
 31
0.0
  0
LINE
  5
4A3
330
36
100
AcDbEntity
  8
2-0
  6
Continuous
 62
     7
100
AcDbLine
 10
3171.774149857882
 20
30.320915228395
 30
0.0
 11
3176.405499682747
 21
31.524619354074
 31
0.0
  0
LINE
  5
4A4
330
36
100
AcDbEntity
  8
2-0
  6
Continuous
 62
     7
100
AcDbLine
 10
3176.405499682747
 20
31.524619354074
 30
0.0
 11
3180.946373917619
 21
33.034177569428
 31
0.0
  0
LINE
  5
4A5
330
36
100
AcDbEntity
  8
2-0
  6
Continuous
 62
     7
100
AcDbLine
 10
3180.946373917619
 20
33.034177569428
 30
0.0
 11
3185.376598372813
 21
34.842883211335
 31
0.0
  0
LINE
  5
4A6
330
36
100
AcDbEntity
  8
2-0
  6
Continuous
 62
     7
100
AcDbLine
 10
3185.376598372813
 20
34.842883211335
 30
0.0
 11
3189.676490453332
 21
36.942700564907
 31
0.0
  0
LINE
  5
4A7
330
36
100
AcDbEntity
  8
2-0
  6
Continuous
 62
     7
100
AcDbLine
 10
3189.676490453332
 20
36.942700564907
 30
0.0
 11
3193.82694660467
 21
39.324300564548
 31
0.0
  0
LINE
  5
4A8
330
36
100
AcDbEntity
  8
2-0
  6
Continuous
 62
     7
100
AcDbLine
 10
3193.82694660467
 20
39.324300564548
 30
0.0
 11
3197.809527186057
 21
41.977102241121
 31
0.0
  0
LINE
  5
4A9
330
36
100
AcDbEntity
  8
2-0
  6
Continuous
 62
     7
100
AcDbLine
 10
3197.809527186057
 20
41.977102241121
 30
0.0
 11
3201.606538394072
 21
44.889319731055
 31
0.0
  0
LINE
  5
4AA
330
36
100
AcDbEntity
  8
2-0
  6
Continuous
 62
     7
100
AcDbLine
 10
3201.606538394072
 20
44.889319731055
 30
0.0
 11
3205.201110872643
 21
48.048014638572
 31
0.0
  0
LINE
  5
4AB
330
36
100
AcDbEntity
  8
2-0
  6
Continuous
 62
     7
100
AcDbLine
 10
3205.201110872643
 20
48.048014638572
 30
0.0
 11
3208.577274660206
 21
51.439153518364
 31
0.0
  0
LINE
  5
4AC
330
36
100
AcDbEntity
  8
2-0
  6
Continuous
 62
     7
100
AcDbLine
 10
3208.577274660206
 20
51.439153518364
 30
0.0
 11
3211.720030141014
 21
55.047670223372
 31
0.0
  0
LINE
  5
4AD
330
36
100
AcDbEntity
  8
2-0
  6
Continuous
 62
     7
100
AcDbLine
 10
3211.720030141014
 20
55.047670223372
 30
0.0
 11
3214.615414685428
 21
58.857532840638
 31
0.0
  0
LINE
  5
4AE
330
36
100
AcDbEntity
  8
2-0
  6
Continuous
 62
     7
100
AcDbLine
 10
3214.615414685428
 20
58.857532840638
 30
0.0
 11
3217.250564683054
 21
62.85181491787
 31
0.0
  0
LINE
  5
4AF
330
36
100
AcDbEntity
  8
2-0
  6
Continuous
 62
     7
100
AcDbLine
 10
3217.250564683054
 20
62.85181491787
 30
0.0
 11
3219.613772693178
 21
67.012770664256
 31
0.0
  0
LINE
  5
4B0
330
36
100
AcDbEntity
  8
2-0
  6
Continuous
 62
     7
100
AcDbLine
 10
3219.613772693178
 20
67.012770664256
 30
0.0
 11
3221.694539458562
 21
71.321913791439
 31
0.0
  0
LINE
  5
4B1
330
36
100
AcDbEntity
  8
2-0
  6
Continuous
 62
     7
100
AcDbLine
 10
3221.694539458562
 20
71.321913791439
 30
0.0
 11
3223.483620551544
 21
75.760099644378
 31
0.0
  0
LINE
  5
4B2
330
36
100
AcDbEntity
  8
2-0
  6
Continuous
 62
     7
100
AcDbLine
 10
3223.483620551544
 20
75.760099644378
 30
0.0
 11
3224.973067445151
 21
80.30761025718701
 31
0.0
  0
LINE
  5
4B3
330
36
100
AcDbEntity
  8
2-0
  6
Continuous
 62
     7
100
AcDbLine
 10
3224.973067445151
 20
80.30761025718701
 30
0.0
 11
3226.156262826811
 21
84.94424195609401
 31
0.0
  0
LINE
  5
4B4
330
36
100
AcDbEntity
  8
2-0
  6
Continuous
 62
     7
100
AcDbLine
 10
3226.156262826811
 20
84.94424195609401
 30
0.0
 11
3227.027949997742
 21
89.64939512028799
 31
0.0
  0
LINE
  5
4B5
330
36
100
AcDbEntity
  8
2-0
  6
Continuous
 62
     7
100
AcDbLine
 10
3227.027949997742
 20
89.64939512028799
 30
0.0
 11
3227.584256227405
 21
94.402165701889
 31
0.0
  0
LINE
  5
4B6
330
36
100
AcDbEntity
  8
2-0
  6
Continuous
 62
     7
100
AcDbLine
 10
3227.584256227405
 20
94.402165701889
 30
0.0
 11
3227.822709959263
 21
99.18143809842099
 31
0.0
  0
LINE
  5
4B7
330
36
100
AcDbEntity
  8
2-0
  6
Continuous
 62
     7
100
AcDbLine
 10
3227.822709959263
 20
99.18143809842099
 30
0.0
 11
3227.832504455101
 21
100.367283036918
 31
0.0
  0
LINE
  5
4B8
330
36
100
AcDbEntity
  8
2-0
  6
Continuous
 62
     7
100
AcDbLine
 10
3204.471179975533
 20
59.372420449593
 30
0.0
 11
3207.094563949333
 21
62.68977728041001
 31
0.0
  0
LINE
  5
4B9
330
36
100
AcDbEntity
  8
2-0
  6
Continuous
 62
     7
100
AcDbLine
 10
3207.094563949333
 20
62.68977728041001
 30
0.0
 11
3209.491127001447
 21
66.174527680969
 31
0.0
  0
LINE
  5
4BA
330
36
100
AcDbEntity
  8
2-0
  6
Continuous
 62
     7
100
AcDbLine
 10
3209.491127001447
 20
66.174527680969
 30
0.0
 11
3211.650221684911
 21
69.811189607076
 31
0.0
  0
LINE
  5
4BB
330
36
100
AcDbEntity
  8
2-0
  6
Continuous
 62
     7
100
AcDbLine
 10
3211.650221684911
 20
69.811189607076
 30
0.0
 11
3213.562255576891
 21
73.583606102226
 31
0.0
  0
LINE
  5
4BC
330
36
100
AcDbEntity
  8
2-0
  6
Continuous
 62
     7
100
AcDbLine
 10
3213.562255576891
 20
73.583606102226
 30
0.0
 11
3215.218733895891
 21
77.47501707970499
 31
0.0
  0
LINE
  5
4BD
330
36
100
AcDbEntity
  8
2-0
  6
Continuous
 62
     7
100
AcDbLine
 10
3215.218733895891
 20
77.47501707970499
 30
0.0
 11
3216.612297242361
 21
81.46813378427799
 31
0.0
  0
LINE
  5
4BE
330
36
100
AcDbEntity
  8
2-0
  6
Continuous
 62
     7
100
AcDbLine
 10
3216.612297242361
 20
81.46813378427799
 30
0.0
 11
3217.736754295017
 21
85.545215602649
 31
0.0
  0
LINE
  5
4BF
330
36
100
AcDbEntity
  8
2-0
  6
Continuous
 62
     7
100
AcDbLine
 10
3217.736754295017
 20
85.545215602649
 30
0.0
 11
3218.587109317645
 21
89.68814888143299
 31
0.0
  0
LINE
  5
4C0
330
36
100
AcDbEntity
  8
2-0
  6
Continuous
 62
     7
100
AcDbLine
 10
3218.587109317645
 20
89.68814888143299
 30
0.0
 11
3219.159584354141
 21
93.87852740246799
 31
0.0
  0
LINE
  5
4C1
330
36
100
AcDbEntity
  8
2-0
  6
Continuous
 62
     7
100
AcDbLine
 10
3219.159584354141
 20
93.87852740246799
 30
0.0
 11
3219.451636013217
 21
98.09773415793699
 31
0.0
  0
LINE
  5
4C2
330
36
100
AcDbEntity
  8
2-0
  6
Continuous
 62
     7
100
AcDbLine
 10
3219.451636013217
 20
98.09773415793699
 30
0.0
 11
3219.46196676817
 21
102.327024061983
 31
0.0
  0
LINE
  5
4C3
330
36
100
AcDbEntity
  8
2-0
  6
Continuous
 62
     7
100
AcDbLine
 10
3219.46196676817
 20
102.327024061983
 30
0.0
 11
3219.190530721537
 21
106.547607231351
 31
0.0
  0
LINE
  5
4C4
330
36
100
AcDbEntity
  8
2-0
  6
Continuous
 62
     7
100
AcDbLine
 10
3219.190530721537
 20
106.547607231351
 30
0.0
 11
3218.638533809005
 21
110.740732465054
 31
0.0
  0
LINE
  5
4C5
330
36
100
AcDbEntity
  8
2-0
  6
Continuous
 62
     7
100
AcDbLine
 10
3218.638533809005
 20
110.740732465054
 30
0.0
 11
3217.808428441683
 21
114.887770552184
 31
0.0
  0
LINE
  5
4C6
330
36
100
AcDbEntity
  8
2-0
  6
Continuous
 62
     7
100
AcDbLine
 10
3217.808428441683
 20
114.887770552184
 30
0.0
 11
3216.703902610535
 21
118.970297037743
 31
0.0
  0
LINE
  5
4C7
330
36
100
AcDbEntity
  8
2-0
  6
Continuous
 62
     7
100
AcDbLine
 10
3216.703902610535
 20
118.970297037743
 30
0.0
 11
3215.32986350137
 21
122.970174078785
 31
0.0
  0
LINE
  5
4C8
330
36
100
AcDbEntity
  8
2-0
  6
Continuous
 62
     7
100
AcDbLine
 10
3215.32986350137
 20
122.970174078785
 30
0.0
 11
3213.692415693221
 21
126.8696310272
 31
0.0
  0
LINE
  5
4C9
330
36
100
AcDbEntity
  8
2-0
  6
Continuous
 62
     7
100
AcDbLine
 10
3213.692415693221
 20
126.8696310272
 30
0.0
 11
3211.798834036911
 21
130.651343381127
 31
0.0
  0
LINE
  5
4CA
330
36
100
AcDbEntity
  8
2-0
  6
Continuous
 62
     7
100
AcDbLine
 10
3211.798834036911
 20
130.651343381127
 30
0.0
 11
3209.657531334368
 21
134.298509754223
 31
0.0
  0
LINE
  5
4CB
330
36
100
AcDbEntity
  8
2-0
  6
Continuous
 62
     7
100
AcDbLine
 10
3209.657531334368
 20
134.298509754223
 30
0.0
 11
3207.278020962236
 21
137.794926520839
 31
0.0
  0
LINE
  5
4CC
330
36
100
AcDbEntity
  8
2-0
  6
Continuous
 62
     7
100
AcDbLine
 10
3207.278020962236
 20
137.794926520839
 30
0.0
 11
3204.670874605859
 21
141.125059805467
 31
0.0
  0
LINE
  5
4CD
330
36
100
AcDbEntity
  8
2-0
  6
Continuous
 62
     7
100
AcDbLine
 10
3204.670874605859
 20
141.125059805467
 30
0.0
 11
3201.847675291415
 21
144.27411449662
 31
0.0
  0
LINE
  5
4CE
330
36
100
AcDbEntity
  8
2-0
  6
Continuous
 62
     7
100
AcDbLine
 10
3201.847675291415
 20
144.27411449662
 30
0.0
 11
3198.820965924858
 21
147.228099978533
 31
0.0
  0
LINE
  5
4CF
330
36
100
AcDbEntity
  8
2-0
  6
Continuous
 62
     7
100
AcDbLine
 10
3198.820965924858
 20
147.228099978533
 30
0.0
 11
3195.604193566318
 21
149.973892288647
 31
0.0
  0
LINE
  5
4D0
330
36
100
AcDbEntity
  8
2-0
  6
Continuous
 62
     7
100
AcDbLine
 10
3195.604193566318
 20
149.973892288647
 30
0.0
 11
3192.211649687519
 21
152.499292424738
 31
0.0
  0
LINE
  5
4D1
330
36
100
AcDbEntity
  8
2-0
  6
Continuous
 62
     7
100
AcDbLine
 10
3192.211649687519
 20
152.499292424738
 30
0.0
 11
3188.658406677648
 21
154.793080542623
 31
0.0
  0
LINE
  5
4D2
330
36
100
AcDbEntity
  8
2-0
  6
Continuous
 62
     7
100
AcDbLine
 10
3188.658406677648
 20
154.793080542623
 30
0.0
 11
3184.960250879767
 21
156.845065803668
 31
0.0
  0
LINE
  5
4D3
330
36
100
AcDbEntity
  8
2-0
  6
Continuous
 62
     7
100
AcDbLine
 10
3184.960250879767
 20
156.845065803668
 30
0.0
 11
3181.13361245527
 21
158.646131650632
 31
0.0
  0
LINE
  5
4D4
330
36
100
AcDbEntity
  8
2-0
  6
Continuous
 62
     7
100
AcDbLine
 10
3181.13361245527
 20
158.646131650632
 30
0.0
 11
3177.195492387981
 21
160.188276310697
 31
0.0
  0
LINE
  5
4D5
330
36
100
AcDbEntity
  8
2-0
  6
Continuous
 62
     7
100
AcDbLine
 10
3177.195492387981
 20
160.188276310697
 30
0.0
 11
3173.163386952215
 21
161.464648345729
 31
0.0
  0
LINE
  5
4D6
330
36
100
AcDbEntity
  8
2-0
  6
Continuous
 62
     7
100
AcDbLine
 10
3173.163386952215
 20
161.464648345729
 30
0.0
 11
3169.055209980348
 21
162.46957709184
 31
0.0
  0
LINE
  5
4D7
330
36
100
AcDbEntity
  8
2-0
  6
Continuous
 62
     7
100
AcDbLine
 10
3169.055209980348
 20
162.46957709184
 30
0.0
 11
3164.889213275269
 21
163.198597853006
 31
0.0
  0
LINE
  5
4D8
330
36
100
AcDbEntity
  8
2-0
  6
Continuous
 62
     7
100
AcDbLine
 10
3164.889213275269
 20
163.198597853006
 30
0.0
 11
3160.683905521298
 21
163.648471736812
 31
0.0
  0
LINE
  5
4D9
330
36
100
AcDbEntity
  8
2-0
  6
Continuous
 62
     7
100
AcDbLine
 10
3160.683905521298
 20
163.648471736812
 30
0.0
 11
3156.457970053827
 21
163.817200044199
 31
0.0
  0
LINE
  5
4DA
330
36
100
AcDbEntity
  8
2-0
  6
Continuous
 62
     7
100
AcDbLine
 10
3156.457970053827
 20
163.817200044199
 30
0.0
 11
3152.230181853026
 21
163.704033149277
 31
0.0
  0
LINE
  5
4DB
330
36
100
AcDbEntity
  8
2-0
  6
Continuous
 62
     7
100
AcDbLine
 10
3152.230181853026
 20
163.704033149277
 30
0.0
 11
3148.019324130384
 21
163.30947382977
 31
0.0
  0
LINE
  5
4DC
330
36
100
AcDbEntity
  8
2-0
  6
Continuous
 62
     7
100
AcDbLine
 10
3148.019324130384
 20
163.30947382977
 30
0.0
 11
3143.844104878688
 21
162.635275033269
 31
0.0
  0
LINE
  5
4DD
330
36
100
AcDbEntity
  8
2-0
  6
Continuous
 62
     7
100
AcDbLine
 10
3143.844104878688
 20
162.635275033269
 30
0.0
 11
3139.723073756173
 21
161.684432089242
 31
0.0
  0
LINE
  5
4DE
330
36
100
AcDbEntity
  8
2-0
  6
Continuous
 62
     7
100
AcDbLine
 10
3139.723073756173
 20
161.684432089242
 30
0.0
 11
3135.674539674134
 21
160.461169401386
 31
0.0
  0
LINE
  5
4DF
330
36
100
AcDbEntity
  8
2-0
  6
Continuous
 62
     7
100
AcDbLine
 10
3135.674539674134
 20
160.461169401386
 30
0.0
 11
3131.716489454109
 21
158.970921679457
 31
0.0
  0
LINE
  5
4E0
330
36
100
AcDbEntity
  8
2-0
  6
Continuous
 62
     7
100
AcDbLine
 10
3131.716489454109
 20
158.970921679457
 30
0.0
 11
3127.866507916071
 21
157.220309793943
 31
0.0
  0
LINE
  5
4E1
330
36
100
AcDbEntity
  8
2-0
  6
Continuous
 62
     7
100
AcDbLine
 10
3127.866507916071
 20
157.220309793943
 30
0.0
 11
3124.141699752594
 21
155.217111360875
 31
0.0
  0
LINE
  5
4E2
330
36
100
AcDbEntity
  8
2-0
  6
Continuous
 62
     7
100
AcDbLine
 10
3124.141699752594
 20
155.217111360875
 30
0.0
 11
3120.558613536166
 21
152.970226187442
 31
0.0
  0
LINE
  5
4E3
330
36
100
AcDbEntity
  8
2-0
  6
Continuous
 62
     7
100
AcDbLine
 10
3120.558613536166
 20
152.970226187442
 30
0.0
 11
3117.133168197205
 21
150.489636731942
 31
0.0
  0
LINE
  5
4E4
330
36
100
AcDbEntity
  8
2-0
  6
Continuous
 62
     7
100
AcDbLine
 10
3117.133168197205
 20
150.489636731942
 30
0.0
 11
3113.880582299459
 21
147.78636375373
 31
0.0
  0
LINE
  5
4E5
330
36
100
AcDbEntity
  8
2-0
  6
Continuous
 62
     7
100
AcDbLine
 10
3113.880582299459
 20
147.78636375373
 30
0.0
 11
3110.815306426993
 21
144.872417350202
 31
0.0
  0
LINE
  5
4E6
330
36
100
AcDbEntity
  8
2-0
  6
Continuous
 62
     7
100
AcDbLine
 10
3110.815306426993
 20
144.872417350202
 30
0.0
 11
3107.950958983156
 21
141.760743598355
 31
0.0
  0
LINE
  5
4E7
330
36
100
AcDbEntity
  8
2-0
  6
Continuous
 62
     7
100
AcDbLine
 10
3107.950958983156
 20
141.760743598355
 30
0.0
 11
3105.300265686755
 21
138.465167037968
 31
0.0
  0
LINE
  5
4E8
330
36
100
AcDbEntity
  8
2-0
  6
Continuous
 62
     7
100
AcDbLine
 10
3105.300265686755
 20
138.465167037968
 30
0.0
 11
3102.875003034249
 21
135.000329251965
 31
0.0
  0
LINE
  5
4E9
330
36
100
AcDbEntity
  8
2-0
  6
Continuous
 62
     7
100
AcDbLine
 10
3102.875003034249
 20
135.000329251965
 30
0.0
 11
3100.685945979151
 21
131.381623816801
 31
0.0
  0
LINE
  5
4EA
330
36
100
AcDbEntity
  8
2-0
  6
Continuous
 62
     7
100
AcDbLine
 10
3100.685945979151
 20
131.381623816801
 30
0.0
 11
3098.742820061076
 21
127.62512791191
 31
0.0
  0
LINE
  5
4EB
330
36
100
AcDbEntity
  8
2-0
  6
Continuous
 62
     7
100
AcDbLine
 10
3098.742820061076
 20
127.62512791191
 30
0.0
 11
3097.054258197128
 21
123.747530892031
 31
0.0
  0
LINE
  5
4EC
330
36
100
AcDbEntity
  8
2-0
  6
Continuous
 62
     7
100
AcDbLine
 10
3097.054258197128
 20
123.747530892031
 30
0.0
 11
3095.627762327586
 21
119.766060139765
 31
0.0
  0
LINE
  5
4ED
330
36
100
AcDbEntity
  8
2-0
  6
Continuous
 62
     7
100
AcDbLine
 10
3095.627762327586
 20
119.766060139765
 30
0.0
 11
3094.469670086302
 21
115.698404527789
 31
0.0
  0
LINE
  5
4EE
330
36
100
AcDbEntity
  8
2-0
  6
Continuous
 62
     7
100
AcDbLine
 10
3094.469670086302
 20
115.698404527789
 30
0.0
 11
3093.585126643859
 21
111.562635830752
 31
0.0
  0
LINE
  5
4EF
330
36
100
AcDbEntity
  8
2-0
  6
Continuous
 62
     7
100
AcDbLine
 10
3093.585126643859
 20
111.562635830752
 30
0.0
 11
3092.978061848626
 21
107.37712843602
 31
0.0
  0
LINE
  5
4F0
330
36
100
AcDbEntity
  8
2-0
  6
Continuous
 62
     7
100
AcDbLine
 10
3092.978061848626
 20
107.37712843602
 30
0.0
 11
3092.651172767221
 21
103.160477709979
 31
0.0
  0
LINE
  5
4F1
330
36
100
AcDbEntity
  8
2-0
  6
Continuous
 62
     7
100
AcDbLine
 10
3092.651172767221
 20
103.160477709979
 30
0.0
 11
3092.605911701999
 21
98.93141738256099
 31
0.0
  0
LINE
  5
4F2
330
36
100
AcDbEntity
  8
2-0
  6
Continuous
 62
     7
100
AcDbLine
 10
3092.605911701999
 20
98.93141738256099
 30
0.0
 11
3092.842479738755
 21
94.70873631705901
 31
0.0
  0
LINE
  5
4F3
330
36
100
AcDbEntity
  8
2-0
  6
Continuous
 62
     7
100
AcDbLine
 10
3092.842479738755
 20
94.70873631705901
 30
0.0
 11
3093.359825853347
 21
90.51119503499
 31
0.0
  0
LINE
  5
4F4
330
36
100
AcDbEntity
  8
2-0
  6
Continuous
 62
     7
100
AcDbLine
 10
3093.359825853347
 20
90.51119503499
 30
0.0
 11
3094.155651581184
 21
86.35744236687401
 31
0.0
  0
LINE
  5
4F5
330
36
100
AcDbEntity
  8
2-0
  6
Continuous
 62
     7
100
AcDbLine
 10
3094.155651581184
 20
86.35744236687401
 30
0.0
 11
3095.226421228838
 21
82.265932599242
 31
0.0
  0
LINE
  5
4F6
330
36
100
AcDbEntity
  8
2-0
  6
Continuous
 62
     7
100
AcDbLine
 10
3095.226421228838
 20
82.265932599242
 30
0.0
 11
3096.567377582419
 21
78.254843485953
 31
0.0
  0
LINE
  5
4F7
330
36
100
AcDbEntity
  8
2-0
  6
Continuous
 62
     7
100
AcDbLine
 10
3096.567377582419
 20
78.254843485953
 30
0.0
 11
3098.172563042921
 21
74.341995488093
 31
0.0
  0
LINE
  5
4F8
330
36
100
AcDbEntity
  8
2-0
  6
Continuous
 62
     7
100
AcDbLine
 10
3098.172563042921
 20
74.341995488093
 30
0.0
 11
3100.034846094629
 21
70.544772601261
 31
0.0
  0
LINE
  5
4F9
330
36
100
AcDbEntity
  8
2-0
  6
Continuous
 62
     7
100
AcDbLine
 10
3100.034846094629
 20
70.544772601261
 30
0.0
 11
3102.145952989014
 21
66.88004512197401
 31
0.0
  0
LINE
  5
4FA
330
36
100
AcDbEntity
  8
2-0
  6
Continuous
 62
     7
100
AcDbLine
 10
3102.145952989014
 20
66.88004512197401
 30
0.0
 11
3104.496504503326
 21
63.36409469633899
 31
0.0
  0
LINE
  5
4FB
330
36
100
AcDbEntity
  8
2-0
  6
Continuous
 62
     7
100
AcDbLine
 10
3104.496504503326
 20
63.36409469633899
 30
0.0
 11
3107.076057610591
 21
60.012541983975
 31
0.0
  0
LINE
  5
4FC
330
36
100
AcDbEntity
  8
2-0
  6
Continuous
 62
     7
100
AcDbLine
 10
3107.076057610591
 20
60.012541983975
 30
0.0
 11
3107.610721275866
 21
59.372420449593
 31
0.0
  0
LINE
  5
4FD
330
36
100
AcDbEntity
  8
2-0
  6
Continuous
 62
     7
100
AcDbLine
 10
3227.415491133911
 20
100.367283036918
 30
0.0
 11
3227.256939779667
 21
105.122061851978
 31
0.0
  0
LINE
  5
4FE
330
36
100
AcDbEntity
  8
2-0
  6
Continuous
 62
     7
100
AcDbLine
 10
3227.256939779667
 20
105.122061851978
 30
0.0
 11
3226.781990128673
 21
109.855716142386
 31
0.0
  0
LINE
  5
4FF
330
36
100
AcDbEntity
  8
2-0
  6
Continuous
 62
     7
100
AcDbLine
 10
3226.781990128673
 20
109.855716142386
 30
0.0
 11
3225.992752286572
 21
114.547215235499
 31
0.0
  0
LINE
  5
500
330
36
100
AcDbEntity
  8
2-0
  6
Continuous
 62
     7
100
AcDbLine
 10
3225.992752286572
 20
114.547215235499
 30
0.0
 11
3224.892732678142
 21
119.175715745723
 31
0.0
  0
LINE
  5
501
330
36
100
AcDbEntity
  8
2-0
  6
Continuous
 62
     7
100
AcDbLine
 10
3224.892732678142
 20
119.175715745723
 30
0.0
 11
3223.486818468955
 21
123.720654177482
 31
0.0
  0
LINE
  5
502
330
36
100
AcDbEntity
  8
2-0
  6
Continuous
 62
     7
100
AcDbLine
 10
3223.486818468955
 20
123.720654177482
 30
0.0
 11
3221.781255852692
 21
128.161838284686
 31
0.0
  0
LINE
  5
503
330
36
100
AcDbEntity
  8
2-0
  6
Continuous
 62
     7
100
AcDbLine
 10
3221.781255852692
 20
128.161838284686
 30
0.0
 11
3219.783622300548
 21
132.479536780809
 31
0.0
  0
LINE
  5
504
330
36
100
AcDbEntity
  8
2-0
  6
Continuous
 62
     7
100
AcDbLine
 10
3219.783622300548
 20
132.479536780809
 30
0.0
 11
3217.50279289607
 21
136.654567001028
 31
0.0
  0
LINE
  5
505
330
36
100
AcDbEntity
  8
2-0
  6
Continuous
 62
     7
100
AcDbLine
 10
3217.50279289607
 20
136.654567001028
 30
0.0
 11
3214.948900904939
 21
140.668380126935
 31
0.0
  0
LINE
  5
506
330
36
100
AcDbEntity
  8
2-0
  6
Continuous
 62
     7
100
AcDbLine
 10
3214.948900904939
 20
140.668380126935
 30
0.0
 11
3212.133292754911
 21
144.503143595203
 31
0.0
  0
LINE
  5
507
330
36
100
AcDbEntity
  8
2-0
  6
Continuous
 62
     7
100
AcDbLine
 10
3212.133292754911
 20
144.503143595203
 30
0.0
 11
3209.068477625925
 21
148.141820324072
 31
0.0
  0
LINE
  5
508
330
36
100
AcDbEntity
  8
2-0
  6
Continuous
 62
     7
100
AcDbLine
 10
3209.068477625925
 20
148.141820324072
 30
0.0
 11
3205.768071874341
 21
151.568244405672
 31
0.0
  0
LINE
  5
509
330
36
100
AcDbEntity
  8
2-0
  6
Continuous
 62
     7
100
AcDbLine
 10
3205.768071874341
 20
151.568244405672
 30
0.0
 11
3202.246738538202
 21
154.7671929279
 31
0.0
  0
LINE
  5
50A
330
36
100
AcDbEntity
  8
2-0
  6
Continuous
 62
     7
100
AcDbLine
 10
3202.246738538202
 20
154.7671929279
 30
0.0
 11
3198.520122192319
 21
157.724453606746
 31
0.0
  0
LINE
  5
50B
330
36
100
AcDbEntity
  8
2-0
  6
Continuous
 62
     7
100
AcDbLine
 10
3198.520122192319
 20
157.724453606746
 30
0.0
 11
3194.604779442564
 21
160.426887928614
 31
0.0
  0
LINE
  5
50C
330
36
100
AcDbEntity
  8
2-0
  6
Continuous
 62
     7
100
AcDbLine
 10
3194.604779442564
 20
160.426887928614
 30
0.0
 11
3190.518105368219
 21
162.862489522087
 31
0.0
  0
LINE
  5
50D
330
36
100
AcDbEntity
  8
2-0
  6
Continuous
 62
     7
100
AcDbLine
 10
3190.518105368219
 20
162.862489522087
 30
0.0
 11
3186.278256239129
 21
165.0204374998209
 31
0.0
  0
LINE
  5
50E
330
36
100
AcDbEntity
  8
2-0
  6
Continuous
 62
     7
100
AcDbLine
 10
3186.278256239129
 20
165.0204374998209
 30
0.0
 11
3181.904068851059
 21
166.891144533567
 31
0.0
  0
LINE
  5
50F
330
36
100
AcDbEntity
  8
2-0
  6
Continuous
 62
     7
100
AcDbLine
 10
3181.904068851059
 20
166.891144533567
 30
0.0
 11
3177.414976837604
 21
168.466299448738
 31
0.0
  0
LINE
  5
510
330
36
100
AcDbEntity
  8
2-0
  6
Continuous
 62
     7
100
AcDbLine
 10
3177.414976837604
 20
168.466299448738
 30
0.0
 11
3172.830924330467
 21
169.738904149286
 31
0.0
  0
LINE
  5
511
330
36
100
AcDbEntity
  8
2-0
  6
Continuous
 62
     7
100
AcDbLine
 10
3172.830924330467
 20
169.738904149286
 30
0.0
 11
3168.172277351697
 21
170.703304708832
 31
0.0
  0
LINE
  5
512
330
36
100
AcDbEntity
  8
2-0
  6
Continuous
 62
     7
100
AcDbLine
 10
3168.172277351697
 20
170.703304708832
 30
0.0
 11
3163.459733331562
 21
171.355216489923
 31
0.0
  0
LINE
  5
513
330
36
100
AcDbEntity
  8
2-0
  6
Continuous
 62
     7
100
AcDbLine
 10
3163.459733331562
 20
171.355216489923
 30
0.0
 11
3158.714229154022
 21
171.691743179811
 31
0.0
  0
LINE
  5
514
330
36
100
AcDbEntity
  8
2-0
  6
Continuous
 62
     7
100
AcDbLine
 10
3158.714229154022
 20
171.691743179811
 30
0.0
 11
3153.956848138385
 21
171.71138965819
 31
0.0
  0
LINE
  5
515
330
36
100
AcDbEntity
  8
2-0
  6
Continuous
 62
     7
100
AcDbLine
 10
3153.956848138385
 20
171.71138965819
 30
0.0
 11
3149.208726370359
 21
171.414068639715
 31
0.0
  0
LINE
  5
516
330
36
100
AcDbEntity
  8
2-0
  6
Continuous
 62
     7
100
AcDbLine
 10
3149.208726370359
 20
171.414068639715
 30
0.0
 11
3144.490958798672
 21
170.801101061788
 31
0.0
  0
LINE
  5
517
330
36
100
AcDbEntity
  8
2-0
  6
Continuous
 62
     7
100
AcDbLine
 10
3144.490958798672
 20
170.801101061788
 30
0.0
 11
3139.824505514477
 21
169.875210215906
 31
0.0
  0
LINE
  5
518
330
36
100
AcDbEntity
  8
2-0
  6
Continuous
 62
     7
100
AcDbLine
 10
3139.824505514477
 20
169.875210215906
 30
0.0
 11
3135.230098629885
 21
168.64050964862
 31
0.0
  0
LINE
  5
519
330
36
100
AcDbEntity
  8
2-0
  6
Continuous
 62
     7
100
AcDbLine
 10
3135.230098629885
 20
168.64050964862
 30
0.0
 11
3130.728150169357
 21
167.102484885879
 31
0.0
  0
LINE
  5
51A
330
36
100
AcDbEntity
  8
2-0
  6
Continuous
 62
     7
100
AcDbLine
 10
3130.728150169357
 20
167.102484885879
 30
0.0
 11
3126.338661383202
 21
165.267969061943
 31
0.0
  0
LINE
  5
51B
330
36
100
AcDbEntity
  8
2-0
  6
Continuous
 62
     7
100
AcDbLine
 10
3126.338661383202
 20
165.267969061943
 30
0.0
 11
3122.081133886043
 21
163.145112561142
 31
0.0
  0
LINE
  5
51C
330
36
100
AcDbEntity
  8
2-0
  6
Continuous
 62
     7
100
AcDbLine
 10
3122.081133886043
 20
163.145112561142
 30
0.0
 11
3117.974483015077
 21
160.74334680736
 31
0.0
  0
LINE
  5
51D
330
36
100
AcDbEntity
  8
2-0
  6
Continuous
 62
     7
100
AcDbLine
 10
3117.974483015077
 20
160.74334680736
 30
0.0
 11
3114.036953793031
 21
158.073342362121
 31
0.0
  0
LINE
  5
51E
330
36
100
AcDbEntity
  8
2-0
  6
Continuous
 62
     7
100
AcDbLine
 10
3114.036953793031
 20
158.073342362121
 30
0.0
 11
3110.286039869214
 21
155.14696151743
 31
0.0
  0
LINE
  5
51F
330
36
100
AcDbEntity
  8
2-0
  6
Continuous
 62
     7
100
AcDbLine
 10
3110.286039869214
 20
155.14696151743
 30
0.0
 11
3106.738405798746
 21
151.977205594
 31
0.0
  0
LINE
  5
520
330
36
100
AcDbEntity
  8
2-0
  6
Continuous
 62
     7
100
AcDbLine
 10
3106.738405798746
 20
151.977205594
 30
0.0
 11
3103.409813005301
 21
148.578157179004
 31
0.0
  0
LINE
  5
521
330
36
100
AcDbEntity
  8
2-0
  6
Continuous
 62
     7
100
AcDbLine
 10
3103.409813005301
 20
148.578157179004
 30
0.0
 11
3100.315049756274
 21
144.964917559972
 31
0.0
  0
LINE
  5
522
330
36
100
AcDbEntity
  8
2-0
  6
Continuous
 62
     7
100
AcDbLine
 10
3100.315049756274
 20
144.964917559972
 30
0.0
 11
3097.467865461489
 21
141.153539632818
 31
0.0
  0
LINE
  5
523
330
36
100
AcDbEntity
  8
2-0
  6
Continuous
 62
     7
100
AcDbLine
 10
3097.467865461489
 20
141.153539632818
 30
0.0
 11
3094.880909587337
 21
137.160956582052
 31
0.0
  0
LINE
  5
524
330
36
100
AcDbEntity
  8
2-0
  6
Continuous
 62
     7
100
AcDbLine
 10
3094.880909587337
 20
137.160956582052
 30
0.0
 11
3092.565675457749
 21
133.004906650054
 31
0.0
  0
LINE
  5
525
330
36
100
AcDbEntity
  8
2-0
  6
Continuous
 62
     7
100
AcDbLine
 10
3092.565675457749
 20
133.004906650054
 30
0.0
 11
3090.53244919167
 21
128.703854329633
 31
0.0
  0
LINE
  5
526
330
36
100
AcDbEntity
  8
2-0
  6
Continuous
 62
     7
100
AcDbLine
 10
3090.53244919167
 20
128.703854329633
 30
0.0
 11
3088.790264003903
 21
124.276908330007
 31
0.0
  0
LINE
  5
527
330
36
100
AcDbEntity
  8
2-0
  6
Continuous
 62
     7
100
AcDbLine
 10
3088.790264003903
 20
124.276908330007
 30
0.0
 11
3087.346860072357
 21
119.743736680657
 31
0.0
  0
LINE
  5
528
330
36
100
AcDbEntity
  8
2-0
  6
Continuous
 62
     7
100
AcDbLine
 10
3087.346860072357
 20
119.743736680657
 30
0.0
 11
3086.208650149996
 21
115.124479350228
 31
0.0
  0
LINE
  5
529
330
36
100
AcDbEntity
  8
2-0
  6
Continuous
 62
     7
100
AcDbLine
 10
3086.208650149996
 20
115.124479350228
 30
0.0
 11
3085.380691074266
 21
110.439658768713
 31
0.0
  0
LINE
  5
52A
330
36
100
AcDbEntity
  8
2-0
  6
Continuous
 62
     7
100
AcDbLine
 10
3085.380691074266
 20
110.439658768713
 30
0.0
 11
3084.866661300589
 21
105.710088650419
 31
0.0
  0
LINE
  5
52B
330
36
100
AcDbEntity
  8
2-0
  6
Continuous
 62
     7
100
AcDbLine
 10
3084.866661300589
 20
105.710088650419
 30
0.0
 11
3084.668844559721
 21
100.956781522838
 31
0.0
  0
LINE
  5
52C
330
36
100
AcDbEntity
  8
2-0
  6
Continuous
 62
     7
100
AcDbLine
 10
3084.668844559721
 20
100.956781522838
 30
0.0
 11
3084.788119711602
 21
96.200855372211
 31
0.0
  0
LINE
  5
52D
330
36
100
AcDbEntity
  8
2-0
  6
Continuous
 62
     7
100
AcDbLine
 10
3084.788119711602
 20
96.200855372211
 30
0.0
 11
3085.223956840754
 21
91.46343982056999
 31
0.0
  0
LINE
  5
52E
330
36
100
AcDbEntity
  8
2-0
  6
Continuous
 62
     7
100
AcDbLine
 10
3085.223956840754
 20
91.46343982056999
 30
0.0
 11
3085.974419610591
 21
86.76558225108498
 31
0.0
  0
LINE
  5
52F
330
36
100
AcDbEntity
  8
2-0
  6
Continuous
 62
     7
100
AcDbLine
 10
3085.974419610591
 20
86.76558225108498
 30
0.0
 11
3087.036173866172
 21
82.12815429877799
 31
0.0
  0
LINE
  5
530
330
36
100
AcDbEntity
  8
2-0
  6
Continuous
 62
     7
100
AcDbLine
 10
3087.036173866172
 20
82.12815429877799
 30
0.0
 11
3088.404502447178
 21
77.57175912205401
 31
0.0
  0
LINE
  5
531
330
36
100
AcDbEntity
  8
2-0
  6
Continuous
 62
     7
100
AcDbLine
 10
3088.404502447178
 20
77.57175912205401
 30
0.0
 11
3090.073326145309
 21
73.11663986701299
 31
0.0
  0
LINE
  5
532
330
36
100
AcDbEntity
  8
2-0
  6
Continuous
 62
     7
100
AcDbLine
 10
3090.073326145309
 20
73.11663986701299
 30
0.0
 11
3092.035230712979
 21
68.782589731236
 31
0.0
  0
LINE
  5
533
330
36
100
AcDbEntity
  8
2-0
  6
Continuous
 62
     7
100
AcDbLine
 10
3092.035230712979
 20
68.782589731236
 30
0.0
 11
3094.281499803326
 21
64.588864026588
 31
0.0
  0
LINE
  5
534
330
36
100
AcDbEntity
  8
2-0
  6
Continuous
 62
     7
100
AcDbLine
 10
3094.281499803326
 20
64.588864026588
 30
0.0
 11
3096.802153695183
 21
60.554094631749
 31
0.0
  0
LINE
  5
535
330
36
100
AcDbEntity
  8
2-0
  6
Continuous
 62
     7
100
AcDbLine
 10
3096.802153695183
 20
60.554094631749
 30
0.0
 11
3099.585993630977
 21
56.69620721452799
 31
0.0
  0
LINE
  5
536
330
36
100
AcDbEntity
  8
2-0
  6
Continuous
 62
     7
100
AcDbLine
 10
3099.585993630977
 20
56.69620721452799
 30
0.0
 11
3102.620651570544
 21
53.03234159173399
 31
0.0
  0
LINE
  5
537
330
36
100
AcDbEntity
  8
2-0
  6
Continuous
 62
     7
100
AcDbLine
 10
3102.620651570544
 20
53.03234159173399
 30
0.0
 11
3105.892645139844
 21
49.578775580417
 31
0.0
  0
LINE
  5
538
330
36
100
AcDbEntity
  8
2-0
  6
Continuous
 62
     7
100
AcDbLine
 10
3105.892645139844
 20
49.578775580417
 30
0.0
 11
3109.387437530436
 21
46.35085267880999
 31
0.0
  0
LINE
  5
539
330
36
100
AcDbEntity
  8
2-0
  6
Continuous
 62
     7
100
AcDbLine
 10
3109.387437530436
 20
46.35085267880999
 30
0.0
 11
3113.089502083589
 21
43.362913898254
 31
0.0
  0
LINE
  5
53A
330
36
100
AcDbEntity
  8
2-0
  6
Continuous
 62
     7
100
AcDbLine
 10
3113.089502083589
 20
43.362913898254
 30
0.0
 11
3116.982391272096
 21
40.628234048973
 31
0.0
  0
LINE
  5
53B
330
36
100
AcDbEntity
  8
2-0
  6
Continuous
 62
     7
100
AcDbLine
 10
3116.982391272096
 20
40.628234048973
 30
0.0
 11
3121.048809773329
 21
38.158962762767
 31
0.0
  0
LINE
  5
53C
330
36
100
AcDbEntity
  8
2-0
  6
Continuous
 62
     7
100
AcDbLine
 10
3121.048809773329
 20
38.158962762767
 30
0.0
 11
3125.270691308874
 21
35.966070514643
 31
0.0
  0
LINE
  5
53D
330
36
100
AcDbEntity
  8
2-0
  6
Continuous
 62
     7
100
AcDbLine
 10
3125.270691308874
 20
35.966070514643
 30
0.0
 11
3129.629278909364
 21
34.059299883207
 31
0.0
  0
LINE
  5
53E
330
36
100
AcDbEntity
  8
2-0
  6
Continuous
 62
     7
100
AcDbLine
 10
3129.629278909364
 20
34.059299883207
 30
0.0
 11
3134.10520824792
 21
32.447122266347
 31
0.0
  0
LINE
  5
53F
330
36
100
AcDbEntity
  8
2-0
  6
Continuous
 62
     7
100
AcDbLine
 10
3134.10520824792
 20
32.447122266347
 30
0.0
 11
3138.678593671953
 21
31.136700244517
 31
0.0
  0
LINE
  5
540
330
36
100
AcDbEntity
  8
2-0
  6
Continuous
 62
     7
100
AcDbLine
 10
3138.678593671953
 20
31.136700244517
 30
0.0
 11
3143.329116551113
 21
30.133855758839
 31
0.0
  0
LINE
  5
541
330
36
100
AcDbEntity
  8
2-0
  6
Continuous
 62
     7
100
AcDbLine
 10
3143.329116551113
 20
30.133855758839
 30
0.0
 11
3148.036115548875
 21
29.443044245388
 31
0.0
  0
LINE
  5
542
330
36
100
AcDbEntity
  8
2-0
  6
Continuous
 62
     7
100
AcDbLine
 10
3148.036115548875
 20
29.443044245388
 30
0.0
 11
3152.778678416692
 21
29.067334840587
 31
0.0
  0
LINE
  5
543
330
36
100
AcDbEntity
  8
2-0
  6
Continuous
 62
     7
100
AcDbLine
 10
3152.778678416692
 20
29.067334840587
 30
0.0
 11
3157.535734902904
 21
29.008396745652
 31
0.0
  0
LINE
  5
544
330
36
100
AcDbEntity
  8
2-0
  6
Continuous
 62
     7
100
AcDbLine
 10
3157.535734902904
 20
29.008396745652
 30
0.0
 11
3162.286150363625
 21
29.26649181067
 31
0.0
  0
LINE
  5
545
330
36
100
AcDbEntity
  8
2-0
  6
Continuous
 62
     7
100
AcDbLine
 10
3162.286150363625
 20
29.26649181067
 30
0.0
 11
3167.008819659709
 21
29.840473371247
 31
0.0
  0
LINE
  5
546
330
36
100
AcDbEntity
  8
2-0
  6
Continuous
 62
     7
100
AcDbLine
 10
3167.008819659709
 20
29.840473371247
 30
0.0
 11
3171.682760922627
 21
30.72779134291
 31
0.0
  0
LINE
  5
547
330
36
100
AcDbEntity
  8
2-0
  6
Continuous
 62
     7
100
AcDbLine
 10
3171.682760922627
 20
30.72779134291
 30
0.0
 11
3176.287208772692
 21
31.924503550621
 31
0.0
  0
LINE
  5
548
330
36
100
AcDbEntity
  8
2-0
  6
Continuous
 62
     7
100
AcDbLine
 10
3176.287208772692
 20
31.924503550621
 30
0.0
 11
3180.801706575452
 21
33.425293243059
 31
0.0
  0
LINE
  5
549
330
36
100
AcDbEntity
  8
2-0
  6
Continuous
 62
     7
100
AcDbLine
 10
3180.801706575452
 20
33.425293243059
 30
0.0
 11
3185.206197326399
 21
35.223492713884
 31
0.0
  0
LINE
  5
54A
330
36
100
AcDbEntity
  8
2-0
  6
Continuous
 62
     7
100
AcDbLine
 10
3185.206197326399
 20
35.223492713884
 30
0.0
 11
3189.4811127602
 21
37.31111292501
 31
0.0
  0
LINE
  5
54B
330
36
100
AcDbEntity
  8
2-0
  6
Continuous
 62
     7
100
AcDbLine
 10
3189.4811127602
 20
37.31111292501
 30
0.0
 11
3193.607460288562
 21
39.678879000288
 31
0.0
  0
LINE
  5
54C
330
36
100
AcDbEntity
  8
2-0
  6
Continuous
 62
     7
100
AcDbLine
 10
3193.607460288562
 20
39.678879000288
 30
0.0
 11
3197.566907380471
 21
42.31627143192
 31
0.0
  0
LINE
  5
54D
330
36
100
AcDbEntity
  8
2-0
  6
Continuous
 62
     7
100
AcDbLine
 10
3197.566907380471
 20
42.31627143192
 30
0.0
 11
3201.34186300994
 21
45.21157281650899
 31
0.0
  0
LINE
  5
54E
330
36
100
AcDbEntity
  8
2-0
  6
Continuous
 62
     7
100
AcDbLine
 10
3201.34186300994
 20
45.21157281650899
 30
0.0
 11
3204.91555580939
 21
48.35191991312299
 31
0.0
  0
LINE
  5
54F
330
36
100
AcDbEntity
  8
2-0
  6
Continuous
 62
     7
100
AcDbLine
 10
3204.91555580939
 20
48.35191991312299
 30
0.0
 11
3208.272108581465
 21
51.723360792086
 31
0.0
  0
LINE
  5
550
330
36
100
AcDbEntity
  8
2-0
  6
Continuous
 62
     7
100
AcDbLine
 10
3208.272108581465
 20
51.723360792086
 30
0.0
 11
3211.396608838215
 21
55.310916820587
 31
0.0
  0
LINE
  5
551
330
36
100
AcDbEntity
  8
2-0
  6
Continuous
 62
     7
100
AcDbLine
 10
3211.396608838215
 20
55.310916820587
 30
0.0
 11
3214.27517505428
 21
59.098649209734
 31
0.0
  0
LINE
  5
552
330
36
100
AcDbEntity
  8
2-0
  6
Continuous
 62
     7
100
AcDbLine
 10
3214.27517505428
 20
59.098649209734
 30
0.0
 11
3216.895018339714
 21
63.06972982738
 31
0.0
  0
LINE
  5
553
330
36
100
AcDbEntity
  8
2-0
  6
Continuous
 62
     7
100
AcDbLine
 10
3216.895018339714
 20
63.06972982738
 30
0.0
 11
3219.244499258439
 21
67.20651596212499
 31
0.0
  0
LINE
  5
554
330
36
100
AcDbEntity
  8
2-0
  6
Continuous
 62
     7
100
AcDbLine
 10
3219.244499258439
 20
67.20651596212499
 30
0.0
 11
3221.313179539925
 21
71.49062870633
 31
0.0
  0
LINE
  5
555
330
36
100
AcDbEntity
  8
2-0
  6
Continuous
 62
     7
100
AcDbLine
 10
3221.313179539925
 20
71.49062870633
 30
0.0
 11
3223.091868454319
 21
75.903034609903
 31
0.0
  0
LINE
  5
556
330
36
100
AcDbEntity
  8
2-0
  6
Continuous
 62
     7
100
AcDbLine
 10
3223.091868454319
 20
75.903034609903
 30
0.0
 11
3224.572663645007
 21
80.42413024208299
 31
0.0
  0
LINE
  5
557
330
36
100
AcDbEntity
  8
2-0
  6
Continuous
 62
     7
100
AcDbLine
 10
3224.572663645007
 20
80.42413024208299
 30
0.0
 11
3225.748986237189
 21
85.03382928553399
 31
0.0
  0
LINE
  5
558
330
36
100
AcDbEntity
  8
2-0
  6
Continuous
 62
     7
100
AcDbLine
 10
3225.748986237189
 20
85.03382928553399
 30
0.0
 11
3226.615610066505
 21
89.711651775811
 31
0.0
  0
LINE
  5
559
330
36
100
AcDbEntity
  8
2-0
  6
Continuous
 62
     7
100
AcDbLine
 10
3226.615610066505
 20
89.711651775811
 30
0.0
 11
3227.16868489782
 21
94.436815089713
 31
0.0
  0
LINE
  5
55A
330
36
100
AcDbEntity
  8
2-0
  6
Continuous
 62
     7
100
AcDbLine
 10
3227.16868489782
 20
94.436815089713
 30
0.0
 11
3227.40575353105
 21
99.18832627829502
 31
0.0
  0
LINE
  5
55B
330
36
100
AcDbEntity
  8
2-0
  6
Continuous
 62
     7
100
AcDbLine
 10
3227.40575353105
 20
99.18832627829502
 30
0.0
 11
3227.415491133911
 21
100.367283036918
 31
0.0
  0
LINE
  5
55C
330
36
100
AcDbEntity
  8
2-0
  6
Continuous
 62
     7
100
AcDbLine
 10
3204.152887760939
 20
59.641846090873
 30
0.0
 11
3206.759030381436
 21
62.93740065342699
 31
0.0
  0
LINE
  5
55D
330
36
100
AcDbEntity
  8
2-0
  6
Continuous
 62
     7
100
AcDbLine
 10
3206.759030381436
 20
62.93740065342699
 30
0.0
 11
3209.139842788313
 21
66.39924864494999
 31
0.0
  0
LINE
  5
55E
330
36
100
AcDbEntity
  8
2-0
  6
Continuous
 62
     7
100
AcDbLine
 10
3209.139842788313
 20
66.39924864494999
 30
0.0
 11
3211.284747511548
 21
70.012009772037
 31
0.0
  0
LINE
  5
55F
330
36
100
AcDbEntity
  8
2-0
  6
Continuous
 62
     7
100
AcDbLine
 10
3211.284747511548
 20
70.012009772037
 30
0.0
 11
3213.184215171445
 21
73.75963326461999
 31
0.0
  0
LINE
  5
560
330
36
100
AcDbEntity
  8
2-0
  6
Continuous
 62
     7
100
AcDbLine
 10
3213.184215171445
 20
73.75963326461999
 30
0.0
 11
3214.829806815745
 21
77.625469186301
 31
0.0
  0
LINE
  5
561
330
36
100
AcDbEntity
  8
2-0
  6
Continuous
 62
     7
100
AcDbLine
 10
3214.829806815745
 20
77.625469186301
 30
0.0
 11
3216.2142114122
 21
81.592342406667
 31
0.0
  0
LINE
  5
562
330
36
100
AcDbEntity
  8
2-0
  6
Continuous
 62
     7
100
AcDbLine
 10
3216.2142114122
 20
81.592342406667
 30
0.0
 11
3217.331278330012
 21
85.642628906939
 31
0.0
  0
LINE
  5
563
330
36
100
AcDbEntity
  8
2-0
  6
Continuous
 62
     7
100
AcDbLine
 10
3217.331278330012
 20
85.642628906939
 30
0.0
 11
3218.176044665843
 21
89.75833407993199
 31
0.0
  0
LINE
  5
564
330
36
100
AcDbEntity
  8
2-0
  6
Continuous
 62
     7
100
AcDbLine
 10
3218.176044665843
 20
89.75833407993199
 30
0.0
 11
3218.744757293001
 21
93.92117267647499
 31
0.0
  0
LINE
  5
565
330
36
100
AcDbEntity
  8
2-0
  6
Continuous
 62
     7
100
AcDbLine
 10
3218.744757293001
 20
93.92117267647499
 30
0.0
 11
3219.034889535823
 21
98.112650043088
 31
0.0
  0
LINE
  5
566
330
36
100
AcDbEntity
  8
2-0
  6
Continuous
 62
     7
100
AcDbLine
 10
3219.034889535823
 20
98.112650043088
 30
0.0
 11
3219.045152395188
 21
102.314144290004
 31
0.0
  0
LINE
  5
567
330
36
100
AcDbEntity
  8
2-0
  6
Continuous
 62
     7
100
AcDbLine
 10
3219.045152395188
 20
102.314144290004
 30
0.0
 11
3218.77550027528
 21
106.506989024476
 31
0.0
  0
LINE
  5
568
330
36
100
AcDbEntity
  8
2-0
  6
Continuous
 62
     7
100
AcDbLine
 10
3218.77550027528
 20
106.506989024476
 30
0.0
 11
3218.227131186158
 21
110.672556281795
 31
0.0
  0
LINE
  5
569
330
36
100
AcDbEntity
  8
2-0
  6
Continuous
 62
     7
100
AcDbLine
 10
3218.227131186158
 20
110.672556281795
 30
0.0
 11
3217.40248142124
 21
114.792339285592
 31
0.0
  0
LINE
  5
56A
330
36
100
AcDbEntity
  8
2-0
  6
Continuous
 62
     7
100
AcDbLine
 10
3217.40248142124
 20
114.792339285592
 30
0.0
 11
3216.305214733349
 21
118.848034669715
 31
0.0
  0
LINE
  5
56B
330
36
100
AcDbEntity
  8
2-0
  6
Continuous
 62
     7
100
AcDbLine
 10
3216.305214733349
 20
118.848034669715
 30
0.0
 11
3214.940206057386
 21
122.821623796399
 31
0.0
  0
LINE
  5
56C
330
36
100
AcDbEntity
  8
2-0
  6
Continuous
 62
     7
100
AcDbLine
 10
3214.940206057386
 20
122.821623796399
 30
0.0
 11
3213.313519851982
 21
126.695452809442
 31
0.0
  0
LINE
  5
56D
330
36
100
AcDbEntity
  8
2-0
  6
Continuous
 62
     7
100
AcDbLine
 10
3213.313519851982
 20
126.695452809442
 30
0.0
 11
3211.43238315633
 21
130.452311066739
 31
0.0
  0
LINE
  5
56E
330
36
100
AcDbEntity
  8
2-0
  6
Continuous
 62
     7
100
AcDbLine
 10
3211.43238315633
 20
130.452311066739
 30
0.0
 11
3209.305153481902
 21
134.075507603692
 31
0.0
  0
LINE
  5
56F
330
36
100
AcDbEntity
  8
2-0
  6
Continuous
 62
     7
100
AcDbLine
 10
3209.305153481902
 20
134.075507603692
 30
0.0
 11
3206.941281681716
 21
137.548945287806
 31
0.0
  0
LINE
  5
570
330
36
100
AcDbEntity
  8
2-0
  6
Continuous
 62
     7
100
AcDbLine
 10
3206.941281681716
 20
137.548945287806
 30
0.0
 11
3204.351269962087
 21
140.85719233501
 31
0.0
  0
LINE
  5
571
330
36
100
AcDbEntity
  8
2-0
  6
Continuous
 62
     7
100
AcDbLine
 10
3204.351269962087
 20
140.85719233501
 30
0.0
 11
3201.546625223454
 21
143.985550869962
 31
0.0
  0
LINE
  5
572
330
36
100
AcDbEntity
  8
2-0
  6
Continuous
 62
     7
100
AcDbLine
 10
3201.546625223454
 20
143.985550869962
 30
0.0
 11
3198.539807937529
 21
146.920122225748
 31
0.0
  0
LINE
  5
573
330
36
100
AcDbEntity
  8
2-0
  6
Continuous
 62
     7
100
AcDbLine
 10
3198.539807937529
 20
146.920122225748
 30
0.0
 11
3195.344176787931
 21
149.647868692864
 31
0.0
  0
LINE
  5
574
330
36
100
AcDbEntity
  8
2-0
  6
Continuous
 62
     7
100
AcDbLine
 10
3195.344176787931
 20
149.647868692864
 30
0.0
 11
3191.973929320254
 21
152.156671443132
 31
0.0
  0
LINE
  5
575
330
36
100
AcDbEntity
  8
2-0
  6
Continuous
 62
     7
100
AcDbLine
 10
3191.973929320254
 20
152.156671443132
 30
0.0
 11
3188.444038865218
 21
154.435384371209
 31
0.0
  0
LINE
  5
576
330
36
100
AcDbEntity
  8
2-0
  6
Continuous
 62
     7
100
AcDbLine
 10
3188.444038865218
 20
154.435384371209
 30
0.0
 11
3184.770188015189
 21
156.473883614496
 31
0.0
  0
LINE
  5
577
330
36
100
AcDbEntity
  8
2-0
  6
Continuous
 62
     7
100
AcDbLine
 10
3184.770188015189
 20
156.473883614496
 30
0.0
 11
3180.968698949572
 21
158.263112531412
 31
0.0
  0
LINE
  5
578
330
36
100
AcDbEntity
  8
2-0
  6
Continuous
 62
     7
100
AcDbLine
 10
3180.968698949572
 20
158.263112531412
 30
0.0
 11
3177.056460918656
 21
159.795121938233
 31
0.0
  0
LINE
  5
579
330
36
100
AcDbEntity
  8
2-0
  6
Continuous
 62
     7
100
AcDbLine
 10
3177.056460918656
 20
159.795121938233
 30
0.0
 11
3173.05085520808
 21
161.063105425717
 31
0.0
  0
LINE
  5
57A
330
36
100
AcDbEntity
  8
2-0
  6
Continuous
 62
     7
100
AcDbLine
 10
3173.05085520808
 20
161.063105425717
 30
0.0
 11
3168.969677917278
 21
162.061429598601
 31
0.0
  0
LINE
  5
57B
330
36
100
AcDbEntity
  8
2-0
  6
Continuous
 62
     7
100
AcDbLine
 10
3168.969677917278
 20
162.061429598601
 30
0.0
 11
3164.831060894992
 21
162.785659103652
 31
0.0
  0
LINE
  5
57C
330
36
100
AcDbEntity
  8
2-0
  6
Continuous
 62
     7
100
AcDbLine
 10
3164.831060894992
 20
162.785659103652
 30
0.0
 11
3160.65339118313
 21
163.232576335039
 31
0.0
  0
LINE
  5
57D
330
36
100
AcDbEntity
  8
2-0
  6
Continuous
 62
     7
100
AcDbLine
 10
3160.65339118313
 20
163.232576335039
 30
0.0
 11
3156.455229326825
 21
163.400195729514
 31
0.0
  0
LINE
  5
57E
330
36
100
AcDbEntity
  8
2-0
  6
Continuous
 62
     7
100
AcDbLine
 10
3156.455229326825
 20
163.400195729514
 30
0.0
 11
3152.255226913688
 21
163.287772587866
 31
0.0
  0
LINE
  5
57F
330
36
100
AcDbEntity
  8
2-0
  6
Continuous
 62
     7
100
AcDbLine
 10
3152.255226913688
 20
163.287772587866
 30
0.0
 11
3148.072043708551
 21
162.895806383471
 31
0.0
  0
LINE
  5
580
330
36
100
AcDbEntity
  8
2-0
  6
Continuous
 62
     7
100
AcDbLine
 10
3148.072043708551
 20
162.895806383471
 30
0.0
 11
3143.924264751891
 21
162.226038543232
 31
0.0
  0
LINE
  5
581
330
36
100
AcDbEntity
  8
2-0
  6
Continuous
 62
     7
100
AcDbLine
 10
3143.924264751891
 20
162.226038543232
 30
0.0
 11
3139.83031779024
 21
161.281444710771
 31
0.0
  0
LINE
  5
582
330
36
100
AcDbEntity
  8
2-0
  6
Continuous
 62
     7
100
AcDbLine
 10
3139.83031779024
 20
161.281444710771
 30
0.0
 11
3135.80839140542
 21
160.066221526241
 31
0.0
  0
LINE
  5
583
330
36
100
AcDbEntity
  8
2-0
  6
Continuous
 62
     7
100
AcDbLine
 10
3135.80839140542
 20
160.066221526241
 30
0.0
 11
3131.876354206332
 21
158.585767981504
 31
0.0
  0
LINE
  5
584
330
36
100
AcDbEntity
  8
2-0
  6
Continuous
 62
     7
100
AcDbLine
 10
3131.876354206332
 20
158.585767981504
 30
0.0
 11
3128.051675442332
 21
156.846661433491
 31
0.0
  0
LINE
  5
585
330
36
100
AcDbEntity
  8
2-0
  6
Continuous
 62
     7
100
AcDbLine
 10
3128.051675442332
 20
156.846661433491
 30
0.0
 11
3124.351347390868
 21
154.856628382337
 31
0.0
  0
LINE
  5
586
330
36
100
AcDbEntity
  8
2-0
  6
Continuous
 62
     7
100
AcDbLine
 10
3124.351347390868
 20
154.856628382337
 30
0.0
 11
3120.79180986422
 21
152.624510144089
 31
0.0
  0
LINE
  5
587
330
36
100
AcDbEntity
  8
2-0
  6
Continuous
 62
     7
100
AcDbLine
 10
3120.79180986422
 20
152.624510144089
 30
0.0
 11
3117.388877170719
 21
150.160223570526
 31
0.0
  0
LINE
  5
588
330
36
100
AcDbEntity
  8
2-0
  6
Continuous
 62
     7
100
AcDbLine
 10
3117.388877170719
 20
150.160223570526
 30
0.0
 11
3114.157667854964
 21
147.474716990583
 31
0.0
  0
LINE
  5
589
330
36
100
AcDbEntity
  8
2-0
  6
Continuous
 62
     7
100
AcDbLine
 10
3114.157667854964
 20
147.474716990583
 30
0.0
 11
3111.112537529172
 21
144.579921569126
 31
0.0
  0
LINE
  5
58A
330
36
100
AcDbEntity
  8
2-0
  6
Continuous
 62
     7
100
AcDbLine
 10
3111.112537529172
 20
144.579921569126
 30
0.0
 11
3108.267015094086
 21
141.488698299196
 31
0.0
  0
LINE
  5
58B
330
36
100
AcDbEntity
  8
2-0
  6
Continuous
 62
     7
100
AcDbLine
 10
3108.267015094086
 20
141.488698299196
 30
0.0
 11
3105.633742632787
 21
138.214780863201
 31
0.0
  0
LINE
  5
58C
330
36
100
AcDbEntity
  8
2-0
  6
Continuous
 62
     7
100
AcDbLine
 10
3105.633742632787
 20
138.214780863201
 30
0.0
 11
3103.224419244476
 21
134.772714616934
 31
0.0
  0
LINE
  5
58D
330
36
100
AcDbEntity
  8
2-0
  6
Continuous
 62
     7
100
AcDbLine
 10
3103.224419244476
 20
134.772714616934
 30
0.0
 11
3101.049749067725
 21
131.177791967489
 31
0.0
  0
LINE
  5
58E
330
36
100
AcDbEntity
  8
2-0
  6
Continuous
 62
     7
100
AcDbLine
 10
3101.049749067725
 20
131.177791967489
 30
0.0
 11
3099.119393724144
 21
127.445984432171
 31
0.0
  0
LINE
  5
58F
330
36
100
AcDbEntity
  8
2-0
  6
Continuous
 62
     7
100
AcDbLine
 10
3099.119393724144
 20
127.445984432171
 30
0.0
 11
3097.441929393748
 21
123.593871680264
 31
0.0
  0
LINE
  5
590
330
36
100
AcDbEntity
  8
2-0
  6
Continuous
 62
     7
100
AcDbLine
 10
3097.441929393748
 20
123.593871680264
 30
0.0
 11
3096.02480871271
 21
119.638567872903
 31
0.0
  0
LINE
  5
591
330
36
100
AcDbEntity
  8
2-0
  6
Continuous
 62
     7
100
AcDbLine
 10
3096.02480871271
 20
119.638567872903
 30
0.0
 11
3094.874327662806
 21
115.597645628295
 31
0.0
  0
LINE
  5
592
330
36
100
AcDbEntity
  8
2-0
  6
Continuous
 62
     7
100
AcDbLine
 10
3094.874327662806
 20
115.597645628295
 30
0.0
 11
3093.995597599631
 21
111.489057950123
 31
0.0
  0
LINE
  5
593
330
36
100
AcDbEntity
  8
2-0
  6
Continuous
 62
     7
100
AcDbLine
 10
3093.995597599631
 20
111.489057950123
 30
0.0
 11
3093.392522543878
 21
107.331058465962
 31
0.0
  0
LINE
  5
594
330
36
100
AcDbEntity
  8
2-0
  6
Continuous
 62
     7
100
AcDbLine
 10
3093.392522543878
 20
107.331058465962
 30
0.0
 11
3093.067781836559
 21
103.14212033009
 31
0.0
  0
LINE
  5
595
330
36
100
AcDbEntity
  8
2-0
  6
Continuous
 62
     7
100
AcDbLine
 10
3093.067781836559
 20
103.14212033009
 30
0.0
 11
3093.02281823523
 21
98.94085415098302
 31
0.0
  0
LINE
  5
596
330
36
100
AcDbEntity
  8
2-0
  6
Continuous
 62
     7
100
AcDbLine
 10
3093.02281823523
 20
98.94085415098302
 30
0.0
 11
3093.257831504121
 21
94.74592530813
 31
0.0
  0
LINE
  5
597
330
36
100
AcDbEntity
  8
2-0
  6
Continuous
 62
     7
100
AcDbLine
 10
3093.257831504121
 20
94.74592530813
 30
0.0
 11
3093.771777526607
 21
90.575971025512
 31
0.0
  0
LINE
  5
598
330
36
100
AcDbEntity
  8
2-0
  6
Continuous
 62
     7
100
AcDbLine
 10
3093.771777526607
 20
90.575971025512
 30
0.0
 11
3094.562372944021
 21
86.449517570168
 31
0.0
  0
LINE
  5
599
330
36
100
AcDbEntity
  8
2-0
  6
Continuous
 62
     7
100
AcDbLine
 10
3094.562372944021
 20
86.449517570168
 30
0.0
 11
3095.626105300152
 21
82.384897943724
 31
0.0
  0
LINE
  5
59A
330
36
100
AcDbEntity
  8
2-0
  6
Continuous
 62
     7
100
AcDbLine
 10
3095.626105300152
 20
82.384897943724
 30
0.0
 11
3096.958248646378
 21
78.400170432557
 31
0.0
  0
LINE
  5
59B
330
36
100
AcDbEntity
  8
2-0
  6
Continuous
 62
     7
100
AcDbLine
 10
3096.958248646378
 20
78.400170432557
 30
0.0
 11
3098.55288453811
 21
74.513038378464
 31
0.0
  0
LINE
  5
59C
330
36
100
AcDbEntity
  8
2-0
  6
Continuous
 62
     7
100
AcDbLine
 10
3098.55288453811
 20
74.513038378464
 30
0.0
 11
3100.402928329243
 21
70.740771526287
 31
0.0
  0
LINE
  5
59D
330
36
100
AcDbEntity
  8
2-0
  6
Continuous
 62
     7
100
AcDbLine
 10
3100.402928329243
 20
70.740771526287
 30
0.0
 11
3102.500160647818
 21
67.100129297905
 31
0.0
  0
LINE
  5
59E
330
36
100
AcDbEntity
  8
2-0
  6
Continuous
 62
     7
100
AcDbLine
 10
3102.500160647818
 20
67.100129297905
 30
0.0
 11
3104.835263913028
 21
63.607286333506
 31
0.0
  0
LINE
  5
59F
330
36
100
AcDbEntity
  8
2-0
  6
Continuous
 62
     7
100
AcDbLine
 10
3104.835263913028
 20
63.607286333506
 30
0.0
 11
3107.397863731363
 21
60.277760630914
 31
0.0
  0
LINE
  5
5A0
330
36
100
AcDbEntity
  8
2-0
  6
Continuous
 62
     7
100
AcDbLine
 10
3107.397863731363
 20
60.277760630914
 30
0.0
 11
3107.929013490461
 21
59.641846090873
 31
0.0
  0
TEXT
  5
5A1
330
36
100
AcDbEntity
  8
2-0
 62
     7
100
AcDbText
 10
3116.836
 20
42.361
 30
0.0
 40
48.64
  1
A
100
AcDbText
  0
TEXT
  5
5A2
330
36
100
AcDbEntity
  8
2-0
 62
     7
100
AcDbText
 10
3159.327000000001
 20
42.464
 30
0.0
 40
48.64
  1
I
100
AcDbText
  0
TEXT
  5
5A3
330
36
100
AcDbEntity
  8
2-0
 62
     7
100
AcDbText
 10
3169.725
 20
42.43
 30
0.0
 40
48.64
  1
O
100
AcDbText
  0
LINE
  5
5A4
330
36
100
AcDbEntity
  8
C-0
  6
Continuous
 62
     5
100
AcDbLine
 10
2776.144721840569
 20
2620.154715338852
 30
0.0
 11
3750.340144840568
 21
2620.154715338852
 31
0.0
  0
TEXT
  5
5A5
330
36
100
AcDbEntity
  8
C-0
 62
     5
100
AcDbText
 10
2815.734000000001
 20
2582.602
 30
0.0
 40
25.92
  1
水切プレート  仕様
100
AcDbText
  0
TEXT
  5
5A6
330
36
100
AcDbEntity
  8
C-0
 62
     5
100
AcDbText
 10
2817.092
 20
2317.653
 30
0.0
 40
25.92
  1
※　弊社製品はすべてF☆☆☆☆に対応しております。
100
AcDbText
  0
LINE
  5
5A8
330
36
100
AcDbEntity
  8
1-0
  6
Continuous
 62
     7
100
AcDbLine
 10
992.3367418405678
 20
1731.183643338852
 30
0.0
 11
1342.336741840568
 21
1731.183643338852
 31
0.0
  0
LINE
  5
5A9
330
36
100
AcDbEntity
  8
1-0
  6
Continuous
 62
     7
100
AcDbLine
 10
1417.336741840568
 20
1656.183643338852
 30
0.0
 11
1417.336741840568
 21
843.6836433388519
 31
0.0
  0
LINE
  5
5AA
330
36
100
AcDbEntity
  8
1-0
  6
Continuous
 62
     7
100
AcDbLine
 10
1342.336741840568
 20
768.6836433388519
 30
0.0
 11
992.3367418405678
 21
768.6836433388519
 31
0.0
  0
LINE
  5
5AB
330
36
100
AcDbEntity
  8
1-0
  6
Continuous
 62
     7
100
AcDbLine
 10
917.3367418405678
 20
843.6836433388519
 30
0.0
 11
917.3367418405678
 21
1656.183643338852
 31
0.0
  0
ARC
  5
5AC
330
36
100
AcDbEntity
  8
1-0
  6
Continuous
 62
     7
100
AcDbCircle
 10
992.3367418405678
 20
1656.183643338852
 30
0.0
 40
75.0
100
AcDbArc
 50
90.0
 51
180.0
  0
ARC
  5
5AD
330
36
100
AcDbEntity
  8
1-0
  6
Continuous
 62
     7
100
AcDbCircle
 10
1342.336741840568
 20
1656.183643338852
 30
0.0
 40
75.0
100
AcDbArc
 50
0.0
 51
90.0
  0
ARC
  5
5AE
330
36
100
AcDbEntity
  8
1-0
  6
Continuous
 62
     7
100
AcDbCircle
 10
1342.336741840568
 20
843.6836433388519
 30
0.0
 40
75.0
100
AcDbArc
 50
270.0
 51
0.0
  0
ARC
  5
5AF
330
36
100
AcDbEntity
  8
1-0
  6
Continuous
 62
     7
100
AcDbCircle
 10
992.3367418405678
 20
843.6836433388519
 30
0.0
 40
75.0
100
AcDbArc
 50
180.0
 51
270.0
  0
CIRCLE
  5
5B0
330
36
100
AcDbEntity
  8
1-0
  6
Continuous
 62
     7
100
AcDbCircle
 10
1073.586741840568
 20
1674.933643338851
 30
0.0
 40
10.0
  0
CIRCLE
  5
5B1
330
36
100
AcDbEntity
  8
1-0
  6
Continuous
 62
     7
100
AcDbCircle
 10
979.8367418405678
 20
1462.433643338852
 30
0.0
 40
10.0
  0
CIRCLE
  5
5B2
330
36
100
AcDbEntity
  8
1-0
  6
Continuous
 62
     7
100
AcDbCircle
 10
979.8367418405678
 20
1037.433643338852
 30
0.0
 40
10.0
  0
CIRCLE
  5
5B3
330
36
100
AcDbEntity
  8
1-0
  6
Continuous
 62
     7
100
AcDbCircle
 10
1167.336741840568
 20
1037.433643338852
 30
0.0
 40
10.0
  0
CIRCLE
  5
5B4
330
36
100
AcDbEntity
  8
1-0
  6
Continuous
 62
     7
100
AcDbCircle
 10
1354.836741840568
 20
1037.433643338852
 30
0.0
 40
10.0
  0
CIRCLE
  5
5B5
330
36
100
AcDbEntity
  8
1-0
  6
Continuous
 62
     7
100
AcDbCircle
 10
1167.336741840568
 20
1462.433643338852
 30
0.0
 40
10.0
  0
CIRCLE
  5
5B6
330
36
100
AcDbEntity
  8
1-0
  6
Continuous
 62
     7
100
AcDbCircle
 10
1354.836741840568
 20
1462.433643338852
 30
0.0
 40
10.0
  0
CIRCLE
  5
5B7
330
36
100
AcDbEntity
  8
1-0
  6
Continuous
 62
     7
100
AcDbCircle
 10
1261.086741840568
 20
1674.933643338851
 30
0.0
 40
10.0
  0
LINE
  5
5B8
330
36
100
AcDbEntity
  8
1-0
  6
Continuous
 62
     7
100
AcDbLine
 10
2408.997495840568
 20
1731.183643338852
 30
0.0
 11
2908.997495840568
 21
1731.183643338852
 31
0.0
  0
LINE
  5
5B9
330
36
100
AcDbEntity
  8
1-0
  6
Continuous
 62
     7
100
AcDbLine
 10
2983.997495840569
 20
1656.183643338852
 30
0.0
 11
2983.997495840569
 21
643.683643338852
 31
0.0
  0
ARC
  5
5BA
330
36
100
AcDbEntity
  8
1-0
  6
Continuous
 62
     7
100
AcDbCircle
 10
2908.997495840568
 20
643.683643338852
 30
0.0
 40
75.0
100
AcDbArc
 50
270.0
 51
0.0
  0
ARC
  5
5BB
330
36
100
AcDbEntity
  8
1-0
  6
Continuous
 62
     7
100
AcDbCircle
 10
2908.997495840568
 20
1656.183643338852
 30
0.0
 40
75.0
100
AcDbArc
 50
0.0
 51
90.0
  0
LINE
  5
5BC
330
36
100
AcDbEntity
  8
1-0
  6
Continuous
 62
     7
100
AcDbLine
 10
2908.997495840568
 20
568.683643338852
 30
0.0
 11
2408.997495840568
 21
568.683643338852
 31
0.0
  0
ARC
  5
5BD
330
36
100
AcDbEntity
  8
1-0
  6
Continuous
 62
     7
100
AcDbCircle
 10
2408.997495840568
 20
643.683643338852
 30
0.0
 40
75.0
100
AcDbArc
 50
180.0
 51
270.0
  0
LINE
  5
5BE
330
36
100
AcDbEntity
  8
1-0
  6
Continuous
 62
     7
100
AcDbLine
 10
2333.997495840568
 20
643.683643338852
 30
0.0
 11
2333.997495840568
 21
1656.183643338852
 31
0.0
  0
ARC
  5
5BF
330
36
100
AcDbEntity
  8
1-0
  6
Continuous
 62
     7
100
AcDbCircle
 10
2408.997495840568
 20
1656.183643338852
 30
0.0
 40
75.0
100
AcDbArc
 50
90.0
 51
180.0
  0
CIRCLE
  5
5C0
330
36
100
AcDbEntity
  8
1-0
  6
Continuous
 62
     7
100
AcDbCircle
 10
2565.247495840568
 20
1674.933643338851
 30
0.0
 40
10.0
  0
CIRCLE
  5
5C1
330
36
100
AcDbEntity
  8
1-0
  6
Continuous
 62
     7
100
AcDbCircle
 10
2752.747495840568
 20
1674.933643338851
 30
0.0
 40
10.0
  0
CIRCLE
  5
5C2
330
36
100
AcDbEntity
  8
1-0
  6
Continuous
 62
     7
100
AcDbCircle
 10
2565.247495840568
 20
1149.933643338852
 30
0.0
 40
10.0
  0
CIRCLE
  5
5C3
330
36
100
AcDbEntity
  8
1-0
  6
Continuous
 62
     7
100
AcDbCircle
 10
2752.747495840568
 20
1149.933643338852
 30
0.0
 40
10.0
  0
CIRCLE
  5
5C4
330
36
100
AcDbEntity
  8
1-0
  6
Continuous
 62
     7
100
AcDbCircle
 10
2565.247495840568
 20
624.933643338852
 30
0.0
 40
10.0
  0
CIRCLE
  5
5C5
330
36
100
AcDbEntity
  8
1-0
  6
Continuous
 62
     7
100
AcDbCircle
 10
2752.747495840568
 20
624.933643338852
 30
0.0
 40
10.0
  0
CIRCLE
  5
5C6
330
36
100
AcDbEntity
  8
1-0
  6
Continuous
 62
     7
100
AcDbCircle
 10
2471.497495840568
 20
1412.433643338852
 30
0.0
 40
10.0
  0
CIRCLE
  5
5C7
330
36
100
AcDbEntity
  8
1-0
  6
Continuous
 62
     7
100
AcDbCircle
 10
2658.997495840568
 20
1412.433643338852
 30
0.0
 40
10.0
  0
CIRCLE
  5
5C8
330
36
100
AcDbEntity
  8
1-0
  6
Continuous
 62
     7
100
AcDbCircle
 10
2846.497495840568
 20
1412.433643338852
 30
0.0
 40
10.0
  0
CIRCLE
  5
5C9
330
36
100
AcDbEntity
  8
1-0
  6
Continuous
 62
     7
100
AcDbCircle
 10
2471.497495840568
 20
887.4336433388519
 30
0.0
 40
10.0
  0
CIRCLE
  5
5CA
330
36
100
AcDbEntity
  8
1-0
  6
Continuous
 62
     7
100
AcDbCircle
 10
2658.997495840568
 20
887.4336433388519
 30
0.0
 40
10.0
  0
CIRCLE
  5
5CB
330
36
100
AcDbEntity
  8
1-0
  6
Continuous
 62
     7
100
AcDbCircle
 10
2846.497495840568
 20
887.4336433388519
 30
0.0
 40
10.0
  0
CIRCLE
  5
5CC
330
36
100
AcDbEntity
  8
1-0
  6
Continuous
 62
     7
100
AcDbCircle
 10
1073.586741840568
 20
1249.933643338852
 30
0.0
 40
10.0
  0
CIRCLE
  5
5CD
330
36
100
AcDbEntity
  8
1-0
  6
Continuous
 62
     7
100
AcDbCircle
 10
1261.086741840568
 20
1249.933643338852
 30
0.0
 40
10.0
  0
CIRCLE
  5
5CE
330
36
100
AcDbEntity
  8
1-0
  6
Continuous
 62
     7
100
AcDbCircle
 10
1073.586741840568
 20
824.9336433388519
 30
0.0
 40
10.0
  0
CIRCLE
  5
5CF
330
36
100
AcDbEntity
  8
1-0
  6
Continuous
 62
     7
100
AcDbCircle
 10
1261.086741840568
 20
824.9336433388519
 30
0.0
 40
10.0
  0
LINE
  5
5D0
330
36
100
AcDbEntity
  8
1-0
  6
Continuous
 62
     4
100
AcDbLine
 10
2983.997495732861
 20
1817.057754762634
 30
0.0
 11
2983.997495732861
 21
2088.668205762635
 31
0.0
  0
LINE
  5
5D1
330
36
100
AcDbEntity
  8
1-0
  6
Continuous
 62
     4
100
AcDbLine
 10
2333.997495732861
 20
1813.707076762635
 30
0.0
 11
2333.997495732861
 21
2088.668205762635
 31
0.0
  0
TEXT
  5
5D2
330
36
100
AcDbEntity
  8
1-0
 62
     4
100
AcDbText
 10
2628.22
 20
2089.288
 30
0.0
 40
36.288
  1
260
100
AcDbText
  0
LINE
  5
5D3
330
36
100
AcDbEntity
  8
1-0
  6
Continuous
 62
     4
100
AcDbLine
 10
2333.997495885777
 20
2088.668205530802
 30
0.0
 11
2983.997495885777
 21
2088.668205530802
 31
0.0
  0
CIRCLE
  5
5D4
330
36
100
AcDbEntity
  8
1-0
  6
Continuous
 62
     4
100
AcDbCircle
 10
2333.997495885777
 20
2088.668205530802
 30
0.0
 40
0.25
  0
CIRCLE
  5
5D5
330
36
100
AcDbEntity
  8
1-0
  6
Continuous
 62
     4
100
AcDbCircle
 10
2333.997495885777
 20
2088.668205530802
 30
0.0
 40
0.1875
  0
CIRCLE
  5
5D6
330
36
100
AcDbEntity
  8
1-0
  6
Continuous
 62
     4
100
AcDbCircle
 10
2333.997495885777
 20
2088.668205530802
 30
0.0
 40
0.125
  0
CIRCLE
  5
5D7
330
36
100
AcDbEntity
  8
1-0
  6
Continuous
 62
     4
100
AcDbCircle
 10
2333.997495885777
 20
2088.668205530802
 30
0.0
 40
0.0625
  0
CIRCLE
  5
5D8
330
36
100
AcDbEntity
  8
1-0
  6
Continuous
 62
     4
100
AcDbCircle
 10
2983.997495885777
 20
2088.668205530802
 30
0.0
 40
0.25
  0
CIRCLE
  5
5D9
330
36
100
AcDbEntity
  8
1-0
  6
Continuous
 62
     4
100
AcDbCircle
 10
2983.997495885777
 20
2088.668205530802
 30
0.0
 40
0.1875
  0
CIRCLE
  5
5DA
330
36
100
AcDbEntity
  8
1-0
  6
Continuous
 62
     4
100
AcDbCircle
 10
2983.997495885777
 20
2088.668205530802
 30
0.0
 40
0.125
  0
CIRCLE
  5
5DB
330
36
100
AcDbEntity
  8
1-0
  6
Continuous
 62
     4
100
AcDbCircle
 10
2983.997495885777
 20
2088.668205530802
 30
0.0
 40
0.0625
  0
LINE
  5
5DC
330
36
100
AcDbEntity
  8
1-0
  6
Continuous
 62
     4
100
AcDbLine
 10
1417.336741732861
 20
1827.769955762635
 30
0.0
 11
1417.336741732861
 21
2082.809720762635
 31
0.0
  0
LINE
  5
5DD
330
36
100
AcDbEntity
  8
1-0
  6
Continuous
 62
     4
100
AcDbLine
 10
917.3367417328609
 20
1827.769955762635
 30
0.0
 11
917.3367417328609
 21
2082.809720762635
 31
0.0
  0
TEXT
  5
5DE
330
36
100
AcDbEntity
  8
1-0
 62
     4
100
AcDbText
 10
1136.559
 20
2083.43
 30
0.0
 40
36.288
  1
200
100
AcDbText
  0
LINE
  5
5DF
330
36
100
AcDbEntity
  8
1-0
  6
Continuous
 62
     4
100
AcDbLine
 10
917.336741905863
 20
2082.809720803142
 30
0.0
 11
1417.336741905862
 21
2082.809720803142
 31
0.0
  0
CIRCLE
  5
5E0
330
36
100
AcDbEntity
  8
1-0
  6
Continuous
 62
     4
100
AcDbCircle
 10
917.336741905863
 20
2082.809720803142
 30
0.0
 40
0.25
  0
CIRCLE
  5
5E1
330
36
100
AcDbEntity
  8
1-0
  6
Continuous
 62
     4
100
AcDbCircle
 10
917.336741905863
 20
2082.809720803142
 30
0.0
 40
0.1875
  0
CIRCLE
  5
5E2
330
36
100
AcDbEntity
  8
1-0
  6
Continuous
 62
     4
100
AcDbCircle
 10
917.336741905863
 20
2082.809720803142
 30
0.0
 40
0.125
  0
CIRCLE
  5
5E3
330
36
100
AcDbEntity
  8
1-0
  6
Continuous
 62
     4
100
AcDbCircle
 10
917.336741905863
 20
2082.809720803142
 30
0.0
 40
0.0625
  0
CIRCLE
  5
5E4
330
36
100
AcDbEntity
  8
1-0
  6
Continuous
 62
     4
100
AcDbCircle
 10
1417.336741905862
 20
2082.809720803142
 30
0.0
 40
0.25
  0
CIRCLE
  5
5E5
330
36
100
AcDbEntity
  8
1-0
  6
Continuous
 62
     4
100
AcDbCircle
 10
1417.336741905862
 20
2082.809720803142
 30
0.0
 40
0.1875
  0
CIRCLE
  5
5E6
330
36
100
AcDbEntity
  8
1-0
  6
Continuous
 62
     4
100
AcDbCircle
 10
1417.336741905862
 20
2082.809720803142
 30
0.0
 40
0.125
  0
CIRCLE
  5
5E7
330
36
100
AcDbEntity
  8
1-0
  6
Continuous
 62
     4
100
AcDbCircle
 10
1417.336741905862
 20
2082.809720803142
 30
0.0
 40
0.0625
  0
LINE
  5
5E8
330
36
100
AcDbEntity
  8
1-0
  6
Continuous
 62
     4
100
AcDbLine
 10
811.1123787328619
 20
1731.183643762635
 30
0.0
 11
507.154721732862
 21
1731.183643762635
 31
0.0
  0
LINE
  5
5E9
330
36
100
AcDbEntity
  8
1-0
  6
Continuous
 62
     4
100
AcDbLine
 10
811.1123787328619
 20
768.683643762635
 30
0.0
 11
507.154721732862
 21
768.683643762635
 31
0.0
  0
TEXT
  5
5EA
330
36
100
AcDbEntity
  8
1-0
 62
     4
100
AcDbText
 10
506.535
 20
1216.334
 30
0.0
 40
36.288
  1
385
 50
90.0
100
AcDbText
  0
LINE
  5
5EB
330
36
100
AcDbEntity
  8
1-0
  6
Continuous
 62
     4
100
AcDbLine
 10
507.154721687809
 20
768.6836432950509
 30
0.0
 11
507.154721687809
 21
1731.183643295052
 31
0.0
  0
CIRCLE
  5
5EC
330
36
100
AcDbEntity
  8
1-0
  6
Continuous
 62
     4
100
AcDbCircle
 10
507.154721687809
 20
768.6836432950509
 30
0.0
 40
0.25
  0
CIRCLE
  5
5ED
330
36
100
AcDbEntity
  8
1-0
  6
Continuous
 62
     4
100
AcDbCircle
 10
507.154721687809
 20
768.6836432950509
 30
0.0
 40
0.1875
  0
CIRCLE
  5
5EE
330
36
100
AcDbEntity
  8
1-0
  6
Continuous
 62
     4
100
AcDbCircle
 10
507.154721687809
 20
768.6836432950509
 30
0.0
 40
0.125
  0
CIRCLE
  5
5EF
330
36
100
AcDbEntity
  8
1-0
  6
Continuous
 62
     4
100
AcDbCircle
 10
507.154721687809
 20
768.6836432950509
 30
0.0
 40
0.0625
  0
CIRCLE
  5
5F0
330
36
100
AcDbEntity
  8
1-0
  6
Continuous
 62
     4
100
AcDbCircle
 10
507.154721687809
 20
1731.183643295052
 30
0.0
 40
0.25
  0
CIRCLE
  5
5F1
330
36
100
AcDbEntity
  8
1-0
  6
Continuous
 62
     4
100
AcDbCircle
 10
507.154721687809
 20
1731.183643295052
 30
0.0
 40
0.1875
  0
CIRCLE
  5
5F2
330
36
100
AcDbEntity
  8
1-0
  6
Continuous
 62
     4
100
AcDbCircle
 10
507.154721687809
 20
1731.183643295052
 30
0.0
 40
0.125
  0
CIRCLE
  5
5F3
330
36
100
AcDbEntity
  8
1-0
  6
Continuous
 62
     4
100
AcDbCircle
 10
507.154721687809
 20
1731.183643295052
 30
0.0
 40
0.0625
  0
LINE
  5
5F4
330
36
100
AcDbEntity
  8
1-0
  6
Continuous
 62
     4
100
AcDbLine
 10
2227.773132732861
 20
1731.183643762635
 30
0.0
 11
1937.076081732861
 21
1731.183643762635
 31
0.0
  0
LINE
  5
5F5
330
36
100
AcDbEntity
  8
1-0
  6
Continuous
 62
     4
100
AcDbLine
 10
2227.773132732861
 20
568.6836437626348
 30
0.0
 11
1937.076081732861
 21
568.6836437626348
 31
0.0
  0
TEXT
  5
5F6
330
36
100
AcDbEntity
  8
1-0
 62
     4
100
AcDbText
 10
1936.456
 20
1116.334
 30
0.0
 40
36.288
  1
465
 50
90.0
100
AcDbText
  0
LINE
  5
5F7
330
36
100
AcDbEntity
  8
1-0
  6
Continuous
 62
     4
100
AcDbLine
 10
1937.076081742969
 20
568.683643295052
 30
0.0
 11
1937.076081742969
 21
1731.183643295052
 31
0.0
  0
CIRCLE
  5
5F8
330
36
100
AcDbEntity
  8
1-0
  6
Continuous
 62
     4
100
AcDbCircle
 10
1937.076081742969
 20
568.683643295052
 30
0.0
 40
0.25
  0
CIRCLE
  5
5F9
330
36
100
AcDbEntity
  8
1-0
  6
Continuous
 62
     4
100
AcDbCircle
 10
1937.076081742969
 20
568.683643295052
 30
0.0
 40
0.1875
  0
CIRCLE
  5
5FA
330
36
100
AcDbEntity
  8
1-0
  6
Continuous
 62
     4
100
AcDbCircle
 10
1937.076081742969
 20
568.683643295052
 30
0.0
 40
0.125
  0
CIRCLE
  5
5FB
330
36
100
AcDbEntity
  8
1-0
  6
Continuous
 62
     4
100
AcDbCircle
 10
1937.076081742969
 20
568.683643295052
 30
0.0
 40
0.0625
  0
CIRCLE
  5
5FC
330
36
100
AcDbEntity
  8
1-0
  6
Continuous
 62
     4
100
AcDbCircle
 10
1937.076081742969
 20
1731.183643295052
 30
0.0
 40
0.25
  0
CIRCLE
  5
5FD
330
36
100
AcDbEntity
  8
1-0
  6
Continuous
 62
     4
100
AcDbCircle
 10
1937.076081742969
 20
1731.183643295052
 30
0.0
 40
0.1875
  0
CIRCLE
  5
5FE
330
36
100
AcDbEntity
  8
1-0
  6
Continuous
 62
     4
100
AcDbCircle
 10
1937.076081742969
 20
1731.183643295052
 30
0.0
 40
0.125
  0
CIRCLE
  5
5FF
330
36
100
AcDbEntity
  8
1-0
  6
Continuous
 62
     4
100
AcDbCircle
 10
1937.076081742969
 20
1731.183643295052
 30
0.0
 40
0.0625
  0
LINE
  5
600
330
36
100
AcDbEntity
  8
1-0
  6
Continuous
 62
     4
100
AcDbLine
 10
3210.955754732861
 20
336.152216762635
 30
0.0
 11
2968.549491732862
 21
583.0325117626349
 31
0.0
  0
TEXT
  5
601
330
36
100
AcDbEntity
  8
1-0
 62
     4
100
AcDbText
 10
3158.322
 20
390.643
 30
0.0
 40
36.288
  1
R30
 50
314.476
100
AcDbText
  0
LINE
  5
602
330
36
100
AcDbEntity
  8
1-0
  6
Continuous
 62
     4
100
AcDbLine
 10
2908.997495732861
 20
643.6836437626348
 30
0.0
 11
2961.543374732861
 21
590.167938762635
 31
0.0
  0
CIRCLE
  5
603
330
36
100
AcDbEntity
  8
1-0
  6
Continuous
 62
     4
100
AcDbCircle
 10
2961.543374414933
 20
590.1679385944789
 30
0.0
 40
0.25
  0
CIRCLE
  5
604
330
36
100
AcDbEntity
  8
1-0
  6
Continuous
 62
     4
100
AcDbCircle
 10
2961.543374414933
 20
590.1679385944789
 30
0.0
 40
0.1875
  0
CIRCLE
  5
605
330
36
100
AcDbEntity
  8
1-0
  6
Continuous
 62
     4
100
AcDbCircle
 10
2961.543374414933
 20
590.1679385944789
 30
0.0
 40
0.125
  0
CIRCLE
  5
606
330
36
100
AcDbEntity
  8
1-0
  6
Continuous
 62
     4
100
AcDbCircle
 10
2961.543374414933
 20
590.1679385944789
 30
0.0
 40
0.0625
  0
ARC
  5
607
330
36
100
AcDbEntity
  8
1-0
 62
     4
100
AcDbCircle
 10
2961.539806701286
 20
590.164435535911
 30
0.0
 40
2.5
100
AcDbArc
 50
134.5906939106529
 51
314.5906939100679
  0
LINE
  5
608
330
36
100
AcDbEntity
  8
1-0
 62
     4
100
AcDbLine
 10
2965.04643298357
 20
586.6002249478009
 30
0.0
 11
2968.549491552208
 21
583.0325113011229
 31
0.0
  0
LINE
  5
609
330
36
100
AcDbEntity
  8
1-0
  6
Continuous
 62
     4
100
AcDbLine
 10
1584.730074732861
 20
557.7235387626349
 30
0.0
 11
1397.298246732861
 21
778.843585762635
 31
0.0
  0
TEXT
  5
60A
330
36
100
AcDbEntity
  8
1-0
 62
     4
100
AcDbText
 10
1536.218
 20
615.9139999999999
 30
0.0
 40
36.288
  1
R30
 50
310.286
100
AcDbText
  0
LINE
  5
60B
330
36
100
AcDbEntity
  8
1-0
  6
Continuous
 62
     4
100
AcDbLine
 10
1342.336741732861
 20
843.683643762635
 30
0.0
 11
1390.832186732861
 21
786.471827762635
 31
0.0
  0
CIRCLE
  5
60C
330
36
100
AcDbEntity
  8
1-0
  6
Continuous
 62
     4
100
AcDbCircle
 10
1390.832187126151
 20
786.471828143925
 30
0.0
 40
0.25
  0
CIRCLE
  5
60D
330
36
100
AcDbEntity
  8
1-0
  6
Continuous
 62
     4
100
AcDbCircle
 10
1390.832187126151
 20
786.471828143925
 30
0.0
 40
0.1875
  0
CIRCLE
  5
60E
330
36
100
AcDbEntity
  8
1-0
  6
Continuous
 62
     4
100
AcDbCircle
 10
1390.832187126151
 20
786.471828143925
 30
0.0
 40
0.125
  0
CIRCLE
  5
60F
330
36
100
AcDbEntity
  8
1-0
  6
Continuous
 62
     4
100
AcDbCircle
 10
1390.832187126151
 20
786.471828143925
 30
0.0
 40
0.0625
  0
ARC
  5
610
330
36
100
AcDbEntity
  8
1-0
 62
     4
100
AcDbCircle
 10
1390.828373005141
 20
786.468595114244
 30
0.0
 40
2.5
100
AcDbArc
 50
130.400781516972
 51
310.400781516387
  0
LINE
  5
611
330
36
100
AcDbEntity
  8
1-0
 62
     4
100
AcDbLine
 10
1394.065216807532
 20
782.657707133874
 30
0.0
 11
1397.298246488913
 21
778.8435861238228
 31
0.0
  0
LINE
  5
612
330
36
100
AcDbEntity
  8
C-0
  6
Continuous
 62
     5
100
AcDbLine
 10
2776.144721840569
 20
2416.646191338853
 30
0.0
 11
3750.340144840568
 21
2416.646191338853
 31
0.0
  0
LINE
  5
613
330
36
100
AcDbEntity
  8
1-0
  6
Continuous
 62
     5
100
AcDbLine
 10
2776.144721840569
 20
2620.154715338852
 30
0.0
 11
2776.144721840569
 21
2416.646191338853
 31
0.0
  0
LINE
  5
614
330
36
100
AcDbEntity
  8
1-0
  6
Continuous
 62
     5
100
AcDbLine
 10
3750.340144840568
 20
2620.154715338852
 30
0.0
 11
3750.340144840568
 21
2416.646191338853
 31
0.0
  0
TEXT
  5
615
330
36
100
AcDbEntity
  8
C-0
 62
     5
100
AcDbText
 10
2815.734000000001
 20
2518.441000000001
 30
0.0
 40
25.92
  1
ステンレス製 SUS-430 、1.2ｔ 、 No.4仕上げ
100
AcDbText
  0
TEXT
  5
616
330
36
100
AcDbEntity
  8
C-0
 62
     5
100
AcDbText
 10
2815.734000000001
 20
2456.225
 30
0.0
 40
25.92
  1
φ8 水切り穴加工 、 裏側４ヶ所にクッション材貼付け
100
AcDbText
  0
LINE
  5
617
330
36
100
AcDbEntity
  8
C-0
  6
Continuous
 62
     5
100
AcDbLine
 10
2776.144721840569
 20
2561.301753338852
 30
0.0
 11
3750.340144840568
 21
2561.301753338852
 31
0.0
  0
TEXT
  5
618
330
36
100
AcDbEntity
  8
C-0
 62
     5
100
AcDbText
 10
1003.246
 20
373.79
 30
0.0
 40
51.84000000000001
  1
AMP-200
100
AcDbText
  0
TEXT
  5
619
330
36
100
AcDbEntity
  8
C-0
 62
     5
100
AcDbText
 10
2533.913
 20
377.972
 30
0.0
 40
51.84000000000001
  1
AMP-260
100
AcDbText
  0
TEXT
  5
61A
330
36
100
AcDbEntity
  8
C-0
 62
     5
100
AcDbText
 10
989.6749999999999
 20
279.543
 30
0.0
 40
25.92
  1
（ＬＷシリース゛用）
100
AcDbText
  0
TEXT
  5
61B
330
36
100
AcDbEntity
  8
C-0
 62
     5
100
AcDbText
 10
2431.577000000001
 20
279.543
 30
0.0
 40
25.92
  1
（ＫＷ／ＳＣＭＳシリース゛用）
100
AcDbText
  0
TEXT
  5
623
330
36
100
AcDbEntity
  8
C-0
 62
     5
100
AcDbText
 10
2209.32573383398
 20
45.57171622332957
 30
0.0
 40
51.84000000000001
  1
水切ﾌﾟﾚｰﾄ AMP-200/260
100
AcDbText
  0
ENDSEC
  0
SECTION
  2
OBJECTS
  0
DICTIONARY
  5
C
330
0
100
AcDbDictionary
281
     1
  3
ACAD_COLOR
350
2F
  3
ACAD_GROUP
350
D
  3
ACAD_LAYOUT
350
2E
  3
ACAD_MATERIAL
350
10
  3
ACAD_MLINESTYLE
350
2B
  3
ACAD_PLOTSETTINGS
350
2D
  3
ACAD_PLOTSTYLENAME
350
E
  3
ACAD_TABLESTYLE
350
30
  3
ACAD_VISUALSTYLE
350
14
  3
AcDbVariableDictionary
350
624
  3
DWGPROPS
350
629
  0
DICTIONARY
  5
2F
102
{ACAD_REACTORS
330
C
102
}
330
C
100
AcDbDictionary
281
     1
  0
DICTIONARY
  5
D
102
{ACAD_REACTORS
330
C
102
}
330
C
100
AcDbDictionary
281
     1
  0
DICTIONARY
  5
2E
102
{ACAD_REACTORS
330
C
102
}
330
C
100
AcDbDictionary
281
     1
  3
Model
350
39
  3
レイアウト1
350
35
  0
DICTIONARY
  5
10
102
{ACAD_REACTORS
330
C
102
}
330
C
100
AcDbDictionary
281
     1
  3
ByBlock
350
12
  3
ByLayer
350
11
  3
Global
350
13
  0
DICTIONARY
  5
2B
102
{ACAD_REACTORS
330
C
102
}
330
C
100
AcDbDictionary
281
     1
  3
Standard
350
2C
  0
DICTIONARY
  5
2D
102
{ACAD_REACTORS
330
C
102
}
330
C
100
AcDbDictionary
281
     1
  0
ACDBDICTIONARYWDFLT
  5
E
102
{ACAD_REACTORS
330
C
102
}
330
C
100
AcDbDictionary
281
     1
  3
Normal
350
F
100
AcDbDictionaryWithDefault
340
F
  0
DICTIONARY
  5
30
102
{ACAD_REACTORS
330
C
102
}
330
C
100
AcDbDictionary
281
     1
  3
Standard
350
31
  0
DICTIONARY
  5
14
102
{ACAD_REACTORS
330
C
102
}
330
C
100
AcDbDictionary
281
     1
  3
2dWireframe
350
1A
  3
3D Hidden
350
1C
  3
3dWireframe
350
1B
  3
Basic
350
19
  3
Brighten
350
20
  3
ColorChange
350
24
  3
Conceptual
350
1D
  3
Dim
350
1F
  3
Facepattern
350
23
  3
Flat
350
15
  3
FlatWithEdges
350
16
  3
Gouraud
350
17
  3
GouraudWithEdges
350
18
  3
Linepattern
350
22
  3
Realistic
350
1E
  3
Thicken
350
21
  0
DICTIONARY
  5
624
102
{ACAD_REACTORS
330
C
102
}
330
C
100
AcDbDictionary
281
     1
  3
CTABLESTYLE
350
625
  3
DIMASSOC
350
628
  3
INDEXCTL
350
627
  3
SORTENTS
350
626
  0
XRECORD
  5
629
102
{ACAD_REACTORS
330
C
102
}
330
C
100
AcDbXrecord
280
     1
  1
DWGPROPS COOKIE
  2

  3

  4

  6

  7

  8
saisu
  9

300
=
301
=
302
=
303
=
304
=
305
=
306
=
307
=
308
=
309
=
 40
0.0006308680555556
 41
2457358.761852894
 42
2457358.762483391
  1

 90
        0
  0
LAYOUT
  5
39
102
{ACAD_XDICTIONARY
360
634
102
}
102
{ACAD_REACTORS
330
2E
102
}
330
2E
100
AcDbPlotSettings
  1

  2
ApeosPort-II 4000
  4

  6

 40
0.0
 41
0.0
 42
0.0
 43
0.0
 44
0.0
 45
0.0
 46
0.0
 47
0.0
 48
0.0
 49
0.0
140
0.0
141
0.0
142
1.0
143
1.0
 70
  1712
 72
     0
 73
     0
 74
     0
  7

 75
     0
147
1.0
148
0.0
149
0.0
100
AcDbLayout
  1
Model
 70
     1
 71
     0
 10
0.0
 20
0.0
 11
12.0
 21
9.0
 12
0.0
 22
0.0
 32
0.0
 14
0.0
 24
0.0
 34
0.0
 15
0.0
 25
0.0
 35
0.0
146
0.0
 13
0.0
 23
0.0
 33
0.0
 16
1.0
 26
0.0
 36
0.0
 17
0.0
 27
1.0
 37
0.0
 76
     0
330
36
331
51
  0
LAYOUT
  5
35
102
{ACAD_XDICTIONARY
360
632
102
}
102
{ACAD_REACTORS
330
2E
102
}
330
2E
100
AcDbPlotSettings
  1

  2
ApeosPort-II 4000
  4

  6

 40
0.0
 41
0.0
 42
0.0
 43
0.0
 44
0.0
 45
0.0
 46
0.0
 47
0.0
 48
0.0
 49
0.0
140
0.0
141
0.0
142
1.0
143
1.0
 70
   688
 72
     0
 73
     0
 74
     5
  7

 75
    16
147
1.0
148
0.0
149
0.0
100
AcDbLayout
  1
レイアウト1
 70
     1
 71
     1
 10
0.0
 20
0.0
 11
12.0
 21
9.0
 12
0.0
 22
0.0
 32
0.0
 14
1.000000000000000E+20
 24
1.000000000000000E+20
 34
1.000000000000000E+20
 15
-1.000000000000000E+20
 25
-1.000000000000000E+20
 35
-1.000000000000000E+20
146
0.0
 13
0.0
 23
0.0
 33
0.0
 16
1.0
 26
0.0
 36
0.0
 17
0.0
 27
1.0
 37
0.0
 76
     0
330
32
  0
MATERIAL
  5
12
102
{ACAD_XDICTIONARY
360
62C
102
}
102
{ACAD_REACTORS
330
10
102
}
330
10
100
AcDbMaterial
  1
ByBlock
  0
MATERIAL
  5
11
102
{ACAD_XDICTIONARY
360
62A
102
}
102
{ACAD_REACTORS
330
10
102
}
330
10
100
AcDbMaterial
  1
ByLayer
  0
MATERIAL
  5
13
102
{ACAD_XDICTIONARY
360
62E
102
}
102
{ACAD_REACTORS
330
10
102
}
330
10
100
AcDbMaterial
  1
Global
  0
MLINESTYLE
  5
2C
102
{ACAD_REACTORS
330
2B
102
}
330
2B
100
AcDbMlineStyle
  2
STANDARD
 70
     0
  3

 62
   256
 51
90.0
 52
90.0
 71
     2
 49
0.5
 62
   256
  6
BYLAYER
 49
-0.5
 62
   256
  6
BYLAYER
  0
ACDBPLACEHOLDER
  5
F
102
{ACAD_REACTORS
330
E
102
}
330
E
  0
TABLESTYLE
  5
31
102
{ACAD_XDICTIONARY
360
630
102
}
102
{ACAD_REACTORS
330
30
102
}
330
30
100
AcDbTableStyle
  3
Standard
 70
     0
 71
     0
 40
0.06
 41
0.06
280
     0
281
     0
  7
STANDARD
140
0.18
170
     2
 62
     0
 63
     7
283
     0
274
    -2
284
     1
 64
     0
275
    -2
285
     1
 65
     0
276
    -2
286
     1
 66
     0
277
    -2
287
     1
 67
     0
278
    -2
288
     1
 68
     0
279
    -2
289
     1
 69
     0
  7
STANDARD
140
0.25
170
     5
 62
     0
 63
     7
283
     0
274
    -2
284
     1
 64
     0
275
    -2
285
     1
 65
     0
276
    -2
286
     1
 66
     0
277
    -2
287
     1
 67
     0
278
    -2
288
     1
 68
     0
279
    -2
289
     1
 69
     0
  7
STANDARD
140
0.18
170
     5
 62
     0
 63
     7
283
     0
274
    -2
284
     1
 64
     0
275
    -2
285
     1
 65
     0
276
    -2
286
     1
 66
     0
277
    -2
287
     1
 67
     0
278
    -2
288
     1
 68
     0
279
    -2
289
     1
 69
     0
  0
VISUALSTYLE
  5
1A
102
{ACAD_REACTORS
330
14
102
}
330
14
100
AcDbVisualStyle
  2
2dWireframe
 70
     4
 71
     0
 72
     2
 73
     0
 90
        0
 40
-0.6
 41
-30.0
 62
     5
 63
     7
 74
     1
 91
        4
 64
     7
 65
   257
 75
     1
175
     1
 42
1.0
 92
        0
 66
   257
 43
1.0
 76
     1
 77
     6
 78
     2
 67
     7
 79
     5
170
     0
171
     0
290
     0
174
     0
 93
        1
 44
0.0
173
     0
291
     0
 45
0.0
1001
ACAD
1000
AcDbSavedByObjectVersion
1070
     0
  0
VISUALSTYLE
  5
1C
102
{ACAD_REACTORS
330
14
102
}
330
14
100
AcDbVisualStyle
  2
3D Hidden
 70
     6
 71
     1
 72
     2
 73
     2
 90
        0
 40
-0.6
 41
-30.0
 62
     5
 63
     7
 74
     2
 91
        2
 64
     7
 65
   257
 75
     2
175
     1
 42
40.0
 92
        0
 66
   257
 43
1.0
 76
     1
 77
     6
 78
     2
 67
     7
 79
     3
170
     0
171
     0
290
     0
174
     0
 93
        1
 44
0.0
173
     0
291
     0
 45
0.0
1001
ACAD
1000
AcDbSavedByObjectVersion
1070
     0
  0
VISUALSTYLE
  5
1B
102
{ACAD_REACTORS
330
14
102
}
330
14
100
AcDbVisualStyle
  2
3dWireframe
 70
     5
 71
     0
 72
     2
 73
     0
 90
        0
 40
-0.6
 41
-30.0
 62
     5
 63
     7
 74
     1
 91
        4
 64
     7
 65
   257
 75
     1
175
     1
 42
1.0
 92
        0
 66
   257
 43
1.0
 76
     1
 77
     6
 78
     2
 67
     7
 79
     5
170
     0
171
     0
290
     0
174
     0
 93
        1
 44
0.0
173
     0
291
     0
 45
0.0
1001
ACAD
1000
AcDbSavedByObjectVersion
1070
     0
  0
VISUALSTYLE
  5
19
102
{ACAD_REACTORS
330
14
102
}
330
14
100
AcDbVisualStyle
  2
Basic
 70
     7
 71
     1
 72
     0
 73
     1
 90
        0
 40
-0.6
 41
-30.0
 62
     5
 63
     7
 74
     0
 91
        4
 64
     7
 65
   257
 75
     1
175
     1
 42
1.0
 92
        8
 66
     7
 43
1.0
 76
     1
 77
     6
 78
     2
 67
     7
 79
     5
170
     0
171
     0
290
     0
174
     0
 93
        1
 44
0.0
173
     0
291
     1
 45
0.0
1001
ACAD
1000
AcDbSavedByObjectVersion
1070
     0
  0
VISUALSTYLE
  5
20
102
{ACAD_REACTORS
330
14
102
}
330
14
100
AcDbVisualStyle
  2
Brighten
 70
    12
 71
     2
 72
     2
 73
     0
 90
        0
 40
-0.6
 41
-30.0
 62
     5
 63
     7
 74
     1
 91
        4
 64
     7
 65
   257
 75
     1
175
     1
 42
1.0
 92
        8
 66
     7
 43
1.0
 76
     1
 77
     6
 78
     2
 67
     7
 79
     5
170
     0
171
     0
290
     0
174
     0
 93
        1
 44
50.0
173
     0
291
     1
 45
0.0
1001
ACAD
1000
AcDbSavedByObjectVersion
1070
     0
  0
VISUALSTYLE
  5
24
102
{ACAD_REACTORS
330
14
102
}
330
14
100
AcDbVisualStyle
  2
ColorChange
 70
    16
 71
     2
 72
     2
 73
     3
 90
        0
 40
-0.6
 41
-30.0
 62
     5
 63
     8
 74
     1
 91
        4
 64
     7
 65
   257
 75
     1
175
     1
 42
1.0
 92
        8
 66
     8
 43
1.0
 76
     1
 77
     6
 78
     2
 67
     7
 79
     5
170
     0
171
     0
290
     0
174
     0
 93
        1
 44
0.0
173
     0
291
     1
 45
0.0
1001
ACAD
1000
AcDbSavedByObjectVersion
1070
     0
  0
VISUALSTYLE
  5
1D
102
{ACAD_REACTORS
330
14
102
}
330
14
100
AcDbVisualStyle
  2
Conceptual
 70
     9
 71
     3
 72
     2
 73
     0
 90
        0
 40
-0.6
 41
-30.0
 62
     5
 63
     7
 74
     2
 91
        2
 64
     7
 65
   257
 75
     1
175
     1
 42
40.0
 92
        8
 66
     7
 43
1.0
 76
     1
 77
     6
 78
     2
 67
     7
 79
     3
170
     0
171
     0
290
     0
174
     0
 93
        1
 44
0.0
173
     0
291
     0
 45
0.0
1001
ACAD
1000
AcDbSavedByObjectVersion
1070
     0
  0
VISUALSTYLE
  5
1F
102
{ACAD_REACTORS
330
14
102
}
330
14
100
AcDbVisualStyle
  2
Dim
 70
    11
 71
     2
 72
     2
 73
     0
 90
        0
 40
-0.6
 41
-30.0
 62
     5
 63
     7
 74
     1
 91
        4
 64
     7
 65
   257
 75
     1
175
     1
 42
1.0
 92
        8
 66
     7
 43
1.0
 76
     1
 77
     6
 78
     2
 67
     7
 79
     5
170
     0
171
     0
290
     0
174
     0
 93
        1
 44
-50.0
173
     0
291
     1
 45
0.0
1001
ACAD
1000
AcDbSavedByObjectVersion
1070
     0
  0
VISUALSTYLE
  5
23
102
{ACAD_REACTORS
330
14
102
}
330
14
100
AcDbVisualStyle
  2
Facepattern
 70
    15
 71
     2
 72
     2
 73
     0
 90
        0
 40
-0.6
 41
-30.0
 62
     5
 63
     7
 74
     1
 91
        4
 64
     7
 65
   257
 75
     1
175
     1
 42
1.0
 92
        8
 66
     7
 43
1.0
 76
     1
 77
     6
 78
     2
 67
     7
 79
     5
170
     0
171
     0
290
     0
174
     0
 93
        1
 44
0.0
173
     0
291
     1
 45
0.0
1001
ACAD
1000
AcDbSavedByObjectVersion
1070
     0
  0
VISUALSTYLE
  5
15
102
{ACAD_REACTORS
330
14
102
}
330
14
100
AcDbVisualStyle
  2
Flat
 70
     0
 71
     2
 72
     1
 73
     1
 90
        2
 40
-0.6
 41
30.0
 62
     5
 63
     7
 74
     0
 91
        4
 64
     7
 65
   257
 75
     1
175
     1
 42
1.0
 92
        8
 66
     7
 43
1.0
 76
     1
 77
     6
 78
     2
 67
     7
 79
     5
170
     0
171
     0
290
     0
174
     0
 93
       13
 44
0.0
173
     0
291
     1
 45
0.0
1001
ACAD
1000
AcDbSavedByObjectVersion
1070
     0
  0
VISUALSTYLE
  5
16
102
{ACAD_REACTORS
330
14
102
}
330
14
100
AcDbVisualStyle
  2
FlatWithEdges
 70
     1
 71
     2
 72
     1
 73
     1
 90
        2
 40
-0.6
 41
30.0
 62
     5
 63
     7
 74
     1
 91
        4
 64
     7
 65
   257
 75
     1
175
     1
 42
1.0
 92
        0
 66
   257
 43
1.0
 76
     1
 77
     6
 78
     2
 67
     7
 79
     5
170
     0
171
     0
290
     0
174
     0
 93
       13
 44
0.0
173
     0
291
     1
 45
0.0
1001
ACAD
1000
AcDbSavedByObjectVersion
1070
     0
  0
VISUALSTYLE
  5
17
102
{ACAD_REACTORS
330
14
102
}
330
14
100
AcDbVisualStyle
  2
Gouraud
 70
     2
 71
     2
 72
     2
 73
     1
 90
        2
 40
-0.6
 41
30.0
 62
     5
 63
     7
 74
     0
 91
        4
 64
     7
 65
   257
 75
     1
175
     1
 42
1.0
 92
        0
 66
     7
 43
1.0
 76
     1
 77
     6
 78
     2
 67
     7
 79
     5
170
     0
171
     0
290
     0
174
     0
 93
       13
 44
0.0
173
     0
291
     1
 45
0.0
1001
ACAD
1000
AcDbSavedByObjectVersion
1070
     0
  0
VISUALSTYLE
  5
18
102
{ACAD_REACTORS
330
14
102
}
330
14
100
AcDbVisualStyle
  2
GouraudWithEdges
 70
     3
 71
     2
 72
     2
 73
     1
 90
        2
 40
-0.6
 41
30.0
 62
     5
 63
     7
 74
     1
 91
        4
 64
     7
 65
   257
 75
     1
175
     1
 42
1.0
 92
        0
 66
   257
 43
1.0
 76
     1
 77
     6
 78
     2
 67
     7
 79
     5
170
     0
171
     0
290
     0
174
     0
 93
       13
 44
0.0
173
     0
291
     1
 45
0.0
1001
ACAD
1000
AcDbSavedByObjectVersion
1070
     0
  0
VISUALSTYLE
  5
22
102
{ACAD_REACTORS
330
14
102
}
330
14
100
AcDbVisualStyle
  2
Linepattern
 70
    14
 71
     2
 72
     2
 73
     0
 90
        0
 40
-0.6
 41
-30.0
 62
     5
 63
     7
 74
     1
 91
        4
 64
     7
 65
   257
 75
     7
175
     7
 42
1.0
 92
        8
 66
     7
 43
1.0
 76
     1
 77
     6
 78
     2
 67
     7
 79
     5
170
     0
171
     0
290
     0
174
     0
 93
        1
 44
0.0
173
     0
291
     1
 45
0.0
1001
ACAD
1000
AcDbSavedByObjectVersion
1070
     0
  0
VISUALSTYLE
  5
1E
102
{ACAD_REACTORS
330
14
102
}
330
14
100
AcDbVisualStyle
  2
Realistic
 70
     8
 71
     2
 72
     2
 73
     0
 90
        0
 40
-0.6
 41
-30.0
 62
     5
 63
     7
 74
     1
 91
        0
 64
     7
 65
   257
 75
     1
175
     1
 42
1.0
 92
        8
 66
     8
 43
1.0
 76
     1
 77
     6
 78
     2
 67
     7
 79
     5
170
     0
171
     0
290
     0
174
     0
 93
       13
 44
0.0
173
     0
291
     0
 45
0.0
1001
ACAD
1000
AcDbSavedByObjectVersion
1070
     0
  0
VISUALSTYLE
  5
21
102
{ACAD_REACTORS
330
14
102
}
330
14
100
AcDbVisualStyle
  2
Thicken
 70
    13
 71
     2
 72
     2
 73
     0
 90
        0
 40
-0.6
 41
-30.0
 62
     5
 63
     7
 74
     1
 91
        4
 64
     7
 65
   257
 75
     1
175
     1
 42
1.0
 92
       12
 66
     7
 43
1.0
 76
     1
 77
     6
 78
     2
 67
     7
 79
     5
170
     0
171
     0
290
     0
174
     0
 93
        1
 44
0.0
173
     0
291
     1
 45
0.0
1001
ACAD
1000
AcDbSavedByObjectVersion
1070
     0
  0
DICTIONARYVAR
  5
625
102
{ACAD_REACTORS
330
624
102
}
330
624
100
DictionaryVariables
280
     0
  1
STANDARD
  0
DICTIONARYVAR
  5
628
102
{ACAD_REACTORS
330
624
102
}
330
624
100
DictionaryVariables
280
     0
  1
1
  0
DICTIONARYVAR
  5
627
102
{ACAD_REACTORS
330
624
102
}
330
624
100
DictionaryVariables
280
     0
  1
0
  0
DICTIONARYVAR
  5
626
102
{ACAD_REACTORS
330
624
102
}
330
624
100
DictionaryVariables
280
     0
  1
127
  0
DICTIONARY
  5
634
330
39
100
AcDbDictionary
280
     1
281
     1
  3
ACAD_XREC_ROUNDTRIP
360
635
  0
DICTIONARY
  5
632
330
35
100
AcDbDictionary
280
     1
281
     1
  3
ACAD_XREC_ROUNDTRIP
360
633
  0
DICTIONARY
  5
62C
330
12
100
AcDbDictionary
280
     1
281
     1
  3
ACAD_XREC_ROUNDTRIP
360
62D
  0
DICTIONARY
  5
62A
330
11
100
AcDbDictionary
280
     1
281
     1
  3
ACAD_XREC_ROUNDTRIP
360
62B
  0
DICTIONARY
  5
62E
330
13
100
AcDbDictionary
280
     1
281
     1
  3
ACAD_XREC_ROUNDTRIP
360
62F
  0
DICTIONARY
  5
630
330
31
100
AcDbDictionary
280
     1
281
     1
  3
ACAD_XREC_ROUNDTRIP
360
631
  0
XRECORD
  5
635
102
{ACAD_REACTORS
330
634
102
}
330
634
100
AcDbXrecord
280
     1
102
SHADEPLOT
 70
     0
102
SHADEPLOTRESLEVEL
 70
     2
102
SHADEPLOTCUSTOMDPI
 70
   300
  0
XRECORD
  5
633
102
{ACAD_REACTORS
330
632
102
}
330
632
100
AcDbXrecord
280
     1
102
SHADEPLOT
 70
     0
102
SHADEPLOTRESLEVEL
 70
     2
102
SHADEPLOTCUSTOMDPI
 70
   300
  0
XRECORD
  5
62D
102
{ACAD_REACTORS
330
62C
102
}
330
62C
100
AcDbXrecord
280
     1
102
MATERIAL
148
0.0
149
0.0
149
0.0
 93
        0
 94
       63
282
     0
 72
     1
 77
     1
171
     1
175
     1
179
     1
273
     0
  0
XRECORD
  5
62B
102
{ACAD_REACTORS
330
62A
102
}
330
62A
100
AcDbXrecord
280
     1
102
MATERIAL
148
0.0
149
0.0
149
0.0
 93
        0
 94
       63
282
     0
 72
     1
 77
     1
171
     1
175
     1
179
     1
273
     0
  0
XRECORD
  5
62F
102
{ACAD_REACTORS
330
62E
102
}
330
62E
100
AcDbXrecord
280
     1
102
MATERIAL
148
0.0
149
0.0
149
0.0
 93
        0
 94
       63
282
     0
 72
     1
 77
     1
171
     1
175
     1
179
     1
273
     0
  0
XRECORD
  5
631
102
{ACAD_REACTORS
330
630
102
}
330
630
100
AcDbXrecord
280
     1
102
ACAD_ROUNDTRIP_PRE2007_TABLESTYLE
 90
      512
 91
        0
  1

 92
      512
 93
        0
  2

 94
      512
 95
        0
  3

  0
ENDSEC
  0
EOF
