  0
SECTION
  2
HEADER
  9
$ACADVER
  1
AC1015
  9
$ACADMAINTVER
 70
    20
  9
$DWGCODEPAGE
  3
ANSI_932
  9
$INSBASE
 10
0.0
 20
0.0
 30
0.0
  9
$EXTMIN
 10
-0.1281640493871237
 20
-0.0906302920675444
 30
-0.0015258207003583
  9
$EXTMAX
 10
4200.128183607161
 20
2970.090644122207
 30
0.0000000349246037
  9
$LIMMIN
 10
0.0
 20
0.0
  9
$LIMMAX
 10
12.0
 20
9.0
  9
$ORTHOMODE
 70
     0
  9
$REGENMODE
 70
     1
  9
$FILLMODE
 70
     1
  9
$QTEXTMODE
 70
     0
  9
$MIRRTEXT
 70
     0
  9
$LTSCALE
 40
10.0
  9
$ATTMODE
 70
     1
  9
$TEXTSIZE
 40
0.0
  9
$TRACEWID
 40
0.05
  9
$TEXTSTYLE
  7
STANDARD
  9
$CLAYER
  8
0
  9
$CELTYPE
  6
CONTINUOUS
  9
$CECOLOR
 62
   256
  9
$CELTSCALE
 40
1.0
  9
$DISPSILH
 70
     0
  9
$DIMSCALE
 40
1.0
  9
$DIMASZ
 40
0.18
  9
$DIMEXO
 40
0.0625
  9
$DIMDLI
 40
0.38
  9
$DIMRND
 40
0.0
  9
$DIMDLE
 40
0.0
  9
$DIMEXE
 40
0.18
  9
$DIMTP
 40
0.0
  9
$DIMTM
 40
0.0
  9
$DIMTXT
 40
0.18
  9
$DIMCEN
 40
0.09
  9
$DIMTSZ
 40
0.0
  9
$DIMTOL
 70
     0
  9
$DIMLIM
 70
     0
  9
$DIMTIH
 70
     1
  9
$DIMTOH
 70
     1
  9
$DIMSE1
 70
     0
  9
$DIMSE2
 70
     0
  9
$DIMTAD
 70
     0
  9
$DIMZIN
 70
     0
  9
$DIMBLK
  1

  9
$DIMASO
 70
     1
  9
$DIMSHO
 70
     1
  9
$DIMPOST
  1

  9
$DIMAPOST
  1

  9
$DIMALT
 70
     0
  9
$DIMALTD
 70
     2
  9
$DIMALTF
 40
25.4
  9
$DIMLFAC
 40
1.0
  9
$DIMTOFL
 70
     0
  9
$DIMTVP
 40
0.0
  9
$DIMTIX
 70
     0
  9
$DIMSOXD
 70
     0
  9
$DIMSAH
 70
     0
  9
$DIMBLK1
  1

  9
$DIMBLK2
  1

  9
$DIMSTYLE
  2
Standard
  9
$DIMCLRD
 70
     0
  9
$DIMCLRE
 70
     0
  9
$DIMCLRT
 70
     0
  9
$DIMTFAC
 40
1.0
  9
$DIMGAP
 40
0.09
  9
$DIMJUST
 70
     0
  9
$DIMSD1
 70
     0
  9
$DIMSD2
 70
     0
  9
$DIMTOLJ
 70
     1
  9
$DIMTZIN
 70
     0
  9
$DIMALTZ
 70
     0
  9
$DIMALTTZ
 70
     0
  9
$DIMUPT
 70
     0
  9
$DIMDEC
 70
     4
  9
$DIMTDEC
 70
     4
  9
$DIMALTU
 70
     2
  9
$DIMALTTD
 70
     2
  9
$DIMTXSTY
  7
STANDARD
  9
$DIMAUNIT
 70
     0
  9
$DIMADEC
 70
     0
  9
$DIMALTRND
 40
0.0
  9
$DIMAZIN
 70
     0
  9
$DIMDSEP
 70
    46
  9
$DIMATFIT
 70
     3
  9
$DIMFRAC
 70
     0
  9
$DIMLDRBLK
  1

  9
$DIMLUNIT
 70
     2
  9
$DIMLWD
 70
    -2
  9
$DIMLWE
 70
    -2
  9
$DIMTMOVE
 70
     0
  9
$LUNITS
 70
     2
  9
$LUPREC
 70
     4
  9
$SKETCHINC
 40
0.1
  9
$FILLETRAD
 40
0.0
  9
$AUNITS
 70
     0
  9
$AUPREC
 70
     0
  9
$MENU
  1
.
  9
$ELEVATION
 40
0.0
  9
$PELEVATION
 40
0.0
  9
$THICKNESS
 40
0.0
  9
$LIMCHECK
 70
     0
  9
$CHAMFERA
 40
0.0
  9
$CHAMFERB
 40
0.0
  9
$CHAMFERC
 40
0.0
  9
$CHAMFERD
 40
0.0
  9
$SKPOLY
 70
     0
  9
$TDCREATE
 40
2457997.665160035
  9
$TDUCREATE
 40
2457997.290160035
  9
$TDUPDATE
 40
2457997.665942929
  9
$TDUUPDATE
 40
2457997.290942929
  9
$TDINDWG
 40
0.0007836227
  9
$TDUSRTIMER
 40
0.0007836227
  9
$USRTIMER
 70
     1
  9
$ANGBASE
 50
0.0
  9
$ANGDIR
 70
     0
  9
$PDMODE
 70
     0
  9
$PDSIZE
 40
5.0
  9
$PLINEWID
 40
0.0
  9
$SPLFRAME
 70
     0
  9
$SPLINETYPE
 70
     6
  9
$SPLINESEGS
 70
     8
  9
$HANDSEED
  5
6F3
  9
$SURFTAB1
 70
     6
  9
$SURFTAB2
 70
     6
  9
$SURFTYPE
 70
     6
  9
$SURFU
 70
     6
  9
$SURFV
 70
     6
  9
$UCSBASE
  2

  9
$UCSNAME
  2

  9
$UCSORG
 10
0.0
 20
0.0
 30
0.0
  9
$UCSXDIR
 10
1.0
 20
0.0
 30
0.0
  9
$UCSYDIR
 10
0.0
 20
1.0
 30
0.0
  9
$UCSORTHOREF
  2

  9
$UCSORTHOVIEW
 70
     0
  9
$UCSORGTOP
 10
0.0
 20
0.0
 30
0.0
  9
$UCSORGBOTTOM
 10
0.0
 20
0.0
 30
0.0
  9
$UCSORGLEFT
 10
0.0
 20
0.0
 30
0.0
  9
$UCSORGRIGHT
 10
0.0
 20
0.0
 30
0.0
  9
$UCSORGFRONT
 10
0.0
 20
0.0
 30
0.0
  9
$UCSORGBACK
 10
0.0
 20
0.0
 30
0.0
  9
$PUCSBASE
  2

  9
$PUCSNAME
  2

  9
$PUCSORG
 10
0.0
 20
0.0
 30
0.0
  9
$PUCSXDIR
 10
1.0
 20
0.0
 30
0.0
  9
$PUCSYDIR
 10
0.0
 20
1.0
 30
0.0
  9
$PUCSORTHOREF
  2

  9
$PUCSORTHOVIEW
 70
     0
  9
$PUCSORGTOP
 10
0.0
 20
0.0
 30
0.0
  9
$PUCSORGBOTTOM
 10
0.0
 20
0.0
 30
0.0
  9
$PUCSORGLEFT
 10
0.0
 20
0.0
 30
0.0
  9
$PUCSORGRIGHT
 10
0.0
 20
0.0
 30
0.0
  9
$PUCSORGFRONT
 10
0.0
 20
0.0
 30
0.0
  9
$PUCSORGBACK
 10
0.0
 20
0.0
 30
0.0
  9
$USERI1
 70
     0
  9
$USERI2
 70
     0
  9
$USERI3
 70
     0
  9
$USERI4
 70
     0
  9
$USERI5
 70
     0
  9
$USERR1
 40
0.0
  9
$USERR2
 40
0.0
  9
$USERR3
 40
0.0
  9
$USERR4
 40
0.0
  9
$USERR5
 40
0.0
  9
$WORLDVIEW
 70
     1
  9
$SHADEDGE
 70
     3
  9
$SHADEDIF
 70
    70
  9
$TILEMODE
 70
     1
  9
$MAXACTVP
 70
    64
  9
$PINSBASE
 10
0.0
 20
0.0
 30
0.0
  9
$PLIMCHECK
 70
     0
  9
$PEXTMIN
 10
1.000000000000000E+20
 20
1.000000000000000E+20
 30
1.000000000000000E+20
  9
$PEXTMAX
 10
-1.000000000000000E+20
 20
-1.000000000000000E+20
 30
-1.000000000000000E+20
  9
$PLIMMIN
 10
0.0
 20
0.0
  9
$PLIMMAX
 10
12.0
 20
9.0
  9
$UNITMODE
 70
     0
  9
$VISRETAIN
 70
     1
  9
$PLINEGEN
 70
     0
  9
$PSLTSCALE
 70
     1
  9
$TREEDEPTH
 70
  3020
  9
$CMLSTYLE
  2
Standard
  9
$CMLJUST
 70
     0
  9
$CMLSCALE
 40
1.0
  9
$PROXYGRAPHICS
 70
     1
  9
$MEASUREMENT
 70
     0
  9
$CELWEIGHT
370
    -1
  9
$ENDCAPS
280
     0
  9
$JOINSTYLE
280
     0
  9
$LWDISPLAY
290
     0
  9
$INSUNITS
 70
     0
  9
$HYPERLINKBASE
  1

  9
$STYLESHEET
  1

  9
$XEDIT
290
     1
  9
$CEPSNTYPE
380
     0
  9
$PSTYLEMODE
290
     1
  9
$FINGERPRINTGUID
  2
{D44915DD-A8A5-4FDC-8CA8-45F41C7D13A8}
  9
$VERSIONGUID
  2
{B06D4885-49E0-4912-9FFF-DD4ED400B285}
  9
$EXTNAMES
290
     1
  9
$PSVPSCALE
 40
0.0
  9
$OLESTARTUP
290
     0
  0
ENDSEC
  0
SECTION
  2
CLASSES
  0
CLASS
  1
ACDBDICTIONARYWDFLT
  2
AcDbDictionaryWithDefault
  3
ObjectDBX Classes
 90
        0
280
     0
281
     0
  0
CLASS
  1
MATERIAL
  2
AcDbMaterial
  3
ObjectDBX Classes
 90
     1024
280
     0
281
     0
  0
CLASS
  1
VISUALSTYLE
  2
AcDbVisualStyle
  3
ObjectDBX Classes
 90
     4095
280
     0
281
     0
  0
CLASS
  1
TABLESTYLE
  2
AcDbTableStyle
  3
ObjectDBX Classes
 90
     4095
280
     0
281
     0
  0
CLASS
  1
DICTIONARYVAR
  2
AcDbDictionaryVar
  3
ObjectDBX Classes
 90
        0
280
     0
281
     0
  0
CLASS
  1
ACDBPLACEHOLDER
  2
AcDbPlaceHolder
  3
ObjectDBX Classes
 90
        0
280
     0
281
     0
  0
CLASS
  1
LAYOUT
  2
AcDbLayout
  3
ObjectDBX Classes
 90
        0
280
     0
281
     0
  0
ENDSEC
  0
SECTION
  2
TABLES
  0
TABLE
  2
VPORT
  5
8
330
0
100
AcDbSymbolTable
 70
     1
  0
VPORT
  5
51
330
8
100
AcDbSymbolTableRecord
100
AcDbViewportTableRecord
  2
*Active
 70
     0
 10
0.0
 20
0.0
 11
1.0
 21
1.0
 12
2100.000009778887
 22
1485.000006915069
 13
0.0
 23
0.0
 14
1.0
 24
1.0
 15
0.0
 25
0.0
 16
0.0
 26
0.0
 36
1.0
 17
0.0
 27
0.0
 37
0.0
 40
2992.970389051724
 41
1.544174135723431
 42
50.0
 43
0.0
 44
0.0
 50
0.0
 51
0.0
 71
     0
 72
   100
 73
     1
 74
     1
 75
     0
 76
     0
 77
     0
 78
     0
281
     0
 65
     1
110
0.0
120
0.0
130
0.0
111
1.0
121
0.0
131
0.0
112
0.0
122
1.0
132
0.0
 79
     0
146
0.0
  0
ENDTAB
  0
TABLE
  2
LTYPE
  5
5
330
0
100
AcDbSymbolTable
 70
     9
  0
LTYPE
  5
28
330
5
100
AcDbSymbolTableRecord
100
AcDbLinetypeTableRecord
  2
ByBlock
 70
     0
  3

 72
    65
 73
     0
 40
0.0
  0
LTYPE
  5
29
330
5
100
AcDbSymbolTableRecord
100
AcDbLinetypeTableRecord
  2
ByLayer
 70
     0
  3

 72
    65
 73
     0
 40
0.0
  0
LTYPE
  5
2A
330
5
100
AcDbSymbolTableRecord
100
AcDbLinetypeTableRecord
  2
CONTINUOUS
 70
     0
  3
SolidLine
 72
    65
 73
     0
 40
0.0
  0
LTYPE
  5
3A
330
5
100
AcDbSymbolTableRecord
100
AcDbLinetypeTableRecord
  2
DOT
 70
     0
  3
--  --  --  --  --  --  --  --     
 72
    65
 73
     2
 40
3.0
 49
1.0
 74
     0
 49
-2.0
 74
     0
  0
LTYPE
  5
3B
330
5
100
AcDbSymbolTableRecord
100
AcDbLinetypeTableRecord
  2
DASHED
 70
     0
  3
----    ----    ----    ----    
 72
    65
 73
     2
 40
5.0
 49
2.0
 74
     0
 49
-3.0
 74
     0
  0
LTYPE
  5
3C
330
5
100
AcDbSymbolTableRecord
100
AcDbLinetypeTableRecord
  2
DASHED2
 70
     0
  3
------  ------  ------  ------ 
 72
    65
 73
     2
 40
10.0
 49
4.0
 74
     0
 49
-6.0
 74
     0
  0
LTYPE
  5
3D
330
5
100
AcDbSymbolTableRecord
100
AcDbLinetypeTableRecord
  2
CENTER
 70
     0
  3
----- - ----- - ----- - ----- - 
 72
    65
 73
     4
 40
10.0
 49
6.0
 74
     0
 49
-3.0
 74
     0
 49
1.0
 74
     0
 49
-3.0
 74
     0
  0
LTYPE
  5
3E
330
5
100
AcDbSymbolTableRecord
100
AcDbLinetypeTableRecord
  2
CENTER2
 70
     0
  3
----------  --  ----------  -- 
 72
    65
 73
     4
 40
17.0
 49
12.0
 74
     0
 49
-5.0
 74
     0
 49
2.0
 74
     0
 49
-5.0
 74
     0
  0
LTYPE
  5
3F
330
5
100
AcDbSymbolTableRecord
100
AcDbLinetypeTableRecord
  2
PHANTOM
 70
     0
  3
--- - - --- - - --- - - --- - -
 72
    65
 73
     6
 40
13.0
 49
5.0
 74
     0
 49
-3.0
 74
     0
 49
1.0
 74
     0
 49
-3.0
 74
     0
 49
1.0
 74
     0
 49
-3.0
 74
     0
  0
LTYPE
  5
40
330
5
100
AcDbSymbolTableRecord
100
AcDbLinetypeTableRecord
  2
PHANTOM2
 70
     0
  3
--------  -  -  --------  -  -
 72
    65
 73
     6
 40
20.0
 49
6.0
 74
     0
 49
-5.0
 74
     0
 49
2.0
 74
     0
 49
-5.0
 74
     0
 49
2.0
 74
     0
 49
-5.0
 74
     0
  0
LTYPE
  5
41
330
5
100
AcDbSymbolTableRecord
100
AcDbLinetypeTableRecord
  2
HIDDEN
 70
     0
  3
-   -   -   -   -   -   -   -   
 72
    65
 73
     2
 40
3.0
 49
0.5
 74
     0
 49
-2.5
 74
     0
  0
ENDTAB
  0
TABLE
  2
LAYER
  5
2
330
0
100
AcDbSymbolTable
 70
     9
  0
LAYER
  5
25
330
2
100
AcDbSymbolTableRecord
100
AcDbLayerTableRecord
  2
0
 70
     0
 62
     7
  6
CONTINUOUS
370
    -3
390
F
  0
LAYER
  5
46
330
2
100
AcDbSymbolTableRecord
100
AcDbLayerTableRecord
  2
2-0
 70
     0
 62
     7
  6
CONTINUOUS
370
    -3
390
F
  0
LAYER
  5
47
330
2
100
AcDbSymbolTableRecord
100
AcDbLayerTableRecord
  2
4-0
 70
     0
 62
    -7
  6
CONTINUOUS
370
    -3
390
F
  0
LAYER
  5
48
330
2
100
AcDbSymbolTableRecord
100
AcDbLayerTableRecord
  2
5-0
 70
     0
 62
    -7
  6
CONTINUOUS
370
    -3
390
F
  0
LAYER
  5
49
330
2
100
AcDbSymbolTableRecord
100
AcDbLayerTableRecord
  2
6-0
 70
     0
 62
     7
  6
CONTINUOUS
370
    -3
390
F
  0
LAYER
  5
4A
330
2
100
AcDbSymbolTableRecord
100
AcDbLayerTableRecord
  2
8-0
 70
     0
 62
     7
  6
CONTINUOUS
370
    -3
390
F
  0
LAYER
  5
4B
330
2
100
AcDbSymbolTableRecord
100
AcDbLayerTableRecord
  2
A-0
 70
     0
 62
     6
  6
CENTER
370
    -3
390
F
  0
LAYER
  5
4C
330
2
100
AcDbSymbolTableRecord
100
AcDbLayerTableRecord
  2
C-0
 70
     0
 62
     5
  6
CONTINUOUS
370
    -3
390
F
  0
LAYER
  5
52
330
2
100
AcDbSymbolTableRecord
100
AcDbLayerTableRecord
  2
1-0
 70
     0
 62
     7
  6
CONTINUOUS
370
    -3
390
F
  0
ENDTAB
  0
TABLE
  2
STYLE
  5
3
330
0
100
AcDbSymbolTable
 70
     5
  0
STYLE
  5
26
330
3
100
AcDbSymbolTableRecord
100
AcDbTextStyleTableRecord
  2
STANDARD
 70
     0
 40
0.0
 41
1.0
 50
0.0
 71
     0
 42
0.0
  3
txt.shx
  4
extfont.shx
  0
STYLE
  5
42
330
3
100
AcDbSymbolTableRecord
100
AcDbTextStyleTableRecord
  2
TATEGAKI
 70
     4
 40
0.0
 41
1.0
 50
0.0
 71
     0
 42
0.0
  3
txt.shx
  4
extfont.shx
  0
STYLE
  5
43
330
3
100
AcDbSymbolTableRecord
100
AcDbTextStyleTableRecord
  2
DIM
 70
     0
 40
0.0
 41
0.75
 50
0.0
 71
     0
 42
0.0
  3
txt.shx
  4
extfont.shx
  0
STYLE
  5
44
330
3
100
AcDbSymbolTableRecord
100
AcDbTextStyleTableRecord
  2
_GOTHIC__
 70
     0
 40
0.0
 41
1.0
 50
0.0
 71
     0
 42
0.0
  3
MS Gothic
  4

  0
STYLE
  5
45
330
3
100
AcDbSymbolTableRecord
100
AcDbTextStyleTableRecord
  2
_TATEGOTHIC_
 70
     4
 40
0.0
 41
1.0
 50
0.0
 71
     0
 42
0.0
  3
@MS Gothic
  4

  0
ENDTAB
  0
TABLE
  2
VIEW
  5
6
330
0
100
AcDbSymbolTable
 70
     0
  0
ENDTAB
  0
TABLE
  2
UCS
  5
7
330
0
100
AcDbSymbolTable
 70
     0
  0
ENDTAB
  0
TABLE
  2
APPID
  5
9
330
0
100
AcDbSymbolTable
 70
     1
  0
APPID
  5
27
330
9
100
AcDbSymbolTableRecord
100
AcDbRegAppTableRecord
  2
ACAD
 70
     0
  0
ENDTAB
  0
TABLE
  2
DIMSTYLE
  5
A
330
0
100
AcDbSymbolTable
 70
     1
100
AcDbDimStyleTable
 71
     0
  0
DIMSTYLE
105
6DF
330
A
100
AcDbSymbolTableRecord
100
AcDbDimStyleTableRecord
  2
Standard
 70
     0
340
26
  0
ENDTAB
  0
TABLE
  2
BLOCK_RECORD
  5
1
330
0
100
AcDbSymbolTable
 70
     0
  0
BLOCK_RECORD
  5
36
330
1
100
AcDbSymbolTableRecord
100
AcDbBlockTableRecord
  2
*Model_Space
340
39
  0
BLOCK_RECORD
  5
32
330
1
100
AcDbSymbolTableRecord
100
AcDbBlockTableRecord
  2
*Paper_Space
340
35
  0
ENDTAB
  0
ENDSEC
  0
SECTION
  2
BLOCKS
  0
BLOCK
  5
37
330
36
100
AcDbEntity
  8
0
100
AcDbBlockBegin
  2
*Model_Space
 70
     0
 10
0.0
 20
0.0
 30
0.0
  3
*Model_Space
  1

  0
ENDBLK
  5
38
330
36
100
AcDbEntity
  8
0
100
AcDbBlockEnd
  0
BLOCK
  5
33
330
32
100
AcDbEntity
 67
     1
  8
0
100
AcDbBlockBegin
  2
*Paper_Space
 70
     0
 10
0.0
 20
0.0
 30
0.0
  3
*Paper_Space
  1

  0
ENDBLK
  5
34
330
32
100
AcDbEntity
 67
     1
  8
0
100
AcDbBlockEnd
  0
ENDSEC
  0
SECTION
  2
ENTITIES
  0
LINE
  5
53
330
36
100
AcDbEntity
  8
1-0
  6
Continuous
 62
     7
100
AcDbLine
 10
0.0
 20
0.0
 30
0.0
 11
4200.0
 21
0.0
 31
0.0
  0
LINE
  5
54
330
36
100
AcDbEntity
  8
1-0
  6
Continuous
 62
     7
100
AcDbLine
 10
4200.0
 20
0.0
 30
0.0
 11
4200.0
 21
2970.0
 31
0.0
  0
LINE
  5
55
330
36
100
AcDbEntity
  8
1-0
  6
Continuous
 62
     7
100
AcDbLine
 10
4200.0
 20
2970.0
 30
0.0
 11
0.0
 21
2970.0
 31
0.0
  0
LINE
  5
56
330
36
100
AcDbEntity
  8
1-0
  6
Continuous
 62
     7
100
AcDbLine
 10
0.0
 20
2970.0
 30
0.0
 11
0.0
 21
0.0
 31
0.0
  0
LINE
  5
57
330
36
100
AcDbEntity
  8
8-0
  6
Continuous
 62
     7
100
AcDbLine
 10
100.0
 20
100.0
 30
0.0
 11
4100.0
 21
100.0
 31
0.0
  0
LINE
  5
58
330
36
100
AcDbEntity
  8
8-0
  6
Continuous
 62
     7
100
AcDbLine
 10
2300.0
 20
300.0
 30
0.0
 11
4100.0
 21
300.0
 31
0.0
  0
LINE
  5
59
330
36
100
AcDbEntity
  8
6-0
  6
Continuous
 62
     7
100
AcDbLine
 10
2300.0
 20
240.0
 30
0.0
 11
3150.0
 21
240.0
 31
0.0
  0
LINE
  5
5A
330
36
100
AcDbEntity
  8
8-0
  6
Continuous
 62
     7
100
AcDbLine
 10
4100.0
 20
100.0
 30
0.0
 11
4100.0
 21
2870.0
 31
0.0
  0
LINE
  5
5B
330
36
100
AcDbEntity
  8
8-0
  6
Continuous
 62
     7
100
AcDbLine
 10
4100.0
 20
2870.0
 30
0.0
 11
100.0
 21
2870.0
 31
0.0
  0
LINE
  5
5C
330
36
100
AcDbEntity
  8
8-0
  6
Continuous
 62
     7
100
AcDbLine
 10
100.0
 20
2870.0
 30
0.0
 11
100.0
 21
100.0
 31
0.0
  0
LINE
  5
5D
330
36
100
AcDbEntity
  8
6-0
  6
Continuous
 62
     7
100
AcDbLine
 10
3150.0
 20
100.0
 30
0.0
 11
3150.0
 21
300.0
 31
0.0
  0
LINE
  5
5E
330
36
100
AcDbEntity
  8
8-0
  6
Continuous
 62
     7
100
AcDbLine
 10
2300.0
 20
100.0
 30
0.0
 11
2300.0
 21
300.0
 31
0.0
  0
TEXT
  5
5F
330
36
100
AcDbEntity
  8
C-0
 62
     5
100
AcDbText
 10
3353.56
 20
192.32
 30
0.0
 40
62.208
  1
アイオ産業株式会社
100
AcDbText
  0
TEXT
  5
60
330
36
100
AcDbEntity
  8
C-0
 62
     5
100
AcDbText
 10
3427.941
 20
124.513
 30
0.0
 40
31.104
  1
アイオシステムキッチン事業部
100
AcDbText
  0
LINE
  5
61
330
36
100
AcDbEntity
  8
2-0
  6
Continuous
 62
     7
100
AcDbLine
 10
3303.930621418063
 20
159.344016507598
 30
0.0
 11
3306.545384715214
 21
162.650472204284
 31
0.0
  0
LINE
  5
62
330
36
100
AcDbEntity
  8
2-0
  6
Continuous
 62
     7
100
AcDbLine
 10
3306.545384715214
 20
162.650472204284
 30
0.0
 11
3308.934072444712
 21
166.123771400324
 31
0.0
  0
LINE
  5
63
330
36
100
AcDbEntity
  8
2-0
  6
Continuous
 62
     7
100
AcDbLine
 10
3308.934072444712
 20
166.123771400324
 30
0.0
 11
3311.086072148063
 21
169.748482926921
 31
0.0
  0
LINE
  5
64
330
36
100
AcDbEntity
  8
2-0
  6
Continuous
 62
     7
100
AcDbLine
 10
3311.086072148063
 20
169.748482926921
 30
0.0
 11
3312.991822924002
 21
173.508502920788
 31
0.0
  0
LINE
  5
65
330
36
100
AcDbEntity
  8
2-0
  6
Continuous
 62
     7
100
AcDbLine
 10
3312.991822924002
 20
173.508502920788
 30
0.0
 11
3314.642857905655
 21
177.387126370368
 31
0.0
  0
LINE
  5
66
330
36
100
AcDbEntity
  8
2-0
  6
Continuous
 62
     7
100
AcDbLine
 10
3314.642857905655
 20
177.387126370368
 30
0.0
 11
3316.031841877119
 21
181.367121332837
 31
0.0
  0
LINE
  5
67
330
36
100
AcDbEntity
  8
2-0
  6
Continuous
 62
     7
100
AcDbLine
 10
3316.031841877119
 20
181.367121332837
 30
0.0
 11
3317.152603862354
 21
185.430805492159
 31
0.0
  0
LINE
  5
68
330
36
100
AcDbEntity
  8
2-0
  6
Continuous
 62
     7
100
AcDbLine
 10
3317.152603862354
 20
185.430805492159
 30
0.0
 11
3318.000164541583
 21
189.5601247180469
 31
0.0
  0
LINE
  5
69
330
36
100
AcDbEntity
  8
2-0
  6
Continuous
 62
     7
100
AcDbLine
 10
3318.000164541583
 20
189.5601247180469
 30
0.0
 11
3318.570758373411
 21
193.736733276836
 31
0.0
  0
LINE
  5
6A
330
36
100
AcDbEntity
  8
2-0
  6
Continuous
 62
     7
100
AcDbLine
 10
3318.570758373411
 20
193.736733276836
 30
0.0
 11
3318.86185032436
 21
197.942075337877
 31
0.0
  0
LINE
  5
6B
330
36
100
AcDbEntity
  8
2-0
  6
Continuous
 62
     7
100
AcDbLine
 10
3318.86185032436
 20
197.942075337877
 30
0.0
 11
3318.872147131519
 21
202.157467413359
 31
0.0
  0
LINE
  5
6C
330
36
100
AcDbEntity
  8
2-0
  6
Continuous
 62
     7
100
AcDbLine
 10
3318.872147131519
 20
202.157467413359
 30
0.0
 11
3318.601603048249
 21
206.364181365278
 31
0.0
  0
LINE
  5
6D
330
36
100
AcDbEntity
  8
2-0
  6
Continuous
 62
     7
100
AcDbLine
 10
3318.601603048249
 20
206.364181365278
 30
0.0
 11
3318.05142004742
 21
210.543527610789
 31
0.0
  0
LINE
  5
6E
330
36
100
AcDbEntity
  8
2-0
  6
Continuous
 62
     7
100
AcDbLine
 10
3318.05142004742
 20
210.543527610789
 30
0.0
 11
3317.224042481301
 21
214.676938156253
 31
0.0
  0
LINE
  5
6F
330
36
100
AcDbEntity
  8
2-0
  6
Continuous
 62
     7
100
AcDbLine
 10
3317.224042481301
 20
214.676938156253
 30
0.0
 11
3316.12314622178
 21
218.746049091094
 31
0.0
  0
LINE
  5
70
330
36
100
AcDbEntity
  8
2-0
  6
Continuous
 62
     7
100
AcDbLine
 10
3316.12314622178
 20
218.746049091094
 30
0.0
 11
3314.753622329215
 21
222.732782174957
 31
0.0
  0
LINE
  5
71
330
36
100
AcDbEntity
  8
2-0
  6
Continuous
 62
     7
100
AcDbLine
 10
3314.753622329215
 20
222.732782174957
 30
0.0
 11
3313.121555322438
 21
226.619425155686
 31
0.0
  0
LINE
  5
72
330
36
100
AcDbEntity
  8
2-0
  6
Continuous
 62
     7
100
AcDbLine
 10
3313.121555322438
 20
226.619425155686
 30
0.0
 11
3311.234196146454
 21
230.388710461298
 31
0.0
  0
LINE
  5
73
330
36
100
AcDbEntity
  8
2-0
  6
Continuous
 62
     7
100
AcDbLine
 10
3311.234196146454
 20
230.388710461298
 30
0.0
 11
3309.099929957967
 21
234.023891916322
 31
0.0
  0
LINE
  5
74
330
36
100
AcDbEntity
  8
2-0
  6
Continuous
 62
     7
100
AcDbLine
 10
3309.099929957967
 20
234.023891916322
 30
0.0
 11
3306.728238871805
 21
237.508819141687
 31
0.0
  0
LINE
  5
75
330
36
100
AcDbEntity
  8
2-0
  6
Continuous
 62
     7
100
AcDbLine
 10
3306.728238871805
 20
237.508819141687
 30
0.0
 11
3304.129659833801
 21
240.828009307604
 31
0.0
  0
LINE
  5
76
330
36
100
AcDbEntity
  8
2-0
  6
Continuous
 62
     7
100
AcDbLine
 10
3304.129659833801
 20
240.828009307604
 30
0.0
 11
3301.31573780726
 21
243.966715920656
 31
0.0
  0
LINE
  5
77
330
36
100
AcDbEntity
  8
2-0
  6
Continuous
 62
     7
100
AcDbLine
 10
3301.31573780726
 20
243.966715920656
 30
0.0
 11
3298.298974481016
 21
246.910994339505
 31
0.0
  0
LINE
  5
78
330
36
100
AcDbEntity
  8
2-0
  6
Continuous
 62
     7
100
AcDbLine
 10
3298.298974481016
 20
246.910994339505
 30
0.0
 11
3295.092772726945
 21
249.64776372812
 31
0.0
  0
LINE
  5
79
330
36
100
AcDbEntity
  8
2-0
  6
Continuous
 62
     7
100
AcDbLine
 10
3295.092772726945
 20
249.64776372812
 30
0.0
 11
3291.711377053703
 21
252.1648651713
 31
0.0
  0
LINE
  5
7A
330
36
100
AcDbEntity
  8
2-0
  6
Continuous
 62
     7
100
AcDbLine
 10
3291.711377053703
 20
252.1648651713
 30
0.0
 11
3288.169810321247
 21
254.451115694281
 31
0.0
  0
LINE
  5
7B
330
36
100
AcDbEntity
  8
2-0
  6
Continuous
 62
     7
100
AcDbLine
 10
3288.169810321247
 20
254.451115694281
 30
0.0
 11
3284.483806997289
 21
256.496357946447
 31
0.0
  0
LINE
  5
7C
330
36
100
AcDbEntity
  8
2-0
  6
Continuous
 62
     7
100
AcDbLine
 10
3284.483806997289
 20
256.496357946447
 30
0.0
 11
3280.669743252228
 21
258.291505328387
 31
0.0
  0
LINE
  5
7D
330
36
100
AcDbEntity
  8
2-0
  6
Continuous
 62
     7
100
AcDbLine
 10
3280.669743252228
 20
258.291505328387
 30
0.0
 11
3276.744564203122
 21
259.82858236183
 31
0.0
  0
LINE
  5
7E
330
36
100
AcDbEntity
  8
2-0
  6
Continuous
 62
     7
100
AcDbLine
 10
3276.744564203122
 20
259.82858236183
 30
0.0
 11
3272.725708629948
 21
261.100760123087
 31
0.0
  0
LINE
  5
7F
330
36
100
AcDbEntity
  8
2-0
  6
Continuous
 62
     7
100
AcDbLine
 10
3272.725708629948
 20
261.100760123087
 30
0.0
 11
3268.631031498609
 21
262.102386582585
 31
0.0
  0
LINE
  5
80
330
36
100
AcDbEntity
  8
2-0
  6
Continuous
 62
     7
100
AcDbLine
 10
3268.631031498609
 20
262.102386582585
 30
0.0
 11
3264.478724634923
 21
262.829011715694
 31
0.0
  0
LINE
  5
81
330
36
100
AcDbEntity
  8
2-0
  6
Continuous
 62
     7
100
AcDbLine
 10
3264.478724634923
 20
262.829011715694
 30
0.0
 11
3260.287235902004
 21
263.277407273291
 31
0.0
  0
LINE
  5
82
330
36
100
AcDbEntity
  8
2-0
  6
Continuous
 62
     7
100
AcDbLine
 10
3260.287235902004
 20
263.277407273291
 30
0.0
 11
3256.075187240113
 21
263.445581124221
 31
0.0
  0
LINE
  5
83
330
36
100
AcDbEntity
  8
2-0
  6
Continuous
 62
     7
100
AcDbLine
 10
3256.075187240113
 20
263.445581124221
 30
0.0
 11
3251.861291933139
 21
263.332786105936
 31
0.0
  0
LINE
  5
84
330
36
100
AcDbEntity
  8
2-0
  6
Continuous
 62
     7
100
AcDbLine
 10
3251.861291933139
 20
263.332786105936
 30
0.0
 11
3247.664271469246
 21
262.939523343985
 31
0.0
  0
LINE
  5
85
330
36
100
AcDbEntity
  8
2-0
  6
Continuous
 62
     7
100
AcDbLine
 10
3247.664271469246
 20
262.939523343985
 30
0.0
 11
3243.502772365064
 21
262.267540025615
 31
0.0
  0
LINE
  5
86
330
36
100
AcDbEntity
  8
2-0
  6
Continuous
 62
     7
100
AcDbLine
 10
3243.502772365064
 20
262.267540025615
 30
0.0
 11
3239.395283322977
 21
261.319821637371
 31
0.0
  0
LINE
  5
87
330
36
100
AcDbEntity
  8
2-0
  6
Continuous
 62
     7
100
AcDbLine
 10
3239.395283322977
 20
261.319821637371
 30
0.0
 11
3235.360053089544
 21
260.100578701178
 31
0.0
  0
LINE
  5
88
330
36
100
AcDbEntity
  8
2-0
  6
Continuous
 62
     7
100
AcDbLine
 10
3235.360053089544
 20
260.100578701178
 30
0.0
 11
3231.415009379985
 21
258.615228067845
 31
0.0
  0
LINE
  5
89
330
36
100
AcDbEntity
  8
2-0
  6
Continuous
 62
     7
100
AcDbLine
 10
3231.415009379985
 20
258.615228067845
 30
0.0
 11
3227.577679228962
 21
256.870368851082
 31
0.0
  0
LINE
  5
8A
330
36
100
AcDbEntity
  8
2-0
  6
Continuous
 62
     7
100
AcDbLine
 10
3227.577679228962
 20
256.870368851082
 30
0.0
 11
3223.865111121489
 21
254.873753108971
 31
0.0
  0
LINE
  5
8B
330
36
100
AcDbEntity
  8
2-0
  6
Continuous
 62
     7
100
AcDbLine
 10
3223.865111121489
 20
254.873753108971
 30
0.0
 11
3220.293799249947
 21
252.63425140313
 31
0.0
  0
LINE
  5
8C
330
36
100
AcDbEntity
  8
2-0
  6
Continuous
 62
     7
100
AcDbLine
 10
3220.293799249947
 20
252.63425140313
 30
0.0
 11
3216.879610233713
 21
250.161813388599
 31
0.0
  0
LINE
  5
8D
330
36
100
AcDbEntity
  8
2-0
  6
Continuous
 62
     7
100
AcDbLine
 10
3216.879610233713
 20
250.161813388599
 30
0.0
 11
3213.63771262696
 21
247.467423609521
 31
0.0
  0
LINE
  5
8E
330
36
100
AcDbEntity
  8
2-0
  6
Continuous
 62
     7
100
AcDbLine
 10
3213.63771262696
 20
247.467423609521
 30
0.0
 11
3210.582509527829
 21
244.563052697029
 31
0.0
  0
LINE
  5
8F
330
36
100
AcDbEntity
  8
2-0
  6
Continuous
 62
     7
100
AcDbLine
 10
3210.582509527829
 20
244.563052697029
 30
0.0
 11
3207.727574588365
 21
241.46160418614
 31
0.0
  0
LINE
  5
90
330
36
100
AcDbEntity
  8
2-0
  6
Continuous
 62
     7
100
AcDbLine
 10
3207.727574588365
 20
241.46160418614
 30
0.0
 11
3205.085591709512
 21
238.176857187949
 31
0.0
  0
LINE
  5
91
330
36
100
AcDbEntity
  8
2-0
  6
Continuous
 62
     7
100
AcDbLine
 10
3205.085591709512
 20
238.176857187949
 30
0.0
 11
3202.668298689103
 21
234.723405171814
 31
0.0
  0
LINE
  5
92
330
36
100
AcDbEntity
  8
2-0
  6
Continuous
 62
     7
100
AcDbLine
 10
3202.668298689103
 20
234.723405171814
 30
0.0
 11
3200.486435073175
 21
231.11659112951
 31
0.0
  0
LINE
  5
93
330
36
100
AcDbEntity
  8
2-0
  6
Continuous
 62
     7
100
AcDbLine
 10
3200.486435073175
 20
231.11659112951
 30
0.0
 11
3198.549694442345
 21
227.372439409405
 31
0.0
  0
LINE
  5
94
330
36
100
AcDbEntity
  8
2-0
  6
Continuous
 62
     7
100
AcDbLine
 10
3198.549694442345
 20
227.372439409405
 30
0.0
 11
3196.866681345171
 21
223.507584523512
 31
0.0
  0
LINE
  5
95
330
36
100
AcDbEntity
  8
2-0
  6
Continuous
 62
     7
100
AcDbLine
 10
3196.866681345171
 20
223.507584523512
 30
0.0
 11
3195.444873069881
 21
219.539197243699
 31
0.0
  0
LINE
  5
96
330
36
100
AcDbEntity
  8
2-0
  6
Continuous
 62
     7
100
AcDbLine
 10
3195.444873069881
 20
219.539197243699
 30
0.0
 11
3194.290586424286
 21
215.484908315407
 31
0.0
  0
LINE
  5
97
330
36
100
AcDbEntity
  8
2-0
  6
Continuous
 62
     7
100
AcDbLine
 10
3194.290586424286
 20
215.484908315407
 30
0.0
 11
3193.408949671476
 21
211.362730127802
 31
0.0
  0
LINE
  5
98
330
36
100
AcDbEntity
  8
2-0
  6
Continuous
 62
     7
100
AcDbLine
 10
3193.408949671476
 20
211.362730127802
 30
0.0
 11
3192.803879745982
 21
207.190976688356
 31
0.0
  0
LINE
  5
99
330
36
100
AcDbEntity
  8
2-0
  6
Continuous
 62
     7
100
AcDbLine
 10
3192.803879745982
 20
207.190976688356
 30
0.0
 11
3192.47806485162
 21
202.9881822574
 31
0.0
  0
LINE
  5
9A
330
36
100
AcDbEntity
  8
2-0
  6
Continuous
 62
     7
100
AcDbLine
 10
3192.47806485162
 20
202.9881822574
 30
0.0
 11
3192.432952518345
 21
198.773019004137
 31
0.0
  0
LINE
  5
9B
330
36
100
AcDbEntity
  8
2-0
  6
Continuous
 62
     7
100
AcDbLine
 10
3192.432952518345
 20
198.773019004137
 30
0.0
 11
3192.668743171168
 21
194.56421404996
 31
0.0
  0
LINE
  5
9C
330
36
100
AcDbEntity
  8
2-0
  6
Continuous
 62
     7
100
AcDbLine
 10
3192.668743171168
 20
194.56421404996
 30
0.0
 11
3193.184389239708
 21
190.380466267616
 31
0.0
  0
LINE
  5
9D
330
36
100
AcDbEntity
  8
2-0
  6
Continuous
 62
     7
100
AcDbLine
 10
3193.184389239708
 20
190.380466267616
 30
0.0
 11
3193.977599812335
 21
186.240363205886
 31
0.0
  0
LINE
  5
9E
330
36
100
AcDbEntity
  8
2-0
  6
Continuous
 62
     7
100
AcDbLine
 10
3193.977599812335
 20
186.240363205886
 30
0.0
 11
3195.044850814228
 21
182.162298508848
 31
0.0
  0
LINE
  5
9F
330
36
100
AcDbEntity
  8
2-0
  6
Continuous
 62
     7
100
AcDbLine
 10
3195.044850814228
 20
182.162298508848
 30
0.0
 11
3196.381400664132
 21
178.164390196619
 31
0.0
  0
LINE
  5
A0
330
36
100
AcDbEntity
  8
2-0
  6
Continuous
 62
     7
100
AcDbLine
 10
3196.381400664132
 20
178.164390196619
 30
0.0
 11
3197.981311340251
 21
174.264400170643
 31
0.0
  0
LINE
  5
A1
330
36
100
AcDbEntity
  8
2-0
  6
Continuous
 62
     7
100
AcDbLine
 10
3197.981311340251
 20
174.264400170643
 30
0.0
 11
3199.837474761674
 21
170.479655301139
 31
0.0
  0
LINE
  5
A2
330
36
100
AcDbEntity
  8
2-0
  6
Continuous
 62
     7
100
AcDbLine
 10
3199.837474761674
 20
170.479655301139
 30
0.0
 11
3201.941644368154
 21
166.826970447304
 31
0.0
  0
LINE
  5
A3
330
36
100
AcDbEntity
  8
2-0
  6
Continuous
 62
     7
100
AcDbLine
 10
3201.941644368154
 20
166.826970447304
 30
0.0
 11
3204.284471757917
 21
163.322573752287
 31
0.0
  0
LINE
  5
A4
330
36
100
AcDbEntity
  8
2-0
  6
Continuous
 62
     7
100
AcDbLine
 10
3204.284471757917
 20
163.322573752287
 30
0.0
 11
3206.85554822072
 21
159.98203454481
 31
0.0
  0
LINE
  5
A5
330
36
100
AcDbEntity
  8
2-0
  6
Continuous
 62
     7
100
AcDbLine
 10
3206.85554822072
 20
159.98203454481
 30
0.0
 11
3207.388454932906
 21
159.344016507598
 31
0.0
  0
LINE
  5
A6
330
36
100
AcDbEntity
  8
2-0
  6
Continuous
 62
     7
100
AcDbLine
 10
3327.242585344353
 20
200.204166274283
 30
0.0
 11
3327.08357081356
 21
204.972835239045
 31
0.0
  0
LINE
  5
A7
330
36
100
AcDbEntity
  8
2-0
  6
Continuous
 62
     7
100
AcDbLine
 10
3327.08357081356
 20
204.972835239045
 30
0.0
 11
3326.607233690717
 21
209.720317968018
 31
0.0
  0
LINE
  5
A8
330
36
100
AcDbEntity
  8
2-0
  6
Continuous
 62
     7
100
AcDbLine
 10
3326.607233690717
 20
209.720317968018
 30
0.0
 11
3325.815690245725
 21
214.42552235159
 31
0.0
  0
LINE
  5
A9
330
36
100
AcDbEntity
  8
2-0
  6
Continuous
 62
     7
100
AcDbLine
 10
3325.815690245725
 20
214.42552235159
 30
0.0
 11
3324.712457146692
 21
219.067544114324
 31
0.0
  0
LINE
  5
AA
330
36
100
AcDbEntity
  8
2-0
  6
Continuous
 62
     7
100
AcDbLine
 10
3324.712457146692
 20
219.067544114324
 30
0.0
 11
3323.302435836082
 21
223.625759688441
 31
0.0
  0
LINE
  5
AB
330
36
100
AcDbEntity
  8
2-0
  6
Continuous
 62
     7
100
AcDbLine
 10
3323.302435836082
 20
223.625759688441
 30
0.0
 11
3321.591890754597
 21
228.07991784018
 31
0.0
  0
LINE
  5
AC
330
36
100
AcDbEntity
  8
2-0
  6
Continuous
 62
     7
100
AcDbLine
 10
3321.591890754597
 20
228.07991784018
 30
0.0
 11
3319.588421509529
 21
232.410229641951
 31
0.0
  0
LINE
  5
AD
330
36
100
AcDbEntity
  8
2-0
  6
Continuous
 62
     7
100
AcDbLine
 10
3319.588421509529
 20
232.410229641951
 30
0.0
 11
3317.300929111226
 21
236.597456390553
 31
0.0
  0
LINE
  5
AE
330
36
100
AcDbEntity
  8
2-0
  6
Continuous
 62
     7
100
AcDbLine
 10
3317.300929111226
 20
236.597456390553
 30
0.0
 11
3314.739576427712
 21
240.622995080858
 31
0.0
  0
LINE
  5
AF
330
36
100
AcDbEntity
  8
2-0
  6
Continuous
 62
     7
100
AcDbLine
 10
3314.739576427712
 20
240.622995080858
 30
0.0
 11
3311.915743033094
 21
244.468961055219
 31
0.0
  0
LINE
  5
B0
330
36
100
AcDbEntity
  8
2-0
  6
Continuous
 62
     7
100
AcDbLine
 10
3311.915743033094
 20
244.468961055219
 30
0.0
 11
3308.84197465042
 21
248.118267461397
 31
0.0
  0
LINE
  5
B1
330
36
100
AcDbEntity
  8
2-0
  6
Continuous
 62
     7
100
AcDbLine
 10
3308.84197465042
 20
248.118267461397
 30
0.0
 11
3305.53192741355
 21
251.554701166008
 31
0.0
  0
LINE
  5
B2
330
36
100
AcDbEntity
  8
2-0
  6
Continuous
 62
     7
100
AcDbLine
 10
3305.53192741355
 20
251.554701166008
 30
0.0
 11
3302.000307195707
 21
254.762994786208
 31
0.0
  0
LINE
  5
B3
330
36
100
AcDbEntity
  8
2-0
  6
Continuous
 62
     7
100
AcDbLine
 10
3302.000307195707
 20
254.762994786208
 30
0.0
 11
3298.262804274241
 21
257.728894519601
 31
0.0
  0
LINE
  5
B4
330
36
100
AcDbEntity
  8
2-0
  6
Continuous
 62
     7
100
AcDbLine
 10
3298.262804274241
 20
257.728894519601
 30
0.0
 11
3294.336023621892
 21
260.439223471009
 31
0.0
  0
LINE
  5
B5
330
36
100
AcDbEntity
  8
2-0
  6
Continuous
 62
     7
100
AcDbLine
 10
3294.336023621892
 20
260.439223471009
 30
0.0
 11
3290.237411134236
 21
262.881940194767
 31
0.0
  0
LINE
  5
B6
330
36
100
AcDbEntity
  8
2-0
  6
Continuous
 62
     7
100
AcDbLine
 10
3290.237411134236
 20
262.881940194767
 30
0.0
 11
3285.985176121086
 21
265.046192192441
 31
0.0
  0
LINE
  5
B7
330
36
100
AcDbEntity
  8
2-0
  6
Continuous
 62
     7
100
AcDbLine
 10
3285.985176121086
 20
265.046192192441
 30
0.0
 11
3281.598210406194
 21
266.92236412829
 31
0.0
  0
LINE
  5
B8
330
36
100
AcDbEntity
  8
2-0
  6
Continuous
 62
     7
100
AcDbLine
 10
3281.598210406194
 20
266.92236412829
 30
0.0
 11
3277.096004394688
 21
268.502120548269
 31
0.0
  0
LINE
  5
B9
330
36
100
AcDbEntity
  8
2-0
  6
Continuous
 62
     7
100
AcDbLine
 10
3277.096004394688
 20
268.502120548269
 30
0.0
 11
3272.498560481123
 21
269.77844291277
 31
0.0
  0
LINE
  5
BA
330
36
100
AcDbEntity
  8
2-0
  6
Continuous
 62
     7
100
AcDbLine
 10
3272.498560481123
 20
269.77844291277
 30
0.0
 11
3267.82630418287
 21
270.745660778581
 31
0.0
  0
LINE
  5
BB
330
36
100
AcDbEntity
  8
2-0
  6
Continuous
 62
     7
100
AcDbLine
 10
3267.82630418287
 20
270.745660778581
 30
0.0
 11
3263.099993393661
 21
271.399476991525
 31
0.0
  0
LINE
  5
BC
330
36
100
AcDbEntity
  8
2-0
  6
Continuous
 62
     7
100
AcDbLine
 10
3263.099993393661
 20
271.399476991525
 30
0.0
 11
3258.340626160442
 21
271.736986777848
 31
0.0
  0
LINE
  5
BD
330
36
100
AcDbEntity
  8
2-0
  6
Continuous
 62
     7
100
AcDbLine
 10
3258.340626160442
 20
271.736986777848
 30
0.0
 11
3253.569347393283
 21
271.756690649544
 31
0.0
  0
LINE
  5
BE
330
36
100
AcDbEntity
  8
2-0
  6
Continuous
 62
     7
100
AcDbLine
 10
3253.569347393283
 20
271.756690649544
 30
0.0
 11
3248.807354922801
 21
271.45850106628
 31
0.0
  0
LINE
  5
BF
330
36
100
AcDbEntity
  8
2-0
  6
Continuous
 62
     7
100
AcDbLine
 10
3248.807354922801
 20
271.45850106628
 30
0.0
 11
3244.075805322464
 21
270.843742824318
 31
0.0
  0
LINE
  5
C0
330
36
100
AcDbEntity
  8
2-0
  6
Continuous
 62
     7
100
AcDbLine
 10
3244.075805322464
 20
270.843742824318
 30
0.0
 11
3239.395719914205
 21
269.915147170714
 31
0.0
  0
LINE
  5
C1
330
36
100
AcDbEntity
  8
2-0
  6
Continuous
 62
     7
100
AcDbLine
 10
3239.395719914205
 20
269.915147170714
 30
0.0
 11
3234.787891374909
 21
268.676839668934
 31
0.0
  0
LINE
  5
C2
330
36
100
AcDbEntity
  8
2-0
  6
Continuous
 62
     7
100
AcDbLine
 10
3234.787891374909
 20
268.676839668934
 30
0.0
 11
3230.272791358753
 21
267.134321869812
 31
0.0
  0
LINE
  5
C3
330
36
100
AcDbEntity
  8
2-0
  6
Continuous
 62
     7
100
AcDbLine
 10
3230.272791358753
 20
267.134321869812
 30
0.0
 11
3225.870479545756
 21
265.294446869263
 31
0.0
  0
LINE
  5
C4
330
36
100
AcDbEntity
  8
2-0
  6
Continuous
 62
     7
100
AcDbLine
 10
3225.870479545756
 20
265.294446869263
 30
0.0
 11
3221.600514520667
 21
263.165388861359
 31
0.0
  0
LINE
  5
C5
330
36
100
AcDbEntity
  8
2-0
  6
Continuous
 62
     7
100
AcDbLine
 10
3221.600514520667
 20
263.165388861359
 30
0.0
 11
3217.481866878112
 21
260.756606822033
 31
0.0
  0
LINE
  5
C6
330
36
100
AcDbEntity
  8
2-0
  6
Continuous
 62
     7
100
AcDbLine
 10
3217.481866878112
 20
260.756606822033
 30
0.0
 11
3213.532834940064
 21
258.078802484749
 31
0.0
  0
LINE
  5
C7
330
36
100
AcDbEntity
  8
2-0
  6
Continuous
 62
     7
100
AcDbLine
 10
3213.532834940064
 20
258.078802484749
 30
0.0
 11
3209.770963460077
 21
255.143872794865
 31
0.0
  0
LINE
  5
C8
330
36
100
AcDbEntity
  8
2-0
  6
Continuous
 62
     7
100
AcDbLine
 10
3209.770963460077
 20
255.143872794865
 30
0.0
 11
3206.21296567549
 21
251.96485705389
 31
0.0
  0
LINE
  5
C9
330
36
100
AcDbEntity
  8
2-0
  6
Continuous
 62
     7
100
AcDbLine
 10
3206.21296567549
 20
251.96485705389
 30
0.0
 11
3202.87464905387
 21
248.5558789885
 31
0.0
  0
LINE
  5
CA
330
36
100
AcDbEntity
  8
2-0
  6
Continuous
 62
     7
100
AcDbLine
 10
3202.87464905387
 20
248.5558789885
 30
0.0
 11
3199.77084506362
 21
244.932084001664
 31
0.0
  0
LINE
  5
CB
330
36
100
AcDbEntity
  8
2-0
  6
Continuous
 62
     7
100
AcDbLine
 10
3199.77084506362
 20
244.932084001664
 30
0.0
 11
3196.915343280759
 21
241.109571884669
 31
0.0
  0
LINE
  5
CC
330
36
100
AcDbEntity
  8
2-0
  6
Continuous
 62
     7
100
AcDbLine
 10
3196.915343280759
 20
241.109571884669
 30
0.0
 11
3194.320830124603
 21
237.105325288988
 31
0.0
  0
LINE
  5
CD
330
36
100
AcDbEntity
  8
2-0
  6
Continuous
 62
     7
100
AcDbLine
 10
3194.320830124603
 20
237.105325288988
 30
0.0
 11
3191.998832494563
 21
232.93713427578
 31
0.0
  0
LINE
  5
CE
330
36
100
AcDbEntity
  8
2-0
  6
Continuous
 62
     7
100
AcDbLine
 10
3191.998832494563
 20
232.93713427578
 30
0.0
 11
3189.959666558455
 21
228.623517278235
 31
0.0
  0
LINE
  5
CF
330
36
100
AcDbEntity
  8
2-0
  6
Continuous
 62
     7
100
AcDbLine
 10
3189.959666558455
 20
228.623517278235
 30
0.0
 11
3188.212391919839
 21
224.1836388279
 31
0.0
  0
LINE
  5
D0
330
36
100
AcDbEntity
  8
2-0
  6
Continuous
 62
     7
100
AcDbLine
 10
3188.212391919839
 20
224.1836388279
 30
0.0
 11
3186.76477136803
 21
219.637224410529
 31
0.0
  0
LINE
  5
D1
330
36
100
AcDbEntity
  8
2-0
  6
Continuous
 62
     7
100
AcDbLine
 10
3186.76477136803
 20
219.637224410529
 30
0.0
 11
3185.623236389587
 21
215.004472829721
 31
0.0
  0
LINE
  5
D2
330
36
100
AcDbEntity
  8
2-0
  6
Continuous
 62
     7
100
AcDbLine
 10
3185.623236389587
 20
215.004472829721
 30
0.0
 11
3184.79285859451
 21
210.305966467701
 31
0.0
  0
LINE
  5
D3
330
36
100
AcDbEntity
  8
2-0
  6
Continuous
 62
     7
100
AcDbLine
 10
3184.79285859451
 20
210.305966467701
 30
0.0
 11
3184.277327184102
 21
205.562579841947
 31
0.0
  0
LINE
  5
D4
330
36
100
AcDbEntity
  8
2-0
  6
Continuous
 62
     7
100
AcDbLine
 10
3184.277327184102
 20
205.562579841947
 30
0.0
 11
3184.078932560592
 21
200.795386863909
 31
0.0
  0
LINE
  5
D5
330
36
100
AcDbEntity
  8
2-0
  6
Continuous
 62
     7
100
AcDbLine
 10
3184.078932560592
 20
200.795386863909
 30
0.0
 11
3184.198556151335
 21
196.025567211864
 31
0.0
  0
LINE
  5
D6
330
36
100
AcDbEntity
  8
2-0
  6
Continuous
 62
     7
100
AcDbLine
 10
3184.198556151335
 20
196.025567211864
 30
0.0
 11
3184.635666492808
 21
191.274312233875
 31
0.0
  0
LINE
  5
D7
330
36
100
AcDbEntity
  8
2-0
  6
Continuous
 62
     7
100
AcDbLine
 10
3184.635666492808
 20
191.274312233875
 30
0.0
 11
3185.3883215918
 21
186.562730798894
 31
0.0
  0
LINE
  5
D8
330
36
100
AcDbEntity
  8
2-0
  6
Continuous
 62
     7
100
AcDbLine
 10
3185.3883215918
 20
186.562730798894
 30
0.0
 11
3186.453177553293
 21
181.911755514315
 31
0.0
  0
LINE
  5
D9
330
36
100
AcDbEntity
  8
2-0
  6
Continuous
 62
     7
100
AcDbLine
 10
3186.453177553293
 20
181.911755514315
 30
0.0
 11
3187.825503436714
 21
177.342049726609
 31
0.0
  0
LINE
  5
DA
330
36
100
AcDbEntity
  8
2-0
  6
Continuous
 62
     7
100
AcDbLine
 10
3187.825503436714
 20
177.342049726609
 30
0.0
 11
3189.499202274552
 21
172.873915718244
 31
0.0
  0
LINE
  5
DB
330
36
100
AcDbEntity
  8
2-0
  6
Continuous
 62
     7
100
AcDbLine
 10
3189.499202274552
 20
172.873915718244
 30
0.0
 11
3191.466838159958
 21
168.527204508725
 31
0.0
  0
LINE
  5
DC
330
36
100
AcDbEntity
  8
2-0
  6
Continuous
 62
     7
100
AcDbLine
 10
3191.466838159958
 20
168.527204508725
 30
0.0
 11
3193.719669282979
 21
164.321227660519
 31
0.0
  0
LINE
  5
DD
330
36
100
AcDbEntity
  8
2-0
  6
Continuous
 62
     7
100
AcDbLine
 10
3193.719669282979
 20
164.321227660519
 30
0.0
 11
3196.247686768661
 21
160.27467148167
 31
0.0
  0
LINE
  5
DE
330
36
100
AcDbEntity
  8
2-0
  6
Continuous
 62
     7
100
AcDbLine
 10
3196.247686768661
 20
160.27467148167
 30
0.0
 11
3199.039659144464
 21
156.405514006294
 31
0.0
  0
LINE
  5
DF
330
36
100
AcDbEntity
  8
2-0
  6
Continuous
 62
     7
100
AcDbLine
 10
3199.039659144464
 20
156.405514006294
 30
0.0
 11
3202.08318223943
 21
152.730945121798
 31
0.0
  0
LINE
  5
E0
330
36
100
AcDbEntity
  8
2-0
  6
Continuous
 62
     7
100
AcDbLine
 10
3202.08318223943
 20
152.730945121798
 30
0.0
 11
3205.364734293423
 21
149.26729019767
 31
0.0
  0
LINE
  5
E1
330
36
100
AcDbEntity
  8
2-0
  6
Continuous
 62
     7
100
AcDbLine
 10
3205.364734293423
 20
149.26729019767
 30
0.0
 11
3208.869736031576
 21
146.029937555148
 31
0.0
  0
LINE
  5
E2
330
36
100
AcDbEntity
  8
2-0
  6
Continuous
 62
     7
100
AcDbLine
 10
3208.869736031576
 20
146.029937555148
 30
0.0
 11
3212.582615437083
 21
143.033270100015
 31
0.0
  0
LINE
  5
E3
330
36
100
AcDbEntity
  8
2-0
  6
Continuous
 62
     7
100
AcDbLine
 10
3212.582615437083
 20
143.033270100015
 30
0.0
 11
3216.486876934529
 21
140.290601422237
 31
0.0
  0
LINE
  5
E4
330
36
100
AcDbEntity
  8
2-0
  6
Continuous
 62
     7
100
AcDbLine
 10
3216.486876934529
 20
140.290601422237
 30
0.0
 11
3220.565174676406
 21
137.81411664637
 31
0.0
  0
LINE
  5
E5
330
36
100
AcDbEntity
  8
2-0
  6
Continuous
 62
     7
100
AcDbLine
 10
3220.565174676406
 20
137.81411664637
 30
0.0
 11
3224.799389607226
 21
135.614818295504
 31
0.0
  0
LINE
  5
E6
330
36
100
AcDbEntity
  8
2-0
  6
Continuous
 62
     7
100
AcDbLine
 10
3224.799389607226
 20
135.614818295504
 30
0.0
 11
3229.170709962831
 21
133.702477409268
 31
0.0
  0
LINE
  5
E7
330
36
100
AcDbEntity
  8
2-0
  6
Continuous
 62
     7
100
AcDbLine
 10
3229.170709962831
 20
133.702477409268
 30
0.0
 11
3233.659714847276
 21
132.08559013307
 31
0.0
  0
LINE
  5
E8
330
36
100
AcDbEntity
  8
2-0
  6
Continuous
 62
     7
100
AcDbLine
 10
3233.659714847276
 20
132.08559013307
 30
0.0
 11
3238.246460515954
 21
130.7713399714329
 31
0.0
  0
LINE
  5
E9
330
36
100
AcDbEntity
  8
2-0
  6
Continuous
 62
     7
100
AcDbLine
 10
3238.246460515954
 20
130.7713399714329
 30
0.0
 11
3242.910568981641
 21
129.765565873132
 31
0.0
  0
LINE
  5
EA
330
36
100
AcDbEntity
  8
2-0
  6
Continuous
 62
     7
100
AcDbLine
 10
3242.910568981641
 20
129.765565873132
 30
0.0
 11
3247.631318549785
 21
129.072736289922
 31
0.0
  0
LINE
  5
EB
330
36
100
AcDbEntity
  8
2-0
  6
Continuous
 62
     7
100
AcDbLine
 10
3247.631318549785
 20
129.072736289922
 30
0.0
 11
3252.387735880826
 21
128.695929324103
 31
0.0
  0
LINE
  5
EC
330
36
100
AcDbEntity
  8
2-0
  6
Continuous
 62
     7
100
AcDbLine
 10
3252.387735880826
 20
128.695929324103
 30
0.0
 11
3257.158689170511
 21
128.636819053133
 31
0.0
  0
LINE
  5
ED
330
36
100
AcDbEntity
  8
2-0
  6
Continuous
 62
     7
100
AcDbLine
 10
3257.158689170511
 20
128.636819053133
 30
0.0
 11
3261.922982034259
 21
128.895668092043
 31
0.0
  0
LINE
  5
EE
330
36
100
AcDbEntity
  8
2-0
  6
Continuous
 62
     7
100
AcDbLine
 10
3261.922982034259
 20
128.895668092043
 30
0.0
 11
3266.659447678414
 21
129.471326426685
 31
0.0
  0
LINE
  5
EF
330
36
100
AcDbEntity
  8
2-0
  6
Continuous
 62
     7
100
AcDbLine
 10
3266.659447678414
 20
129.471326426685
 30
0.0
 11
3271.347042940054
 21
130.361236523018
 31
0.0
  0
LINE
  5
F0
330
36
100
AcDbEntity
  8
2-0
  6
Continuous
 62
     7
100
AcDbLine
 10
3271.347042940054
 20
130.361236523018
 30
0.0
 11
3275.964941777523
 21
131.561444689712
 31
0.0
  0
LINE
  5
F1
330
36
100
AcDbEntity
  8
2-0
  6
Continuous
 62
     7
100
AcDbLine
 10
3275.964941777523
 20
131.561444689712
 30
0.0
 11
3280.492627796343
 21
133.066618643608
 31
0.0
  0
LINE
  5
F2
330
36
100
AcDbEntity
  8
2-0
  6
Continuous
 62
     7
100
AcDbLine
 10
3280.492627796343
 20
133.066618643608
 30
0.0
 11
3284.909985399417
 21
134.870071199975
 31
0.0
  0
LINE
  5
F3
330
36
100
AcDbEntity
  8
2-0
  6
Continuous
 62
     7
100
AcDbLine
 10
3284.909985399417
 20
134.870071199975
 30
0.0
 11
3289.19738915658
 21
136.963789982323
 31
0.0
  0
LINE
  5
F4
330
36
100
AcDbEntity
  8
2-0
  6
Continuous
 62
     7
100
AcDbLine
 10
3289.19738915658
 20
136.963789982323
 30
0.0
 11
3293.335790996434
 21
139.338473019783
 31
0.0
  0
LINE
  5
F5
330
36
100
AcDbEntity
  8
2-0
  6
Continuous
 62
     7
100
AcDbLine
 10
3293.335790996434
 20
139.338473019783
 30
0.0
 11
3297.306804833086
 21
141.983570073885
 31
0.0
  0
LINE
  5
F6
330
36
100
AcDbEntity
  8
2-0
  6
Continuous
 62
     7
100
AcDbLine
 10
3297.306804833086
 20
141.983570073885
 30
0.0
 11
3301.092788251832
 21
144.887329511147
 31
0.0
  0
LINE
  5
F7
330
36
100
AcDbEntity
  8
2-0
  6
Continuous
 62
     7
100
AcDbLine
 10
3301.092788251832
 20
144.887329511147
 30
0.0
 11
3304.676920890845
 21
148.036850513212
 31
0.0
  0
LINE
  5
F8
330
36
100
AcDbEntity
  8
2-0
  6
Continuous
 62
     7
100
AcDbLine
 10
3304.676920890845
 20
148.036850513212
 30
0.0
 11
3308.043279170666
 21
151.41814039259
 31
0.0
  0
LINE
  5
F9
330
36
100
AcDbEntity
  8
2-0
  6
Continuous
 62
     7
100
AcDbLine
 10
3308.043279170666
 20
151.41814039259
 30
0.0
 11
3311.176907039449
 21
155.016176759344
 31
0.0
  0
LINE
  5
FA
330
36
100
AcDbEntity
  8
2-0
  6
Continuous
 62
     7
100
AcDbLine
 10
3311.176907039449
 20
155.016176759344
 30
0.0
 11
3314.063882419691
 21
158.814974262551
 31
0.0
  0
LINE
  5
FB
330
36
100
AcDbEntity
  8
2-0
  6
Continuous
 62
     7
100
AcDbLine
 10
3314.063882419691
 20
158.814974262551
 30
0.0
 11
3316.691379061223
 21
162.79765560999
 31
0.0
  0
LINE
  5
FC
330
36
100
AcDbEntity
  8
2-0
  6
Continuous
 62
     7
100
AcDbLine
 10
3316.691379061223
 20
162.79765560999
 30
0.0
 11
3319.047723525648
 21
166.946526550555
 31
0.0
  0
LINE
  5
FD
330
36
100
AcDbEntity
  8
2-0
  6
Continuous
 62
     7
100
AcDbLine
 10
3319.047723525648
 20
166.946526550555
 30
0.0
 11
3321.122447049086
 21
171.243154486249
 31
0.0
  0
LINE
  5
FE
330
36
100
AcDbEntity
  8
2-0
  6
Continuous
 62
     7
100
AcDbLine
 10
3321.122447049086
 20
171.243154486249
 30
0.0
 11
3322.906332052775
 21
175.668450364505
 31
0.0
  0
LINE
  5
FF
330
36
100
AcDbEntity
  8
2-0
  6
Continuous
 62
     7
100
AcDbLine
 10
3322.906332052775
 20
175.668450364505
 30
0.0
 11
3324.391453094924
 21
180.202753487
 31
0.0
  0
LINE
  5
100
330
36
100
AcDbEntity
  8
2-0
  6
Continuous
 62
     7
100
AcDbLine
 10
3324.391453094924
 20
180.202753487
 30
0.0
 11
3325.571212081846
 21
184.825918858179
 31
0.0
  0
LINE
  5
101
330
36
100
AcDbEntity
  8
2-0
  6
Continuous
 62
     7
100
AcDbLine
 10
3325.571212081846
 20
184.825918858179
 30
0.0
 11
3326.440367581971
 21
189.517406685414
 31
0.0
  0
LINE
  5
102
330
36
100
AcDbEntity
  8
2-0
  6
Continuous
 62
     7
100
AcDbLine
 10
3326.440367581971
 20
189.517406685414
 30
0.0
 11
3326.99505811246
 21
194.256373633166
 31
0.0
  0
LINE
  5
103
330
36
100
AcDbEntity
  8
2-0
  6
Continuous
 62
     7
100
AcDbLine
 10
3326.99505811246
 20
194.256373633166
 30
0.0
 11
3327.232819295004
 21
199.021765425723
 31
0.0
  0
LINE
  5
104
330
36
100
AcDbEntity
  8
2-0
  6
Continuous
 62
     7
100
AcDbLine
 10
3327.232819295004
 20
199.021765425723
 30
0.0
 11
3327.242585344353
 21
200.204166274283
 31
0.0
  0
LINE
  5
105
330
36
100
AcDbEntity
  8
2-0
  6
Continuous
 62
     7
100
AcDbLine
 10
3327.659598665544
 20
200.204166274283
 30
0.0
 11
3327.499657781651
 21
205.00061553845
 31
0.0
  0
LINE
  5
106
330
36
100
AcDbEntity
  8
2-0
  6
Continuous
 62
     7
100
AcDbLine
 10
3327.499657781651
 20
205.00061553845
 30
0.0
 11
3327.020545715111
 21
209.775755144552
 31
0.0
  0
LINE
  5
107
330
36
100
AcDbEntity
  8
2-0
  6
Continuous
 62
     7
100
AcDbLine
 10
3327.020545715111
 20
209.775755144552
 30
0.0
 11
3326.224391064338
 21
214.508370109044
 31
0.0
  0
LINE
  5
108
330
36
100
AcDbEntity
  8
2-0
  6
Continuous
 62
     7
100
AcDbLine
 10
3326.224391064338
 20
214.508370109044
 30
0.0
 11
3325.114730984101
 21
219.177434376796
 31
0.0
  0
LINE
  5
109
330
36
100
AcDbEntity
  8
2-0
  6
Continuous
 62
     7
100
AcDbLine
 10
3325.114730984101
 20
219.177434376796
 30
0.0
 11
3323.696495470646
 21
223.762204235627
 31
0.0
  0
LINE
  5
10A
330
36
100
AcDbEntity
  8
2-0
  6
Continuous
 62
     7
100
AcDbLine
 10
3323.696495470646
 20
223.762204235627
 30
0.0
 11
3321.975985458726
 21
228.242310476438
 31
0.0
  0
LINE
  5
10B
330
36
100
AcDbEntity
  8
2-0
  6
Continuous
 62
     7
100
AcDbLine
 10
3321.975985458726
 20
228.242310476438
 30
0.0
 11
3319.960844827806
 21
232.597848889504
 31
0.0
  0
LINE
  5
10C
330
36
100
AcDbEntity
  8
2-0
  6
Continuous
 62
     7
100
AcDbLine
 10
3319.960844827806
 20
232.597848889504
 30
0.0
 11
3317.660026441859
 21
236.809468694871
 31
0.0
  0
LINE
  5
10D
330
36
100
AcDbEntity
  8
2-0
  6
Continuous
 62
     7
100
AcDbLine
 10
3317.660026441859
 20
236.809468694871
 30
0.0
 11
3315.083752373581
 21
240.858458513973
 31
0.0
  0
LINE
  5
10E
330
36
100
AcDbEntity
  8
2-0
  6
Continuous
 62
     7
100
AcDbLine
 10
3315.083752373581
 20
240.858458513973
 30
0.0
 11
3312.243468489791
 21
244.726829500521
 31
0.0
  0
LINE
  5
10F
330
36
100
AcDbEntity
  8
2-0
  6
Continuous
 62
     7
100
AcDbLine
 10
3312.243468489791
 20
244.726829500521
 30
0.0
 11
3309.151793599745
 21
248.397395261318
 31
0.0
  0
LINE
  5
110
330
36
100
AcDbEntity
  8
2-0
  6
Continuous
 62
     7
100
AcDbLine
 10
3309.151793599745
 20
248.397395261318
 30
0.0
 11
3305.82246339231
 21
251.85384821195
 31
0.0
  0
LINE
  5
111
330
36
100
AcDbEntity
  8
2-0
  6
Continuous
 62
     7
100
AcDbLine
 10
3305.82246339231
 20
251.85384821195
 30
0.0
 11
3302.270269411062
 21
255.080832028095
 31
0.0
  0
LINE
  5
112
330
36
100
AcDbEntity
  8
2-0
  6
Continuous
 62
     7
100
AcDbLine
 10
3302.270269411062
 20
255.080832028095
 30
0.0
 11
3298.51099333844
 21
258.06400987058
 31
0.0
  0
LINE
  5
113
330
36
100
AcDbEntity
  8
2-0
  6
Continuous
 62
     7
100
AcDbLine
 10
3298.51099333844
 20
258.06400987058
 30
0.0
 11
3294.561336880909
 21
260.790128081068
 31
0.0
  0
LINE
  5
114
330
36
100
AcDbEntity
  8
2-0
  6
Continuous
 62
     7
100
AcDbLine
 10
3294.561336880909
 20
260.790128081068
 30
0.0
 11
3290.438847566638
 21
263.247075065398
 31
0.0
  0
LINE
  5
115
330
36
100
AcDbEntity
  8
2-0
  6
Continuous
 62
     7
100
AcDbLine
 10
3290.438847566638
 20
263.247075065398
 30
0.0
 11
3286.161840785375
 21
265.423935102952
 31
0.0
  0
LINE
  5
116
330
36
100
AcDbEntity
  8
2-0
  6
Continuous
 62
     7
100
AcDbLine
 10
3286.161840785375
 20
265.423935102952
 30
0.0
 11
3281.749318416847
 21
267.311036843009
 31
0.0
  0
LINE
  5
117
330
36
100
AcDbEntity
  8
2-0
  6
Continuous
 62
     7
100
AcDbLine
 10
3281.749318416847
 20
267.311036843009
 30
0.0
 11
3277.220884409247
 21
268.899996272602
 31
0.0
  0
LINE
  5
118
330
36
100
AcDbEntity
  8
2-0
  6
Continuous
 62
     7
100
AcDbLine
 10
3277.220884409247
 20
268.899996272602
 30
0.0
 11
3272.596657682834
 21
270.183753965008
 31
0.0
  0
LINE
  5
119
330
36
100
AcDbEntity
  8
2-0
  6
Continuous
 62
     7
100
AcDbLine
 10
3272.596657682834
 20
270.183753965008
 30
0.0
 11
3267.897182745624
 21
271.15660644335
 31
0.0
  0
LINE
  5
11A
330
36
100
AcDbEntity
  8
2-0
  6
Continuous
 62
     7
100
AcDbLine
 10
3267.897182745624
 20
271.15660644335
 30
0.0
 11
3263.143338418279
 21
271.814231520001
 31
0.0
  0
LINE
  5
11B
330
36
100
AcDbEntity
  8
2-0
  6
Continuous
 62
     7
100
AcDbLine
 10
3263.143338418279
 20
271.814231520001
 30
0.0
 11
3258.356245073708
 21
272.153707499193
 31
0.0
  0
LINE
  5
11C
330
36
100
AcDbEntity
  8
2-0
  6
Continuous
 62
     7
100
AcDbLine
 10
3258.356245073708
 20
272.153707499193
 30
0.0
 11
3253.557170803511
 21
272.173526157523
 31
0.0
  0
LINE
  5
11D
330
36
100
AcDbEntity
  8
2-0
  6
Continuous
 62
     7
100
AcDbLine
 10
3253.557170803511
 20
272.173526157523
 30
0.0
 11
3248.767436928126
 21
271.873599444681
 31
0.0
  0
LINE
  5
11E
330
36
100
AcDbEntity
  8
2-0
  6
Continuous
 62
     7
100
AcDbLine
 10
3248.767436928126
 20
271.873599444681
 30
0.0
 11
3244.0083232705
 21
271.255259874648
 31
0.0
  0
LINE
  5
11F
330
36
100
AcDbEntity
  8
2-0
  6
Continuous
 62
     7
100
AcDbLine
 10
3244.0083232705
 20
271.255259874648
 30
0.0
 11
3239.300973614114
 21
270.321254605599
 31
0.0
  0
LINE
  5
120
330
36
100
AcDbEntity
  8
2-0
  6
Continuous
 62
     7
100
AcDbLine
 10
3239.300973614114
 20
270.321254605599
 30
0.0
 11
3234.666301765424
 21
269.075733234833
 31
0.0
  0
LINE
  5
121
330
36
100
AcDbEntity
  8
2-0
  6
Continuous
 62
     7
100
AcDbLine
 10
3234.666301765424
 20
269.075733234833
 30
0.0
 11
3230.124898638018
 21
267.524229362949
 31
0.0
  0
LINE
  5
122
330
36
100
AcDbEntity
  8
2-0
  6
Continuous
 62
     7
100
AcDbLine
 10
3230.124898638018
 20
267.524229362949
 30
0.0
 11
3225.696940771344
 21
265.6736360091731
 31
0.0
  0
LINE
  5
123
330
36
100
AcDbEntity
  8
2-0
  6
Continuous
 62
     7
100
AcDbLine
 10
3225.696940771344
 20
265.6736360091731
 30
0.0
 11
3221.402100690402
 21
263.532174987064
 31
0.0
  0
LINE
  5
124
330
36
100
AcDbEntity
  8
2-0
  6
Continuous
 62
     7
100
AcDbLine
 10
3221.402100690402
 20
263.532174987064
 30
0.0
 11
3217.259459504681
 21
261.109360376647
 31
0.0
  0
LINE
  5
125
330
36
100
AcDbEntity
  8
2-0
  6
Continuous
 62
     7
100
AcDbLine
 10
3217.259459504681
 20
261.109360376647
 30
0.0
 11
3213.287422134634
 21
258.415956255276
 31
0.0
  0
LINE
  5
126
330
36
100
AcDbEntity
  8
2-0
  6
Continuous
 62
     7
100
AcDbLine
 10
3213.287422134634
 20
258.415956255276
 30
0.0
 11
3209.503635542315
 21
255.463928875005
 31
0.0
  0
LINE
  5
127
330
36
100
AcDbEntity
  8
2-0
  6
Continuous
 62
     7
100
AcDbLine
 10
3209.503635542315
 20
255.463928875005
 30
0.0
 11
3205.924910329493
 21
252.266393498939
 31
0.0
  0
LINE
  5
128
330
36
100
AcDbEntity
  8
2-0
  6
Continuous
 62
     7
100
AcDbLine
 10
3205.924910329493
 20
252.266393498939
 30
0.0
 11
3202.567146051527
 21
248.837556132763
 31
0.0
  0
LINE
  5
129
330
36
100
AcDbEntity
  8
2-0
  6
Continuous
 62
     7
100
AcDbLine
 10
3202.567146051527
 20
248.837556132763
 30
0.0
 11
3199.445260578839
 21
245.19265041032
 31
0.0
  0
LINE
  5
12A
330
36
100
AcDbEntity
  8
2-0
  6
Continuous
 62
     7
100
AcDbLine
 10
3199.445260578839
 20
245.19265041032
 30
0.0
 11
3196.573123819831
 21
241.347869913642
 31
0.0
  0
LINE
  5
12B
330
36
100
AcDbEntity
  8
2-0
  6
Continuous
 62
     7
100
AcDbLine
 10
3196.573123819831
 20
241.347869913642
 30
0.0
 11
3193.96349609967
 21
237.320296228129
 31
0.0
  0
LINE
  5
12C
330
36
100
AcDbEntity
  8
2-0
  6
Continuous
 62
     7
100
AcDbLine
 10
3193.96349609967
 20
237.320296228129
 30
0.0
 11
3191.62797146873
 21
233.127823052502
 31
0.0
  0
LINE
  5
12D
330
36
100
AcDbEntity
  8
2-0
  6
Continuous
 62
     7
100
AcDbLine
 10
3191.62797146873
 20
233.127823052502
 30
0.0
 11
3189.576926192567
 21
228.789076700709
 31
0.0
  0
LINE
  5
12E
330
36
100
AcDbEntity
  8
2-0
  6
Continuous
 62
     7
100
AcDbLine
 10
3189.576926192567
 20
228.789076700709
 30
0.0
 11
3187.819472652257
 21
224.323333348956
 31
0.0
  0
LINE
  5
12F
330
36
100
AcDbEntity
  8
2-0
  6
Continuous
 62
     7
100
AcDbLine
 10
3187.819472652257
 20
224.323333348956
 30
0.0
 11
3186.363418859926
 21
219.750433395544
 31
0.0
  0
LINE
  5
130
330
36
100
AcDbEntity
  8
2-0
  6
Continuous
 62
     7
100
AcDbLine
 10
3186.363418859926
 20
219.750433395544
 30
0.0
 11
3185.21523376932
 21
215.090693313975
 31
0.0
  0
LINE
  5
131
330
36
100
AcDbEntity
  8
2-0
  6
Continuous
 62
     7
100
AcDbLine
 10
3185.21523376932
 20
215.090693313975
 30
0.0
 11
3184.380018535549
 21
210.364815390948
 31
0.0
  0
LINE
  5
132
330
36
100
AcDbEntity
  8
2-0
  6
Continuous
 62
     7
100
AcDbLine
 10
3184.380018535549
 20
210.364815390948
 30
0.0
 11
3183.861483851683
 21
205.593795750274
 31
0.0
  0
LINE
  5
133
330
36
100
AcDbEntity
  8
2-0
  6
Continuous
 62
     7
100
AcDbLine
 10
3183.861483851683
 20
205.593795750274
 30
0.0
 11
3183.661933462889
 21
200.798831071321
 31
0.0
  0
LINE
  5
134
330
36
100
AcDbEntity
  8
2-0
  6
Continuous
 62
     7
100
AcDbLine
 10
3183.661933462889
 20
200.798831071321
 30
0.0
 11
3183.782253931354
 21
196.001224416442
 31
0.0
  0
LINE
  5
135
330
36
100
AcDbEntity
  8
2-0
  6
Continuous
 62
     7
100
AcDbLine
 10
3183.782253931354
 20
196.001224416442
 30
0.0
 11
3184.221910697468
 21
191.222290585755
 31
0.0
  0
LINE
  5
136
330
36
100
AcDbEntity
  8
2-0
  6
Continuous
 62
     7
100
AcDbLine
 10
3184.221910697468
 20
191.222290585755
 30
0.0
 11
3184.97895045477
 21
186.483261419783
 31
0.0
  0
LINE
  5
137
330
36
100
AcDbEntity
  8
2-0
  6
Continuous
 62
     7
100
AcDbLine
 10
3184.97895045477
 20
186.483261419783
 30
0.0
 11
3186.050009828085
 21
181.805191470658
 31
0.0
  0
LINE
  5
138
330
36
100
AcDbEntity
  8
2-0
  6
Continuous
 62
     7
100
AcDbLine
 10
3186.050009828085
 20
181.805191470658
 30
0.0
 11
3187.430330316332
 21
177.208864460991
 31
0.0
  0
LINE
  5
139
330
36
100
AcDbEntity
  8
2-0
  6
Continuous
 62
     7
100
AcDbLine
 10
3187.430330316332
 20
177.208864460991
 30
0.0
 11
3189.113779433582
 21
172.714700945974
 31
0.0
  0
LINE
  5
13A
330
36
100
AcDbEntity
  8
2-0
  6
Continuous
 62
     7
100
AcDbLine
 10
3189.113779433582
 20
172.714700945974
 30
0.0
 11
3191.092877954457
 21
168.342667588972
 31
0.0
  0
LINE
  5
13B
330
36
100
AcDbEntity
  8
2-0
  6
Continuous
 62
     7
100
AcDbLine
 10
3191.092877954457
 20
168.342667588972
 30
0.0
 11
3193.358833142825
 21
164.112188453651
 31
0.0
  0
LINE
  5
13C
330
36
100
AcDbEntity
  8
2-0
  6
Continuous
 62
     7
100
AcDbLine
 10
3193.358833142825
 20
164.112188453651
 30
0.0
 11
3195.90157781615
 21
160.042058706781
 31
0.0
  0
LINE
  5
13D
330
36
100
AcDbEntity
  8
2-0
  6
Continuous
 62
     7
100
AcDbLine
 10
3195.90157781615
 20
160.042058706781
 30
0.0
 11
3198.709815071964
 21
156.150361115096
 31
0.0
  0
LINE
  5
13E
330
36
100
AcDbEntity
  8
2-0
  6
Continuous
 62
     7
100
AcDbLine
 10
3198.709815071964
 20
156.150361115096
 30
0.0
 11
3201.771068477726
 21
152.454385707197
 31
0.0
  0
LINE
  5
13F
330
36
100
AcDbEntity
  8
2-0
  6
Continuous
 62
     7
100
AcDbLine
 10
3201.771068477726
 20
152.454385707197
 30
0.0
 11
3205.071737501095
 21
148.970552957445
 31
0.0
  0
LINE
  5
140
330
36
100
AcDbEntity
  8
2-0
  6
Continuous
 62
     7
100
AcDbLine
 10
3205.071737501095
 20
148.970552957445
 30
0.0
 11
3208.597157934364
 21
145.714340833095
 31
0.0
  0
LINE
  5
141
330
36
100
AcDbEntity
  8
2-0
  6
Continuous
 62
     7
100
AcDbLine
 10
3208.597157934364
 20
145.714340833095
 30
0.0
 11
3212.331667044576
 21
142.7002160288069
 31
0.0
  0
LINE
  5
142
330
36
100
AcDbEntity
  8
2-0
  6
Continuous
 62
     7
100
AcDbLine
 10
3212.331667044576
 20
142.7002160288069
 30
0.0
 11
3216.258673159892
 21
139.941569694035
 31
0.0
  0
LINE
  5
143
330
36
100
AcDbEntity
  8
2-0
  6
Continuous
 62
     7
100
AcDbLine
 10
3216.258673159892
 20
139.941569694035
 30
0.0
 11
3220.360729383049
 21
137.450657938847
 31
0.0
  0
LINE
  5
144
330
36
100
AcDbEntity
  8
2-0
  6
Continuous
 62
     7
100
AcDbLine
 10
3220.360729383049
 20
137.450657938847
 30
0.0
 11
3224.619611104412
 21
135.238547382496
 31
0.0
  0
LINE
  5
145
330
36
100
AcDbEntity
  8
2-0
  6
Continuous
 62
     7
100
AcDbLine
 10
3224.619611104412
 20
135.238547382496
 30
0.0
 11
3229.01639697024
 21
133.315065986659
 31
0.0
  0
LINE
  5
146
330
36
100
AcDbEntity
  8
2-0
  6
Continuous
 62
     7
100
AcDbLine
 10
3229.01639697024
 20
133.315065986659
 30
0.0
 11
3233.531552946457
 21
131.688759391786
 31
0.0
  0
LINE
  5
147
330
36
100
AcDbEntity
  8
2-0
  6
Continuous
 62
     7
100
AcDbLine
 10
3233.531552946457
 20
131.688759391786
 30
0.0
 11
3238.145019104417
 21
130.366852950534
 31
0.0
  0
LINE
  5
148
330
36
100
AcDbEntity
  8
2-0
  6
Continuous
 62
     7
100
AcDbLine
 10
3238.145019104417
 20
130.366852950534
 30
0.0
 11
3242.836298743148
 21
129.355219626989
 31
0.0
  0
LINE
  5
149
330
36
100
AcDbEntity
  8
2-0
  6
Continuous
 62
     7
100
AcDbLine
 10
3242.836298743148
 20
129.355219626989
 30
0.0
 11
3247.584549452048
 21
128.65835390426
 31
0.0
  0
LINE
  5
14A
330
36
100
AcDbEntity
  8
2-0
  6
Continuous
 62
     7
100
AcDbLine
 10
3247.584549452048
 20
128.65835390426
 30
0.0
 11
3252.368675709526
 21
128.279351816405
 31
0.0
  0
LINE
  5
14B
330
36
100
AcDbEntity
  8
2-0
  6
Continuous
 62
     7
100
AcDbLine
 10
3252.368675709526
 20
128.279351816405
 30
0.0
 11
3257.167422606151
 21
128.219897193366
 31
0.0
  0
LINE
  5
14C
330
36
100
AcDbEntity
  8
2-0
  6
Continuous
 62
     7
100
AcDbLine
 10
3257.167422606151
 20
128.219897193366
 30
0.0
 11
3261.959470275944
 21
128.480254180061
 31
0.0
  0
LINE
  5
14D
330
36
100
AcDbEntity
  8
2-0
  6
Continuous
 62
     7
100
AcDbLine
 10
3261.959470275944
 20
128.480254180061
 30
0.0
 11
3266.723528616234
 21
129.059266062833
 31
0.0
  0
LINE
  5
14E
330
36
100
AcDbEntity
  8
2-0
  6
Continuous
 62
     7
100
AcDbLine
 10
3266.723528616234
 20
129.059266062833
 30
0.0
 11
3271.438431875309
 21
129.954360408502
 31
0.0
  0
LINE
  5
14F
330
36
100
AcDbEntity
  8
2-0
  6
Continuous
 62
     7
100
AcDbLine
 10
3271.438431875309
 20
129.954360408502
 30
0.0
 11
3276.083232687579
 21
131.161560493165
 31
0.0
  0
LINE
  5
150
330
36
100
AcDbEntity
  8
2-0
  6
Continuous
 62
     7
100
AcDbLine
 10
3276.083232687579
 20
131.161560493165
 30
0.0
 11
3280.637295138511
 21
132.675502969977
 31
0.0
  0
LINE
  5
151
330
36
100
AcDbEntity
  8
2-0
  6
Continuous
 62
     7
100
AcDbLine
 10
3280.637295138511
 20
132.675502969977
 30
0.0
 11
3285.080386445832
 21
134.489461697426
 31
0.0
  0
LINE
  5
152
330
36
100
AcDbEntity
  8
2-0
  6
Continuous
 62
     7
100
AcDbLine
 10
3285.080386445832
 20
134.489461697426
 30
0.0
 11
3289.392766849714
 21
136.59537762222
 31
0.0
  0
LINE
  5
153
330
36
100
AcDbEntity
  8
2-0
  6
Continuous
 62
     7
100
AcDbLine
 10
3289.392766849714
 20
136.59537762222
 30
0.0
 11
3293.555277312542
 21
138.983894584043
 31
0.0
  0
LINE
  5
154
330
36
100
AcDbEntity
  8
2-0
  6
Continuous
 62
     7
100
AcDbLine
 10
3293.555277312542
 20
138.983894584043
 30
0.0
 11
3297.549424638673
 21
141.644400883086
 31
0.0
  0
LINE
  5
155
330
36
100
AcDbEntity
  8
2-0
  6
Continuous
 62
     7
100
AcDbLine
 10
3297.549424638673
 20
141.644400883086
 30
0.0
 11
3301.357463635963
 21
144.565076425693
 31
0.0
  0
LINE
  5
156
330
36
100
AcDbEntity
  8
2-0
  6
Continuous
 62
     7
100
AcDbLine
 10
3301.357463635963
 20
144.565076425693
 30
0.0
 11
3304.962475954098
 21
147.732945238661
 31
0.0
  0
LINE
  5
157
330
36
100
AcDbEntity
  8
2-0
  6
Continuous
 62
     7
100
AcDbLine
 10
3304.962475954098
 20
147.732945238661
 30
0.0
 11
3308.348445249406
 21
151.133933118867
 31
0.0
  0
LINE
  5
158
330
36
100
AcDbEntity
  8
2-0
  6
Continuous
 62
     7
100
AcDbLine
 10
3308.348445249406
 20
151.133933118867
 30
0.0
 11
3311.500328342248
 21
154.752930162129
 31
0.0
  0
LINE
  5
159
330
36
100
AcDbEntity
  8
2-0
  6
Continuous
 62
     7
100
AcDbLine
 10
3311.500328342248
 20
154.752930162129
 30
0.0
 11
3314.404122050839
 21
158.573857893455
 31
0.0
  0
LINE
  5
15A
330
36
100
AcDbEntity
  8
2-0
  6
Continuous
 62
     7
100
AcDbLine
 10
3314.404122050839
 20
158.573857893455
 30
0.0
 11
3317.046925404563
 21
162.57974070048
 31
0.0
  0
LINE
  5
15B
330
36
100
AcDbEntity
  8
2-0
  6
Continuous
 62
     7
100
AcDbLine
 10
3317.046925404563
 20
162.57974070048
 30
0.0
 11
3319.416996960387
 21
166.752781252686
 31
0.0
  0
LINE
  5
15C
330
36
100
AcDbEntity
  8
2-0
  6
Continuous
 62
     7
100
AcDbLine
 10
3319.416996960387
 20
166.752781252686
 30
0.0
 11
3321.503806967723
 21
171.074439571358
 31
0.0
  0
LINE
  5
15D
330
36
100
AcDbEntity
  8
2-0
  6
Continuous
 62
     7
100
AcDbLine
 10
3321.503806967723
 20
171.074439571358
 30
0.0
 11
3323.29808415
 21
175.525515398979
 31
0.0
  0
LINE
  5
15E
330
36
100
AcDbEntity
  8
2-0
  6
Continuous
 62
     7
100
AcDbLine
 10
3323.29808415
 20
175.525515398979
 30
0.0
 11
3324.791856895068
 21
180.086233502104
 31
0.0
  0
LINE
  5
15F
330
36
100
AcDbEntity
  8
2-0
  6
Continuous
 62
     7
100
AcDbLine
 10
3324.791856895068
 20
180.086233502104
 30
0.0
 11
3325.978488671468
 21
184.736331528739
 31
0.0
  0
LINE
  5
160
330
36
100
AcDbEntity
  8
2-0
  6
Continuous
 62
     7
100
AcDbLine
 10
3325.978488671468
 20
184.736331528739
 30
0.0
 11
3326.852707513208
 21
189.455150029891
 31
0.0
  0
LINE
  5
161
330
36
100
AcDbEntity
  8
2-0
  6
Continuous
 62
     7
100
AcDbLine
 10
3326.852707513208
 20
189.455150029891
 30
0.0
 11
3327.410629442046
 21
194.221724245341
 31
0.0
  0
LINE
  5
162
330
36
100
AcDbEntity
  8
2-0
  6
Continuous
 62
     7
100
AcDbLine
 10
3327.410629442046
 20
194.221724245341
 30
0.0
 11
3327.649775723216
 21
199.014877245849
 31
0.0
  0
LINE
  5
163
330
36
100
AcDbEntity
  8
2-0
  6
Continuous
 62
     7
100
AcDbLine
 10
3327.649775723216
 20
199.014877245849
 30
0.0
 11
3327.659598665544
 21
200.204166274283
 31
0.0
  0
LINE
  5
164
330
36
100
AcDbEntity
  8
2-0
  6
Continuous
 62
     7
100
AcDbLine
 10
3328.076611986733
 20
200.204166274283
 30
0.0
 11
3327.915744749742
 21
205.028395837855
 31
0.0
  0
LINE
  5
165
330
36
100
AcDbEntity
  8
2-0
  6
Continuous
 62
     7
100
AcDbLine
 10
3327.915744749742
 20
205.028395837855
 30
0.0
 11
3327.433857739503
 21
209.831192321087
 31
0.0
  0
LINE
  5
166
330
36
100
AcDbEntity
  8
2-0
  6
Continuous
 62
     7
100
AcDbLine
 10
3327.433857739503
 20
209.831192321087
 30
0.0
 11
3326.633091882951
 21
214.591217866497
 31
0.0
  0
LINE
  5
167
330
36
100
AcDbEntity
  8
2-0
  6
Continuous
 62
     7
100
AcDbLine
 10
3326.633091882951
 20
214.591217866497
 30
0.0
 11
3325.51700482151
 21
219.287324639268
 31
0.0
  0
LINE
  5
168
330
36
100
AcDbEntity
  8
2-0
  6
Continuous
 62
     7
100
AcDbLine
 10
3325.51700482151
 20
219.287324639268
 30
0.0
 11
3324.090555105211
 21
223.898648782814
 31
0.0
  0
LINE
  5
169
330
36
100
AcDbEntity
  8
2-0
  6
Continuous
 62
     7
100
AcDbLine
 10
3324.090555105211
 20
223.898648782814
 30
0.0
 11
3322.360080162853
 21
228.404703112697
 31
0.0
  0
LINE
  5
16A
330
36
100
AcDbEntity
  8
2-0
  6
Continuous
 62
     7
100
AcDbLine
 10
3322.360080162853
 20
228.404703112697
 30
0.0
 11
3320.333268146085
 21
232.785468137058
 31
0.0
  0
LINE
  5
16B
330
36
100
AcDbEntity
  8
2-0
  6
Continuous
 62
     7
100
AcDbLine
 10
3320.333268146085
 20
232.785468137058
 30
0.0
 11
3318.01912377249
 21
237.02148099919
 31
0.0
  0
LINE
  5
16C
330
36
100
AcDbEntity
  8
2-0
  6
Continuous
 62
     7
100
AcDbLine
 10
3318.01912377249
 20
237.02148099919
 30
0.0
 11
3315.427928319451
 21
241.093921947089
 31
0.0
  0
LINE
  5
16D
330
36
100
AcDbEntity
  8
2-0
  6
Continuous
 62
     7
100
AcDbLine
 10
3315.427928319451
 20
241.093921947089
 30
0.0
 11
3312.571193946489
 21
244.984697945822
 31
0.0
  0
LINE
  5
16E
330
36
100
AcDbEntity
  8
2-0
  6
Continuous
 62
     7
100
AcDbLine
 10
3312.571193946489
 20
244.984697945822
 30
0.0
 11
3309.461612549071
 21
248.676523061239
 31
0.0
  0
LINE
  5
16F
330
36
100
AcDbEntity
  8
2-0
  6
Continuous
 62
     7
100
AcDbLine
 10
3309.461612549071
 20
248.676523061239
 30
0.0
 11
3306.11299937107
 21
252.152995257892
 31
0.0
  0
LINE
  5
170
330
36
100
AcDbEntity
  8
2-0
  6
Continuous
 62
     7
100
AcDbLine
 10
3306.11299937107
 20
252.152995257892
 30
0.0
 11
3302.540231626418
 21
255.398669269982
 31
0.0
  0
LINE
  5
171
330
36
100
AcDbEntity
  8
2-0
  6
Continuous
 62
     7
100
AcDbLine
 10
3302.540231626418
 20
255.398669269982
 30
0.0
 11
3298.75918240264
 21
258.399125221559
 31
0.0
  0
LINE
  5
172
330
36
100
AcDbEntity
  8
2-0
  6
Continuous
 62
     7
100
AcDbLine
 10
3298.75918240264
 20
258.399125221559
 30
0.0
 11
3294.786650139925
 21
261.141032691128
 31
0.0
  0
LINE
  5
173
330
36
100
AcDbEntity
  8
2-0
  6
Continuous
 62
     7
100
AcDbLine
 10
3294.786650139925
 20
261.141032691128
 30
0.0
 11
3290.640283999041
 21
263.612209936029
 31
0.0
  0
LINE
  5
174
330
36
100
AcDbEntity
  8
2-0
  6
Continuous
 62
     7
100
AcDbLine
 10
3290.640283999041
 20
263.612209936029
 30
0.0
 11
3286.338505449664
 21
265.801678013463
 31
0.0
  0
LINE
  5
175
330
36
100
AcDbEntity
  8
2-0
  6
Continuous
 62
     7
100
AcDbLine
 10
3286.338505449664
 20
265.801678013463
 30
0.0
 11
3281.9004264275
 21
267.699709557727
 31
0.0
  0
LINE
  5
176
330
36
100
AcDbEntity
  8
2-0
  6
Continuous
 62
     7
100
AcDbLine
 10
3281.9004264275
 20
267.699709557727
 30
0.0
 11
3277.345764423807
 21
269.297871996935
 31
0.0
  0
LINE
  5
177
330
36
100
AcDbEntity
  8
2-0
  6
Continuous
 62
     7
100
AcDbLine
 10
3277.345764423807
 20
269.297871996935
 30
0.0
 11
3272.694754884546
 21
270.589065017246
 31
0.0
  0
LINE
  5
178
330
36
100
AcDbEntity
  8
2-0
  6
Continuous
 62
     7
100
AcDbLine
 10
3272.694754884546
 20
270.589065017246
 30
0.0
 11
3267.968061308379
 21
271.567552108118
 31
0.0
  0
LINE
  5
179
330
36
100
AcDbEntity
  8
2-0
  6
Continuous
 62
     7
100
AcDbLine
 10
3267.968061308379
 20
271.567552108118
 30
0.0
 11
3263.186683442895
 21
272.228986048476
 31
0.0
  0
LINE
  5
17A
330
36
100
AcDbEntity
  8
2-0
  6
Continuous
 62
     7
100
AcDbLine
 10
3263.186683442895
 20
272.228986048476
 30
0.0
 11
3258.371863986973
 21
272.570428220538
 31
0.0
  0
LINE
  5
17B
330
36
100
AcDbEntity
  8
2-0
  6
Continuous
 62
     7
100
AcDbLine
 10
3258.371863986973
 20
272.570428220538
 30
0.0
 11
3253.544994213739
 21
272.590361665501
 31
0.0
  0
LINE
  5
17C
330
36
100
AcDbEntity
  8
2-0
  6
Continuous
 62
     7
100
AcDbLine
 10
3253.544994213739
 20
272.590361665501
 30
0.0
 11
3248.727518933453
 21
272.288697823082
 31
0.0
  0
LINE
  5
17D
330
36
100
AcDbEntity
  8
2-0
  6
Continuous
 62
     7
100
AcDbLine
 10
3248.727518933453
 20
272.288697823082
 30
0.0
 11
3243.940841218535
 21
271.666776924979
 31
0.0
  0
LINE
  5
17E
330
36
100
AcDbEntity
  8
2-0
  6
Continuous
 62
     7
100
AcDbLine
 10
3243.940841218535
 20
271.666776924979
 30
0.0
 11
3239.206227314026
 21
270.727362040485
 31
0.0
  0
LINE
  5
17F
330
36
100
AcDbEntity
  8
2-0
  6
Continuous
 62
     7
100
AcDbLine
 10
3239.206227314026
 20
270.727362040485
 30
0.0
 11
3234.544712155939
 21
269.474626800731
 31
0.0
  0
LINE
  5
180
330
36
100
AcDbEntity
  8
2-0
  6
Continuous
 62
     7
100
AcDbLine
 10
3234.544712155939
 20
269.474626800731
 30
0.0
 11
3229.977005917284
 21
267.914136856085
 31
0.0
  0
LINE
  5
181
330
36
100
AcDbEntity
  8
2-0
  6
Continuous
 62
     7
100
AcDbLine
 10
3229.977005917284
 20
267.914136856085
 30
0.0
 11
3225.523401996933
 21
266.052825149084
 31
0.0
  0
LINE
  5
182
330
36
100
AcDbEntity
  8
2-0
  6
Continuous
 62
     7
100
AcDbLine
 10
3225.523401996933
 20
266.052825149084
 30
0.0
 11
3221.203686860137
 21
263.898961112769
 31
0.0
  0
LINE
  5
183
330
36
100
AcDbEntity
  8
2-0
  6
Continuous
 62
     7
100
AcDbLine
 10
3221.203686860137
 20
263.898961112769
 30
0.0
 11
3217.037052131251
 21
261.462113931262
 31
0.0
  0
LINE
  5
184
330
36
100
AcDbEntity
  8
2-0
  6
Continuous
 62
     7
100
AcDbLine
 10
3217.037052131251
 20
261.462113931262
 30
0.0
 11
3213.042009329202
 21
258.753110025803
 31
0.0
  0
LINE
  5
185
330
36
100
AcDbEntity
  8
2-0
  6
Continuous
 62
     7
100
AcDbLine
 10
3213.042009329202
 20
258.753110025803
 30
0.0
 11
3209.236307624552
 21
255.783984955145
 31
0.0
  0
LINE
  5
186
330
36
100
AcDbEntity
  8
2-0
  6
Continuous
 62
     7
100
AcDbLine
 10
3209.236307624552
 20
255.783984955145
 30
0.0
 11
3205.636854983497
 21
252.567929943988
 31
0.0
  0
LINE
  5
187
330
36
100
AcDbEntity
  8
2-0
  6
Continuous
 62
     7
100
AcDbLine
 10
3205.636854983497
 20
252.567929943988
 30
0.0
 11
3202.259643049184
 21
249.119233277026
 31
0.0
  0
LINE
  5
188
330
36
100
AcDbEntity
  8
2-0
  6
Continuous
 62
     7
100
AcDbLine
 10
3202.259643049184
 20
249.119233277026
 30
0.0
 11
3199.119676094059
 21
245.453216818976
 31
0.0
  0
LINE
  5
189
330
36
100
AcDbEntity
  8
2-0
  6
Continuous
 62
     7
100
AcDbLine
 10
3199.119676094059
 20
245.453216818976
 30
0.0
 11
3196.230904358904
 21
241.586167942615
 31
0.0
  0
LINE
  5
18A
330
36
100
AcDbEntity
  8
2-0
  6
Continuous
 62
     7
100
AcDbLine
 10
3196.230904358904
 20
241.586167942615
 30
0.0
 11
3193.606162074737
 21
237.53526716727
 31
0.0
  0
LINE
  5
18B
330
36
100
AcDbEntity
  8
2-0
  6
Continuous
 62
     7
100
AcDbLine
 10
3193.606162074737
 20
237.53526716727
 30
0.0
 11
3191.257110442897
 21
233.318511829225
 31
0.0
  0
LINE
  5
18C
330
36
100
AcDbEntity
  8
2-0
  6
Continuous
 62
     7
100
AcDbLine
 10
3191.257110442897
 20
233.318511829225
 30
0.0
 11
3189.194185826679
 21
228.954636123183
 31
0.0
  0
LINE
  5
18D
330
36
100
AcDbEntity
  8
2-0
  6
Continuous
 62
     7
100
AcDbLine
 10
3189.194185826679
 20
228.954636123183
 30
0.0
 11
3187.426553384676
 21
224.463027870012
 31
0.0
  0
LINE
  5
18E
330
36
100
AcDbEntity
  8
2-0
  6
Continuous
 62
     7
100
AcDbLine
 10
3187.426553384676
 20
224.463027870012
 30
0.0
 11
3185.962066351822
 21
219.863642380559
 31
0.0
  0
LINE
  5
18F
330
36
100
AcDbEntity
  8
2-0
  6
Continuous
 62
     7
100
AcDbLine
 10
3185.962066351822
 20
219.863642380559
 30
0.0
 11
3184.807231149052
 21
215.17691379823
 31
0.0
  0
LINE
  5
190
330
36
100
AcDbEntity
  8
2-0
  6
Continuous
 62
     7
100
AcDbLine
 10
3184.807231149052
 20
215.17691379823
 30
0.0
 11
3183.967178476589
 21
210.423664314196
 31
0.0
  0
LINE
  5
191
330
36
100
AcDbEntity
  8
2-0
  6
Continuous
 62
     7
100
AcDbLine
 10
3183.967178476589
 20
210.423664314196
 30
0.0
 11
3183.445640519265
 21
205.625011658601
 31
0.0
  0
LINE
  5
192
330
36
100
AcDbEntity
  8
2-0
  6
Continuous
 62
     7
100
AcDbLine
 10
3183.445640519265
 20
205.625011658601
 30
0.0
 11
3183.244934365186
 21
200.802275278733
 31
0.0
  0
LINE
  5
193
330
36
100
AcDbEntity
  8
2-0
  6
Continuous
 62
     7
100
AcDbLine
 10
3183.244934365186
 20
200.802275278733
 30
0.0
 11
3183.365951711372
 21
195.97688162102
 31
0.0
  0
LINE
  5
194
330
36
100
AcDbEntity
  8
2-0
  6
Continuous
 62
     7
100
AcDbLine
 10
3183.365951711372
 20
195.97688162102
 30
0.0
 11
3183.808154902129
 21
191.170268937636
 31
0.0
  0
LINE
  5
195
330
36
100
AcDbEntity
  8
2-0
  6
Continuous
 62
     7
100
AcDbLine
 10
3183.808154902129
 20
191.170268937636
 30
0.0
 11
3184.569579317739
 21
186.403792040672
 31
0.0
  0
LINE
  5
196
330
36
100
AcDbEntity
  8
2-0
  6
Continuous
 62
     7
100
AcDbLine
 10
3184.569579317739
 20
186.403792040672
 30
0.0
 11
3185.646842102877
 21
181.698627427001
 31
0.0
  0
LINE
  5
197
330
36
100
AcDbEntity
  8
2-0
  6
Continuous
 62
     7
100
AcDbLine
 10
3185.646842102877
 20
181.698627427001
 30
0.0
 11
3187.035157195951
 21
177.075679195372
 31
0.0
  0
LINE
  5
198
330
36
100
AcDbEntity
  8
2-0
  6
Continuous
 62
     7
100
AcDbLine
 10
3187.035157195951
 20
177.075679195372
 30
0.0
 11
3188.728356592613
 21
172.555486173705
 31
0.0
  0
LINE
  5
199
330
36
100
AcDbEntity
  8
2-0
  6
Continuous
 62
     7
100
AcDbLine
 10
3188.728356592613
 20
172.555486173705
 30
0.0
 11
3190.718917748957
 21
168.158130669219
 31
0.0
  0
LINE
  5
19A
330
36
100
AcDbEntity
  8
2-0
  6
Continuous
 62
     7
100
AcDbLine
 10
3190.718917748957
 20
168.158130669219
 30
0.0
 11
3192.997997002669
 21
163.903149246782
 31
0.0
  0
LINE
  5
19B
330
36
100
AcDbEntity
  8
2-0
  6
Continuous
 62
     7
100
AcDbLine
 10
3192.997997002669
 20
163.903149246782
 30
0.0
 11
3195.555468863638
 21
159.809445931893
 31
0.0
  0
LINE
  5
19C
330
36
100
AcDbEntity
  8
2-0
  6
Continuous
 62
     7
100
AcDbLine
 10
3195.555468863638
 20
159.809445931893
 30
0.0
 11
3198.379970999465
 21
155.895208223897
 31
0.0
  0
LINE
  5
19D
330
36
100
AcDbEntity
  8
2-0
  6
Continuous
 62
     7
100
AcDbLine
 10
3198.379970999465
 20
155.895208223897
 30
0.0
 11
3201.458954716021
 21
152.177826292596
 31
0.0
  0
LINE
  5
19E
330
36
100
AcDbEntity
  8
2-0
  6
Continuous
 62
     7
100
AcDbLine
 10
3201.458954716021
 20
152.177826292596
 30
0.0
 11
3204.778740708768
 21
148.67381571722
 31
0.0
  0
LINE
  5
19F
330
36
100
AcDbEntity
  8
2-0
  6
Continuous
 62
     7
100
AcDbLine
 10
3204.778740708768
 20
148.67381571722
 30
0.0
 11
3208.324579837153
 21
145.398744111042
 31
0.0
  0
LINE
  5
1A0
330
36
100
AcDbEntity
  8
2-0
  6
Continuous
 62
     7
100
AcDbLine
 10
3208.324579837153
 20
145.398744111042
 30
0.0
 11
3212.08071865207
 21
142.367161957599
 31
0.0
  0
LINE
  5
1A1
330
36
100
AcDbEntity
  8
2-0
  6
Continuous
 62
     7
100
AcDbLine
 10
3212.08071865207
 20
142.367161957599
 30
0.0
 11
3216.030469385255
 21
139.592537965834
 31
0.0
  0
LINE
  5
1A2
330
36
100
AcDbEntity
  8
2-0
  6
Continuous
 62
     7
100
AcDbLine
 10
3216.030469385255
 20
139.592537965834
 30
0.0
 11
3220.156284089692
 21
137.087199231324
 31
0.0
  0
LINE
  5
1A3
330
36
100
AcDbEntity
  8
2-0
  6
Continuous
 62
     7
100
AcDbLine
 10
3220.156284089692
 20
137.087199231324
 30
0.0
 11
3224.439832601599
 21
134.862276469488
 31
0.0
  0
LINE
  5
1A4
330
36
100
AcDbEntity
  8
2-0
  6
Continuous
 62
     7
100
AcDbLine
 10
3224.439832601599
 20
134.862276469488
 30
0.0
 11
3228.86208397765
 21
132.927654564051
 31
0.0
  0
LINE
  5
1A5
330
36
100
AcDbEntity
  8
2-0
  6
Continuous
 62
     7
100
AcDbLine
 10
3228.86208397765
 20
132.927654564051
 30
0.0
 11
3233.403391045635
 21
131.291928650502
 31
0.0
  0
LINE
  5
1A6
330
36
100
AcDbEntity
  8
2-0
  6
Continuous
 62
     7
100
AcDbLine
 10
3233.403391045635
 20
131.291928650502
 30
0.0
 11
3238.043577692881
 21
129.962365929636
 31
0.0
  0
LINE
  5
1A7
330
36
100
AcDbEntity
  8
2-0
  6
Continuous
 62
     7
100
AcDbLine
 10
3238.043577692881
 20
129.962365929636
 30
0.0
 11
3242.762028504656
 21
128.944873380845
 31
0.0
  0
LINE
  5
1A8
330
36
100
AcDbEntity
  8
2-0
  6
Continuous
 62
     7
100
AcDbLine
 10
3242.762028504656
 20
128.944873380845
 30
0.0
 11
3247.537780354311
 21
128.243971518598
 31
0.0
  0
LINE
  5
1A9
330
36
100
AcDbEntity
  8
2-0
  6
Continuous
 62
     7
100
AcDbLine
 10
3247.537780354311
 20
128.243971518598
 30
0.0
 11
3252.349615538226
 21
127.862774308706
 31
0.0
  0
LINE
  5
1AA
330
36
100
AcDbEntity
  8
2-0
  6
Continuous
 62
     7
100
AcDbLine
 10
3252.349615538226
 20
127.862774308706
 30
0.0
 11
3257.176156041793
 21
127.802975333599
 31
0.0
  0
LINE
  5
1AB
330
36
100
AcDbEntity
  8
2-0
  6
Continuous
 62
     7
100
AcDbLine
 10
3257.176156041793
 20
127.802975333599
 30
0.0
 11
3261.995958517629
 21
128.064840268078
 31
0.0
  0
LINE
  5
1AC
330
36
100
AcDbEntity
  8
2-0
  6
Continuous
 62
     7
100
AcDbLine
 10
3261.995958517629
 20
128.064840268078
 30
0.0
 11
3266.787609554054
 21
128.647205698981
 31
0.0
  0
LINE
  5
1AD
330
36
100
AcDbEntity
  8
2-0
  6
Continuous
 62
     7
100
AcDbLine
 10
3266.787609554054
 20
128.647205698981
 30
0.0
 11
3271.529820810563
 21
129.547484293987
 31
0.0
  0
LINE
  5
1AE
330
36
100
AcDbEntity
  8
2-0
  6
Continuous
 62
     7
100
AcDbLine
 10
3271.529820810563
 20
129.547484293987
 30
0.0
 11
3276.201523597635
 21
130.761676296618
 31
0.0
  0
LINE
  5
1AF
330
36
100
AcDbEntity
  8
2-0
  6
Continuous
 62
     7
100
AcDbLine
 10
3276.201523597635
 20
130.761676296618
 30
0.0
 11
3280.781962480678
 21
132.284387296346
 31
0.0
  0
LINE
  5
1B0
330
36
100
AcDbEntity
  8
2-0
  6
Continuous
 62
     7
100
AcDbLine
 10
3280.781962480678
 20
132.284387296346
 30
0.0
 11
3285.250787492247
 21
134.108852194877
 31
0.0
  0
LINE
  5
1B1
330
36
100
AcDbEntity
  8
2-0
  6
Continuous
 62
     7
100
AcDbLine
 10
3285.250787492247
 20
134.108852194877
 30
0.0
 11
3289.588144542845
 21
136.226965262118
 31
0.0
  0
LINE
  5
1B2
330
36
100
AcDbEntity
  8
2-0
  6
Continuous
 62
     7
100
AcDbLine
 10
3289.588144542845
 20
136.226965262118
 30
0.0
 11
3293.77476362865
 21
138.629316148304
 31
0.0
  0
LINE
  5
1B3
330
36
100
AcDbEntity
  8
2-0
  6
Continuous
 62
     7
100
AcDbLine
 10
3293.77476362865
 20
138.629316148304
 30
0.0
 11
3297.792044444258
 21
141.305231692287
 31
0.0
  0
LINE
  5
1B4
330
36
100
AcDbEntity
  8
2-0
  6
Continuous
 62
     7
100
AcDbLine
 10
3297.792044444258
 20
141.305231692287
 30
0.0
 11
3301.622139020096
 21
144.24282334024
 31
0.0
  0
LINE
  5
1B5
330
36
100
AcDbEntity
  8
2-0
  6
Continuous
 62
     7
100
AcDbLine
 10
3301.622139020096
 20
144.24282334024
 30
0.0
 11
3305.248031017352
 21
147.429039964109
 31
0.0
  0
LINE
  5
1B6
330
36
100
AcDbEntity
  8
2-0
  6
Continuous
 62
     7
100
AcDbLine
 10
3305.248031017352
 20
147.429039964109
 30
0.0
 11
3308.653611328145
 21
150.849725845145
 31
0.0
  0
LINE
  5
1B7
330
36
100
AcDbEntity
  8
2-0
  6
Continuous
 62
     7
100
AcDbLine
 10
3308.653611328145
 20
150.849725845145
 30
0.0
 11
3311.823749645047
 21
154.489683564913
 31
0.0
  0
LINE
  5
1B8
330
36
100
AcDbEntity
  8
2-0
  6
Continuous
 62
     7
100
AcDbLine
 10
3311.823749645047
 20
154.489683564913
 30
0.0
 11
3314.744361681987
 21
158.332741524359
 31
0.0
  0
LINE
  5
1B9
330
36
100
AcDbEntity
  8
2-0
  6
Continuous
 62
     7
100
AcDbLine
 10
3314.744361681987
 20
158.332741524359
 30
0.0
 11
3317.402471747905
 21
162.36182579097
 31
0.0
  0
LINE
  5
1BA
330
36
100
AcDbEntity
  8
2-0
  6
Continuous
 62
     7
100
AcDbLine
 10
3317.402471747905
 20
162.36182579097
 30
0.0
 11
3319.786270395125
 21
166.559035954816
 31
0.0
  0
LINE
  5
1BB
330
36
100
AcDbEntity
  8
2-0
  6
Continuous
 62
     7
100
AcDbLine
 10
3319.786270395125
 20
166.559035954816
 30
0.0
 11
3321.885166886362
 21
170.905724656467
 31
0.0
  0
LINE
  5
1BC
330
36
100
AcDbEntity
  8
2-0
  6
Continuous
 62
     7
100
AcDbLine
 10
3321.885166886362
 20
170.905724656467
 30
0.0
 11
3323.689836247225
 21
175.382580433454
 31
0.0
  0
LINE
  5
1BD
330
36
100
AcDbEntity
  8
2-0
  6
Continuous
 62
     7
100
AcDbLine
 10
3323.689836247225
 20
175.382580433454
 30
0.0
 11
3325.192260695212
 21
179.969713517208
 31
0.0
  0
LINE
  5
1BE
330
36
100
AcDbEntity
  8
2-0
  6
Continuous
 62
     7
100
AcDbLine
 10
3325.192260695212
 20
179.969713517208
 30
0.0
 11
3326.38576526109
 21
184.6467441992979
 31
0.0
  0
LINE
  5
1BF
330
36
100
AcDbEntity
  8
2-0
  6
Continuous
 62
     7
100
AcDbLine
 10
3326.38576526109
 20
184.6467441992979
 30
0.0
 11
3327.265047444446
 21
189.392893374367
 31
0.0
  0
LINE
  5
1C0
330
36
100
AcDbEntity
  8
2-0
  6
Continuous
 62
     7
100
AcDbLine
 10
3327.265047444446
 20
189.392893374367
 30
0.0
 11
3327.826200771631
 21
194.187074857516
 31
0.0
  0
LINE
  5
1C1
330
36
100
AcDbEntity
  8
2-0
  6
Continuous
 62
     7
100
AcDbLine
 10
3327.826200771631
 20
194.187074857516
 30
0.0
 11
3328.066732151429
 21
199.007989065974
 31
0.0
  0
LINE
  5
1C2
330
36
100
AcDbEntity
  8
2-0
  6
Continuous
 62
     7
100
AcDbLine
 10
3328.066732151429
 20
199.007989065974
 30
0.0
 11
3328.076611986733
 21
200.204166274283
 31
0.0
  0
LINE
  5
1C3
330
36
100
AcDbEntity
  8
2-0
  6
Continuous
 62
     7
100
AcDbLine
 10
3328.493625307923
 20
200.204166274283
 30
0.0
 11
3328.331831717832
 21
205.056176137259
 31
0.0
  0
LINE
  5
1C4
330
36
100
AcDbEntity
  8
2-0
  6
Continuous
 62
     7
100
AcDbLine
 10
3328.331831717832
 20
205.056176137259
 30
0.0
 11
3327.847169763897
 21
209.886629497621
 31
0.0
  0
LINE
  5
1C5
330
36
100
AcDbEntity
  8
2-0
  6
Continuous
 62
     7
100
AcDbLine
 10
3327.847169763897
 20
209.886629497621
 30
0.0
 11
3327.041792701564
 21
214.674065623951
 31
0.0
  0
LINE
  5
1C6
330
36
100
AcDbEntity
  8
2-0
  6
Continuous
 62
     7
100
AcDbLine
 10
3327.041792701564
 20
214.674065623951
 30
0.0
 11
3325.91927865892
 21
219.39721490174
 31
0.0
  0
LINE
  5
1C7
330
36
100
AcDbEntity
  8
2-0
  6
Continuous
 62
     7
100
AcDbLine
 10
3325.91927865892
 20
219.39721490174
 30
0.0
 11
3324.484614739775
 21
224.035093330001
 31
0.0
  0
LINE
  5
1C8
330
36
100
AcDbEntity
  8
2-0
  6
Continuous
 62
     7
100
AcDbLine
 10
3324.484614739775
 20
224.035093330001
 30
0.0
 11
3322.744174866981
 21
228.567095748955
 31
0.0
  0
LINE
  5
1C9
330
36
100
AcDbEntity
  8
2-0
  6
Continuous
 62
     7
100
AcDbLine
 10
3322.744174866981
 20
228.567095748955
 30
0.0
 11
3320.705691464363
 21
232.973087384611
 31
0.0
  0
LINE
  5
1CA
330
36
100
AcDbEntity
  8
2-0
  6
Continuous
 62
     7
100
AcDbLine
 10
3320.705691464363
 20
232.973087384611
 30
0.0
 11
3318.378221103124
 21
237.233493303508
 31
0.0
  0
LINE
  5
1CB
330
36
100
AcDbEntity
  8
2-0
  6
Continuous
 62
     7
100
AcDbLine
 10
3318.378221103124
 20
237.233493303508
 30
0.0
 11
3315.772104265322
 21
241.329385380204
 31
0.0
  0
LINE
  5
1CC
330
36
100
AcDbEntity
  8
2-0
  6
Continuous
 62
     7
100
AcDbLine
 10
3315.772104265322
 20
241.329385380204
 30
0.0
 11
3312.898919403186
 21
245.242566391124
 31
0.0
  0
LINE
  5
1CD
330
36
100
AcDbEntity
  8
2-0
  6
Continuous
 62
     7
100
AcDbLine
 10
3312.898919403186
 20
245.242566391124
 30
0.0
 11
3309.771431498397
 21
248.955650861159
 31
0.0
  0
LINE
  5
1CE
330
36
100
AcDbEntity
  8
2-0
  6
Continuous
 62
     7
100
AcDbLine
 10
3309.771431498397
 20
248.955650861159
 30
0.0
 11
3306.40353534983
 21
252.452142303834
 31
0.0
  0
LINE
  5
1CF
330
36
100
AcDbEntity
  8
2-0
  6
Continuous
 62
     7
100
AcDbLine
 10
3306.40353534983
 20
252.452142303834
 30
0.0
 11
3302.810193841775
 21
255.716506511869
 31
0.0
  0
LINE
  5
1D0
330
36
100
AcDbEntity
  8
2-0
  6
Continuous
 62
     7
100
AcDbLine
 10
3302.810193841775
 20
255.716506511869
 30
0.0
 11
3299.007371466839
 21
258.734240572538
 31
0.0
  0
LINE
  5
1D1
330
36
100
AcDbEntity
  8
2-0
  6
Continuous
 62
     7
100
AcDbLine
 10
3299.007371466839
 20
258.734240572538
 30
0.0
 11
3295.011963398942
 21
261.491937301188
 31
0.0
  0
LINE
  5
1D2
330
36
100
AcDbEntity
  8
2-0
  6
Continuous
 62
     7
100
AcDbLine
 10
3295.011963398942
 20
261.491937301188
 30
0.0
 11
3290.841720431444
 21
263.97734480666
 31
0.0
  0
LINE
  5
1D3
330
36
100
AcDbEntity
  8
2-0
  6
Continuous
 62
     7
100
AcDbLine
 10
3290.841720431444
 20
263.97734480666
 30
0.0
 11
3286.515170113954
 21
266.179420923975
 31
0.0
  0
LINE
  5
1D4
330
36
100
AcDbEntity
  8
2-0
  6
Continuous
 62
     7
100
AcDbLine
 10
3286.515170113954
 20
266.179420923975
 30
0.0
 11
3282.051534438153
 21
268.088382272445
 31
0.0
  0
LINE
  5
1D5
330
36
100
AcDbEntity
  8
2-0
  6
Continuous
 62
     7
100
AcDbLine
 10
3282.051534438153
 20
268.088382272445
 30
0.0
 11
3277.470644438366
 21
269.695747721269
 31
0.0
  0
LINE
  5
1D6
330
36
100
AcDbEntity
  8
2-0
  6
Continuous
 62
     7
100
AcDbLine
 10
3277.470644438366
 20
269.695747721269
 30
0.0
 11
3272.792852086258
 21
270.9943760694839
 31
0.0
  0
LINE
  5
1D7
330
36
100
AcDbEntity
  8
2-0
  6
Continuous
 62
     7
100
AcDbLine
 10
3272.792852086258
 20
270.9943760694839
 30
0.0
 11
3268.038939871132
 21
271.978497772886
 31
0.0
  0
LINE
  5
1D8
330
36
100
AcDbEntity
  8
2-0
  6
Continuous
 62
     7
100
AcDbLine
 10
3268.038939871132
 20
271.978497772886
 30
0.0
 11
3263.230028467513
 21
272.643740576952
 31
0.0
  0
LINE
  5
1D9
330
36
100
AcDbEntity
  8
2-0
  6
Continuous
 62
     7
100
AcDbLine
 10
3263.230028467513
 20
272.643740576952
 30
0.0
 11
3258.387482900238
 21
272.987148941883
 31
0.0
  0
LINE
  5
1DA
330
36
100
AcDbEntity
  8
2-0
  6
Continuous
 62
     7
100
AcDbLine
 10
3258.387482900238
 20
272.987148941883
 30
0.0
 11
3253.532817623967
 21
273.007197173479
 31
0.0
  0
LINE
  5
1DB
330
36
100
AcDbEntity
  8
2-0
  6
Continuous
 62
     7
100
AcDbLine
 10
3253.532817623967
 20
273.007197173479
 30
0.0
 11
3248.687600938779
 21
272.703796201483
 31
0.0
  0
LINE
  5
1DC
330
36
100
AcDbEntity
  8
2-0
  6
Continuous
 62
     7
100
AcDbLine
 10
3248.687600938779
 20
272.703796201483
 30
0.0
 11
3243.873359166571
 21
272.078293975309
 31
0.0
  0
LINE
  5
1DD
330
36
100
AcDbEntity
  8
2-0
  6
Continuous
 62
     7
100
AcDbLine
 10
3243.873359166571
 20
272.078293975309
 30
0.0
 11
3239.111481013936
 21
271.13346947537
 31
0.0
  0
LINE
  5
1DE
330
36
100
AcDbEntity
  8
2-0
  6
Continuous
 62
     7
100
AcDbLine
 10
3239.111481013936
 20
271.13346947537
 30
0.0
 11
3234.423122546454
 21
269.87352036663
 31
0.0
  0
LINE
  5
1DF
330
36
100
AcDbEntity
  8
2-0
  6
Continuous
 62
     7
100
AcDbLine
 10
3234.423122546454
 20
269.87352036663
 30
0.0
 11
3229.829113196551
 21
268.304044349221
 31
0.0
  0
LINE
  5
1E0
330
36
100
AcDbEntity
  8
2-0
  6
Continuous
 62
     7
100
AcDbLine
 10
3229.829113196551
 20
268.304044349221
 30
0.0
 11
3225.349863222521
 21
266.432014288994
 31
0.0
  0
LINE
  5
1E1
330
36
100
AcDbEntity
  8
2-0
  6
Continuous
 62
     7
100
AcDbLine
 10
3225.349863222521
 20
266.432014288994
 30
0.0
 11
3221.005273029873
 21
264.265747238474
 31
0.0
  0
LINE
  5
1E2
330
36
100
AcDbEntity
  8
2-0
  6
Continuous
 62
     7
100
AcDbLine
 10
3221.005273029873
 20
264.265747238474
 30
0.0
 11
3216.81464475782
 21
261.814867485877
 31
0.0
  0
LINE
  5
1E3
330
36
100
AcDbEntity
  8
2-0
  6
Continuous
 62
     7
100
AcDbLine
 10
3216.81464475782
 20
261.814867485877
 30
0.0
 11
3212.796596523771
 21
259.09026379633
 31
0.0
  0
LINE
  5
1E4
330
36
100
AcDbEntity
  8
2-0
  6
Continuous
 62
     7
100
AcDbLine
 10
3212.796596523771
 20
259.09026379633
 30
0.0
 11
3208.968979706791
 21
256.104041035285
 31
0.0
  0
LINE
  5
1E5
330
36
100
AcDbEntity
  8
2-0
  6
Continuous
 62
     7
100
AcDbLine
 10
3208.968979706791
 20
256.104041035285
 30
0.0
 11
3205.348799637501
 21
252.869466389038
 31
0.0
  0
LINE
  5
1E6
330
36
100
AcDbEntity
  8
2-0
  6
Continuous
 62
     7
100
AcDbLine
 10
3205.348799637501
 20
252.869466389038
 30
0.0
 11
3201.952140046841
 21
249.40091042129
 31
0.0
  0
LINE
  5
1E7
330
36
100
AcDbEntity
  8
2-0
  6
Continuous
 62
     7
100
AcDbLine
 10
3201.952140046841
 20
249.40091042129
 30
0.0
 11
3198.794091609276
 21
245.713783227631
 31
0.0
  0
LINE
  5
1E8
330
36
100
AcDbEntity
  8
2-0
  6
Continuous
 62
     7
100
AcDbLine
 10
3198.794091609276
 20
245.713783227631
 30
0.0
 11
3195.888684897976
 21
241.824465971588
 31
0.0
  0
LINE
  5
1E9
330
36
100
AcDbEntity
  8
2-0
  6
Continuous
 62
     7
100
AcDbLine
 10
3195.888684897976
 20
241.824465971588
 30
0.0
 11
3193.248828049804
 21
237.750238106411
 31
0.0
  0
LINE
  5
1EA
330
36
100
AcDbEntity
  8
2-0
  6
Continuous
 62
     7
100
AcDbLine
 10
3193.248828049804
 20
237.750238106411
 30
0.0
 11
3190.886249417065
 21
233.509200605948
 31
0.0
  0
LINE
  5
1EB
330
36
100
AcDbEntity
  8
2-0
  6
Continuous
 62
     7
100
AcDbLine
 10
3190.886249417065
 20
233.509200605948
 30
0.0
 11
3188.811445460791
 21
229.120195545657
 31
0.0
  0
LINE
  5
1EC
330
36
100
AcDbEntity
  8
2-0
  6
Continuous
 62
     7
100
AcDbLine
 10
3188.811445460791
 20
229.120195545657
 30
0.0
 11
3187.033634117094
 21
224.602722391067
 31
0.0
  0
LINE
  5
1ED
330
36
100
AcDbEntity
  8
2-0
  6
Continuous
 62
     7
100
AcDbLine
 10
3187.033634117094
 20
224.602722391067
 30
0.0
 11
3185.560713843717
 21
219.976851365574
 31
0.0
  0
LINE
  5
1EE
330
36
100
AcDbEntity
  8
2-0
  6
Continuous
 62
     7
100
AcDbLine
 10
3185.560713843717
 20
219.976851365574
 30
0.0
 11
3184.399228528785
 21
215.263134282484
 31
0.0
  0
LINE
  5
1EF
330
36
100
AcDbEntity
  8
2-0
  6
Continuous
 62
     7
100
AcDbLine
 10
3184.399228528785
 20
215.263134282484
 30
0.0
 11
3183.554338417628
 21
210.482513237443
 31
0.0
  0
LINE
  5
1F0
330
36
100
AcDbEntity
  8
2-0
  6
Continuous
 62
     7
100
AcDbLine
 10
3183.554338417628
 20
210.482513237443
 30
0.0
 11
3183.029797186845
 21
205.656227566927
 31
0.0
  0
LINE
  5
1F1
330
36
100
AcDbEntity
  8
2-0
  6
Continuous
 62
     7
100
AcDbLine
 10
3183.029797186845
 20
205.656227566927
 30
0.0
 11
3182.827935267483
 21
200.805719486145
 31
0.0
  0
LINE
  5
1F2
330
36
100
AcDbEntity
  8
2-0
  6
Continuous
 62
     7
100
AcDbLine
 10
3182.827935267483
 20
200.805719486145
 30
0.0
 11
3182.949649491393
 21
195.952538825597
 31
0.0
  0
LINE
  5
1F3
330
36
100
AcDbEntity
  8
2-0
  6
Continuous
 62
     7
100
AcDbLine
 10
3182.949649491393
 20
195.952538825597
 30
0.0
 11
3183.394399106791
 21
191.118247289517
 31
0.0
  0
LINE
  5
1F4
330
36
100
AcDbEntity
  8
2-0
  6
Continuous
 62
     7
100
AcDbLine
 10
3183.394399106791
 20
191.118247289517
 30
0.0
 11
3184.160208180708
 21
186.324322661561
 31
0.0
  0
LINE
  5
1F5
330
36
100
AcDbEntity
  8
2-0
  6
Continuous
 62
     7
100
AcDbLine
 10
3184.160208180708
 20
186.324322661561
 30
0.0
 11
3185.243674377668
 21
181.592063383344
 31
0.0
  0
LINE
  5
1F6
330
36
100
AcDbEntity
  8
2-0
  6
Continuous
 62
     7
100
AcDbLine
 10
3185.243674377668
 20
181.592063383344
 30
0.0
 11
3186.639984075569
 21
176.942493929753
 31
0.0
  0
LINE
  5
1F7
330
36
100
AcDbEntity
  8
2-0
  6
Continuous
 62
     7
100
AcDbLine
 10
3186.639984075569
 20
176.942493929753
 30
0.0
 11
3188.342933751644
 21
172.396271401436
 31
0.0
  0
LINE
  5
1F8
330
36
100
AcDbEntity
  8
2-0
  6
Continuous
 62
     7
100
AcDbLine
 10
3188.342933751644
 20
172.396271401436
 30
0.0
 11
3190.344957543456
 21
167.973593749466
 31
0.0
  0
LINE
  5
1F9
330
36
100
AcDbEntity
  8
2-0
  6
Continuous
 62
     7
100
AcDbLine
 10
3190.344957543456
 20
167.973593749466
 30
0.0
 11
3192.637160862516
 21
163.694110039914
 31
0.0
  0
LINE
  5
1FA
330
36
100
AcDbEntity
  8
2-0
  6
Continuous
 62
     7
100
AcDbLine
 10
3192.637160862516
 20
163.694110039914
 30
0.0
 11
3195.209359911127
 21
159.576833157005
 31
0.0
  0
LINE
  5
1FB
330
36
100
AcDbEntity
  8
2-0
  6
Continuous
 62
     7
100
AcDbLine
 10
3195.209359911127
 20
159.576833157005
 30
0.0
 11
3198.050126926965
 21
155.640055332699
 31
0.0
  0
LINE
  5
1FC
330
36
100
AcDbEntity
  8
2-0
  6
Continuous
 62
     7
100
AcDbLine
 10
3198.050126926965
 20
155.640055332699
 30
0.0
 11
3201.146840954316
 21
151.901266877995
 31
0.0
  0
LINE
  5
1FD
330
36
100
AcDbEntity
  8
2-0
  6
Continuous
 62
     7
100
AcDbLine
 10
3201.146840954316
 20
151.901266877995
 30
0.0
 11
3204.485743916441
 21
148.377078476996
 31
0.0
  0
LINE
  5
1FE
330
36
100
AcDbEntity
  8
2-0
  6
Continuous
 62
     7
100
AcDbLine
 10
3204.485743916441
 20
148.377078476996
 30
0.0
 11
3208.052001739942
 21
145.083147388989
 31
0.0
  0
LINE
  5
1FF
330
36
100
AcDbEntity
  8
2-0
  6
Continuous
 62
     7
100
AcDbLine
 10
3208.052001739942
 20
145.083147388989
 30
0.0
 11
3211.829770259561
 21
142.034107886392
 31
0.0
  0
LINE
  5
200
330
36
100
AcDbEntity
  8
2-0
  6
Continuous
 62
     7
100
AcDbLine
 10
3211.829770259561
 20
142.034107886392
 30
0.0
 11
3215.802265610618
 21
139.243506237632
 31
0.0
  0
LINE
  5
201
330
36
100
AcDbEntity
  8
2-0
  6
Continuous
 62
     7
100
AcDbLine
 10
3215.802265610618
 20
139.243506237632
 30
0.0
 11
3219.951838796337
 21
136.723740523801
 31
0.0
  0
LINE
  5
202
330
36
100
AcDbEntity
  8
2-0
  6
Continuous
 62
     7
100
AcDbLine
 10
3219.951838796337
 20
136.723740523801
 30
0.0
 11
3224.260054098785
 21
134.48600555648
 31
0.0
  0
LINE
  5
203
330
36
100
AcDbEntity
  8
2-0
  6
Continuous
 62
     7
100
AcDbLine
 10
3224.260054098785
 20
134.48600555648
 30
0.0
 11
3228.707770985059
 21
132.540243141442
 31
0.0
  0
LINE
  5
204
330
36
100
AcDbEntity
  8
2-0
  6
Continuous
 62
     7
100
AcDbLine
 10
3228.707770985059
 20
132.540243141442
 30
0.0
 11
3233.275229144814
 21
130.895097909218
 31
0.0
  0
LINE
  5
205
330
36
100
AcDbEntity
  8
2-0
  6
Continuous
 62
     7
100
AcDbLine
 10
3233.275229144814
 20
130.895097909218
 30
0.0
 11
3237.942136281343
 21
129.557878908738
 31
0.0
  0
LINE
  5
206
330
36
100
AcDbEntity
  8
2-0
  6
Continuous
 62
     7
100
AcDbLine
 10
3237.942136281343
 20
129.557878908738
 30
0.0
 11
3242.687758266163
 21
128.534527134702
 31
0.0
  0
LINE
  5
207
330
36
100
AcDbEntity
  8
2-0
  6
Continuous
 62
     7
100
AcDbLine
 10
3242.687758266163
 20
128.534527134702
 30
0.0
 11
3247.491011256574
 21
127.829589132937
 31
0.0
  0
LINE
  5
208
330
36
100
AcDbEntity
  8
2-0
  6
Continuous
 62
     7
100
AcDbLine
 10
3247.491011256574
 20
127.829589132937
 30
0.0
 11
3252.330555366926
 21
127.446196801008
 31
0.0
  0
LINE
  5
209
330
36
100
AcDbEntity
  8
2-0
  6
Continuous
 62
     7
100
AcDbLine
 10
3252.330555366926
 20
127.446196801008
 30
0.0
 11
3257.184889477434
 21
127.386053473831
 31
0.0
  0
LINE
  5
20A
330
36
100
AcDbEntity
  8
2-0
  6
Continuous
 62
     7
100
AcDbLine
 10
3257.184889477434
 20
127.386053473831
 30
0.0
 11
3262.032446759313
 21
127.649426356096
 31
0.0
  0
LINE
  5
20B
330
36
100
AcDbEntity
  8
2-0
  6
Continuous
 62
     7
100
AcDbLine
 10
3262.032446759313
 20
127.649426356096
 30
0.0
 11
3266.851690491874
 21
128.235145335129
 31
0.0
  0
LINE
  5
20C
330
36
100
AcDbEntity
  8
2-0
  6
Continuous
 62
     7
100
AcDbLine
 10
3266.851690491874
 20
128.235145335129
 30
0.0
 11
3271.621209745819
 21
129.140608179472
 31
0.0
  0
LINE
  5
20D
330
36
100
AcDbEntity
  8
2-0
  6
Continuous
 62
     7
100
AcDbLine
 10
3271.621209745819
 20
129.140608179472
 30
0.0
 11
3276.319814507691
 21
130.361792100071
 31
0.0
  0
LINE
  5
20E
330
36
100
AcDbEntity
  8
2-0
  6
Continuous
 62
     7
100
AcDbLine
 10
3276.319814507691
 20
130.361792100071
 30
0.0
 11
3280.926629822847
 21
131.893271622715
 31
0.0
  0
LINE
  5
20F
330
36
100
AcDbEntity
  8
2-0
  6
Continuous
 62
     7
100
AcDbLine
 10
3280.926629822847
 20
131.893271622715
 30
0.0
 11
3285.421188538662
 21
133.728242692328
 31
0.0
  0
LINE
  5
210
330
36
100
AcDbEntity
  8
2-0
  6
Continuous
 62
     7
100
AcDbLine
 10
3285.421188538662
 20
133.728242692328
 30
0.0
 11
3289.783522235976
 21
135.858552902015
 31
0.0
  0
LINE
  5
211
330
36
100
AcDbEntity
  8
2-0
  6
Continuous
 62
     7
100
AcDbLine
 10
3289.783522235976
 20
135.858552902015
 30
0.0
 11
3293.994249944757
 21
138.274737712565
 31
0.0
  0
LINE
  5
212
330
36
100
AcDbEntity
  8
2-0
  6
Continuous
 62
     7
100
AcDbLine
 10
3293.994249944757
 20
138.274737712565
 30
0.0
 11
3298.034664249844
 21
140.966062501488
 31
0.0
  0
LINE
  5
213
330
36
100
AcDbEntity
  8
2-0
  6
Continuous
 62
     7
100
AcDbLine
 10
3298.034664249844
 20
140.966062501488
 30
0.0
 11
3301.886814404228
 21
143.920570254787
 31
0.0
  0
LINE
  5
214
330
36
100
AcDbEntity
  8
2-0
  6
Continuous
 62
     7
100
AcDbLine
 10
3301.886814404228
 20
143.920570254787
 30
0.0
 11
3305.533586080605
 21
147.125134689557
 31
0.0
  0
LINE
  5
215
330
36
100
AcDbEntity
  8
2-0
  6
Continuous
 62
     7
100
AcDbLine
 10
3305.533586080605
 20
147.125134689557
 30
0.0
 11
3308.958777406885
 21
150.565518571423
 31
0.0
  0
LINE
  5
216
330
36
100
AcDbEntity
  8
2-0
  6
Continuous
 62
     7
100
AcDbLine
 10
3308.958777406885
 20
150.565518571423
 30
0.0
 11
3312.147170947846
 21
154.226436967697
 31
0.0
  0
LINE
  5
217
330
36
100
AcDbEntity
  8
2-0
  6
Continuous
 62
     7
100
AcDbLine
 10
3312.147170947846
 20
154.226436967697
 30
0.0
 11
3315.084601313136
 21
158.091625155263
 31
0.0
  0
LINE
  5
218
330
36
100
AcDbEntity
  8
2-0
  6
Continuous
 62
     7
100
AcDbLine
 10
3315.084601313136
 20
158.091625155263
 30
0.0
 11
3317.758018091246
 21
162.14391088146
 31
0.0
  0
LINE
  5
219
330
36
100
AcDbEntity
  8
2-0
  6
Continuous
 62
     7
100
AcDbLine
 10
3317.758018091246
 20
162.14391088146
 30
0.0
 11
3320.155543829863
 21
166.365290656947
 31
0.0
  0
LINE
  5
21A
330
36
100
AcDbEntity
  8
2-0
  6
Continuous
 62
     7
100
AcDbLine
 10
3320.155543829863
 20
166.365290656947
 30
0.0
 11
3322.266526804999
 21
170.737009741576
 31
0.0
  0
LINE
  5
21B
330
36
100
AcDbEntity
  8
2-0
  6
Continuous
 62
     7
100
AcDbLine
 10
3322.266526804999
 20
170.737009741576
 30
0.0
 11
3324.08158834445
 21
175.239645467928
 31
0.0
  0
LINE
  5
21C
330
36
100
AcDbEntity
  8
2-0
  6
Continuous
 62
     7
100
AcDbLine
 10
3324.08158834445
 20
175.239645467928
 30
0.0
 11
3325.592664495355
 21
179.853193532312
 31
0.0
  0
LINE
  5
21D
330
36
100
AcDbEntity
  8
2-0
  6
Continuous
 62
     7
100
AcDbLine
 10
3325.592664495355
 20
179.853193532312
 30
0.0
 11
3326.79304185071
 21
184.557156869858
 31
0.0
  0
LINE
  5
21E
330
36
100
AcDbEntity
  8
2-0
  6
Continuous
 62
     7
100
AcDbLine
 10
3326.79304185071
 20
184.557156869858
 30
0.0
 11
3327.677387375683
 21
189.330636718844
 31
0.0
  0
LINE
  5
21F
330
36
100
AcDbEntity
  8
2-0
  6
Continuous
 62
     7
100
AcDbLine
 10
3327.677387375683
 20
189.330636718844
 30
0.0
 11
3328.241772101216
 21
194.152425469692
 31
0.0
  0
LINE
  5
220
330
36
100
AcDbEntity
  8
2-0
  6
Continuous
 62
     7
100
AcDbLine
 10
3328.241772101216
 20
194.152425469692
 30
0.0
 11
3328.483688579642
 21
199.0011008861
 31
0.0
  0
LINE
  5
221
330
36
100
AcDbEntity
  8
2-0
  6
Continuous
 62
     7
100
AcDbLine
 10
3328.483688579642
 20
199.0011008861
 30
0.0
 11
3328.493625307923
 21
200.204166274283
 31
0.0
  0
LINE
  5
222
330
36
100
AcDbEntity
  8
2-0
  6
Continuous
 62
     7
100
AcDbLine
 10
3328.910638629113
 20
200.204166274283
 30
0.0
 11
3328.747918685923
 21
205.083956436664
 31
0.0
  0
LINE
  5
223
330
36
100
AcDbEntity
  8
2-0
  6
Continuous
 62
     7
100
AcDbLine
 10
3328.747918685923
 20
205.083956436664
 30
0.0
 11
3328.26048178829
 21
209.942066674155
 31
0.0
  0
LINE
  5
224
330
36
100
AcDbEntity
  8
2-0
  6
Continuous
 62
     7
100
AcDbLine
 10
3328.26048178829
 20
209.942066674155
 30
0.0
 11
3327.450493520177
 21
214.756913381404
 31
0.0
  0
LINE
  5
225
330
36
100
AcDbEntity
  8
2-0
  6
Continuous
 62
     7
100
AcDbLine
 10
3327.450493520177
 20
214.756913381404
 30
0.0
 11
3326.321552496328
 21
219.507105164212
 31
0.0
  0
LINE
  5
226
330
36
100
AcDbEntity
  8
2-0
  6
Continuous
 62
     7
100
AcDbLine
 10
3326.321552496328
 20
219.507105164212
 30
0.0
 11
3324.878674374339
 21
224.171537877187
 31
0.0
  0
LINE
  5
227
330
36
100
AcDbEntity
  8
2-0
  6
Continuous
 62
     7
100
AcDbLine
 10
3324.878674374339
 20
224.171537877187
 30
0.0
 11
3323.128269571109
 21
228.729488385214
 31
0.0
  0
LINE
  5
228
330
36
100
AcDbEntity
  8
2-0
  6
Continuous
 62
     7
100
AcDbLine
 10
3323.128269571109
 20
228.729488385214
 30
0.0
 11
3321.078114782642
 21
233.160706632165
 31
0.0
  0
LINE
  5
229
330
36
100
AcDbEntity
  8
2-0
  6
Continuous
 62
     7
100
AcDbLine
 10
3321.078114782642
 20
233.160706632165
 30
0.0
 11
3318.737318433757
 21
237.445505607827
 31
0.0
  0
LINE
  5
22A
330
36
100
AcDbEntity
  8
2-0
  6
Continuous
 62
     7
100
AcDbLine
 10
3318.737318433757
 20
237.445505607827
 30
0.0
 11
3316.116280211191
 21
241.56484881332
 31
0.0
  0
LINE
  5
22B
330
36
100
AcDbEntity
  8
2-0
  6
Continuous
 62
     7
100
AcDbLine
 10
3316.116280211191
 20
241.56484881332
 30
0.0
 11
3313.226644859884
 21
245.500434836426
 31
0.0
  0
LINE
  5
22C
330
36
100
AcDbEntity
  8
2-0
  6
Continuous
 62
     7
100
AcDbLine
 10
3313.226644859884
 20
245.500434836426
 30
0.0
 11
3310.081250447723
 21
249.23477866108
 31
0.0
  0
LINE
  5
22D
330
36
100
AcDbEntity
  8
2-0
  6
Continuous
 62
     7
100
AcDbLine
 10
3310.081250447723
 20
249.23477866108
 30
0.0
 11
3306.694071328591
 21
252.751289349776
 31
0.0
  0
LINE
  5
22E
330
36
100
AcDbEntity
  8
2-0
  6
Continuous
 62
     7
100
AcDbLine
 10
3306.694071328591
 20
252.751289349776
 30
0.0
 11
3303.080156057129
 21
256.034343753755
 31
0.0
  0
LINE
  5
22F
330
36
100
AcDbEntity
  8
2-0
  6
Continuous
 62
     7
100
AcDbLine
 10
3303.080156057129
 20
256.034343753755
 30
0.0
 11
3299.255560531039
 21
259.069355923517
 31
0.0
  0
LINE
  5
230
330
36
100
AcDbEntity
  8
2-0
  6
Continuous
 62
     7
100
AcDbLine
 10
3299.255560531039
 20
259.069355923517
 30
0.0
 11
3295.237276657959
 21
261.842841911248
 31
0.0
  0
LINE
  5
231
330
36
100
AcDbEntity
  8
2-0
  6
Continuous
 62
     7
100
AcDbLine
 10
3295.237276657959
 20
261.842841911248
 30
0.0
 11
3291.043156863847
 21
264.342479677291
 31
0.0
  0
LINE
  5
232
330
36
100
AcDbEntity
  8
2-0
  6
Continuous
 62
     7
100
AcDbLine
 10
3291.043156863847
 20
264.342479677291
 30
0.0
 11
3286.691834778243
 21
266.557163834486
 31
0.0
  0
LINE
  5
233
330
36
100
AcDbEntity
  8
2-0
  6
Continuous
 62
     7
100
AcDbLine
 10
3286.691834778243
 20
266.557163834486
 30
0.0
 11
3282.202642448807
 21
268.477054987163
 31
0.0
  0
LINE
  5
234
330
36
100
AcDbEntity
  8
2-0
  6
Continuous
 62
     7
100
AcDbLine
 10
3282.202642448807
 20
268.477054987163
 30
0.0
 11
3277.595524452925
 21
270.093623445602
 31
0.0
  0
LINE
  5
235
330
36
100
AcDbEntity
  8
2-0
  6
Continuous
 62
     7
100
AcDbLine
 10
3277.595524452925
 20
270.093623445602
 30
0.0
 11
3272.89094928797
 21
271.3996871217219
 31
0.0
  0
LINE
  5
236
330
36
100
AcDbEntity
  8
2-0
  6
Continuous
 62
     7
100
AcDbLine
 10
3272.89094928797
 20
271.3996871217219
 30
0.0
 11
3268.109818433887
 21
272.389443437655
 31
0.0
  0
LINE
  5
237
330
36
100
AcDbEntity
  8
2-0
  6
Continuous
 62
     7
100
AcDbLine
 10
3268.109818433887
 20
272.389443437655
 30
0.0
 11
3263.273373492129
 21
273.058495105427
 31
0.0
  0
LINE
  5
238
330
36
100
AcDbEntity
  8
2-0
  6
Continuous
 62
     7
100
AcDbLine
 10
3263.273373492129
 20
273.058495105427
 30
0.0
 11
3258.403101813505
 21
273.403869663228
 31
0.0
  0
LINE
  5
239
330
36
100
AcDbEntity
  8
2-0
  6
Continuous
 62
     7
100
AcDbLine
 10
3258.403101813505
 20
273.403869663228
 30
0.0
 11
3253.520641034195
 21
273.424032681457
 31
0.0
  0
LINE
  5
23A
330
36
100
AcDbEntity
  8
2-0
  6
Continuous
 62
     7
100
AcDbLine
 10
3253.520641034195
 20
273.424032681457
 30
0.0
 11
3248.647682944106
 21
273.118894579884
 31
0.0
  0
LINE
  5
23B
330
36
100
AcDbEntity
  8
2-0
  6
Continuous
 62
     7
100
AcDbLine
 10
3248.647682944106
 20
273.118894579884
 30
0.0
 11
3243.805877114607
 21
272.48981102564
 31
0.0
  0
LINE
  5
23C
330
36
100
AcDbEntity
  8
2-0
  6
Continuous
 62
     7
100
AcDbLine
 10
3243.805877114607
 20
272.48981102564
 30
0.0
 11
3239.016734713847
 21
271.539576910256
 31
0.0
  0
LINE
  5
23D
330
36
100
AcDbEntity
  8
2-0
  6
Continuous
 62
     7
100
AcDbLine
 10
3239.016734713847
 20
271.539576910256
 30
0.0
 11
3234.301532936969
 21
270.272413932528
 31
0.0
  0
LINE
  5
23E
330
36
100
AcDbEntity
  8
2-0
  6
Continuous
 62
     7
100
AcDbLine
 10
3234.301532936969
 20
270.272413932528
 30
0.0
 11
3229.681220475815
 21
268.693951842357
 31
0.0
  0
LINE
  5
23F
330
36
100
AcDbEntity
  8
2-0
  6
Continuous
 62
     7
100
AcDbLine
 10
3229.681220475815
 20
268.693951842357
 30
0.0
 11
3225.17632444811
 21
266.811203428904
 31
0.0
  0
LINE
  5
240
330
36
100
AcDbEntity
  8
2-0
  6
Continuous
 62
     7
100
AcDbLine
 10
3225.17632444811
 20
266.811203428904
 30
0.0
 11
3220.806859199608
 21
264.632533364179
 31
0.0
  0
LINE
  5
241
330
36
100
AcDbEntity
  8
2-0
  6
Continuous
 62
     7
100
AcDbLine
 10
3220.806859199608
 20
264.632533364179
 30
0.0
 11
3216.592237384388
 21
262.167621040492
 31
0.0
  0
LINE
  5
242
330
36
100
AcDbEntity
  8
2-0
  6
Continuous
 62
     7
100
AcDbLine
 10
3216.592237384388
 20
262.167621040492
 30
0.0
 11
3212.551183718341
 21
259.427417566857
 31
0.0
  0
LINE
  5
243
330
36
100
AcDbEntity
  8
2-0
  6
Continuous
 62
     7
100
AcDbLine
 10
3212.551183718341
 20
259.427417566857
 30
0.0
 11
3208.701651789027
 21
256.424097115426
 31
0.0
  0
LINE
  5
244
330
36
100
AcDbEntity
  8
2-0
  6
Continuous
 62
     7
100
AcDbLine
 10
3208.701651789027
 20
256.424097115426
 30
0.0
 11
3205.060744291505
 21
253.171002834087
 31
0.0
  0
LINE
  5
245
330
36
100
AcDbEntity
  8
2-0
  6
Continuous
 62
     7
100
AcDbLine
 10
3205.060744291505
 20
253.171002834087
 30
0.0
 11
3201.644637044499
 21
249.682587565553
 31
0.0
  0
LINE
  5
246
330
36
100
AcDbEntity
  8
2-0
  6
Continuous
 62
     7
100
AcDbLine
 10
3201.644637044499
 20
249.682587565553
 30
0.0
 11
3198.468507124495
 21
245.974349636287
 31
0.0
  0
LINE
  5
247
330
36
100
AcDbEntity
  8
2-0
  6
Continuous
 62
     7
100
AcDbLine
 10
3198.468507124495
 20
245.974349636287
 30
0.0
 11
3195.546465437049
 21
242.062764000561
 31
0.0
  0
LINE
  5
248
330
36
100
AcDbEntity
  8
2-0
  6
Continuous
 62
     7
100
AcDbLine
 10
3195.546465437049
 20
242.062764000561
 30
0.0
 11
3192.891494024872
 21
237.965209045553
 31
0.0
  0
LINE
  5
249
330
36
100
AcDbEntity
  8
2-0
  6
Continuous
 62
     7
100
AcDbLine
 10
3192.891494024872
 20
237.965209045553
 30
0.0
 11
3190.51538839123
 21
233.699889382671
 31
0.0
  0
LINE
  5
24A
330
36
100
AcDbEntity
  8
2-0
  6
Continuous
 62
     7
100
AcDbLine
 10
3190.51538839123
 20
233.699889382671
 30
0.0
 11
3188.428705094903
 21
229.285754968132
 31
0.0
  0
LINE
  5
24B
330
36
100
AcDbEntity
  8
2-0
  6
Continuous
 62
     7
100
AcDbLine
 10
3188.428705094903
 20
229.285754968132
 30
0.0
 11
3186.640714849512
 21
224.742416912123
 31
0.0
  0
LINE
  5
24C
330
36
100
AcDbEntity
  8
2-0
  6
Continuous
 62
     7
100
AcDbLine
 10
3186.640714849512
 20
224.742416912123
 30
0.0
 11
3185.159361335613
 21
220.09006035059
 31
0.0
  0
LINE
  5
24D
330
36
100
AcDbEntity
  8
2-0
  6
Continuous
 62
     7
100
AcDbLine
 10
3185.159361335613
 20
220.09006035059
 30
0.0
 11
3183.991225908518
 21
215.349354766739
 31
0.0
  0
LINE
  5
24E
330
36
100
AcDbEntity
  8
2-0
  6
Continuous
 62
     7
100
AcDbLine
 10
3183.991225908518
 20
215.349354766739
 30
0.0
 11
3183.141498358667
 21
210.541362160691
 31
0.0
  0
LINE
  5
24F
330
36
100
AcDbEntity
  8
2-0
  6
Continuous
 62
     7
100
AcDbLine
 10
3183.141498358667
 20
210.541362160691
 30
0.0
 11
3182.613953854426
 21
205.687443475254
 31
0.0
  0
LINE
  5
250
330
36
100
AcDbEntity
  8
2-0
  6
Continuous
 62
     7
100
AcDbLine
 10
3182.613953854426
 20
205.687443475254
 30
0.0
 11
3182.410936169779
 21
200.809163693557
 31
0.0
  0
LINE
  5
251
330
36
100
AcDbEntity
  8
2-0
  6
Continuous
 62
     7
100
AcDbLine
 10
3182.410936169779
 20
200.809163693557
 30
0.0
 11
3182.533347271411
 21
195.928196030175
 31
0.0
  0
LINE
  5
252
330
36
100
AcDbEntity
  8
2-0
  6
Continuous
 62
     7
100
AcDbLine
 10
3182.533347271411
 20
195.928196030175
 30
0.0
 11
3182.980643311451
 21
191.066225641397
 31
0.0
  0
LINE
  5
253
330
36
100
AcDbEntity
  8
2-0
  6
Continuous
 62
     7
100
AcDbLine
 10
3182.980643311451
 20
191.066225641397
 30
0.0
 11
3183.750837043679
 21
186.2448532824499
 31
0.0
  0
LINE
  5
254
330
36
100
AcDbEntity
  8
2-0
  6
Continuous
 62
     7
100
AcDbLine
 10
3183.750837043679
 20
186.2448532824499
 30
0.0
 11
3184.84050665246
 21
181.485499339688
 31
0.0
  0
LINE
  5
255
330
36
100
AcDbEntity
  8
2-0
  6
Continuous
 62
     7
100
AcDbLine
 10
3184.84050665246
 20
181.485499339688
 30
0.0
 11
3186.244810955187
 21
176.809308664135
 31
0.0
  0
LINE
  5
256
330
36
100
AcDbEntity
  8
2-0
  6
Continuous
 62
     7
100
AcDbLine
 10
3186.244810955187
 20
176.809308664135
 30
0.0
 11
3187.957510910673
 21
172.237056629167
 31
0.0
  0
LINE
  5
257
330
36
100
AcDbEntity
  8
2-0
  6
Continuous
 62
     7
100
AcDbLine
 10
3187.957510910673
 20
172.237056629167
 30
0.0
 11
3189.970997337955
 21
167.789056829713
 31
0.0
  0
LINE
  5
258
330
36
100
AcDbEntity
  8
2-0
  6
Continuous
 62
     7
100
AcDbLine
 10
3189.970997337955
 20
167.789056829713
 30
0.0
 11
3192.276324722361
 21
163.485070833046
 31
0.0
  0
LINE
  5
259
330
36
100
AcDbEntity
  8
2-0
  6
Continuous
 62
     7
100
AcDbLine
 10
3192.276324722361
 20
163.485070833046
 30
0.0
 11
3194.863250958615
 21
159.344220382116
 31
0.0
  0
LINE
  5
25A
330
36
100
AcDbEntity
  8
2-0
  6
Continuous
 62
     7
100
AcDbLine
 10
3194.863250958615
 20
159.344220382116
 30
0.0
 11
3197.720282854466
 21
155.384902441501
 31
0.0
  0
LINE
  5
25B
330
36
100
AcDbEntity
  8
2-0
  6
Continuous
 62
     7
100
AcDbLine
 10
3197.720282854466
 20
155.384902441501
 30
0.0
 11
3200.834727192611
 21
151.624707463394
 31
0.0
  0
LINE
  5
25C
330
36
100
AcDbEntity
  8
2-0
  6
Continuous
 62
     7
100
AcDbLine
 10
3200.834727192611
 20
151.624707463394
 30
0.0
 11
3204.192747124114
 21
148.080341236771
 31
0.0
  0
LINE
  5
25D
330
36
100
AcDbEntity
  8
2-0
  6
Continuous
 62
     7
100
AcDbLine
 10
3204.192747124114
 20
148.080341236771
 30
0.0
 11
3207.779423642731
 21
144.767550666935
 31
0.0
  0
LINE
  5
25E
330
36
100
AcDbEntity
  8
2-0
  6
Continuous
 62
     7
100
AcDbLine
 10
3207.779423642731
 20
144.767550666935
 30
0.0
 11
3211.578821867056
 21
141.701053815184
 31
0.0
  0
LINE
  5
25F
330
36
100
AcDbEntity
  8
2-0
  6
Continuous
 62
     7
100
AcDbLine
 10
3211.578821867056
 20
141.701053815184
 30
0.0
 11
3215.574061835981
 21
138.89447450943
 31
0.0
  0
LINE
  5
260
330
36
100
AcDbEntity
  8
2-0
  6
Continuous
 62
     7
100
AcDbLine
 10
3215.574061835981
 20
138.89447450943
 30
0.0
 11
3219.747393502979
 21
136.360281816278
 31
0.0
  0
LINE
  5
261
330
36
100
AcDbEntity
  8
2-0
  6
Continuous
 62
     7
100
AcDbLine
 10
3219.747393502979
 20
136.360281816278
 30
0.0
 11
3224.08027559597
 21
134.109734643471
 31
0.0
  0
LINE
  5
262
330
36
100
AcDbEntity
  8
2-0
  6
Continuous
 62
     7
100
AcDbLine
 10
3224.08027559597
 20
134.109734643471
 30
0.0
 11
3228.553457992469
 21
132.152831718833
 31
0.0
  0
LINE
  5
263
330
36
100
AcDbEntity
  8
2-0
  6
Continuous
 62
     7
100
AcDbLine
 10
3228.553457992469
 20
132.152831718833
 30
0.0
 11
3233.147067243994
 21
130.498267167934
 31
0.0
  0
LINE
  5
264
330
36
100
AcDbEntity
  8
2-0
  6
Continuous
 62
     7
100
AcDbLine
 10
3233.147067243994
 20
130.498267167934
 30
0.0
 11
3237.840694869806
 21
129.153391887839
 31
0.0
  0
LINE
  5
265
330
36
100
AcDbEntity
  8
2-0
  6
Continuous
 62
     7
100
AcDbLine
 10
3237.840694869806
 20
129.153391887839
 30
0.0
 11
3242.613488027671
 21
128.124180888558
 31
0.0
  0
LINE
  5
266
330
36
100
AcDbEntity
  8
2-0
  6
Continuous
 62
     7
100
AcDbLine
 10
3242.613488027671
 20
128.124180888558
 30
0.0
 11
3247.444242158837
 21
127.415206747275
 31
0.0
  0
LINE
  5
267
330
36
100
AcDbEntity
  8
2-0
  6
Continuous
 62
     7
100
AcDbLine
 10
3247.444242158837
 20
127.415206747275
 30
0.0
 11
3252.311495195627
 21
127.02961929331
 31
0.0
  0
LINE
  5
268
330
36
100
AcDbEntity
  8
2-0
  6
Continuous
 62
     7
100
AcDbLine
 10
3252.311495195627
 20
127.02961929331
 30
0.0
 11
3257.193622913074
 21
126.969131614064
 31
0.0
  0
LINE
  5
269
330
36
100
AcDbEntity
  8
2-0
  6
Continuous
 62
     7
100
AcDbLine
 10
3257.193622913074
 20
126.969131614064
 30
0.0
 11
3262.068935000999
 21
127.234012444113
 31
0.0
  0
LINE
  5
26A
330
36
100
AcDbEntity
  8
2-0
  6
Continuous
 62
     7
100
AcDbLine
 10
3262.068935000999
 20
127.234012444113
 30
0.0
 11
3266.915771429694
 21
127.823084971277
 31
0.0
  0
LINE
  5
26B
330
36
100
AcDbEntity
  8
2-0
  6
Continuous
 62
     7
100
AcDbLine
 10
3266.915771429694
 20
127.823084971277
 30
0.0
 11
3271.712598681073
 21
128.733732064957
 31
0.0
  0
LINE
  5
26C
330
36
100
AcDbEntity
  8
2-0
  6
Continuous
 62
     7
100
AcDbLine
 10
3271.712598681073
 20
128.733732064957
 30
0.0
 11
3276.438105417748
 21
129.961907903524
 31
0.0
  0
LINE
  5
26D
330
36
100
AcDbEntity
  8
2-0
  6
Continuous
 62
     7
100
AcDbLine
 10
3276.438105417748
 20
129.961907903524
 30
0.0
 11
3281.071297165015
 21
131.502155949083
 31
0.0
  0
LINE
  5
26E
330
36
100
AcDbEntity
  8
2-0
  6
Continuous
 62
     7
100
AcDbLine
 10
3281.071297165015
 20
131.502155949083
 30
0.0
 11
3285.591589585077
 21
133.347633189779
 31
0.0
  0
LINE
  5
26F
330
36
100
AcDbEntity
  8
2-0
  6
Continuous
 62
     7
100
AcDbLine
 10
3285.591589585077
 20
133.347633189779
 30
0.0
 11
3289.978899929109
 21
135.490140541912
 31
0.0
  0
LINE
  5
270
330
36
100
AcDbEntity
  8
2-0
  6
Continuous
 62
     7
100
AcDbLine
 10
3289.978899929109
 20
135.490140541912
 30
0.0
 11
3294.213736260865
 21
137.920159276825
 31
0.0
  0
LINE
  5
271
330
36
100
AcDbEntity
  8
2-0
  6
Continuous
 62
     7
100
AcDbLine
 10
3294.213736260865
 20
137.920159276825
 30
0.0
 11
3298.27728405543
 21
140.626893310689
 31
0.0
  0
LINE
  5
272
330
36
100
AcDbEntity
  8
2-0
  6
Continuous
 62
     7
100
AcDbLine
 10
3298.27728405543
 20
140.626893310689
 30
0.0
 11
3302.151489788361
 21
143.598317169333
 31
0.0
  0
LINE
  5
273
330
36
100
AcDbEntity
  8
2-0
  6
Continuous
 62
     7
100
AcDbLine
 10
3302.151489788361
 20
143.598317169333
 30
0.0
 11
3305.819141143859
 21
146.821229415006
 31
0.0
  0
LINE
  5
274
330
36
100
AcDbEntity
  8
2-0
  6
Continuous
 62
     7
100
AcDbLine
 10
3305.819141143859
 20
146.821229415006
 30
0.0
 11
3309.263943485625
 21
150.281311297701
 31
0.0
  0
LINE
  5
275
330
36
100
AcDbEntity
  8
2-0
  6
Continuous
 62
     7
100
AcDbLine
 10
3309.263943485625
 20
150.281311297701
 30
0.0
 11
3312.470592250646
 21
153.963190370482
 31
0.0
  0
LINE
  5
276
330
36
100
AcDbEntity
  8
2-0
  6
Continuous
 62
     7
100
AcDbLine
 10
3312.470592250646
 20
153.963190370482
 30
0.0
 11
3315.424840944285
 21
157.8505087861669
 31
0.0
  0
LINE
  5
277
330
36
100
AcDbEntity
  8
2-0
  6
Continuous
 62
     7
100
AcDbLine
 10
3315.424840944285
 20
157.8505087861669
 30
0.0
 11
3318.113564434587
 21
161.92599597195
 31
0.0
  0
LINE
  5
278
330
36
100
AcDbEntity
  8
2-0
  6
Continuous
 62
     7
100
AcDbLine
 10
3318.113564434587
 20
161.92599597195
 30
0.0
 11
3320.524817264602
 21
166.171545359077
 31
0.0
  0
LINE
  5
279
330
36
100
AcDbEntity
  8
2-0
  6
Continuous
 62
     7
100
AcDbLine
 10
3320.524817264602
 20
166.171545359077
 30
0.0
 11
3322.647886723636
 21
170.568294826684
 31
0.0
  0
LINE
  5
27A
330
36
100
AcDbEntity
  8
2-0
  6
Continuous
 62
     7
100
AcDbLine
 10
3322.647886723636
 20
170.568294826684
 30
0.0
 11
3324.473340441675
 21
175.096710502402
 31
0.0
  0
LINE
  5
27B
330
36
100
AcDbEntity
  8
2-0
  6
Continuous
 62
     7
100
AcDbLine
 10
3324.473340441675
 20
175.096710502402
 30
0.0
 11
3325.9930682955
 21
179.736673547416
 31
0.0
  0
LINE
  5
27C
330
36
100
AcDbEntity
  8
2-0
  6
Continuous
 62
     7
100
AcDbLine
 10
3325.9930682955
 20
179.736673547416
 30
0.0
 11
3327.200318440332
 21
184.467569540417
 31
0.0
  0
LINE
  5
27D
330
36
100
AcDbEntity
  8
2-0
  6
Continuous
 62
     7
100
AcDbLine
 10
3327.200318440332
 20
184.467569540417
 30
0.0
 11
3328.089727306921
 21
189.26838006332
 31
0.0
  0
LINE
  5
27E
330
36
100
AcDbEntity
  8
2-0
  6
Continuous
 62
     7
100
AcDbLine
 10
3328.089727306921
 20
189.26838006332
 30
0.0
 11
3328.657343430802
 21
194.117776081867
 31
0.0
  0
LINE
  5
27F
330
36
100
AcDbEntity
  8
2-0
  6
Continuous
 62
     7
100
AcDbLine
 10
3328.657343430802
 20
194.117776081867
 30
0.0
 11
3328.900645007855
 21
198.994212706226
 31
0.0
  0
LINE
  5
280
330
36
100
AcDbEntity
  8
2-0
  6
Continuous
 62
     7
100
AcDbLine
 10
3328.900645007855
 20
198.994212706226
 30
0.0
 11
3328.910638629113
 21
200.204166274283
 31
0.0
  0
LINE
  5
281
330
36
100
AcDbEntity
  8
2-0
  6
Continuous
 62
     7
100
AcDbLine
 10
3329.119145289708
 20
200.204166274283
 30
0.0
 11
3328.95596216997
 21
205.097846586367
 31
0.0
  0
LINE
  5
282
330
36
100
AcDbEntity
  8
2-0
  6
Continuous
 62
     7
100
AcDbLine
 10
3328.95596216997
 20
205.097846586367
 30
0.0
 11
3328.467137800486
 21
209.969785262422
 31
0.0
  0
LINE
  5
283
330
36
100
AcDbEntity
  8
2-0
  6
Continuous
 62
     7
100
AcDbLine
 10
3328.467137800486
 20
209.969785262422
 30
0.0
 11
3327.654843929484
 21
214.798337260131
 31
0.0
  0
LINE
  5
284
330
36
100
AcDbEntity
  8
2-0
  6
Continuous
 62
     7
100
AcDbLine
 10
3327.654843929484
 20
214.798337260131
 30
0.0
 11
3326.522689415032
 21
219.562050295448
 31
0.0
  0
LINE
  5
285
330
36
100
AcDbEntity
  8
2-0
  6
Continuous
 62
     7
100
AcDbLine
 10
3326.522689415032
 20
219.562050295448
 30
0.0
 11
3325.075704191622
 21
224.239760150781
 31
0.0
  0
LINE
  5
286
330
36
100
AcDbEntity
  8
2-0
  6
Continuous
 62
     7
100
AcDbLine
 10
3325.075704191622
 20
224.239760150781
 30
0.0
 11
3323.320316923172
 21
228.810684703343
 31
0.0
  0
LINE
  5
287
330
36
100
AcDbEntity
  8
2-0
  6
Continuous
 62
     7
100
AcDbLine
 10
3323.320316923172
 20
228.810684703343
 30
0.0
 11
3321.264326441781
 21
233.254516255941
 31
0.0
  0
LINE
  5
288
330
36
100
AcDbEntity
  8
2-0
  6
Continuous
 62
     7
100
AcDbLine
 10
3321.264326441781
 20
233.254516255941
 30
0.0
 11
3318.916867099073
 21
237.551511759986
 31
0.0
  0
LINE
  5
289
330
36
100
AcDbEntity
  8
2-0
  6
Continuous
 62
     7
100
AcDbLine
 10
3318.916867099073
 20
237.551511759986
 30
0.0
 11
3316.288368184125
 21
241.682580529877
 31
0.0
  0
LINE
  5
28A
330
36
100
AcDbEntity
  8
2-0
  6
Continuous
 62
     7
100
AcDbLine
 10
3316.288368184125
 20
241.682580529877
 30
0.0
 11
3313.390507588233
 21
245.629369059077
 31
0.0
  0
LINE
  5
28B
330
36
100
AcDbEntity
  8
2-0
  6
Continuous
 62
     7
100
AcDbLine
 10
3313.390507588233
 20
245.629369059077
 30
0.0
 11
3310.236159922386
 21
249.374342561041
 31
0.0
  0
LINE
  5
28C
330
36
100
AcDbEntity
  8
2-0
  6
Continuous
 62
     7
100
AcDbLine
 10
3310.236159922386
 20
249.374342561041
 30
0.0
 11
3306.839339317971
 21
252.900862872747
 31
0.0
  0
LINE
  5
28D
330
36
100
AcDbEntity
  8
2-0
  6
Continuous
 62
     7
100
AcDbLine
 10
3306.839339317971
 20
252.900862872747
 30
0.0
 11
3303.215137164807
 21
256.193262374699
 31
0.0
  0
LINE
  5
28E
330
36
100
AcDbEntity
  8
2-0
  6
Continuous
 62
     7
100
AcDbLine
 10
3303.215137164807
 20
256.193262374699
 30
0.0
 11
3299.379655063138
 21
259.236913599006
 31
0.0
  0
LINE
  5
28F
330
36
100
AcDbEntity
  8
2-0
  6
Continuous
 62
     7
100
AcDbLine
 10
3299.379655063138
 20
259.236913599006
 30
0.0
 11
3295.349933287467
 21
262.018294216278
 31
0.0
  0
LINE
  5
290
330
36
100
AcDbEntity
  8
2-0
  6
Continuous
 62
     7
100
AcDbLine
 10
3295.349933287467
 20
262.018294216278
 30
0.0
 11
3291.143875080048
 21
264.525047112607
 31
0.0
  0
LINE
  5
291
330
36
100
AcDbEntity
  8
2-0
  6
Continuous
 62
     7
100
AcDbLine
 10
3291.143875080048
 20
264.525047112607
 30
0.0
 11
3286.780167110388
 21
266.746035289741
 31
0.0
  0
LINE
  5
292
330
36
100
AcDbEntity
  8
2-0
  6
Continuous
 62
     7
100
AcDbLine
 10
3286.780167110388
 20
266.746035289741
 30
0.0
 11
3282.278196454134
 21
268.671391344522
 31
0.0
  0
LINE
  5
293
330
36
100
AcDbEntity
  8
2-0
  6
Continuous
 62
     7
100
AcDbLine
 10
3282.278196454134
 20
268.671391344522
 30
0.0
 11
3277.657964460205
 21
270.292561307768
 31
0.0
  0
LINE
  5
294
330
36
100
AcDbEntity
  8
2-0
  6
Continuous
 62
     7
100
AcDbLine
 10
3277.657964460205
 20
270.292561307768
 30
0.0
 11
3272.939997888827
 21
271.602342647841
 31
0.0
  0
LINE
  5
295
330
36
100
AcDbEntity
  8
2-0
  6
Continuous
 62
     7
100
AcDbLine
 10
3272.939997888827
 20
271.602342647841
 30
0.0
 11
3268.145257715265
 21
272.594916270039
 31
0.0
  0
LINE
  5
296
330
36
100
AcDbEntity
  8
2-0
  6
Continuous
 62
     7
100
AcDbLine
 10
3268.145257715265
 20
272.594916270039
 30
0.0
 11
3263.295046004439
 21
273.265872369665
 31
0.0
  0
LINE
  5
297
330
36
100
AcDbEntity
  8
2-0
  6
Continuous
 62
     7
100
AcDbLine
 10
3263.295046004439
 20
273.265872369665
 30
0.0
 11
3258.410911270137
 21
273.612230023901
 31
0.0
  0
LINE
  5
298
330
36
100
AcDbEntity
  8
2-0
  6
Continuous
 62
     7
100
AcDbLine
 10
3258.410911270137
 20
273.612230023901
 30
0.0
 11
3253.514552739309
 21
273.632450435446
 31
0.0
  0
LINE
  5
299
330
36
100
AcDbEntity
  8
2-0
  6
Continuous
 62
     7
100
AcDbLine
 10
3253.514552739309
 20
273.632450435446
 30
0.0
 11
3248.627723946769
 21
273.326443769085
 31
0.0
  0
LINE
  5
29A
330
36
100
AcDbEntity
  8
2-0
  6
Continuous
 62
     7
100
AcDbLine
 10
3248.627723946769
 20
273.326443769085
 30
0.0
 11
3243.772136088625
 21
272.695569550805
 31
0.0
  0
LINE
  5
29B
330
36
100
AcDbEntity
  8
2-0
  6
Continuous
 62
     7
100
AcDbLine
 10
3243.772136088625
 20
272.695569550805
 30
0.0
 11
3238.969361563802
 21
271.742630627698
 31
0.0
  0
LINE
  5
29C
330
36
100
AcDbEntity
  8
2-0
  6
Continuous
 62
     7
100
AcDbLine
 10
3238.969361563802
 20
271.742630627698
 30
0.0
 11
3234.240738132226
 21
270.471860715477
 31
0.0
  0
LINE
  5
29D
330
36
100
AcDbEntity
  8
2-0
  6
Continuous
 62
     7
100
AcDbLine
 10
3234.240738132226
 20
270.471860715477
 30
0.0
 11
3229.607274115448
 21
268.888905588925
 31
0.0
  0
LINE
  5
29E
330
36
100
AcDbEntity
  8
2-0
  6
Continuous
 62
     7
100
AcDbLine
 10
3229.607274115448
 20
268.888905588925
 30
0.0
 11
3225.089555060905
 21
267.000797998859
 31
0.0
  0
LINE
  5
29F
330
36
100
AcDbEntity
  8
2-0
  6
Continuous
 62
     7
100
AcDbLine
 10
3225.089555060905
 20
267.000797998859
 30
0.0
 11
3220.707652284476
 21
264.815926427032
 31
0.0
  0
LINE
  5
2A0
330
36
100
AcDbEntity
  8
2-0
  6
Continuous
 62
     7
100
AcDbLine
 10
3220.707652284476
 20
264.815926427032
 30
0.0
 11
3216.481033697673
 21
262.343997817799
 31
0.0
  0
LINE
  5
2A1
330
36
100
AcDbEntity
  8
2-0
  6
Continuous
 62
     7
100
AcDbLine
 10
3216.481033697673
 20
262.343997817799
 30
0.0
 11
3212.428477315626
 21
259.595994452121
 31
0.0
  0
LINE
  5
2A2
330
36
100
AcDbEntity
  8
2-0
  6
Continuous
 62
     7
100
AcDbLine
 10
3212.428477315626
 20
259.595994452121
 30
0.0
 11
3208.567987830146
 21
256.584125155496
 31
0.0
  0
LINE
  5
2A3
330
36
100
AcDbEntity
  8
2-0
  6
Continuous
 62
     7
100
AcDbLine
 10
3208.567987830146
 20
256.584125155496
 30
0.0
 11
3204.916716618507
 21
253.321771056612
 31
0.0
  0
LINE
  5
2A4
330
36
100
AcDbEntity
  8
2-0
  6
Continuous
 62
     7
100
AcDbLine
 10
3204.916716618507
 20
253.321771056612
 30
0.0
 11
3201.490885543327
 21
249.823426137684
 31
0.0
  0
LINE
  5
2A5
330
36
100
AcDbEntity
  8
2-0
  6
Continuous
 62
     7
100
AcDbLine
 10
3201.490885543327
 20
249.823426137684
 30
0.0
 11
3198.305714882104
 21
246.104632840614
 31
0.0
  0
LINE
  5
2A6
330
36
100
AcDbEntity
  8
2-0
  6
Continuous
 62
     7
100
AcDbLine
 10
3198.305714882104
 20
246.104632840614
 30
0.0
 11
3195.375355706585
 21
242.181913015047
 31
0.0
  0
LINE
  5
2A7
330
36
100
AcDbEntity
  8
2-0
  6
Continuous
 62
     7
100
AcDbLine
 10
3195.375355706585
 20
242.181913015047
 30
0.0
 11
3192.712827012405
 21
238.072694515123
 31
0.0
  0
LINE
  5
2A8
330
36
100
AcDbEntity
  8
2-0
  6
Continuous
 62
     7
100
AcDbLine
 10
3192.712827012405
 20
238.072694515123
 30
0.0
 11
3190.329957878315
 21
233.795233771032
 31
0.0
  0
LINE
  5
2A9
330
36
100
AcDbEntity
  8
2-0
  6
Continuous
 62
     7
100
AcDbLine
 10
3190.329957878315
 20
233.795233771032
 30
0.0
 11
3188.237334911959
 21
229.368534679369
 31
0.0
  0
LINE
  5
2AA
330
36
100
AcDbEntity
  8
2-0
  6
Continuous
 62
     7
100
AcDbLine
 10
3188.237334911959
 20
229.368534679369
 30
0.0
 11
3186.444255215721
 21
224.812264172651
 31
0.0
  0
LINE
  5
2AB
330
36
100
AcDbEntity
  8
2-0
  6
Continuous
 62
     7
100
AcDbLine
 10
3186.444255215721
 20
224.812264172651
 30
0.0
 11
3184.95868508156
 21
220.146664843097
 31
0.0
  0
LINE
  5
2AC
330
36
100
AcDbEntity
  8
2-0
  6
Continuous
 62
     7
100
AcDbLine
 10
3184.95868508156
 20
220.146664843097
 30
0.0
 11
3183.787224598385
 21
215.392465008866
 31
0.0
  0
LINE
  5
2AD
330
36
100
AcDbEntity
  8
2-0
  6
Continuous
 62
     7
100
AcDbLine
 10
3183.787224598385
 20
215.392465008866
 30
0.0
 11
3182.935078329187
 21
210.570786622314
 31
0.0
  0
LINE
  5
2AE
330
36
100
AcDbEntity
  8
2-0
  6
Continuous
 62
     7
100
AcDbLine
 10
3182.935078329187
 20
210.570786622314
 30
0.0
 11
3182.406032188217
 21
205.703051429417
 31
0.0
  0
LINE
  5
2AF
330
36
100
AcDbEntity
  8
2-0
  6
Continuous
 62
     7
100
AcDbLine
 10
3182.406032188217
 20
205.703051429417
 30
0.0
 11
3182.202436620928
 21
200.810885797263
 31
0.0
  0
LINE
  5
2B0
330
36
100
AcDbEntity
  8
2-0
  6
Continuous
 62
     7
100
AcDbLine
 10
3182.202436620928
 20
200.810885797263
 30
0.0
 11
3182.325196161421
 21
195.916024632464
 31
0.0
  0
LINE
  5
2B1
330
36
100
AcDbEntity
  8
2-0
  6
Continuous
 62
     7
100
AcDbLine
 10
3182.325196161421
 20
195.916024632464
 30
0.0
 11
3182.77376541378
 21
191.040214817338
 31
0.0
  0
LINE
  5
2B2
330
36
100
AcDbEntity
  8
2-0
  6
Continuous
 62
     7
100
AcDbLine
 10
3182.77376541378
 20
191.040214817338
 30
0.0
 11
3183.546151475162
 21
186.205118592894
 31
0.0
  0
LINE
  5
2B3
330
36
100
AcDbEntity
  8
2-0
  6
Continuous
 62
     7
100
AcDbLine
 10
3183.546151475162
 20
186.205118592894
 30
0.0
 11
3184.638922789856
 21
181.432217317859
 31
0.0
  0
LINE
  5
2B4
330
36
100
AcDbEntity
  8
2-0
  6
Continuous
 62
     7
100
AcDbLine
 10
3184.638922789856
 20
181.432217317859
 30
0.0
 11
3186.047224394997
 21
176.742716031325
 31
0.0
  0
LINE
  5
2B5
330
36
100
AcDbEntity
  8
2-0
  6
Continuous
 62
     7
100
AcDbLine
 10
3186.047224394997
 20
176.742716031325
 30
0.0
 11
3187.764799490188
 21
172.157449243032
 31
0.0
  0
LINE
  5
2B6
330
36
100
AcDbEntity
  8
2-0
  6
Continuous
 62
     7
100
AcDbLine
 10
3187.764799490188
 20
172.157449243032
 30
0.0
 11
3189.784017235206
 21
167.696788369837
 31
0.0
  0
LINE
  5
2B7
330
36
100
AcDbEntity
  8
2-0
  6
Continuous
 62
     7
100
AcDbLine
 10
3189.784017235206
 20
167.696788369837
 30
0.0
 11
3192.095906652282
 21
163.380551229612
 31
0.0
  0
LINE
  5
2B8
330
36
100
AcDbEntity
  8
2-0
  6
Continuous
 62
     7
100
AcDbLine
 10
3192.095906652282
 20
163.380551229612
 30
0.0
 11
3194.690196482359
 21
159.2279139946719
 31
0.0
  0
LINE
  5
2B9
330
36
100
AcDbEntity
  8
2-0
  6
Continuous
 62
     7
100
AcDbLine
 10
3194.690196482359
 20
159.2279139946719
 30
0.0
 11
3197.555360818215
 21
155.257325995901
 31
0.0
  0
LINE
  5
2BA
330
36
100
AcDbEntity
  8
2-0
  6
Continuous
 62
     7
100
AcDbLine
 10
3197.555360818215
 20
155.257325995901
 30
0.0
 11
3200.678670311759
 21
151.486427756093
 31
0.0
  0
LINE
  5
2BB
330
36
100
AcDbEntity
  8
2-0
  6
Continuous
 62
     7
100
AcDbLine
 10
3200.678670311759
 20
151.486427756093
 30
0.0
 11
3204.046248727951
 21
147.931972616659
 31
0.0
  0
LINE
  5
2BC
330
36
100
AcDbEntity
  8
2-0
  6
Continuous
 62
     7
100
AcDbLine
 10
3204.046248727951
 20
147.931972616659
 30
0.0
 11
3207.643134594126
 21
144.609752305909
 31
0.0
  0
LINE
  5
2BD
330
36
100
AcDbEntity
  8
2-0
  6
Continuous
 62
     7
100
AcDbLine
 10
3207.643134594126
 20
144.609752305909
 30
0.0
 11
3211.453347670801
 21
141.53452677958
 31
0.0
  0
LINE
  5
2BE
330
36
100
AcDbEntity
  8
2-0
  6
Continuous
 62
     7
100
AcDbLine
 10
3211.453347670801
 20
141.53452677958
 30
0.0
 11
3215.459959948662
 21
138.719958645329
 31
0.0
  0
LINE
  5
2BF
330
36
100
AcDbEntity
  8
2-0
  6
Continuous
 62
     7
100
AcDbLine
 10
3215.459959948662
 20
138.719958645329
 30
0.0
 11
3219.645170856301
 21
136.178552462517
 31
0.0
  0
LINE
  5
2C0
330
36
100
AcDbEntity
  8
2-0
  6
Continuous
 62
     7
100
AcDbLine
 10
3219.645170856301
 20
136.178552462517
 30
0.0
 11
3223.990386344564
 21
133.921599186967
 31
0.0
  0
LINE
  5
2C1
330
36
100
AcDbEntity
  8
2-0
  6
Continuous
 62
     7
100
AcDbLine
 10
3223.990386344564
 20
133.921599186967
 30
0.0
 11
3228.476301496173
 21
131.959126007529
 31
0.0
  0
LINE
  5
2C2
330
36
100
AcDbEntity
  8
2-0
  6
Continuous
 62
     7
100
AcDbLine
 10
3228.476301496173
 20
131.959126007529
 30
0.0
 11
3233.082986293583
 21
130.299851797292
 31
0.0
  0
LINE
  5
2C3
330
36
100
AcDbEntity
  8
2-0
  6
Continuous
 62
     7
100
AcDbLine
 10
3233.082986293583
 20
130.299851797292
 30
0.0
 11
3237.789974164037
 21
128.95114837739
 31
0.0
  0
LINE
  5
2C4
330
36
100
AcDbEntity
  8
2-0
  6
Continuous
 62
     7
100
AcDbLine
 10
3237.789974164037
 20
128.95114837739
 30
0.0
 11
3242.576352908423
 21
127.919007765486
 31
0.0
  0
LINE
  5
2C5
330
36
100
AcDbEntity
  8
2-0
  6
Continuous
 62
     7
100
AcDbLine
 10
3242.576352908423
 20
127.919007765486
 30
0.0
 11
3247.420857609969
 21
127.208015554444
 31
0.0
  0
LINE
  5
2C6
330
36
100
AcDbEntity
  8
2-0
  6
Continuous
 62
     7
100
AcDbLine
 10
3247.420857609969
 20
127.208015554444
 30
0.0
 11
3252.301965109977
 21
126.821330539461
 31
0.0
  0
LINE
  5
2C7
330
36
100
AcDbEntity
  8
2-0
  6
Continuous
 62
     7
100
AcDbLine
 10
3252.301965109977
 20
126.821330539461
 30
0.0
 11
3257.197989630893
 21
126.76067068418
 31
0.0
  0
LINE
  5
2C8
330
36
100
AcDbEntity
  8
2-0
  6
Continuous
 62
     7
100
AcDbLine
 10
3257.197989630893
 20
126.76067068418
 30
0.0
 11
3262.087179121841
 21
127.026305488122
 31
0.0
  0
LINE
  5
2C9
330
36
100
AcDbEntity
  8
2-0
  6
Continuous
 62
     7
100
AcDbLine
 10
3262.087179121841
 20
127.026305488122
 30
0.0
 11
3266.947811898604
 21
127.61705478935
 31
0.0
  0
LINE
  5
2CA
330
36
100
AcDbEntity
  8
2-0
  6
Continuous
 62
     7
100
AcDbLine
 10
3266.947811898604
 20
127.61705478935
 30
0.0
 11
3271.7582931487
 21
128.5302940077
 31
0.0
  0
LINE
  5
2CB
330
36
100
AcDbEntity
  8
2-0
  6
Continuous
 62
     7
100
AcDbLine
 10
3271.7582931487
 20
128.5302940077
 30
0.0
 11
3276.497250872775
 21
129.76196580525
 31
0.0
  0
LINE
  5
2CC
330
36
100
AcDbEntity
  8
2-0
  6
Continuous
 62
     7
100
AcDbLine
 10
3276.497250872775
 20
129.76196580525
 30
0.0
 11
3281.1436308361
 21
131.306598112268
 31
0.0
  0
LINE
  5
2CD
330
36
100
AcDbEntity
  8
2-0
  6
Continuous
 62
     7
100
AcDbLine
 10
3281.1436308361
 20
131.306598112268
 30
0.0
 11
3285.676790108285
 21
133.157328438504
 31
0.0
  0
LINE
  5
2CE
330
36
100
AcDbEntity
  8
2-0
  6
Continuous
 62
     7
100
AcDbLine
 10
3285.676790108285
 20
133.157328438504
 30
0.0
 11
3290.076588775674
 21
135.305934361861
 31
0.0
  0
LINE
  5
2CF
330
36
100
AcDbEntity
  8
2-0
  6
Continuous
 62
     7
100
AcDbLine
 10
3290.076588775674
 20
135.305934361861
 30
0.0
 11
3294.323479418919
 21
137.742870058955
 31
0.0
  0
LINE
  5
2D0
330
36
100
AcDbEntity
  8
2-0
  6
Continuous
 62
     7
100
AcDbLine
 10
3294.323479418919
 20
137.742870058955
 30
0.0
 11
3298.398593958224
 21
140.457308715289
 31
0.0
  0
LINE
  5
2D1
330
36
100
AcDbEntity
  8
2-0
  6
Continuous
 62
     7
100
AcDbLine
 10
3298.398593958224
 20
140.457308715289
 30
0.0
 11
3302.283827480427
 21
143.437190626606
 31
0.0
  0
LINE
  5
2D2
330
36
100
AcDbEntity
  8
2-0
  6
Continuous
 62
     7
100
AcDbLine
 10
3302.283827480427
 20
143.437190626606
 30
0.0
 11
3305.961918675485
 21
146.66927677773
 31
0.0
  0
LINE
  5
2D3
330
36
100
AcDbEntity
  8
2-0
  6
Continuous
 62
     7
100
AcDbLine
 10
3305.961918675485
 20
146.66927677773
 30
0.0
 11
3309.416526524994
 21
150.13920766084
 31
0.0
  0
LINE
  5
2D4
330
36
100
AcDbEntity
  8
2-0
  6
Continuous
 62
     7
100
AcDbLine
 10
3309.416526524994
 20
150.13920766084
 30
0.0
 11
3312.632302902045
 21
153.831567071874
 31
0.0
  0
LINE
  5
2D5
330
36
100
AcDbEntity
  8
2-0
  6
Continuous
 62
     7
100
AcDbLine
 10
3312.632302902045
 20
153.831567071874
 30
0.0
 11
3315.594960759858
 21
157.729950601619
 31
0.0
  0
LINE
  5
2D6
330
36
100
AcDbEntity
  8
2-0
  6
Continuous
 62
     7
100
AcDbLine
 10
3315.594960759858
 20
157.729950601619
 30
0.0
 11
3318.291337606258
 21
161.817038517195
 31
0.0
  0
LINE
  5
2D7
330
36
100
AcDbEntity
  8
2-0
  6
Continuous
 62
     7
100
AcDbLine
 10
3318.291337606258
 20
161.817038517195
 30
0.0
 11
3320.709453981971
 21
166.074672710143
 31
0.0
  0
LINE
  5
2D8
330
36
100
AcDbEntity
  8
2-0
  6
Continuous
 62
     7
100
AcDbLine
 10
3320.709453981971
 20
166.074672710143
 30
0.0
 11
3322.838566682956
 21
170.483937369239
 31
0.0
  0
LINE
  5
2D9
330
36
100
AcDbEntity
  8
2-0
  6
Continuous
 62
     7
100
AcDbLine
 10
3322.838566682956
 20
170.483937369239
 30
0.0
 11
3324.669216490288
 21
175.025243019639
 31
0.0
  0
LINE
  5
2DA
330
36
100
AcDbEntity
  8
2-0
  6
Continuous
 62
     7
100
AcDbLine
 10
3324.669216490288
 20
175.025243019639
 30
0.0
 11
3326.193270195572
 21
179.678413554968
 31
0.0
  0
LINE
  5
2DB
330
36
100
AcDbEntity
  8
2-0
  6
Continuous
 62
     7
100
AcDbLine
 10
3326.193270195572
 20
179.678413554968
 30
0.0
 11
3327.403956735142
 21
184.422775875697
 31
0.0
  0
LINE
  5
2DC
330
36
100
AcDbEntity
  8
2-0
  6
Continuous
 62
     7
100
AcDbLine
 10
3327.403956735142
 20
184.422775875697
 30
0.0
 11
3328.29589727254
 21
189.237251735559
 31
0.0
  0
LINE
  5
2DD
330
36
100
AcDbEntity
  8
2-0
  6
Continuous
 62
     7
100
AcDbLine
 10
3328.29589727254
 20
189.237251735559
 30
0.0
 11
3328.865129095595
 21
194.100451387955
 31
0.0
  0
LINE
  5
2DE
330
36
100
AcDbEntity
  8
2-0
  6
Continuous
 62
     7
100
AcDbLine
 10
3328.865129095595
 20
194.100451387955
 30
0.0
 11
3329.109123221962
 21
198.990768616289
 31
0.0
  0
LINE
  5
2DF
330
36
100
AcDbEntity
  8
2-0
  6
Continuous
 62
     7
100
AcDbLine
 10
3329.109123221962
 20
198.990768616289
 30
0.0
 11
3329.119145289708
 21
200.204166274283
 31
0.0
  0
LINE
  5
2E0
330
36
100
AcDbEntity
  8
2-0
  6
Continuous
 62
     7
100
AcDbLine
 10
3328.702131968518
 20
200.204166274283
 30
0.0
 11
3328.539875201879
 21
205.070066286962
 31
0.0
  0
LINE
  5
2E1
330
36
100
AcDbEntity
  8
2-0
  6
Continuous
 62
     7
100
AcDbLine
 10
3328.539875201879
 20
205.070066286962
 30
0.0
 11
3328.053825776093
 21
209.914348085888
 31
0.0
  0
LINE
  5
2E2
330
36
100
AcDbEntity
  8
2-0
  6
Continuous
 62
     7
100
AcDbLine
 10
3328.053825776093
 20
209.914348085888
 30
0.0
 11
3327.246143110871
 21
214.715489502677
 31
0.0
  0
LINE
  5
2E3
330
36
100
AcDbEntity
  8
2-0
  6
Continuous
 62
     7
100
AcDbLine
 10
3327.246143110871
 20
214.715489502677
 30
0.0
 11
3326.120415577623
 21
219.452160032976
 31
0.0
  0
LINE
  5
2E4
330
36
100
AcDbEntity
  8
2-0
  6
Continuous
 62
     7
100
AcDbLine
 10
3326.120415577623
 20
219.452160032976
 30
0.0
 11
3324.681644557057
 21
224.103315603594
 31
0.0
  0
LINE
  5
2E5
330
36
100
AcDbEntity
  8
2-0
  6
Continuous
 62
     7
100
AcDbLine
 10
3324.681644557057
 20
224.103315603594
 30
0.0
 11
3322.936222219045
 21
228.648292067084
 31
0.0
  0
LINE
  5
2E6
330
36
100
AcDbEntity
  8
2-0
  6
Continuous
 62
     7
100
AcDbLine
 10
3322.936222219045
 20
228.648292067084
 30
0.0
 11
3320.891903123503
 21
233.066897008388
 31
0.0
  0
LINE
  5
2E7
330
36
100
AcDbEntity
  8
2-0
  6
Continuous
 62
     7
100
AcDbLine
 10
3320.891903123503
 20
233.066897008388
 30
0.0
 11
3318.55776976844
 21
237.339499455668
 31
0.0
  0
LINE
  5
2E8
330
36
100
AcDbEntity
  8
2-0
  6
Continuous
 62
     7
100
AcDbLine
 10
3318.55776976844
 20
237.339499455668
 30
0.0
 11
3315.944192238256
 21
241.447117096762
 31
0.0
  0
LINE
  5
2E9
330
36
100
AcDbEntity
  8
2-0
  6
Continuous
 62
     7
100
AcDbLine
 10
3315.944192238256
 20
241.447117096762
 30
0.0
 11
3313.062782131535
 21
245.371500613775
 31
0.0
  0
LINE
  5
2EA
330
36
100
AcDbEntity
  8
2-0
  6
Continuous
 62
     7
100
AcDbLine
 10
3313.062782131535
 20
245.371500613775
 30
0.0
 11
3309.92634097306
 21
249.09521476112
 31
0.0
  0
LINE
  5
2EB
330
36
100
AcDbEntity
  8
2-0
  6
Continuous
 62
     7
100
AcDbLine
 10
3309.92634097306
 20
249.09521476112
 30
0.0
 11
3306.548803339211
 21
252.601715826805
 31
0.0
  0
LINE
  5
2EC
330
36
100
AcDbEntity
  8
2-0
  6
Continuous
 62
     7
100
AcDbLine
 10
3306.548803339211
 20
252.601715826805
 30
0.0
 11
3302.945174949452
 21
255.875425132812
 31
0.0
  0
LINE
  5
2ED
330
36
100
AcDbEntity
  8
2-0
  6
Continuous
 62
     7
100
AcDbLine
 10
3302.945174949452
 20
255.875425132812
 30
0.0
 11
3299.131465998939
 21
258.901798248027
 31
0.0
  0
LINE
  5
2EE
330
36
100
AcDbEntity
  8
2-0
  6
Continuous
 62
     7
100
AcDbLine
 10
3299.131465998939
 20
258.901798248027
 30
0.0
 11
3295.124620028449
 21
261.667389606218
 31
0.0
  0
LINE
  5
2EF
330
36
100
AcDbEntity
  8
2-0
  6
Continuous
 62
     7
100
AcDbLine
 10
3295.124620028449
 20
261.667389606218
 30
0.0
 11
3290.942438647646
 21
264.159912241976
 31
0.0
  0
LINE
  5
2F0
330
36
100
AcDbEntity
  8
2-0
  6
Continuous
 62
     7
100
AcDbLine
 10
3290.942438647646
 20
264.159912241976
 30
0.0
 11
3286.603502446098
 21
266.36829237923
 31
0.0
  0
LINE
  5
2F1
330
36
100
AcDbEntity
  8
2-0
  6
Continuous
 62
     7
100
AcDbLine
 10
3286.603502446098
 20
266.36829237923
 30
0.0
 11
3282.127088443481
 21
268.282718629804
 31
0.0
  0
LINE
  5
2F2
330
36
100
AcDbEntity
  8
2-0
  6
Continuous
 62
     7
100
AcDbLine
 10
3282.127088443481
 20
268.282718629804
 30
0.0
 11
3277.533084445646
 21
269.894685583435
 31
0.0
  0
LINE
  5
2F3
330
36
100
AcDbEntity
  8
2-0
  6
Continuous
 62
     7
100
AcDbLine
 10
3277.533084445646
 20
269.894685583435
 30
0.0
 11
3272.841900687114
 21
271.197031595603
 31
0.0
  0
LINE
  5
2F4
330
36
100
AcDbEntity
  8
2-0
  6
Continuous
 62
     7
100
AcDbLine
 10
3272.841900687114
 20
271.197031595603
 30
0.0
 11
3268.07437915251
 21
272.18397060527
 31
0.0
  0
LINE
  5
2F5
330
36
100
AcDbEntity
  8
2-0
  6
Continuous
 62
     7
100
AcDbLine
 10
3268.07437915251
 20
272.18397060527
 30
0.0
 11
3263.251700979822
 21
272.851117841189
 31
0.0
  0
LINE
  5
2F6
330
36
100
AcDbEntity
  8
2-0
  6
Continuous
 62
     7
100
AcDbLine
 10
3263.251700979822
 20
272.851117841189
 30
0.0
 11
3258.395292356871
 21
273.195509302556
 31
0.0
  0
LINE
  5
2F7
330
36
100
AcDbEntity
  8
2-0
  6
Continuous
 62
     7
100
AcDbLine
 10
3258.395292356871
 20
273.195509302556
 30
0.0
 11
3253.526729329081
 21
273.215614927468
 31
0.0
  0
LINE
  5
2F8
330
36
100
AcDbEntity
  8
2-0
  6
Continuous
 62
     7
100
AcDbLine
 10
3253.526729329081
 20
273.215614927468
 30
0.0
 11
3248.667641941443
 21
272.911345390684
 31
0.0
  0
LINE
  5
2F9
330
36
100
AcDbEntity
  8
2-0
  6
Continuous
 62
     7
100
AcDbLine
 10
3248.667641941443
 20
272.911345390684
 30
0.0
 11
3243.839618140589
 21
272.284052500474
 31
0.0
  0
LINE
  5
2FA
330
36
100
AcDbEntity
  8
2-0
  6
Continuous
 62
     7
100
AcDbLine
 10
3243.839618140589
 20
272.284052500474
 30
0.0
 11
3239.064107863891
 21
271.336523192813
 31
0.0
  0
LINE
  5
2FB
330
36
100
AcDbEntity
  8
2-0
  6
Continuous
 62
     7
100
AcDbLine
 10
3239.064107863891
 20
271.336523192813
 30
0.0
 11
3234.362327741711
 21
270.072967149579
 31
0.0
  0
LINE
  5
2FC
330
36
100
AcDbEntity
  8
2-0
  6
Continuous
 62
     7
100
AcDbLine
 10
3234.362327741711
 20
270.072967149579
 30
0.0
 11
3229.755166836183
 21
268.498998095789
 31
0.0
  0
LINE
  5
2FD
330
36
100
AcDbEntity
  8
2-0
  6
Continuous
 62
     7
100
AcDbLine
 10
3229.755166836183
 20
268.498998095789
 30
0.0
 11
3225.263093835316
 21
266.621608858949
 31
0.0
  0
LINE
  5
2FE
330
36
100
AcDbEntity
  8
2-0
  6
Continuous
 62
     7
100
AcDbLine
 10
3225.263093835316
 20
266.621608858949
 30
0.0
 11
3220.906066114741
 21
264.449140301327
 31
0.0
  0
LINE
  5
2FF
330
36
100
AcDbEntity
  8
2-0
  6
Continuous
 62
     7
100
AcDbLine
 10
3220.906066114741
 20
264.449140301327
 30
0.0
 11
3216.703441071104
 21
261.991244263185
 31
0.0
  0
LINE
  5
300
330
36
100
AcDbEntity
  8
2-0
  6
Continuous
 62
     7
100
AcDbLine
 10
3216.703441071104
 20
261.991244263185
 30
0.0
 11
3212.673890121056
 21
259.258840681594
 31
0.0
  0
LINE
  5
301
330
36
100
AcDbEntity
  8
2-0
  6
Continuous
 62
     7
100
AcDbLine
 10
3212.673890121056
 20
259.258840681594
 30
0.0
 11
3208.835315747909
 21
256.264069075356
 31
0.0
  0
LINE
  5
302
330
36
100
AcDbEntity
  8
2-0
  6
Continuous
 62
     7
100
AcDbLine
 10
3208.835315747909
 20
256.264069075356
 30
0.0
 11
3205.204771964503
 21
253.020234611562
 31
0.0
  0
LINE
  5
303
330
36
100
AcDbEntity
  8
2-0
  6
Continuous
 62
     7
100
AcDbLine
 10
3205.204771964503
 20
253.020234611562
 30
0.0
 11
3201.79838854567
 21
249.541748993421
 31
0.0
  0
LINE
  5
304
330
36
100
AcDbEntity
  8
2-0
  6
Continuous
 62
     7
100
AcDbLine
 10
3201.79838854567
 20
249.541748993421
 30
0.0
 11
3198.631299366885
 21
245.844066431959
 31
0.0
  0
LINE
  5
305
330
36
100
AcDbEntity
  8
2-0
  6
Continuous
 62
     7
100
AcDbLine
 10
3198.631299366885
 20
245.844066431959
 30
0.0
 11
3195.717575167512
 21
241.943614986074
 31
0.0
  0
LINE
  5
306
330
36
100
AcDbEntity
  8
2-0
  6
Continuous
 62
     7
100
AcDbLine
 10
3195.717575167512
 20
241.943614986074
 30
0.0
 11
3193.070161037338
 21
237.857723575982
 31
0.0
  0
LINE
  5
307
330
36
100
AcDbEntity
  8
2-0
  6
Continuous
 62
     7
100
AcDbLine
 10
3193.070161037338
 20
237.857723575982
 30
0.0
 11
3190.700818904147
 21
233.604544994309
 31
0.0
  0
LINE
  5
308
330
36
100
AcDbEntity
  8
2-0
  6
Continuous
 62
     7
100
AcDbLine
 10
3190.700818904147
 20
233.604544994309
 30
0.0
 11
3188.620075277848
 21
229.202975256894
 31
0.0
  0
LINE
  5
309
330
36
100
AcDbEntity
  8
2-0
  6
Continuous
 62
     7
100
AcDbLine
 10
3188.620075277848
 20
229.202975256894
 30
0.0
 11
3186.837174483303
 21
224.672569651595
 31
0.0
  0
LINE
  5
30A
330
36
100
AcDbEntity
  8
2-0
  6
Continuous
 62
     7
100
AcDbLine
 10
3186.837174483303
 20
224.672569651595
 30
0.0
 11
3185.360037589664
 21
220.033455858082
 31
0.0
  0
LINE
  5
30B
330
36
100
AcDbEntity
  8
2-0
  6
Continuous
 62
     7
100
AcDbLine
 10
3185.360037589664
 20
220.033455858082
 30
0.0
 11
3184.195227218652
 21
215.306244524611
 31
0.0
  0
LINE
  5
30C
330
36
100
AcDbEntity
  8
2-0
  6
Continuous
 62
     7
100
AcDbLine
 10
3184.195227218652
 20
215.306244524611
 30
0.0
 11
3183.347918388147
 21
210.511937699067
 31
0.0
  0
LINE
  5
30D
330
36
100
AcDbEntity
  8
2-0
  6
Continuous
 62
     7
100
AcDbLine
 10
3183.347918388147
 20
210.511937699067
 30
0.0
 11
3182.821875520636
 21
205.671835521091
 31
0.0
  0
LINE
  5
30E
330
36
100
AcDbEntity
  8
2-0
  6
Continuous
 62
     7
100
AcDbLine
 10
3182.821875520636
 20
205.671835521091
 30
0.0
 11
3182.619435718631
 21
200.807441589851
 31
0.0
  0
LINE
  5
30F
330
36
100
AcDbEntity
  8
2-0
  6
Continuous
 62
     7
100
AcDbLine
 10
3182.619435718631
 20
200.807441589851
 30
0.0
 11
3182.741498381401
 21
195.940367427886
 31
0.0
  0
LINE
  5
310
330
36
100
AcDbEntity
  8
2-0
  6
Continuous
 62
     7
100
AcDbLine
 10
3182.741498381401
 20
195.940367427886
 30
0.0
 11
3183.18752120912
 21
191.092236465457
 31
0.0
  0
LINE
  5
311
330
36
100
AcDbEntity
  8
2-0
  6
Continuous
 62
     7
100
AcDbLine
 10
3183.18752120912
 20
191.092236465457
 30
0.0
 11
3183.955522612193
 21
186.284587972005
 31
0.0
  0
LINE
  5
312
330
36
100
AcDbEntity
  8
2-0
  6
Continuous
 62
     7
100
AcDbLine
 10
3183.955522612193
 20
186.284587972005
 30
0.0
 11
3185.042090515065
 21
181.538781361516
 31
0.0
  0
LINE
  5
313
330
36
100
AcDbEntity
  8
2-0
  6
Continuous
 62
     7
100
AcDbLine
 10
3185.042090515065
 20
181.538781361516
 30
0.0
 11
3186.442397515378
 21
176.875901296944
 31
0.0
  0
LINE
  5
314
330
36
100
AcDbEntity
  8
2-0
  6
Continuous
 62
     7
100
AcDbLine
 10
3186.442397515378
 20
176.875901296944
 30
0.0
 11
3188.150222331158
 21
172.316664015301
 31
0.0
  0
LINE
  5
315
330
36
100
AcDbEntity
  8
2-0
  6
Continuous
 62
     7
100
AcDbLine
 10
3188.150222331158
 20
172.316664015301
 30
0.0
 11
3190.157977440706
 21
167.88132528959
 31
0.0
  0
LINE
  5
316
330
36
100
AcDbEntity
  8
2-0
  6
Continuous
 62
     7
100
AcDbLine
 10
3190.157977440706
 20
167.88132528959
 30
0.0
 11
3192.456742792437
 21
163.58959043648
 31
0.0
  0
LINE
  5
317
330
36
100
AcDbEntity
  8
2-0
  6
Continuous
 62
     7
100
AcDbLine
 10
3192.456742792437
 20
163.58959043648
 30
0.0
 11
3195.03630543487
 21
159.46052676956
 31
0.0
  0
LINE
  5
318
330
36
100
AcDbEntity
  8
2-0
  6
Continuous
 62
     7
100
AcDbLine
 10
3195.03630543487
 20
159.46052676956
 30
0.0
 11
3197.885204890715
 21
155.5124788871
 31
0.0
  0
LINE
  5
319
330
36
100
AcDbEntity
  8
2-0
  6
Continuous
 62
     7
100
AcDbLine
 10
3197.885204890715
 20
155.5124788871
 30
0.0
 11
3200.990784073463
 21
151.762987170694
 31
0.0
  0
LINE
  5
31A
330
36
100
AcDbEntity
  8
2-0
  6
Continuous
 62
     7
100
AcDbLine
 10
3200.990784073463
 20
151.762987170694
 30
0.0
 11
3204.339245520278
 21
148.228709856884
 31
0.0
  0
LINE
  5
31B
330
36
100
AcDbEntity
  8
2-0
  6
Continuous
 62
     7
100
AcDbLine
 10
3204.339245520278
 20
148.228709856884
 30
0.0
 11
3207.915712691337
 21
144.925349027962
 31
0.0
  0
LINE
  5
31C
330
36
100
AcDbEntity
  8
2-0
  6
Continuous
 62
     7
100
AcDbLine
 10
3207.915712691337
 20
144.925349027962
 30
0.0
 11
3211.704296063308
 21
141.867580850788
 31
0.0
  0
LINE
  5
31D
330
36
100
AcDbEntity
  8
2-0
  6
Continuous
 62
     7
100
AcDbLine
 10
3211.704296063308
 20
141.867580850788
 30
0.0
 11
3215.6881637233
 21
139.068990373531
 31
0.0
  0
LINE
  5
31E
330
36
100
AcDbEntity
  8
2-0
  6
Continuous
 62
     7
100
AcDbLine
 10
3215.6881637233
 20
139.068990373531
 30
0.0
 11
3219.849616149657
 21
136.54201117004
 31
0.0
  0
LINE
  5
31F
330
36
100
AcDbEntity
  8
2-0
  6
Continuous
 62
     7
100
AcDbLine
 10
3219.849616149657
 20
136.54201117004
 30
0.0
 11
3224.170164847377
 21
134.297870099975
 31
0.0
  0
LINE
  5
320
330
36
100
AcDbEntity
  8
2-0
  6
Continuous
 62
     7
100
AcDbLine
 10
3224.170164847377
 20
134.297870099975
 30
0.0
 11
3228.630614488764
 21
132.346537430138
 31
0.0
  0
LINE
  5
321
330
36
100
AcDbEntity
  8
2-0
  6
Continuous
 62
     7
100
AcDbLine
 10
3228.630614488764
 20
132.346537430138
 30
0.0
 11
3233.211148194405
 21
130.696682538576
 31
0.0
  0
LINE
  5
322
330
36
100
AcDbEntity
  8
2-0
  6
Continuous
 62
     7
100
AcDbLine
 10
3233.211148194405
 20
130.696682538576
 30
0.0
 11
3237.891415575574
 21
129.355635398288
 31
0.0
  0
LINE
  5
323
330
36
100
AcDbEntity
  8
2-0
  6
Continuous
 62
     7
100
AcDbLine
 10
3237.891415575574
 20
129.355635398288
 30
0.0
 11
3242.650623146916
 21
128.32935401163
 31
0.0
  0
LINE
  5
324
330
36
100
AcDbEntity
  8
2-0
  6
Continuous
 62
     7
100
AcDbLine
 10
3242.650623146916
 20
128.32935401163
 30
0.0
 11
3247.467626707705
 21
127.622397940106
 31
0.0
  0
LINE
  5
325
330
36
100
AcDbEntity
  8
2-0
  6
Continuous
 62
     7
100
AcDbLine
 10
3247.467626707705
 20
127.622397940106
 30
0.0
 11
3252.321025281277
 21
127.237908047159
 31
0.0
  0
LINE
  5
326
330
36
100
AcDbEntity
  8
2-0
  6
Continuous
 62
     7
100
AcDbLine
 10
3252.321025281277
 20
127.237908047159
 30
0.0
 11
3257.189256195253
 21
127.177592543948
 31
0.0
  0
LINE
  5
327
330
36
100
AcDbEntity
  8
2-0
  6
Continuous
 62
     7
100
AcDbLine
 10
3257.189256195253
 20
127.177592543948
 30
0.0
 11
3262.050690880157
 21
127.441719400104
 31
0.0
  0
LINE
  5
328
330
36
100
AcDbEntity
  8
2-0
  6
Continuous
 62
     7
100
AcDbLine
 10
3262.050690880157
 20
127.441719400104
 30
0.0
 11
3266.883730960785
 21
128.029115153203
 31
0.0
  0
LINE
  5
329
330
36
100
AcDbEntity
  8
2-0
  6
Continuous
 62
     7
100
AcDbLine
 10
3266.883730960785
 20
128.029115153203
 30
0.0
 11
3271.666904213445
 21
128.937170122215
 31
0.0
  0
LINE
  5
32A
330
36
100
AcDbEntity
  8
2-0
  6
Continuous
 62
     7
100
AcDbLine
 10
3271.666904213445
 20
128.937170122215
 30
0.0
 11
3276.378959962719
 21
130.161850001797
 31
0.0
  0
LINE
  5
32B
330
36
100
AcDbEntity
  8
2-0
  6
Continuous
 62
     7
100
AcDbLine
 10
3276.378959962719
 20
130.161850001797
 30
0.0
 11
3280.998963493932
 21
131.697713785899
 31
0.0
  0
LINE
  5
32C
330
36
100
AcDbEntity
  8
2-0
  6
Continuous
 62
     7
100
AcDbLine
 10
3280.998963493932
 20
131.697713785899
 30
0.0
 11
3285.506389061869
 21
133.537937941053
 31
0.0
  0
LINE
  5
32D
330
36
100
AcDbEntity
  8
2-0
  6
Continuous
 62
     7
100
AcDbLine
 10
3285.506389061869
 20
133.537937941053
 30
0.0
 11
3289.881211082542
 21
135.674346721964
 31
0.0
  0
LINE
  5
32E
330
36
100
AcDbEntity
  8
2-0
  6
Continuous
 62
     7
100
AcDbLine
 10
3289.881211082542
 20
135.674346721964
 30
0.0
 11
3294.103993102812
 21
138.097448494695
 31
0.0
  0
LINE
  5
32F
330
36
100
AcDbEntity
  8
2-0
  6
Continuous
 62
     7
100
AcDbLine
 10
3294.103993102812
 20
138.097448494695
 30
0.0
 11
3298.155974152637
 21
140.796477906088
 31
0.0
  0
LINE
  5
330
330
36
100
AcDbEntity
  8
2-0
  6
Continuous
 62
     7
100
AcDbLine
 10
3298.155974152637
 20
140.796477906088
 30
0.0
 11
3302.019152096294
 21
143.75944371206
 31
0.0
  0
LINE
  5
331
330
36
100
AcDbEntity
  8
2-0
  6
Continuous
 62
     7
100
AcDbLine
 10
3302.019152096294
 20
143.75944371206
 30
0.0
 11
3305.676363612232
 21
146.973182052282
 31
0.0
  0
LINE
  5
332
330
36
100
AcDbEntity
  8
2-0
  6
Continuous
 62
     7
100
AcDbLine
 10
3305.676363612232
 20
146.973182052282
 30
0.0
 11
3309.111360446255
 21
150.423414934562
 31
0.0
  0
LINE
  5
333
330
36
100
AcDbEntity
  8
2-0
  6
Continuous
 62
     7
100
AcDbLine
 10
3309.111360446255
 20
150.423414934562
 30
0.0
 11
3312.308881599247
 21
154.09481366909
 31
0.0
  0
LINE
  5
334
330
36
100
AcDbEntity
  8
2-0
  6
Continuous
 62
     7
100
AcDbLine
 10
3312.308881599247
 20
154.09481366909
 30
0.0
 11
3315.25472112871
 21
157.971066970715
 31
0.0
  0
LINE
  5
335
330
36
100
AcDbEntity
  8
2-0
  6
Continuous
 62
     7
100
AcDbLine
 10
3315.25472112871
 20
157.971066970715
 30
0.0
 11
3317.935791262917
 21
162.034953426705
 31
0.0
  0
LINE
  5
336
330
36
100
AcDbEntity
  8
2-0
  6
Continuous
 62
     7
100
AcDbLine
 10
3317.935791262917
 20
162.034953426705
 30
0.0
 11
3320.340180547233
 21
166.268418008012
 31
0.0
  0
LINE
  5
337
330
36
100
AcDbEntity
  8
2-0
  6
Continuous
 62
     7
100
AcDbLine
 10
3320.340180547233
 20
166.268418008012
 30
0.0
 11
3322.457206764318
 21
170.65265228413
 31
0.0
  0
LINE
  5
338
330
36
100
AcDbEntity
  8
2-0
  6
Continuous
 62
     7
100
AcDbLine
 10
3322.457206764318
 20
170.65265228413
 30
0.0
 11
3324.277464393063
 21
175.168177985165
 31
0.0
  0
LINE
  5
339
330
36
100
AcDbEntity
  8
2-0
  6
Continuous
 62
     7
100
AcDbLine
 10
3324.277464393063
 20
175.168177985165
 30
0.0
 11
3325.792866395428
 21
179.794933539864
 31
0.0
  0
LINE
  5
33A
330
36
100
AcDbEntity
  8
2-0
  6
Continuous
 62
     7
100
AcDbLine
 10
3325.792866395428
 20
179.794933539864
 30
0.0
 11
3326.996680145521
 21
184.512363205137
 31
0.0
  0
LINE
  5
33B
330
36
100
AcDbEntity
  8
2-0
  6
Continuous
 62
     7
100
AcDbLine
 10
3326.996680145521
 20
184.512363205137
 30
0.0
 11
3327.883557341302
 21
189.299508391082
 31
0.0
  0
LINE
  5
33C
330
36
100
AcDbEntity
  8
2-0
  6
Continuous
 62
     7
100
AcDbLine
 10
3327.883557341302
 20
189.299508391082
 30
0.0
 11
3328.449557766009
 21
194.13510077578
 31
0.0
  0
LINE
  5
33D
330
36
100
AcDbEntity
  8
2-0
  6
Continuous
 62
     7
100
AcDbLine
 10
3328.449557766009
 20
194.13510077578
 30
0.0
 11
3328.692166793749
 21
198.997656796163
 31
0.0
  0
LINE
  5
33E
330
36
100
AcDbEntity
  8
2-0
  6
Continuous
 62
     7
100
AcDbLine
 10
3328.692166793749
 20
198.997656796163
 30
0.0
 11
3328.702131968518
 21
200.204166274283
 31
0.0
  0
LINE
  5
33F
330
36
100
AcDbEntity
  8
2-0
  6
Continuous
 62
     7
100
AcDbLine
 10
3328.285118647328
 20
200.204166274283
 30
0.0
 11
3328.123788233788
 21
205.042285987557
 31
0.0
  0
LINE
  5
340
330
36
100
AcDbEntity
  8
2-0
  6
Continuous
 62
     7
100
AcDbLine
 10
3328.123788233788
 20
205.042285987557
 30
0.0
 11
3327.6405137517
 21
209.858910909354
 31
0.0
  0
LINE
  5
341
330
36
100
AcDbEntity
  8
2-0
  6
Continuous
 62
     7
100
AcDbLine
 10
3327.6405137517
 20
209.858910909354
 30
0.0
 11
3326.837442292259
 21
214.632641745224
 31
0.0
  0
LINE
  5
342
330
36
100
AcDbEntity
  8
2-0
  6
Continuous
 62
     7
100
AcDbLine
 10
3326.837442292259
 20
214.632641745224
 30
0.0
 11
3325.718141740214
 21
219.342269770504
 31
0.0
  0
LINE
  5
343
330
36
100
AcDbEntity
  8
2-0
  6
Continuous
 62
     7
100
AcDbLine
 10
3325.718141740214
 20
219.342269770504
 30
0.0
 11
3324.287584922494
 21
223.966871056407
 31
0.0
  0
LINE
  5
344
330
36
100
AcDbEntity
  8
2-0
  6
Continuous
 62
     7
100
AcDbLine
 10
3324.287584922494
 20
223.966871056407
 30
0.0
 11
3322.552127514917
 21
228.485899430826
 31
0.0
  0
LINE
  5
345
330
36
100
AcDbEntity
  8
2-0
  6
Continuous
 62
     7
100
AcDbLine
 10
3322.552127514917
 20
228.485899430826
 30
0.0
 11
3320.519479805224
 21
232.879277760834
 31
0.0
  0
LINE
  5
346
330
36
100
AcDbEntity
  8
2-0
  6
Continuous
 62
     7
100
AcDbLine
 10
3320.519479805224
 20
232.879277760834
 30
0.0
 11
3318.198672437809
 21
237.127487151349
 31
0.0
  0
LINE
  5
347
330
36
100
AcDbEntity
  8
2-0
  6
Continuous
 62
     7
100
AcDbLine
 10
3318.198672437809
 20
237.127487151349
 30
0.0
 11
3315.600016292386
 21
241.211653663647
 31
0.0
  0
LINE
  5
348
330
36
100
AcDbEntity
  8
2-0
  6
Continuous
 62
     7
100
AcDbLine
 10
3315.600016292386
 20
241.211653663647
 30
0.0
 11
3312.735056674837
 21
245.113632168473
 31
0.0
  0
LINE
  5
349
330
36
100
AcDbEntity
  8
2-0
  6
Continuous
 62
     7
100
AcDbLine
 10
3312.735056674837
 20
245.113632168473
 30
0.0
 11
3309.616522023734
 21
248.816086961199
 31
0.0
  0
LINE
  5
34A
330
36
100
AcDbEntity
  8
2-0
  6
Continuous
 62
     7
100
AcDbLine
 10
3309.616522023734
 20
248.816086961199
 30
0.0
 11
3306.25826736045
 21
252.302568780863
 31
0.0
  0
LINE
  5
34B
330
36
100
AcDbEntity
  8
2-0
  6
Continuous
 62
     7
100
AcDbLine
 10
3306.25826736045
 20
252.302568780863
 30
0.0
 11
3302.675212734096
 21
255.557587890925
 31
0.0
  0
LINE
  5
34C
330
36
100
AcDbEntity
  8
2-0
  6
Continuous
 62
     7
100
AcDbLine
 10
3302.675212734096
 20
255.557587890925
 30
0.0
 11
3298.883276934739
 21
258.566682897048
 31
0.0
  0
LINE
  5
34D
330
36
100
AcDbEntity
  8
2-0
  6
Continuous
 62
     7
100
AcDbLine
 10
3298.883276934739
 20
258.566682897048
 30
0.0
 11
3294.899306769434
 21
261.316484996158
 31
0.0
  0
LINE
  5
34E
330
36
100
AcDbEntity
  8
2-0
  6
Continuous
 62
     7
100
AcDbLine
 10
3294.899306769434
 20
261.316484996158
 30
0.0
 11
3290.741002215244
 21
263.794777371345
 31
0.0
  0
LINE
  5
34F
330
36
100
AcDbEntity
  8
2-0
  6
Continuous
 62
     7
100
AcDbLine
 10
3290.741002215244
 20
263.794777371345
 30
0.0
 11
3286.426837781808
 21
265.990549468719
 31
0.0
  0
LINE
  5
350
330
36
100
AcDbEntity
  8
2-0
  6
Continuous
 62
     7
100
AcDbLine
 10
3286.426837781808
 20
265.990549468719
 30
0.0
 11
3281.975980432827
 21
267.894045915086
 31
0.0
  0
LINE
  5
351
330
36
100
AcDbEntity
  8
2-0
  6
Continuous
 62
     7
100
AcDbLine
 10
3281.975980432827
 20
267.894045915086
 30
0.0
 11
3277.408204431086
 21
269.496809859102
 31
0.0
  0
LINE
  5
352
330
36
100
AcDbEntity
  8
2-0
  6
Continuous
 62
     7
100
AcDbLine
 10
3277.408204431086
 20
269.496809859102
 30
0.0
 11
3272.743803485403
 21
270.791720543365
 31
0.0
  0
LINE
  5
353
330
36
100
AcDbEntity
  8
2-0
  6
Continuous
 62
     7
100
AcDbLine
 10
3272.743803485403
 20
270.791720543365
 30
0.0
 11
3268.003500589755
 21
271.773024940502
 31
0.0
  0
LINE
  5
354
330
36
100
AcDbEntity
  8
2-0
  6
Continuous
 62
     7
100
AcDbLine
 10
3268.003500589755
 20
271.773024940502
 30
0.0
 11
3263.208355955204
 21
272.436363312714
 31
0.0
  0
LINE
  5
355
330
36
100
AcDbEntity
  8
2-0
  6
Continuous
 62
     7
100
AcDbLine
 10
3263.208355955204
 20
272.436363312714
 30
0.0
 11
3258.379673443606
 21
272.778788581211
 31
0.0
  0
LINE
  5
356
330
36
100
AcDbEntity
  8
2-0
  6
Continuous
 62
     7
100
AcDbLine
 10
3258.379673443606
 20
272.778788581211
 30
0.0
 11
3253.538905918853
 21
272.79877941949
 31
0.0
  0
LINE
  5
357
330
36
100
AcDbEntity
  8
2-0
  6
Continuous
 62
     7
100
AcDbLine
 10
3253.538905918853
 20
272.79877941949
 30
0.0
 11
3248.707559936117
 21
272.496247012283
 31
0.0
  0
LINE
  5
358
330
36
100
AcDbEntity
  8
2-0
  6
Continuous
 62
     7
100
AcDbLine
 10
3248.707559936117
 20
272.496247012283
 30
0.0
 11
3243.907100192553
 21
271.872535450144
 31
0.0
  0
LINE
  5
359
330
36
100
AcDbEntity
  8
2-0
  6
Continuous
 62
     7
100
AcDbLine
 10
3243.907100192553
 20
271.872535450144
 30
0.0
 11
3239.158854163981
 21
270.930415757927
 31
0.0
  0
LINE
  5
35A
330
36
100
AcDbEntity
  8
2-0
  6
Continuous
 62
     7
100
AcDbLine
 10
3239.158854163981
 20
270.930415757927
 30
0.0
 11
3234.483917351197
 21
269.67407358368
 31
0.0
  0
LINE
  5
35B
330
36
100
AcDbEntity
  8
2-0
  6
Continuous
 62
     7
100
AcDbLine
 10
3234.483917351197
 20
269.67407358368
 30
0.0
 11
3229.903059556917
 21
268.109090602653
 31
0.0
  0
LINE
  5
35C
330
36
100
AcDbEntity
  8
2-0
  6
Continuous
 62
     7
100
AcDbLine
 10
3229.903059556917
 20
268.109090602653
 30
0.0
 11
3225.436632609727
 21
266.242419719039
 31
0.0
  0
LINE
  5
35D
330
36
100
AcDbEntity
  8
2-0
  6
Continuous
 62
     7
100
AcDbLine
 10
3225.436632609727
 20
266.242419719039
 30
0.0
 11
3221.104479945005
 21
264.082354175622
 31
0.0
  0
LINE
  5
35E
330
36
100
AcDbEntity
  8
2-0
  6
Continuous
 62
     7
100
AcDbLine
 10
3221.104479945005
 20
264.082354175622
 30
0.0
 11
3216.925848444535
 21
261.63849070857
 31
0.0
  0
LINE
  5
35F
330
36
100
AcDbEntity
  8
2-0
  6
Continuous
 62
     7
100
AcDbLine
 10
3216.925848444535
 20
261.63849070857
 30
0.0
 11
3212.919302926487
 21
258.921686911067
 31
0.0
  0
LINE
  5
360
330
36
100
AcDbEntity
  8
2-0
  6
Continuous
 62
     7
100
AcDbLine
 10
3212.919302926487
 20
258.921686911067
 30
0.0
 11
3209.102643665671
 21
255.944012995215
 31
0.0
  0
LINE
  5
361
330
36
100
AcDbEntity
  8
2-0
  6
Continuous
 62
     7
100
AcDbLine
 10
3209.102643665671
 20
255.944012995215
 30
0.0
 11
3205.492827310499
 21
252.718698166513
 31
0.0
  0
LINE
  5
362
330
36
100
AcDbEntity
  8
2-0
  6
Continuous
 62
     7
100
AcDbLine
 10
3205.492827310499
 20
252.718698166513
 30
0.0
 11
3202.105891548013
 21
249.260071849158
 31
0.0
  0
LINE
  5
363
330
36
100
AcDbEntity
  8
2-0
  6
Continuous
 62
     7
100
AcDbLine
 10
3202.105891548013
 20
249.260071849158
 30
0.0
 11
3198.956883851667
 21
245.583500023303
 31
0.0
  0
LINE
  5
364
330
36
100
AcDbEntity
  8
2-0
  6
Continuous
 62
     7
100
AcDbLine
 10
3198.956883851667
 20
245.583500023303
 30
0.0
 11
3196.05979462844
 21
241.705316957101
 31
0.0
  0
LINE
  5
365
330
36
100
AcDbEntity
  8
2-0
  6
Continuous
 62
     7
100
AcDbLine
 10
3196.05979462844
 20
241.705316957101
 30
0.0
 11
3193.427495062271
 21
237.642752636841
 31
0.0
  0
LINE
  5
366
330
36
100
AcDbEntity
  8
2-0
  6
Continuous
 62
     7
100
AcDbLine
 10
3193.427495062271
 20
237.642752636841
 30
0.0
 11
3191.07167992998
 21
233.413856217586
 31
0.0
  0
LINE
  5
367
330
36
100
AcDbEntity
  8
2-0
  6
Continuous
 62
     7
100
AcDbLine
 10
3191.07167992998
 20
233.413856217586
 30
0.0
 11
3189.002815643735
 21
229.03741583442
 31
0.0
  0
LINE
  5
368
330
36
100
AcDbEntity
  8
2-0
  6
Continuous
 62
     7
100
AcDbLine
 10
3189.002815643735
 20
229.03741583442
 30
0.0
 11
3187.230093750884
 21
224.532875130539
 31
0.0
  0
LINE
  5
369
330
36
100
AcDbEntity
  8
2-0
  6
Continuous
 62
     7
100
AcDbLine
 10
3187.230093750884
 20
224.532875130539
 30
0.0
 11
3185.761390097769
 21
219.920246873067
 31
0.0
  0
LINE
  5
36A
330
36
100
AcDbEntity
  8
2-0
  6
Continuous
 62
     7
100
AcDbLine
 10
3185.761390097769
 20
219.920246873067
 30
0.0
 11
3184.603229838919
 21
215.220024040357
 31
0.0
  0
LINE
  5
36B
330
36
100
AcDbEntity
  8
2-0
  6
Continuous
 62
     7
100
AcDbLine
 10
3184.603229838919
 20
215.220024040357
 30
0.0
 11
3183.760758447108
 21
210.45308877582
 31
0.0
  0
LINE
  5
36C
330
36
100
AcDbEntity
  8
2-0
  6
Continuous
 62
     7
100
AcDbLine
 10
3183.760758447108
 20
210.45308877582
 30
0.0
 11
3183.237718853055
 21
205.640619612764
 31
0.0
  0
LINE
  5
36D
330
36
100
AcDbEntity
  8
2-0
  6
Continuous
 62
     7
100
AcDbLine
 10
3183.237718853055
 20
205.640619612764
 30
0.0
 11
3183.036434816334
 21
200.803997382439
 31
0.0
  0
LINE
  5
36E
330
36
100
AcDbEntity
  8
2-0
  6
Continuous
 62
     7
100
AcDbLine
 10
3183.036434816334
 20
200.803997382439
 30
0.0
 11
3183.157800601382
 21
195.9647102233089
 31
0.0
  0
LINE
  5
36F
330
36
100
AcDbEntity
  8
2-0
  6
Continuous
 62
     7
100
AcDbLine
 10
3183.157800601382
 20
195.9647102233089
 30
0.0
 11
3183.601277004459
 21
191.144258113576
 31
0.0
  0
LINE
  5
370
330
36
100
AcDbEntity
  8
2-0
  6
Continuous
 62
     7
100
AcDbLine
 10
3183.601277004459
 20
191.144258113576
 30
0.0
 11
3184.364893749224
 21
186.364057351116
 31
0.0
  0
LINE
  5
371
330
36
100
AcDbEntity
  8
2-0
  6
Continuous
 62
     7
100
AcDbLine
 10
3184.364893749224
 20
186.364057351116
 30
0.0
 11
3185.445258240273
 21
181.645345405173
 31
0.0
  0
LINE
  5
372
330
36
100
AcDbEntity
  8
2-0
  6
Continuous
 62
     7
100
AcDbLine
 10
3185.445258240273
 20
181.645345405173
 30
0.0
 11
3186.83757063576
 21
177.009086562563
 31
0.0
  0
LINE
  5
373
330
36
100
AcDbEntity
  8
2-0
  6
Continuous
 62
     7
100
AcDbLine
 10
3186.83757063576
 20
177.009086562563
 30
0.0
 11
3188.535645172128
 21
172.47587878757
 31
0.0
  0
LINE
  5
374
330
36
100
AcDbEntity
  8
2-0
  6
Continuous
 62
     7
100
AcDbLine
 10
3188.535645172128
 20
172.47587878757
 30
0.0
 11
3190.531937646207
 21
168.065862209342
 31
0.0
  0
LINE
  5
375
330
36
100
AcDbEntity
  8
2-0
  6
Continuous
 62
     7
100
AcDbLine
 10
3190.531937646207
 20
168.065862209342
 30
0.0
 11
3192.817578932592
 21
163.798629643348
 31
0.0
  0
LINE
  5
376
330
36
100
AcDbEntity
  8
2-0
  6
Continuous
 62
     7
100
AcDbLine
 10
3192.817578932592
 20
163.798629643348
 30
0.0
 11
3195.382414387382
 21
159.693139544449
 31
0.0
  0
LINE
  5
377
330
36
100
AcDbEntity
  8
2-0
  6
Continuous
 62
     7
100
AcDbLine
 10
3195.382414387382
 20
159.693139544449
 30
0.0
 11
3198.215048963215
 21
155.767631778298
 31
0.0
  0
LINE
  5
378
330
36
100
AcDbEntity
  8
2-0
  6
Continuous
 62
     7
100
AcDbLine
 10
3198.215048963215
 20
155.767631778298
 30
0.0
 11
3201.302897835168
 21
152.039546585295
 31
0.0
  0
LINE
  5
379
330
36
100
AcDbEntity
  8
2-0
  6
Continuous
 62
     7
100
AcDbLine
 10
3201.302897835168
 20
152.039546585295
 30
0.0
 11
3204.632242312604
 21
148.525447097108
 31
0.0
  0
LINE
  5
37A
330
36
100
AcDbEntity
  8
2-0
  6
Continuous
 62
     7
100
AcDbLine
 10
3204.632242312604
 20
148.525447097108
 30
0.0
 11
3208.188290788548
 21
145.240945750015
 31
0.0
  0
LINE
  5
37B
330
36
100
AcDbEntity
  8
2-0
  6
Continuous
 62
     7
100
AcDbLine
 10
3208.188290788548
 20
145.240945750015
 30
0.0
 11
3211.955244455815
 21
142.200634921996
 31
0.0
  0
LINE
  5
37C
330
36
100
AcDbEntity
  8
2-0
  6
Continuous
 62
     7
100
AcDbLine
 10
3211.955244455815
 20
142.200634921996
 30
0.0
 11
3215.916367497936
 21
139.418022101733
 31
0.0
  0
LINE
  5
37D
330
36
100
AcDbEntity
  8
2-0
  6
Continuous
 62
     7
100
AcDbLine
 10
3215.916367497936
 20
139.418022101733
 30
0.0
 11
3220.054061443014
 21
136.905469877563
 31
0.0
  0
LINE
  5
37E
330
36
100
AcDbEntity
  8
2-0
  6
Continuous
 62
     7
100
AcDbLine
 10
3220.054061443014
 20
136.905469877563
 30
0.0
 11
3224.349943350191
 21
134.674141012984
 31
0.0
  0
LINE
  5
37F
330
36
100
AcDbEntity
  8
2-0
  6
Continuous
 62
     7
100
AcDbLine
 10
3224.349943350191
 20
134.674141012984
 30
0.0
 11
3228.784927481354
 21
132.733948852746
 31
0.0
  0
LINE
  5
380
330
36
100
AcDbEntity
  8
2-0
  6
Continuous
 62
     7
100
AcDbLine
 10
3228.784927481354
 20
132.733948852746
 30
0.0
 11
3233.339310095225
 21
131.09351327986
 31
0.0
  0
LINE
  5
381
330
36
100
AcDbEntity
  8
2-0
  6
Continuous
 62
     7
100
AcDbLine
 10
3233.339310095225
 20
131.09351327986
 30
0.0
 11
3237.992856987112
 21
129.760122419187
 31
0.0
  0
LINE
  5
382
330
36
100
AcDbEntity
  8
2-0
  6
Continuous
 62
     7
100
AcDbLine
 10
3237.992856987112
 20
129.760122419187
 30
0.0
 11
3242.724893385409
 21
128.739700257773
 31
0.0
  0
LINE
  5
383
330
36
100
AcDbEntity
  8
2-0
  6
Continuous
 62
     7
100
AcDbLine
 10
3242.724893385409
 20
128.739700257773
 30
0.0
 11
3247.514395805442
 21
128.036780325768
 31
0.0
  0
LINE
  5
384
330
36
100
AcDbEntity
  8
2-0
  6
Continuous
 62
     7
100
AcDbLine
 10
3247.514395805442
 20
128.036780325768
 30
0.0
 11
3252.340085452576
 21
127.654485554857
 31
0.0
  0
LINE
  5
385
330
36
100
AcDbEntity
  8
2-0
  6
Continuous
 62
     7
100
AcDbLine
 10
3252.340085452576
 20
127.654485554857
 30
0.0
 11
3257.180522759612
 21
127.594514403715
 31
0.0
  0
LINE
  5
386
330
36
100
AcDbEntity
  8
2-0
  6
Continuous
 62
     7
100
AcDbLine
 10
3257.180522759612
 20
127.594514403715
 30
0.0
 11
3262.014202638471
 21
127.857133312087
 31
0.0
  0
LINE
  5
387
330
36
100
AcDbEntity
  8
2-0
  6
Continuous
 62
     7
100
AcDbLine
 10
3262.014202638471
 20
127.857133312087
 30
0.0
 11
3266.819650022964
 21
128.441175517055
 31
0.0
  0
LINE
  5
388
330
36
100
AcDbEntity
  8
2-0
  6
Continuous
 62
     7
100
AcDbLine
 10
3266.819650022964
 20
128.441175517055
 30
0.0
 11
3271.57551527819
 21
129.34404623673
 31
0.0
  0
LINE
  5
389
330
36
100
AcDbEntity
  8
2-0
  6
Continuous
 62
     7
100
AcDbLine
 10
3271.57551527819
 20
129.34404623673
 30
0.0
 11
3276.260669052663
 21
130.561734198344
 31
0.0
  0
LINE
  5
38A
330
36
100
AcDbEntity
  8
2-0
  6
Continuous
 62
     7
100
AcDbLine
 10
3276.260669052663
 20
130.561734198344
 30
0.0
 11
3280.854296151762
 21
132.08882945953
 31
0.0
  0
LINE
  5
38B
330
36
100
AcDbEntity
  8
2-0
  6
Continuous
 62
     7
100
AcDbLine
 10
3280.854296151762
 20
132.08882945953
 30
0.0
 11
3285.335988015454
 21
133.918547443602
 31
0.0
  0
LINE
  5
38C
330
36
100
AcDbEntity
  8
2-0
  6
Continuous
 62
     7
100
AcDbLine
 10
3285.335988015454
 20
133.918547443602
 30
0.0
 11
3289.685833389409
 21
136.042759082066
 31
0.0
  0
LINE
  5
38D
330
36
100
AcDbEntity
  8
2-0
  6
Continuous
 62
     7
100
AcDbLine
 10
3289.685833389409
 20
136.042759082066
 30
0.0
 11
3293.884506786703
 21
138.452026930434
 31
0.0
  0
LINE
  5
38E
330
36
100
AcDbEntity
  8
2-0
  6
Continuous
 62
     7
100
AcDbLine
 10
3293.884506786703
 20
138.452026930434
 30
0.0
 11
3297.913354347051
 21
141.135647096887
 31
0.0
  0
LINE
  5
38F
330
36
100
AcDbEntity
  8
2-0
  6
Continuous
 62
     7
100
AcDbLine
 10
3297.913354347051
 20
141.135647096887
 30
0.0
 11
3301.754476712162
 21
144.081696797513
 31
0.0
  0
LINE
  5
390
330
36
100
AcDbEntity
  8
2-0
  6
Continuous
 62
     7
100
AcDbLine
 10
3301.754476712162
 20
144.081696797513
 30
0.0
 11
3305.390808548979
 21
147.277087326833
 31
0.0
  0
LINE
  5
391
330
36
100
AcDbEntity
  8
2-0
  6
Continuous
 62
     7
100
AcDbLine
 10
3305.390808548979
 20
147.277087326833
 30
0.0
 11
3308.806194367515
 21
150.707622208284
 31
0.0
  0
LINE
  5
392
330
36
100
AcDbEntity
  8
2-0
  6
Continuous
 62
     7
100
AcDbLine
 10
3308.806194367515
 20
150.707622208284
 30
0.0
 11
3311.985460296448
 21
154.358060266305
 31
0.0
  0
LINE
  5
393
330
36
100
AcDbEntity
  8
2-0
  6
Continuous
 62
     7
100
AcDbLine
 10
3311.985460296448
 20
154.358060266305
 30
0.0
 11
3314.914481497562
 21
158.212183339811
 31
0.0
  0
LINE
  5
394
330
36
100
AcDbEntity
  8
2-0
  6
Continuous
 62
     7
100
AcDbLine
 10
3314.914481497562
 20
158.212183339811
 30
0.0
 11
3317.580244919576
 21
162.252868336215
 31
0.0
  0
LINE
  5
395
330
36
100
AcDbEntity
  8
2-0
  6
Continuous
 62
     7
100
AcDbLine
 10
3317.580244919576
 20
162.252868336215
 30
0.0
 11
3319.970907112494
 21
166.462163305881
 31
0.0
  0
LINE
  5
396
330
36
100
AcDbEntity
  8
2-0
  6
Continuous
 62
     7
100
AcDbLine
 10
3319.970907112494
 20
166.462163305881
 30
0.0
 11
3322.07584684568
 21
170.821367199021
 31
0.0
  0
LINE
  5
397
330
36
100
AcDbEntity
  8
2-0
  6
Continuous
 62
     7
100
AcDbLine
 10
3322.07584684568
 20
170.821367199021
 30
0.0
 11
3323.885712295838
 21
175.311112950691
 31
0.0
  0
LINE
  5
398
330
36
100
AcDbEntity
  8
2-0
  6
Continuous
 62
     7
100
AcDbLine
 10
3323.885712295838
 20
175.311112950691
 30
0.0
 11
3325.392462595284
 21
179.91145352476
 31
0.0
  0
LINE
  5
399
330
36
100
AcDbEntity
  8
2-0
  6
Continuous
 62
     7
100
AcDbLine
 10
3325.392462595284
 20
179.91145352476
 30
0.0
 11
3326.589403555901
 21
184.601950534578
 31
0.0
  0
LINE
  5
39A
330
36
100
AcDbEntity
  8
2-0
  6
Continuous
 62
     7
100
AcDbLine
 10
3326.589403555901
 20
184.601950534578
 30
0.0
 11
3327.471217410065
 21
189.361765046606
 31
0.0
  0
LINE
  5
39B
330
36
100
AcDbEntity
  8
2-0
  6
Continuous
 62
     7
100
AcDbLine
 10
3327.471217410065
 20
189.361765046606
 30
0.0
 11
3328.033986436425
 21
194.169750163604
 31
0.0
  0
LINE
  5
39C
330
36
100
AcDbEntity
  8
2-0
  6
Continuous
 62
     7
100
AcDbLine
 10
3328.033986436425
 20
194.169750163604
 30
0.0
 11
3328.275210365536
 21
199.004544976037
 31
0.0
  0
LINE
  5
39D
330
36
100
AcDbEntity
  8
2-0
  6
Continuous
 62
     7
100
AcDbLine
 10
3328.275210365536
 20
199.004544976037
 30
0.0
 11
3328.285118647328
 21
200.204166274283
 31
0.0
  0
LINE
  5
39E
330
36
100
AcDbEntity
  8
2-0
  6
Continuous
 62
     7
100
AcDbLine
 10
3327.868105326138
 20
200.204166274283
 30
0.0
 11
3327.707701265696
 21
205.014505688152
 31
0.0
  0
LINE
  5
39F
330
36
100
AcDbEntity
  8
2-0
  6
Continuous
 62
     7
100
AcDbLine
 10
3327.707701265696
 20
205.014505688152
 30
0.0
 11
3327.227201727307
 21
209.80347373282
 31
0.0
  0
LINE
  5
3A0
330
36
100
AcDbEntity
  8
2-0
  6
Continuous
 62
     7
100
AcDbLine
 10
3327.227201727307
 20
209.80347373282
 30
0.0
 11
3326.428741473645
 21
214.54979398777
 31
0.0
  0
LINE
  5
3A1
330
36
100
AcDbEntity
  8
2-0
  6
Continuous
 62
     7
100
AcDbLine
 10
3326.428741473645
 20
214.54979398777
 30
0.0

 11
3325.315867902805
 21
219.232379508032
 31
0.0
  0
LINE
  5
3A2
330
36
100
AcDbEntity
  8
2-0
  6
Continuous
 62
     7
100
AcDbLine
 10
3325.315867902805
 20
219.232379508032
 30
0.0
 11
3323.893525287928
 21
223.830426509221
 31
0.0
  0
LINE
  5
3A3
330
36
100
AcDbEntity
  8
2-0
  6
Continuous
 62
     7
100
AcDbLine
 10
3323.893525287928
 20
223.830426509221
 30
0.0
 11
3322.16803281079
 21
228.323506794567
 31
0.0
  0
LINE
  5
3A4
330
36
100
AcDbEntity
  8
2-0
  6
Continuous
 62
     7
100
AcDbLine
 10
3322.16803281079
 20
228.323506794567
 30
0.0
 11
3320.147056486946
 21
232.691658513281
 31
0.0
  0
LINE
  5
3A5
330
36
100
AcDbEntity
  8
2-0
  6
Continuous
 62
     7
100
AcDbLine
 10
3320.147056486946
 20
232.691658513281
 30
0.0
 11
3317.839575107175
 21
236.91547484703
 31
0.0
  0
LINE
  5
3A6
330
36
100
AcDbEntity
  8
2-0
  6
Continuous
 62
     7
100
AcDbLine
 10
3317.839575107175
 20
236.91547484703
 30
0.0
 11
3315.255840346516
 21
240.976190230531
 31
0.0
  0
LINE
  5
3A7
330
36
100
AcDbEntity
  8
2-0
  6
Continuous
 62
     7
100
AcDbLine
 10
3315.255840346516
 20
240.976190230531
 30
0.0
 11
3312.40733121814
 21
244.855763723171
 31
0.0
  0
LINE
  5
3A8
330
36
100
AcDbEntity
  8
2-0
  6
Continuous
 62
     7
100
AcDbLine
 10
3312.40733121814
 20
244.855763723171
 30
0.0
 11
3309.306703074408
 21
248.536959161278
 31
0.0
  0
LINE
  5
3A9
330
36
100
AcDbEntity
  8
2-0
  6
Continuous
 62
     7
100
AcDbLine
 10
3309.306703074408
 20
248.536959161278
 30
0.0
 11
3305.96773138169
 21
252.003421734921
 31
0.0
  0
LINE
  5
3AA
330
36
100
AcDbEntity
  8
2-0
  6
Continuous
 62
     7
100
AcDbLine
 10
3305.96773138169
 20
252.003421734921
 30
0.0
 11
3302.40525051874
 21
255.239750649039
 31
0.0
  0
LINE
  5
3AB
330
36
100
AcDbEntity
  8
2-0
  6
Continuous
 62
     7
100
AcDbLine
 10
3302.40525051874
 20
255.239750649039
 30
0.0
 11
3298.63508787054
 21
258.231567546069
 31
0.0
  0
LINE
  5
3AC
330
36
100
AcDbEntity
  8
2-0
  6
Continuous
 62
     7
100
AcDbLine
 10
3298.63508787054
 20
258.231567546069
 30
0.0
 11
3294.673993510417
 21
260.965580386098
 31
0.0
  0
LINE
  5
3AD
330
36
100
AcDbEntity
  8
2-0
  6
Continuous
 62
     7
100
AcDbLine
 10
3294.673993510417
 20
260.965580386098
 30
0.0
 11
3290.53956578284
 21
263.429642500714
 31
0.0
  0
LINE
  5
3AE
330
36
100
AcDbEntity
  8
2-0
  6
Continuous
 62
     7
100
AcDbLine
 10
3290.53956578284
 20
263.429642500714
 30
0.0
 11
3286.250173117519
 21
265.612806558208
 31
0.0
  0
LINE
  5
3AF
330
36
100
AcDbEntity
  8
2-0
  6
Continuous
 62
     7
100
AcDbLine
 10
3286.250173117519
 20
265.612806558208
 30
0.0
 11
3281.824872422174
 21
267.505373200368
 31
0.0
  0
LINE
  5
3B0
330
36
100
AcDbEntity
  8
2-0
  6
Continuous
 62
     7
100
AcDbLine
 10
3281.824872422174
 20
267.505373200368
 30
0.0
 11
3277.283324416527
 21
269.098934134769
 31
0.0
  0
LINE
  5
3B1
330
36
100
AcDbEntity
  8
2-0
  6
Continuous
 62
     7
100
AcDbLine
 10
3277.283324416527
 20
269.098934134769
 30
0.0
 11
3272.64570628369
 21
270.3864094911271
 31
0.0
  0
LINE
  5
3B2
330
36
100
AcDbEntity
  8
2-0
  6
Continuous
 62
     7
100
AcDbLine
 10
3272.64570628369
 20
270.3864094911271
 30
0.0
 11
3267.932622027001
 21
271.362079275734
 31
0.0
  0
LINE
  5
3B3
330
36
100
AcDbEntity
  8
2-0
  6
Continuous
 62
     7
100
AcDbLine
 10
3267.932622027001
 20
271.362079275734
 30
0.0
 11
3263.165010930587
 21
272.021608784239
 31
0.0
  0
LINE
  5
3B4
330
36
100
AcDbEntity
  8
2-0
  6
Continuous
 62
     7
100
AcDbLine
 10
3263.165010930587
 20
272.021608784239
 30
0.0
 11
3258.364054530341
 21
272.362067859866
 31
0.0
  0
LINE
  5
3B5
330
36
100
AcDbEntity
  8
2-0
  6
Continuous
 62
     7
100
AcDbLine
 10
3258.364054530341
 20
272.362067859866
 30
0.0
 11
3253.551082508625
 21
272.381943911512
 31
0.0
  0
LINE
  5
3B6
330
36
100
AcDbEntity
  8
2-0
  6
Continuous
 62
     7
100
AcDbLine
 10
3253.551082508625
 20
272.381943911512
 30
0.0
 11
3248.74747793079
 21
272.081148633882
 31
0.0
  0
LINE
  5
3B7
330
36
100
AcDbEntity
  8
2-0
  6
Continuous
 62
     7
100
AcDbLine
 10
3248.74747793079
 20
272.081148633882
 30
0.0
 11
3243.974582244518
 21
271.461018399814
 31
0.0
  0
LINE
  5
3B8
330
36
100
AcDbEntity
  8
2-0
  6
Continuous
 62
     7
100
AcDbLine
 10
3243.974582244518
 20
271.461018399814
 30
0.0
 11
3239.25360046407
 21
270.524308323042
 31
0.0
  0
LINE
  5
3B9
330
36
100
AcDbEntity
  8
2-0
  6
Continuous
 62
     7
100
AcDbLine
 10
3239.25360046407
 20
270.524308323042
 30
0.0
 11
3234.605506960682
 21
269.275180017782
 31
0.0
  0
LINE
  5
3BA
330
36
100
AcDbEntity
  8
2-0
  6
Continuous
 62
     7
100
AcDbLine
 10
3234.605506960682
 20
269.275180017782
 30
0.0
 11
3230.050952277651
 21
267.719183109517
 31
0.0
  0
LINE
  5
3BB
330
36
100
AcDbEntity
  8
2-0
  6
Continuous
 62
     7
100
AcDbLine
 10
3230.050952277651
 20
267.719183109517
 30
0.0
 11
3225.610171384139
 21
265.863230579128
 31
0.0
  0
LINE
  5
3BC
330
36
100
AcDbEntity
  8
2-0
  6
Continuous
 62
     7
100
AcDbLine
 10
3225.610171384139
 20
265.863230579128
 30
0.0
 11
3221.30289377527
 21
263.715568049917
 31
0.0
  0
LINE
  5
3BD
330
36
100
AcDbEntity
  8
2-0
  6
Continuous
 62
     7
100
AcDbLine
 10
3221.30289377527
 20
263.715568049917
 30
0.0
 11
3217.148255817966
 21
261.285737153955
 31
0.0
  0
LINE
  5
3BE
330
36
100
AcDbEntity
  8
2-0
  6
Continuous
 62
     7
100
AcDbLine
 10
3217.148255817966
 20
261.285737153955
 30
0.0
 11
3213.164715731918
 21
258.58453314054
 31
0.0
  0
LINE
  5
3BF
330
36
100
AcDbEntity
  8
2-0
  6
Continuous
 62
     7
100
AcDbLine
 10
3213.164715731918
 20
258.58453314054
 30
0.0
 11
3209.369971583434
 21
255.623956915075
 31
0.0
  0
LINE
  5
3C0
330
36
100
AcDbEntity
  8
2-0
  6
Continuous
 62
     7
100
AcDbLine
 10
3209.369971583434
 20
255.623956915075
 30
0.0
 11
3205.780882656496
 21
252.417161721464
 31
0.0
  0
LINE
  5
3C1
330
36
100
AcDbEntity
  8
2-0
  6
Continuous
 62
     7
100
AcDbLine
 10
3205.780882656496
 20
252.417161721464
 30
0.0
 11
3202.413394550356
 21
248.978394704895
 31
0.0
  0
LINE
  5
3C2
330
36
100
AcDbEntity
  8
2-0
  6
Continuous
 62
     7
100
AcDbLine
 10
3202.413394550356
 20
248.978394704895
 30
0.0
 11
3199.282468336448
 21
245.322933614648
 31
0.0
  0
LINE
  5
3C3
330
36
100
AcDbEntity
  8
2-0
  6
Continuous
 62
     7
100
AcDbLine
 10
3199.282468336448
 20
245.322933614648
 30
0.0
 11
3196.402014089368
 21
241.467018928129
 31
0.0
  0
LINE
  5
3C4
330
36
100
AcDbEntity
  8
2-0
  6
Continuous
 62
     7
100
AcDbLine
 10
3196.402014089368
 20
241.467018928129
 30
0.0
 11
3193.784829087203
 21
237.427781697699
 31
0.0
  0
LINE
  5
3C5
330
36
100
AcDbEntity
  8
2-0
  6
Continuous
 62
     7
100
AcDbLine
 10
3193.784829087203
 20
237.427781697699
 30
0.0
 11
3191.442540955815
 21
233.223167440864
 31
0.0
  0
LINE
  5
3C6
330
36
100
AcDbEntity
  8
2-0
  6
Continuous
 62
     7
100
AcDbLine
 10
3191.442540955815
 20
233.223167440864
 30
0.0
 11
3189.385556009623
 21
228.871856411946
 31
0.0
  0
LINE
  5
3C7
330
36
100
AcDbEntity
  8
2-0
  6
Continuous
 62
     7
100
AcDbLine
 10
3189.385556009623
 20
228.871856411946
 30
0.0
 11
3187.623013018467
 21
224.393180609484
 31
0.0
  0
LINE
  5
3C8
330
36
100
AcDbEntity
  8
2-0
  6
Continuous
 62
     7
100
AcDbLine
 10
3187.623013018467
 20
224.393180609484
 30
0.0
 11
3186.162742605874
 21
219.807037888052
 31
0.0
  0
LINE
  5
3C9
330
36
100
AcDbEntity
  8
2-0
  6
Continuous
 62
     7
100
AcDbLine
 10
3186.162742605874
 20
219.807037888052
 30
0.0
 11
3185.011232459186
 21
215.133803556102
 31
0.0
  0
LINE
  5
3CA
330
36
100
AcDbEntity
  8
2-0
  6
Continuous
 62
     7
100
AcDbLine
 10
3185.011232459186
 20
215.133803556102
 30
0.0
 11
3184.173598506069
 21
210.394239852572
 31
0.0
  0
LINE
  5
3CB
330
36
100
AcDbEntity
  8
2-0
  6
Continuous
 62
     7
100
AcDbLine
 10
3184.173598506069
 20
210.394239852572
 30
0.0
 11
3183.653562185475
 21
205.609403704437
 31
0.0
  0
LINE
  5
3CC
330
36
100
AcDbEntity
  8
2-0
  6
Continuous
 62
     7
100
AcDbLine
 10
3183.653562185475
 20
205.609403704437
 30
0.0
 11
3183.453433914037
 21
200.800553175027
 31
0.0
  0
LINE
  5
3CD
330
36
100
AcDbEntity
  8
2-0
  6
Continuous
 62
     7
100
AcDbLine
 10
3183.453433914037
 20
200.800553175027
 30
0.0
 11
3183.574102821363
 21
195.989053018731
 31
0.0
  0
LINE
  5
3CE
330
36
100
AcDbEntity
  8
2-0
  6
Continuous
 62
     7
100
AcDbLine
 10
3183.574102821363
 20
195.989053018731
 30
0.0
 11
3184.015032799799
 21
191.196279761696
 31
0.0
  0
LINE
  5
3CF
330
36
100
AcDbEntity
  8
2-0
  6
Continuous
 62
     7
100
AcDbLine
 10
3184.015032799799
 20
191.196279761696
 30
0.0
 11
3184.774264886254
 21
186.443526730227
 31
0.0
  0
LINE
  5
3D0
330
36
100
AcDbEntity
  8
2-0
  6
Continuous
 62
     7
100
AcDbLine
 10
3184.774264886254
 20
186.443526730227
 30
0.0
 11
3185.848425965482
 21
181.75190944883
 31
0.0
  0
LINE
  5
3D1
330
36
100
AcDbEntity
  8
2-0
  6
Continuous
 62
     7
100
AcDbLine
 10
3185.848425965482
 20
181.75190944883
 30
0.0
 11
3187.232743756142
 21
177.142271828181
 31
0.0
  0
LINE
  5
3D2
330
36
100
AcDbEntity
  8
2-0
  6
Continuous
 62
     7
100
AcDbLine
 10
3187.232743756142
 20
177.142271828181
 30
0.0
 11
3188.921068013097
 21
172.63509355984
 31
0.0
  0
LINE
  5
3D3
330
36
100
AcDbEntity
  8
2-0
  6
Continuous
 62
     7
100
AcDbLine
 10
3188.921068013097
 20
172.63509355984
 30
0.0
 11
3190.905897851707
 21
168.250399129095
 31
0.0
  0
LINE
  5
3D4
330
36
100
AcDbEntity
  8
2-0
  6
Continuous
 62
     7
100
AcDbLine
 10
3190.905897851707
 20
168.250399129095
 30
0.0
 11
3193.178415072747
 21
164.007668850217
 31
0.0
  0
LINE
  5
3D5
330
36
100
AcDbEntity
  8
2-0
  6
Continuous
 62
     7
100
AcDbLine
 10
3193.178415072747
 20
164.007668850217
 30
0.0
 11
3195.728523339894
 21
159.925752319337
 31
0.0
  0
LINE
  5
3D6
330
36
100
AcDbEntity
  8
2-0
  6
Continuous
 62
     7
100
AcDbLine
 10
3195.728523339894
 20
159.925752319337
 30
0.0
 11
3198.544893035715
 21
156.022784669496
 31
0.0
  0
LINE
  5
3D7
330
36
100
AcDbEntity
  8
2-0
  6
Continuous
 62
     7
100
AcDbLine
 10
3198.544893035715
 20
156.022784669496
 30
0.0
 11
3201.615011596873
 21
152.316105999896
 31
0.0
  0
LINE
  5
3D8
330
36
100
AcDbEntity
  8
2-0
  6
Continuous
 62
     7
100
AcDbLine
 10
3201.615011596873
 20
152.316105999896
 30
0.0
 11
3204.925239104931
 21
148.822184337333
 31
0.0
  0
LINE
  5
3D9
330
36
100
AcDbEntity
  8
2-0
  6
Continuous
 62
     7
100
AcDbLine
 10
3204.925239104931
 20
148.822184337333
 30
0.0
 11
3208.460868885759
 21
145.556542472068
 31
0.0
  0
LINE
  5
3DA
330
36
100
AcDbEntity
  8
2-0
  6
Continuous
 62
     7
100
AcDbLine
 10
3208.460868885759
 20
145.556542472068
 30
0.0
 11
3212.206192848322
 21
142.533688993203
 31
0.0
  0
LINE
  5
3DB
330
36
100
AcDbEntity
  8
2-0
  6
Continuous
 62
     7
100
AcDbLine
 10
3212.206192848322
 20
142.533688993203
 30
0.0
 11
3216.144571272573
 21
139.767053829934
 31
0.0
  0
LINE
  5
3DC
330
36
100
AcDbEntity
  8
2-0
  6
Continuous
 62
     7
100
AcDbLine
 10
3216.144571272573
 20
139.767053829934
 30
0.0
 11
3220.258506736371
 21
137.268928585086
 31
0.0
  0
LINE
  5
3DD
330
36
100
AcDbEntity
  8
2-0
  6
Continuous
 62
     7
100
AcDbLine
 10
3220.258506736371
 20
137.268928585086
 30
0.0
 11
3224.529721853005
 21
135.050411925992
 31
0.0
  0
LINE
  5
3DE
330
36
100
AcDbEntity
  8
2-0
  6
Continuous
 62
     7
100
AcDbLine
 10
3224.529721853005
 20
135.050411925992
 30
0.0
 11
3228.939240473945
 21
133.121360275355
 31
0.0
  0
LINE
  5
3DF
330
36
100
AcDbEntity
  8
2-0
  6
Continuous
 62
     7
100
AcDbLine
 10
3228.939240473945
 20
133.121360275355
 30
0.0
 11
3233.467471996045
 21
131.490344021144
 31
0.0
  0
LINE
  5
3E0
330
36
100
AcDbEntity
  8
2-0
  6
Continuous
 62
     7
100
AcDbLine
 10
3233.467471996045
 20
131.490344021144
 30
0.0
 11
3238.09429839865
 21
130.164609440085
 31
0.0
  0
LINE
  5
3E1
330
36
100
AcDbEntity
  8
2-0
  6
Continuous
 62
     7
100
AcDbLine
 10
3238.09429839865
 20
130.164609440085
 30
0.0
 11
3242.799163623902
 21
129.150046503917
 31
0.0
  0
LINE
  5
3E2
330
36
100
AcDbEntity
  8
2-0
  6
Continuous
 62
     7
100
AcDbLine
 10
3242.799163623902
 20
129.150046503917
 30
0.0
 11
3247.561164903179
 21
128.451162711429
 31
0.0
  0
LINE
  5
3E3
330
36
100
AcDbEntity
  8
2-0
  6
Continuous
 62
     7
100
AcDbLine
 10
3247.561164903179
 20
128.451162711429
 30
0.0
 11
3252.359145623876
 21
128.071063062556
 31
0.0
  0
LINE
  5
3E4
330
36
100
AcDbEntity
  8
2-0
  6
Continuous
 62
     7
100
AcDbLine
 10
3252.359145623876
 20
128.071063062556
 30
0.0
 11
3257.171789323972
 21
128.011436263482
 31
0.0
  0
LINE
  5
3E5
330
36
100
AcDbEntity
  8
2-0
  6
Continuous
 62
     7
100
AcDbLine
 10
3257.171789323972
 20
128.011436263482
 30
0.0
 11
3261.977714396786
 21
128.272547224069
 31
0.0
  0
LINE
  5
3E6
330
36
100
AcDbEntity
  8
2-0
  6
Continuous
 62
     7
100
AcDbLine
 10
3261.977714396786
 20
128.272547224069
 30
0.0
 11
3266.755569085145
 21
128.853235880907
 31
0.0
  0
LINE
  5
3E7
330
36
100
AcDbEntity
  8
2-0
  6
Continuous
 62
     7
100
AcDbLine
 10
3266.755569085145
 20
128.853235880907
 30
0.0
 11
3271.484126342936
 21
129.750922351245
 31
0.0
  0
LINE
  5
3E8
330
36
100
AcDbEntity
  8
2-0
  6
Continuous
 62
     7
100
AcDbLine
 10
3271.484126342936
 20
129.750922351245
 30
0.0
 11
3276.142378142607
 21
130.961618394891
 31
0.0
  0
LINE
  5
3E9
330
36
100
AcDbEntity
  8
2-0
  6
Continuous
 62
     7
100
AcDbLine
 10
3276.142378142607
 20
130.961618394891
 30
0.0
 11
3280.709628809595
 21
132.479945133161
 31
0.0
  0
LINE
  5
3EA
330
36
100
AcDbEntity
  8
2-0
  6
Continuous
 62
     7
100
AcDbLine
 10
3280.709628809595
 20
132.479945133161
 30
0.0
 11
3285.165586969038
 21
134.299156946151
 31
0.0
  0
LINE
  5
3EB
330
36
100
AcDbEntity
  8
2-0
  6
Continuous
 62
     7
100
AcDbLine
 10
3285.165586969038
 20
134.299156946151
 30
0.0
 11
3289.490455696278
 21
136.411171442169
 31
0.0
  0
LINE
  5
3EC
330
36
100
AcDbEntity
  8
2-0
  6
Continuous
 62
     7
100
AcDbLine
 10
3289.490455696278
 20
136.411171442169
 30
0.0
 11
3293.665020470596
 21
138.806605366174
 31
0.0
  0
LINE
  5
3ED
330
36
100
AcDbEntity
  8
2-0
  6
Continuous
 62
     7
100
AcDbLine
 10
3293.665020470596
 20
138.806605366174
 30
0.0
 11
3297.670734541465
 21
141.474816287686
 31
0.0
  0
LINE
  5
3EE
330
36
100
AcDbEntity
  8
2-0
  6
Continuous
 62
     7
100
AcDbLine
 10
3297.670734541465
 20
141.474816287686
 30
0.0
 11
3301.489801328029
 21
144.403949882967
 31
0.0
  0
LINE
  5
3EF
330
36
100
AcDbEntity
  8
2-0
  6
Continuous
 62
     7
100
AcDbLine
 10
3301.489801328029
 20
144.403949882967
 30
0.0
 11
3305.105253485725
 21
147.580992601385
 31
0.0
  0
LINE
  5
3F0
330
36
100
AcDbEntity
  8
2-0
  6
Continuous
 62
     7
100
AcDbLine
 10
3305.105253485725
 20
147.580992601385
 30
0.0
 11
3308.501028288776
 21
150.9918294820059
 31
0.0
  0
LINE
  5
3F1
330
36
100
AcDbEntity
  8
2-0
  6
Continuous
 62
     7
100
AcDbLine
 10
3308.501028288776
 20
150.9918294820059
 30
0.0
 11
3311.662038993648
 21
154.621306863521
 31
0.0
  0
LINE
  5
3F2
330
36
100
AcDbEntity
  8
2-0
  6
Continuous
 62
     7
100
AcDbLine
 10
3311.662038993648
 20
154.621306863521
 30
0.0
 11
3314.574241866413
 21
158.453299708907
 31
0.0
  0
LINE
  5
3F3
330
36
100
AcDbEntity
  8
2-0
  6
Continuous
 62
     7
100
AcDbLine
 10
3314.574241866413
 20
158.453299708907
 30
0.0
 11
3317.224698576235
 21
162.470783245725
 31
0.0
  0
LINE
  5
3F4
330
36
100
AcDbEntity
  8
2-0
  6
Continuous
 62
     7
100
AcDbLine
 10
3317.224698576235
 20
162.470783245725
 30
0.0
 11
3319.601633677756
 21
166.655908603751
 31
0.0
  0
LINE
  5
3F5
330
36
100
AcDbEntity
  8
2-0
  6
Continuous
 62
     7
100
AcDbLine
 10
3319.601633677756
 20
166.655908603751
 30
0.0
 11
3321.694486927042
 21
170.990082113913
 31
0.0
  0
LINE
  5
3F6
330
36
100
AcDbEntity
  8
2-0
  6
Continuous
 62
     7
100
AcDbLine
 10
3321.694486927042
 20
170.990082113913
 30
0.0
 11
3323.493960198613
 21
175.454047916217
 31
0.0
  0
LINE
  5
3F7
330
36
100
AcDbEntity
  8
2-0
  6
Continuous
 62
     7
100
AcDbLine
 10
3323.493960198613
 20
175.454047916217
 30
0.0
 11
3324.992058795139
 21
180.027973509656
 31
0.0
  0
LINE
  5
3F8
330
36
100
AcDbEntity
  8
2-0
  6
Continuous
 62
     7
100
AcDbLine
 10
3324.992058795139
 20
180.027973509656
 30
0.0
 11
3326.182126966279
 21
184.691537864018
 31
0.0
  0
LINE
  5
3F9
330
36
100
AcDbEntity
  8
2-0
  6
Continuous
 62
     7
100
AcDbLine
 10
3326.182126966279
 20
184.691537864018
 30
0.0
 11
3327.058877478827
 21
189.4240217021289
 31
0.0
  0
LINE
  5
3FA
330
36
100
AcDbEntity
  8
2-0
  6
Continuous
 62
     7
100
AcDbLine
 10
3327.058877478827
 20
189.4240217021289
 30
0.0
 11
3327.618415106838
 21
194.2043995514289
 31
0.0
  0
LINE
  5
3FB
330
36
100
AcDbEntity
  8
2-0
  6
Continuous
 62
     7
100
AcDbLine
 10
3327.618415106838
 20
194.2043995514289
 30
0.0
 11
3327.858253937324
 21
199.011433155912
 31
0.0
  0
LINE
  5
3FC
330
36
100
AcDbEntity
  8
2-0
  6
Continuous
 62
     7
100
AcDbLine
 10
3327.858253937324
 20
199.011433155912
 30
0.0
 11
3327.868105326138
 21
200.204166274283
 31
0.0
  0
LINE
  5
3FD
330
36
100
AcDbEntity
  8
2-0
  6
Continuous
 62
     7
100
AcDbLine
 10
3327.451092004948
 20
200.204166274283
 30
0.0
 11
3327.291614297606
 21
204.986725388748
 31
0.0
  0
LINE
  5
3FE
330
36
100
AcDbEntity
  8
2-0
  6
Continuous
 62
     7
100
AcDbLine
 10
3327.291614297606
 20
204.986725388748
 30
0.0
 11
3326.813889702914
 21
209.748036556285
 31
0.0
  0
LINE
  5
3FF
330
36
100
AcDbEntity
  8
2-0
  6
Continuous
 62
     7
100
AcDbLine
 10
3326.813889702914
 20
209.748036556285
 30
0.0
 11
3326.020040655032
 21
214.466946230317
 31
0.0
  0
LINE
  5
400
330
36
100
AcDbEntity
  8
2-0
  6
Continuous
 62
     7
100
AcDbLine
 10
3326.020040655032
 20
214.466946230317
 30
0.0
 11
3324.913594065396
 21
219.12248924556
 31
0.0
  0
LINE
  5
401
330
36
100
AcDbEntity
  8
2-0
  6
Continuous
 62
     7
100
AcDbLine
 10
3324.913594065396
 20
219.12248924556
 30
0.0
 11
3323.499465653365
 21
223.693981962034
 31
0.0
  0
LINE
  5
402
330
36
100
AcDbEntity
  8
2-0
  6
Continuous
 62
     7
100
AcDbLine
 10
3323.499465653365
 20
223.693981962034
 30
0.0
 11
3321.783938106662
 21
228.161114158309
 31
0.0
  0
LINE
  5
403
330
36
100
AcDbEntity
  8
2-0
  6
Continuous
 62
     7
100
AcDbLine
 10
3321.783938106662
 20
228.161114158309
 30
0.0
 11
3319.774633168667
 21
232.504039265727
 31
0.0
  0
LINE
  5
404
330
36
100
AcDbEntity
  8
2-0
  6
Continuous
 62
     7
100
AcDbLine
 10
3319.774633168667
 20
232.504039265727
 30
0.0
 11
3317.480477776542
 21
236.703462542712
 31
0.0
  0
LINE
  5
405
330
36
100
AcDbEntity
  8
2-0
  6
Continuous
 62
     7
100
AcDbLine
 10
3317.480477776542
 20
236.703462542712
 30
0.0
 11
3314.911664400646
 21
240.740726797416
 31
0.0
  0
LINE
  5
406
330
36
100
AcDbEntity
  8
2-0
  6
Continuous
 62
     7
100
AcDbLine
 10
3314.911664400646
 20
240.740726797416
 30
0.0
 11
3312.079605761442
 21
244.59789527787
 31
0.0
  0
LINE
  5
407
330
36
100
AcDbEntity
  8
2-0
  6
Continuous
 62
     7
100
AcDbLine
 10
3312.079605761442
 20
244.59789527787
 30
0.0
 11
3308.996884125083
 21
248.257831361357
 31
0.0
  0
LINE
  5
408
330
36
100
AcDbEntity
  8
2-0
  6
Continuous
 62
     7
100
AcDbLine
 10
3308.996884125083
 20
248.257831361357
 30
0.0
 11
3305.677195402931
 21
251.704274688979
 31
0.0
  0
LINE
  5
409
330
36
100
AcDbEntity
  8
2-0
  6
Continuous
 62
     7
100
AcDbLine
 10
3305.677195402931
 20
251.704274688979
 30
0.0
 11
3302.135288303384
 21
254.921913407152
 31
0.0
  0
LINE
  5
40A
330
36
100
AcDbEntity
  8
2-0
  6
Continuous
 62
     7
100
AcDbLine
 10
3302.135288303384
 20
254.921913407152
 30
0.0
 11
3298.386898806341
 21
257.89645219509
 31
0.0
  0
LINE
  5
40B
330
36
100
AcDbEntity
  8
2-0
  6
Continuous
 62
     7
100
AcDbLine
 10
3298.386898806341
 20
257.89645219509
 30
0.0
 11
3294.4486802514
 21
260.614675776038
 31
0.0
  0
LINE
  5
40C
330
36
100
AcDbEntity
  8
2-0
  6
Continuous
 62
     7
100
AcDbLine
 10
3294.4486802514
 20
260.614675776038
 30
0.0
 11
3290.338129350438
 21
263.064507630083
 31
0.0
  0
LINE
  5
40D
330
36
100
AcDbEntity
  8
2-0
  6
Continuous
 62
     7
100
AcDbLine
 10
3290.338129350438
 20
263.064507630083
 30
0.0
 11
3286.07350845323
 21
265.235063647697
 31
0.0
  0
LINE
  5
40E
330
36
100
AcDbEntity
  8
2-0
  6
Continuous
 62
     7
100
AcDbLine
 10
3286.07350845323
 20
265.235063647697
 30
0.0
 11
3281.67376441152
 21
267.11670048565
 31
0.0
  0
LINE
  5
40F
330
36
100
AcDbEntity
  8
2-0
  6
Continuous
 62
     7
100
AcDbLine
 10
3281.67376441152
 20
267.11670048565
 30
0.0
 11
3277.158444401968
 21
268.701058410436
 31
0.0
  0
LINE
  5
410
330
36
100
AcDbEntity
  8
2-0
  6
Continuous
 62
     7
100
AcDbLine
 10
3277.158444401968
 20
268.701058410436
 30
0.0
 11
3272.547609081978
 21
269.981098438889
 31
0.0
  0
LINE
  5
411
330
36
100
AcDbEntity
  8
2-0
  6
Continuous
 62
     7
100
AcDbLine
 10
3272.547609081978
 20
269.981098438889
 30
0.0
 11
3267.861743464247
 21
270.951133610965
 31
0.0
  0
LINE
  5
412
330
36
100
AcDbEntity
  8
2-0
  6
Continuous
 62
     7
100
AcDbLine
 10
3267.861743464247
 20
270.951133610965
 30
0.0
 11
3263.12166590597
 21
271.606854255763
 31
0.0
  0
LINE
  5
413
330
36
100
AcDbEntity
  8
2-0
  6
Continuous
 62
     7
100
AcDbLine
 10
3263.12166590597
 20
271.606854255763
 30
0.0
 11
3258.348435617075
 21
271.945347138521
 31
0.0
  0
LINE
  5
414
330
36
100
AcDbEntity
  8
2-0
  6
Continuous
 62
     7
100
AcDbLine
 10
3258.348435617075
 20
271.945347138521
 30
0.0
 11
3253.563259098398
 21
271.965108403533
 31
0.0
  0
LINE
  5
415
330
36
100
AcDbEntity
  8
2-0
  6
Continuous
 62
     7
100
AcDbLine
 10
3253.563259098398
 20
271.965108403533
 30
0.0
 11
3248.787395925464
 21
271.666050255481
 31
0.0
  0
LINE
  5
416
330
36
100
AcDbEntity
  8
2-0
  6
Continuous
 62
     7
100
AcDbLine
 10
3248.787395925464
 20
271.666050255481
 30
0.0
 11
3244.042064296482
 21
271.049501349483
 31
0.0
  0
LINE
  5
417
330
36
100
AcDbEntity
  8
2-0
  6
Continuous
 62
     7
100
AcDbLine
 10
3244.042064296482
 20
271.049501349483
 30
0.0
 11
3239.348346764159
 21
270.118200888156
 31
0.0
  0
LINE
  5
418
330
36
100
AcDbEntity
  8
2-0
  6
Continuous
 62
     7
100
AcDbLine
 10
3239.348346764159
 20
270.118200888156
 30
0.0
 11
3234.727096570166
 21
268.876286451883
 31
0.0
  0
LINE
  5
419
330
36
100
AcDbEntity
  8
2-0
  6
Continuous
 62
     7
100
AcDbLine
 10
3234.727096570166
 20
268.876286451883
 30
0.0
 11
3230.198844998387
 21
267.32927561638
 31
0.0
  0
LINE
  5
41A
330
36
100
AcDbEntity
  8
2-0
  6
Continuous
 62
     7
100
AcDbLine
 10
3230.198844998387
 20
267.32927561638
 30
0.0
 11
3225.78371015855
 21
265.484041439218
 31
0.0
  0
LINE
  5
41B
330
36
100
AcDbEntity
  8
2-0
  6
Continuous
 62
     7
100
AcDbLine
 10
3225.78371015855
 20
265.484041439218
 30
0.0
 11
3221.501307605534
 21
263.348781924212
 31
0.0
  0
LINE
  5
41C
330
36
100
AcDbEntity
  8
2-0
  6
Continuous
 62
     7
100
AcDbLine
 10
3221.501307605534
 20
263.348781924212
 30
0.0
 11
3217.370663191398
 21
260.93298359934
 31
0.0
  0
LINE
  5
41D
330
36
100
AcDbEntity
  8
2-0
  6
Continuous
 62
     7
100
AcDbLine
 10
3217.370663191398
 20
260.93298359934
 30
0.0
 11
3213.410128537348
 21
258.247379370013
 31
0.0
  0
LINE
  5
41E
330
36
100
AcDbEntity
  8
2-0
  6
Continuous
 62
     7
100
AcDbLine
 10
3213.410128537348
 20
258.247379370013
 30
0.0
 11
3209.637299501196
 21
255.303900834935
 31
0.0
  0
LINE
  5
41F
330
36
100
AcDbEntity
  8
2-0
  6
Continuous
 62
     7
100
AcDbLine
 10
3209.637299501196
 20
255.303900834935
 30
0.0
 11
3206.068938002491
 21
252.115625276414
 31
0.0
  0
LINE
  5
420
330
36
100
AcDbEntity
  8
2-0
  6
Continuous
 62
     7
100
AcDbLine
 10
3206.068938002491
 20
252.115625276414
 30
0.0
 11
3202.720897552698
 21
248.696717560632
 31
0.0
  0
LINE
  5
421
330
36
100
AcDbEntity
  8
2-0
  6
Continuous
 62
     7
100
AcDbLine
 10
3202.720897552698
 20
248.696717560632
 30
0.0
 11
3199.60805282123
 21
245.062367205992
 31
0.0
  0
LINE
  5
422
330
36
100
AcDbEntity
  8
2-0
  6
Continuous
 62
     7
100
AcDbLine
 10
3199.60805282123
 20
245.062367205992
 30
0.0
 11
3196.744233550295
 21
241.228720899156
 31
0.0
  0
LINE
  5
423
330
36
100
AcDbEntity
  8
2-0
  6
Continuous
 62
     7
100
AcDbLine
 10
3196.744233550295
 20
241.228720899156
 30
0.0
 11
3194.142163112136
 21
237.212810758558
 31
0.0
  0
LINE
  5
424
330
36
100
AcDbEntity
  8
2-0
  6
Continuous
 62
     7
100
AcDbLine
 10
3194.142163112136
 20
237.212810758558
 30
0.0
 11
3191.813401981646
 21
233.032478664141
 31
0.0
  0
LINE
  5
425
330
36
100
AcDbEntity
  8
2-0
  6
Continuous
 62
     7
100
AcDbLine
 10
3191.813401981646
 20
233.032478664141
 30
0.0
 11
3189.768296375511
 21
228.706296989472
 31
0.0
  0
LINE
  5
426
330
36
100
AcDbEntity
  8
2-0
  6
Continuous
 62
     7
100
AcDbLine
 10
3189.768296375511
 20
228.706296989472
 30
0.0
 11
3188.015932286048
 21
224.253486088428
 31
0.0
  0
LINE
  5
427
330
36
100
AcDbEntity
  8
2-0
  6
Continuous
 62
     7
100
AcDbLine
 10
3188.015932286048
 20
224.253486088428
 30
0.0
 11
3186.564095113978
 21
219.693828903037
 31
0.0
  0
LINE
  5
428
330
36
100
AcDbEntity
  8
2-0
  6
Continuous
 62
     7
100
AcDbLine
 10
3186.564095113978
 20
219.693828903037
 30
0.0
 11
3185.419235079454
 21
215.047583071848
 31
0.0
  0
LINE
  5
429
330
36
100
AcDbEntity
  8
2-0
  6
Continuous
 62
     7
100
AcDbLine
 10
3185.419235079454
 20
215.047583071848
 30
0.0
 11
3184.586438565029
 21
210.335390929325
 31
0.0
  0
LINE
  5
42A
330
36
100
AcDbEntity
  8
2-0
  6
Continuous
 62
     7
100
AcDbLine
 10
3184.586438565029
 20
210.335390929325
 30
0.0
 11
3184.069405517893
 21
205.578187796111
 31
0.0
  0
LINE
  5
42B
330
36
100
AcDbEntity
  8
2-0
  6
Continuous
 62
     7
100
AcDbLine
 10
3184.069405517893
 20
205.578187796111
 30
0.0
 11
3183.870433011741
 21
200.797108967615
 31
0.0
  0
LINE
  5
42C
330
36
100
AcDbEntity
  8
2-0
  6
Continuous
 62
     7
100
AcDbLine
 10
3183.870433011741
 20
200.797108967615
 30
0.0
 11
3183.990405041344
 21
196.0133958141529
 31
0.0
  0
LINE
  5
42D
330
36
100
AcDbEntity
  8
2-0
  6
Continuous
 62
     7
100
AcDbLine
 10
3183.990405041344
 20
196.0133958141529
 30
0.0
 11
3184.428788595138
 21
191.248301409815
 31
0.0
  0
LINE
  5
42E
330
36
100
AcDbEntity
  8
2-0
  6
Continuous
 62
     7
100
AcDbLine
 10
3184.428788595138
 20
191.248301409815
 30
0.0
 11
3185.183636023285
 21
186.522996109338
 31
0.0
  0
LINE
  5
42F
330
36
100
AcDbEntity
  8
2-0
  6
Continuous
 62
     7
100
AcDbLine
 10
3185.183636023285
 20
186.522996109338
 30
0.0
 11
3186.251593690689
 21
181.858473492486
 31
0.0
  0
LINE
  5
430
330
36
100
AcDbEntity
  8
2-0
  6
Continuous
 62
     7
100
AcDbLine
 10
3186.251593690689
 20
181.858473492486
 30
0.0
 11
3187.627916876523
 21
177.2754570938
 31
0.0
  0
LINE
  5
431
330
36
100
AcDbEntity
  8
2-0
  6
Continuous
 62
     7
100
AcDbLine
 10
3187.627916876523
 20
177.2754570938
 30
0.0
 11
3189.306490854067
 21
172.794308332109
 31
0.0
  0
LINE
  5
432
330
36
100
AcDbEntity
  8
2-0
  6
Continuous
 62
     7
100
AcDbLine
 10
3189.306490854067
 20
172.794308332109
 30
0.0
 11
3191.279858057209
 21
168.434936048848
 31
0.0
  0
LINE
  5
433
330
36
100
AcDbEntity
  8
2-0
  6
Continuous
 62
     7
100
AcDbLine
 10
3191.279858057209
 20
168.434936048848
 30
0.0
 11
3193.539251212902
 21
164.216708057085
 31
0.0
  0
LINE
  5
434
330
36
100
AcDbEntity
  8
2-0
  6
Continuous
 62
     7
100
AcDbLine
 10
3193.539251212902
 20
164.216708057085
 30
0.0
 11
3196.074632292406
 21
160.158365094225
 31
0.0
  0
LINE
  5
435
330
36
100
AcDbEntity
  8
2-0
  6
Continuous
 62
     7
100
AcDbLine
 10
3196.074632292406
 20
160.158365094225
 30
0.0
 11
3198.874737108214
 21
156.277937560695
 31
0.0
  0
LINE
  5
436
330
36
100
AcDbEntity
  8
2-0
  6
Continuous
 62
     7
100
AcDbLine
 10
3198.874737108214
 20
156.277937560695
 30
0.0
 11
3201.927125358578
 21
152.592665414498
 31
0.0
  0
LINE
  5
437
330
36
100
AcDbEntity
  8
2-0
  6
Continuous
 62
     7
100
AcDbLine
 10
3201.927125358578
 20
152.592665414498
 30
0.0
 11
3205.218235897258
 21
149.118921577557
 31
0.0
  0
LINE
  5
438
330
36
100
AcDbEntity
  8
2-0
  6
Continuous
 62
     7
100
AcDbLine
 10
3205.218235897258
 20
149.118921577557
 30
0.0
 11
3208.73344698297
 21
145.872139194122
 31
0.0
  0
LINE
  5
439
330
36
100
AcDbEntity
  8
2-0
  6
Continuous
 62
     7
100
AcDbLine
 10
3208.73344698297
 20
145.872139194122
 30
0.0
 11
3212.45714124083
 21
142.866743064411
 31
0.0
  0
LINE
  5
43A
330
36
100
AcDbEntity
  8
2-0
  6
Continuous
 62
     7
100
AcDbLine
 10
3212.45714124083
 20
142.866743064411
 30
0.0
 11
3216.37277504721
 21
140.116085558136
 31
0.0
  0
LINE
  5
43B
330
36
100
AcDbEntity
  8
2-0
  6
Continuous
 62
     7
100
AcDbLine
 10
3216.37277504721
 20
140.116085558136
 30
0.0
 11
3220.462952029727
 21
137.632387292609
 31
0.0
  0
LINE
  5
43C
330
36
100
AcDbEntity
  8
2-0
  6
Continuous
 62
     7
100
AcDbLine
 10
3220.462952029727
 20
137.632387292609
 30
0.0
 11
3224.70950035582
 21
135.426682839
 31
0.0
  0
LINE
  5
43D
330
36
100
AcDbEntity
  8
2-0
  6
Continuous
 62
     7
100
AcDbLine
 10
3224.70950035582
 20
135.426682839
 30
0.0
 11
3229.093553466537
 21
133.508771697964
 31
0.0
  0
LINE
  5
43E
330
36
100
AcDbEntity
  8
2-0
  6
Continuous
 62
     7
100
AcDbLine
 10
3229.093553466537
 20
133.508771697964
 30
0.0
 11
3233.595633896866
 21
131.887174762428
 31
0.0
  0
LINE
  5
43F
330
36
100
AcDbEntity
  8
2-0
  6
Continuous
 62
     7
100
AcDbLine
 10
3233.595633896866
 20
131.887174762428
 30
0.0
 11
3238.195739810186
 21
130.569096460984
 31
0.0
  0
LINE
  5
440
330
36
100
AcDbEntity
  8
2-0
  6
Continuous
 62
     7
100
AcDbLine
 10
3238.195739810186
 20
130.569096460984
 30
0.0
 11
3242.873433862395
 21
129.560392750061
 31
0.0
  0
LINE
  5
441
330
36
100
AcDbEntity
  8
2-0
  6
Continuous
 62
     7
100
AcDbLine
 10
3242.873433862395
 20
129.560392750061
 30
0.0
 11
3247.607934000916
 21
128.865545097091
 31
0.0
  0
LINE
  5
442
330
36
100
AcDbEntity
  8
2-0
  6
Continuous
 62
     7
100
AcDbLine
 10
3247.607934000916
 20
128.865545097091
 30
0.0
 11
3252.378205795176
 21
128.487640570254
 31
0.0
  0
LINE
  5
443
330
36
100
AcDbEntity
  8
2-0
  6
Continuous
 62
     7
100
AcDbLine
 10
3252.378205795176
 20
128.487640570254
 30
0.0
 11
3257.163055888331
 21
128.42835812325
 31
0.0
  0
LINE
  5
444
330
36
100
AcDbEntity
  8
2-0
  6
Continuous
 62
     7
100
AcDbLine
 10
3257.163055888331
 20
128.42835812325
 30
0.0
 11
3261.941226155101
 21
128.687961136052
 31
0.0
  0
LINE
  5
445
330
36
100
AcDbEntity
  8
2-0
  6
Continuous
 62
     7
100
AcDbLine
 10
3261.941226155101
 20
128.687961136052
 30
0.0
 11
3266.691488147325
 21
129.265296244759
 31
0.0
  0
LINE
  5
446
330
36
100
AcDbEntity
  8
2-0
  6
Continuous
 62
     7
100
AcDbLine
 10
3266.691488147325
 20
129.265296244759
 30
0.0
 11
3271.392737407681
 21
130.15779846576
 31
0.0
  0
LINE
  5
447
330
36
100
AcDbEntity
  8
2-0
  6
Continuous
 62
     7
100
AcDbLine
 10
3271.392737407681
 20
130.15779846576
 30
0.0
 11
3276.024087232551
 21
131.361502591438
 31
0.0
  0
LINE
  5
448
330
36
100
AcDbEntity
  8
2-0
  6
Continuous
 62
     7
100
AcDbLine
 10
3276.024087232551
 20
131.361502591438
 30
0.0
 11
3280.564961467427
 21
132.871060806793
 31
0.0
  0
LINE
  5
449
330
36
100
AcDbEntity
  8
2-0
  6
Continuous
 62
     7
100
AcDbLine
 10
3280.564961467427
 20
132.871060806793
 30
0.0
 11
3284.995185922624
 21
134.6797664487
 31
0.0
  0
LINE
  5
44A
330
36
100
AcDbEntity
  8
2-0
  6
Continuous
 62
     7
100
AcDbLine
 10
3284.995185922624
 20
134.6797664487
 30
0.0
 11
3289.295078003147
 21
136.779583802272
 31
0.0
  0
LINE
  5
44B
330
36
100
AcDbEntity
  8
2-0
  6
Continuous
 62
     7
100
AcDbLine
 10
3289.295078003147
 20
136.779583802272
 30
0.0
 11
3293.445534154488
 21
139.161183801913
 31
0.0
  0
LINE
  5
44C
330
36
100
AcDbEntity
  8
2-0
  6
Continuous
 62
     7
100
AcDbLine
 10
3293.445534154488
 20
139.161183801913
 30
0.0
 11
3297.428114735879
 21
141.813985478486
 31
0.0
  0
LINE
  5
44D
330
36
100
AcDbEntity
  8
2-0
  6
Continuous
 62
     7
100
AcDbLine
 10
3297.428114735879
 20
141.813985478486
 30
0.0
 11
3301.225125943897
 21
144.72620296842
 31
0.0
  0
LINE
  5
44E
330
36
100
AcDbEntity
  8
2-0
  6
Continuous
 62
     7
100
AcDbLine
 10
3301.225125943897
 20
144.72620296842
 30
0.0
 11
3304.819698422472
 21
147.884897875936
 31
0.0
  0
LINE
  5
44F
330
36
100
AcDbEntity
  8
2-0
  6
Continuous
 62
     7
100
AcDbLine
 10
3304.819698422472
 20
147.884897875936
 30
0.0
 11
3308.195862210036
 21
151.276036755729
 31
0.0
  0
LINE
  5
450
330
36
100
AcDbEntity
  8
2-0
  6
Continuous
 62
     7
100
AcDbLine
 10
3308.195862210036
 20
151.276036755729
 30
0.0
 11
3311.338617690848
 21
154.884553460736
 31
0.0
  0
LINE
  5
451
330
36
100
AcDbEntity
  8
2-0
  6
Continuous
 62
     7
100
AcDbLine
 10
3311.338617690848
 20
154.884553460736
 30
0.0
 11
3314.234002235265
 21
158.694416078003
 31
0.0
  0
LINE
  5
452
330
36
100
AcDbEntity
  8
2-0
  6
Continuous
 62
     7
100
AcDbLine
 10
3314.234002235265
 20
158.694416078003
 30
0.0
 11
3316.869152232893
 21
162.688698155235
 31
0.0
  0
LINE
  5
453
330
36
100
AcDbEntity
  8
2-0
  6
Continuous
 62
     7
100
AcDbLine
 10
3316.869152232893
 20
162.688698155235
 30
0.0
 11
3319.232360243017
 21
166.84965390162
 31
0.0
  0
LINE
  5
454
330
36
100
AcDbEntity
  8
2-0
  6
Continuous
 62
     7
100
AcDbLine
 10
3319.232360243017
 20
166.84965390162
 30
0.0
 11
3321.313127008405
 21
171.158797028804
 31
0.0
  0
LINE
  5
455
330
36
100
AcDbEntity
  8
2-0
  6
Continuous
 62
     7
100
AcDbLine
 10
3321.313127008405
 20
171.158797028804
 30
0.0
 11
3323.102208101389
 21
175.596982881742
 31
0.0
  0
LINE
  5
456
330
36
100
AcDbEntity
  8
2-0
  6
Continuous
 62
     7
100
AcDbLine
 10
3323.102208101389
 20
175.596982881742
 30
0.0
 11
3324.591654994995
 21
180.144493494552
 31
0.0
  0
LINE
  5
457
330
36
100
AcDbEntity
  8
2-0
  6
Continuous
 62
     7
100
AcDbLine
 10
3324.591654994995
 20
180.144493494552
 30
0.0
 11
3325.774850376657
 21
184.781125193459
 31
0.0
  0
LINE
  5
458
330
36
100
AcDbEntity
  8
2-0
  6
Continuous
 62
     7
100
AcDbLine
 10
3325.774850376657
 20
184.781125193459
 30
0.0
 11
3326.64653754759
 21
189.486278357653
 31
0.0
  0
LINE
  5
459
330
36
100
AcDbEntity
  8
2-0
  6
Continuous
 62
     7
100
AcDbLine
 10
3326.64653754759
 20
189.486278357653
 30
0.0
 11
3327.202843777253
 21
194.239048939253
 31
0.0
  0
LINE
  5
45A
330
36
100
AcDbEntity
  8
2-0
  6
Continuous
 62
     7
100
AcDbLine
 10
3327.202843777253
 20
194.239048939253
 30
0.0
 11
3327.44129750911
 21
199.018321335786
 31
0.0
  0
LINE
  5
45B
330
36
100
AcDbEntity
  8
2-0
  6
Continuous
 62
     7
100
AcDbLine
 10
3327.44129750911
 20
199.018321335786
 30
0.0
 11
3327.451092004948
 21
200.204166274283
 31
0.0
  0
LINE
  5
45C
330
36
100
AcDbEntity
  8
2-0
  6
Continuous
 62
     7
100
AcDbLine
 10
3327.451092004948
 20
200.204166274283
 30
0.0
 11
3327.291614297606
 21
204.986725388748
 31
0.0
  0
LINE
  5
45D
330
36
100
AcDbEntity
  8
2-0
  6
Continuous
 62
     7
100
AcDbLine
 10
3327.291614297606
 20
204.986725388748
 30
0.0
 11
3326.813889702914
 21
209.748036556285
 31
0.0
  0
LINE
  5
45E
330
36
100
AcDbEntity
  8
2-0
  6
Continuous
 62
     7
100
AcDbLine
 10
3326.813889702914
 20
209.748036556285
 30
0.0
 11
3326.020040655032
 21
214.466946230317
 31
0.0
  0
LINE
  5
45F
330
36
100
AcDbEntity
  8
2-0
  6
Continuous
 62
     7
100
AcDbLine
 10
3326.020040655032
 20
214.466946230317
 30
0.0
 11
3324.913594065396
 21
219.12248924556
 31
0.0
  0
LINE
  5
460
330
36
100
AcDbEntity
  8
2-0
  6
Continuous
 62
     7
100
AcDbLine
 10
3324.913594065396
 20
219.12248924556
 30
0.0
 11
3323.499465653365
 21
223.693981962034
 31
0.0
  0
LINE
  5
461
330
36
100
AcDbEntity
  8
2-0
  6
Continuous
 62
     7
100
AcDbLine
 10
3323.499465653365
 20
223.693981962034
 30
0.0
 11
3321.783938106662
 21
228.161114158309
 31
0.0
  0
LINE
  5
462
330
36
100
AcDbEntity
  8
2-0
  6
Continuous
 62
     7
100
AcDbLine
 10
3321.783938106662
 20
228.161114158309
 30
0.0
 11
3319.774633168667
 21
232.504039265727
 31
0.0
  0
LINE
  5
463
330
36
100
AcDbEntity
  8
2-0
  6
Continuous
 62
     7
100
AcDbLine
 10
3319.774633168667
 20
232.504039265727
 30
0.0
 11
3317.480477776542
 21
236.703462542712
 31
0.0
  0
LINE
  5
464
330
36
100
AcDbEntity
  8
2-0
  6
Continuous
 62
     7
100
AcDbLine
 10
3317.480477776542
 20
236.703462542712
 30
0.0
 11
3314.911664400646
 21
240.740726797416
 31
0.0
  0
LINE
  5
465
330
36
100
AcDbEntity
  8
2-0
  6
Continuous
 62
     7
100
AcDbLine
 10
3314.911664400646
 20
240.740726797416
 30
0.0
 11
3312.079605761442
 21
244.59789527787
 31
0.0
  0
LINE
  5
466
330
36
100
AcDbEntity
  8
2-0
  6
Continuous
 62
     7
100
AcDbLine
 10
3312.079605761442
 20
244.59789527787
 30
0.0
 11
3308.996884125083
 21
248.257831361357
 31
0.0
  0
LINE
  5
467
330
36
100
AcDbEntity
  8
2-0
  6
Continuous
 62
     7
100
AcDbLine
 10
3308.996884125083
 20
248.257831361357
 30
0.0
 11
3305.677195402931
 21
251.704274688979
 31
0.0
  0
LINE
  5
468
330
36
100
AcDbEntity
  8
2-0
  6
Continuous
 62
     7
100
AcDbLine
 10
3305.677195402931
 20
251.704274688979
 30
0.0
 11
3302.135288303384
 21
254.921913407152
 31
0.0
  0
LINE
  5
469
330
36
100
AcDbEntity
  8
2-0
  6
Continuous
 62
     7
100
AcDbLine
 10
3302.135288303384
 20
254.921913407152
 30
0.0
 11
3298.386898806341
 21
257.89645219509
 31
0.0
  0
LINE
  5
46A
330
36
100
AcDbEntity
  8
2-0
  6
Continuous
 62
     7
100
AcDbLine
 10
3298.386898806341
 20
257.89645219509
 30
0.0
 11
3294.4486802514
 21
260.614675776038
 31
0.0
  0
LINE
  5
46B
330
36
100
AcDbEntity
  8
2-0
  6
Continuous
 62
     7
100
AcDbLine
 10
3294.4486802514
 20
260.614675776038
 30
0.0
 11
3290.338129350438
 21
263.064507630083
 31
0.0
  0
LINE
  5
46C
330
36
100
AcDbEntity
  8
2-0
  6
Continuous
 62
     7
100
AcDbLine
 10
3290.338129350438
 20
263.064507630083
 30
0.0
 11
3286.07350845323
 21
265.235063647697
 31
0.0
  0
LINE
  5
46D
330
36
100
AcDbEntity
  8
2-0
  6
Continuous
 62
     7
100
AcDbLine
 10
3286.07350845323
 20
265.235063647697
 30
0.0
 11
3281.67376441152
 21
267.11670048565
 31
0.0
  0
LINE
  5
46E
330
36
100
AcDbEntity
  8
2-0
  6
Continuous
 62
     7
100
AcDbLine
 10
3281.67376441152
 20
267.11670048565
 30
0.0
 11
3277.158444401968
 21
268.701058410436
 31
0.0
  0
LINE
  5
46F
330
36
100
AcDbEntity
  8
2-0
  6
Continuous
 62
     7
100
AcDbLine
 10
3277.158444401968
 20
268.701058410436
 30
0.0
 11
3272.547609081978
 21
269.981098438889
 31
0.0
  0
LINE
  5
470
330
36
100
AcDbEntity
  8
2-0
  6
Continuous
 62
     7
100
AcDbLine
 10
3272.547609081978
 20
269.981098438889
 30
0.0
 11
3267.861743464247
 21
270.951133610965
 31
0.0
  0
LINE
  5
471
330
36
100
AcDbEntity
  8
2-0
  6
Continuous
 62
     7
100
AcDbLine
 10
3267.861743464247
 20
270.951133610965
 30
0.0
 11
3263.12166590597
 21
271.606854255763
 31
0.0
  0
LINE
  5
472
330
36
100
AcDbEntity
  8
2-0
  6
Continuous
 62
     7
100
AcDbLine
 10
3263.12166590597
 20
271.606854255763
 30
0.0
 11
3258.348435617075
 21
271.945347138521
 31
0.0
  0
LINE
  5
473
330
36
100
AcDbEntity
  8
2-0
  6
Continuous
 62
     7
100
AcDbLine
 10
3258.348435617075
 20
271.945347138521
 30
0.0
 11
3253.563259098398
 21
271.965108403533
 31
0.0
  0
LINE
  5
474
330
36
100
AcDbEntity
  8
2-0
  6
Continuous
 62
     7
100
AcDbLine
 10
3253.563259098398
 20
271.965108403533
 30
0.0
 11
3248.787395925464
 21
271.666050255481
 31
0.0
  0
LINE
  5
475
330
36
100
AcDbEntity
  8
2-0
  6
Continuous
 62
     7
100
AcDbLine
 10
3248.787395925464
 20
271.666050255481
 30
0.0
 11
3244.042064296482
 21
271.049501349483
 31
0.0
  0
LINE
  5
476
330
36
100
AcDbEntity
  8
2-0
  6
Continuous
 62
     7
100
AcDbLine
 10
3244.042064296482
 20
271.049501349483
 30
0.0
 11
3239.348346764159
 21
270.118200888156
 31
0.0
  0
LINE
  5
477
330
36
100
AcDbEntity
  8
2-0
  6
Continuous
 62
     7
100
AcDbLine
 10
3239.348346764159
 20
270.118200888156
 30
0.0
 11
3234.727096570166
 21
268.876286451883
 31
0.0
  0
LINE
  5
478
330
36
100
AcDbEntity
  8
2-0
  6
Continuous
 62
     7
100
AcDbLine
 10
3234.727096570166
 20
268.876286451883
 30
0.0
 11
3230.198844998387
 21
267.32927561638
 31
0.0
  0
LINE
  5
479
330
36
100
AcDbEntity
  8
2-0
  6
Continuous
 62
     7
100
AcDbLine
 10
3230.198844998387
 20
267.32927561638
 30
0.0
 11
3225.78371015855
 21
265.484041439218
 31
0.0
  0
LINE
  5
47A
330
36
100
AcDbEntity
  8
2-0
  6
Continuous
 62
     7
100
AcDbLine
 10
3225.78371015855
 20
265.484041439218
 30
0.0
 11
3221.501307605534
 21
263.348781924212
 31
0.0
  0
LINE
  5
47B
330
36
100
AcDbEntity
  8
2-0
  6
Continuous
 62
     7
100
AcDbLine
 10
3221.501307605534
 20
263.348781924212
 30
0.0
 11
3217.370663191398
 21
260.93298359934
 31
0.0
  0
LINE
  5
47C
330
36
100
AcDbEntity
  8
2-0
  6
Continuous
 62
     7
100
AcDbLine
 10
3217.370663191398
 20
260.93298359934
 30
0.0
 11
3213.410128537348
 21
258.247379370013
 31
0.0
  0
LINE
  5
47D
330
36
100
AcDbEntity
  8
2-0
  6
Continuous
 62
     7
100
AcDbLine
 10
3213.410128537348
 20
258.247379370013
 30
0.0
 11
3209.637299501196
 21
255.303900834935
 31
0.0
  0
LINE
  5
47E
330
36
100
AcDbEntity
  8
2-0
  6
Continuous
 62
     7
100
AcDbLine
 10
3209.637299501196
 20
255.303900834935
 30
0.0
 11
3206.068938002491
 21
252.115625276414
 31
0.0
  0
LINE
  5
47F
330
36
100
AcDbEntity
  8
2-0
  6
Continuous
 62
     7
100
AcDbLine
 10
3206.068938002491
 20
252.115625276414
 30
0.0
 11
3202.720897552698
 21
248.696717560632
 31
0.0
  0
LINE
  5
480
330
36
100
AcDbEntity
  8
2-0
  6
Continuous
 62
     7
100
AcDbLine
 10
3202.720897552698
 20
248.696717560632
 30
0.0
 11
3199.60805282123
 21
245.062367205992
 31
0.0
  0
LINE
  5
481
330
36
100
AcDbEntity
  8
2-0
  6
Continuous
 62
     7
100
AcDbLine
 10
3199.60805282123
 20
245.062367205992
 30
0.0
 11
3196.744233550295
 21
241.228720899156
 31
0.0
  0
LINE
  5
482
330
36
100
AcDbEntity
  8
2-0
  6
Continuous
 62
     7
100
AcDbLine
 10
3196.744233550295
 20
241.228720899156
 30
0.0
 11
3194.142163112136
 21
237.212810758558
 31
0.0
  0
LINE
  5
483
330
36
100
AcDbEntity
  8
2-0
  6
Continuous
 62
     7
100
AcDbLine
 10
3194.142163112136
 20
237.212810758558
 30
0.0
 11
3191.813401981646
 21
233.032478664141
 31
0.0
  0
LINE
  5
484
330
36
100
AcDbEntity
  8
2-0
  6
Continuous
 62
     7
100
AcDbLine
 10
3191.813401981646
 20
233.032478664141
 30
0.0
 11
3189.768296375511
 21
228.706296989472
 31
0.0
  0
LINE
  5
485
330
36
100
AcDbEntity
  8
2-0
  6
Continuous
 62
     7
100
AcDbLine
 10
3189.768296375511
 20
228.706296989472
 30
0.0
 11
3188.015932286048
 21
224.253486088428
 31
0.0
  0
LINE
  5
486
330
36
100
AcDbEntity
  8
2-0
  6
Continuous
 62
     7
100
AcDbLine
 10
3188.015932286048
 20
224.253486088428
 30
0.0
 11
3186.564095113978
 21
219.693828903037
 31
0.0
  0
LINE
  5
487
330
36
100
AcDbEntity
  8
2-0
  6
Continuous
 62
     7
100
AcDbLine
 10
3186.564095113978
 20
219.693828903037
 30
0.0
 11
3185.419235079454
 21
215.047583071848
 31
0.0
  0
LINE
  5
488
330
36
100
AcDbEntity
  8
2-0
  6
Continuous
 62
     7
100
AcDbLine
 10
3185.419235079454
 20
215.047583071848
 30
0.0
 11
3184.586438565029
 21
210.335390929325
 31
0.0
  0
LINE
  5
489
330
36
100
AcDbEntity
  8
2-0
  6
Continuous
 62
     7
100
AcDbLine
 10
3184.586438565029
 20
210.335390929325
 30
0.0
 11
3184.069405517893
 21
205.578187796111
 31
0.0
  0
LINE
  5
48A
330
36
100
AcDbEntity
  8
2-0
  6
Continuous
 62
     7
100
AcDbLine
 10
3184.069405517893
 20
205.578187796111
 30
0.0
 11
3183.870433011741
 21
200.797108967615
 31
0.0
  0
LINE
  5
48B
330
36
100
AcDbEntity
  8
2-0
  6
Continuous
 62
     7
100
AcDbLine
 10
3183.870433011741
 20
200.797108967615
 30
0.0
 11
3183.990405041344
 21
196.0133958141529
 31
0.0
  0
LINE
  5
48C
330
36
100
AcDbEntity
  8
2-0
  6
Continuous
 62
     7
100
AcDbLine
 10
3183.990405041344
 20
196.0133958141529
 30
0.0
 11
3184.428788595138
 21
191.248301409815
 31
0.0
  0
LINE
  5
48D
330
36
100
AcDbEntity
  8
2-0
  6
Continuous
 62
     7
100
AcDbLine
 10
3184.428788595138
 20
191.248301409815
 30
0.0
 11
3185.183636023285
 21
186.522996109338
 31
0.0
  0
LINE
  5
48E
330
36
100
AcDbEntity
  8
2-0
  6
Continuous
 62
     7
100
AcDbLine
 10
3185.183636023285
 20
186.522996109338
 30
0.0
 11
3186.251593690689
 21
181.858473492486
 31
0.0
  0
LINE
  5
48F
330
36
100
AcDbEntity
  8
2-0
  6
Continuous
 62
     7
100
AcDbLine
 10
3186.251593690689
 20
181.858473492486
 30
0.0
 11
3187.627916876523
 21
177.2754570938
 31
0.0
  0
LINE
  5
490
330
36
100
AcDbEntity
  8
2-0
  6
Continuous
 62
     7
100
AcDbLine
 10
3187.627916876523
 20
177.2754570938
 30
0.0
 11
3189.306490854067
 21
172.794308332109
 31
0.0
  0
LINE
  5
491
330
36
100
AcDbEntity
  8
2-0
  6
Continuous
 62
     7
100
AcDbLine
 10
3189.306490854067
 20
172.794308332109
 30
0.0
 11
3191.279858057209
 21
168.434936048848
 31
0.0
  0
LINE
  5
492
330
36
100
AcDbEntity
  8
2-0
  6
Continuous
 62
     7
100
AcDbLine
 10
3191.279858057209
 20
168.434936048848
 30
0.0
 11
3193.539251212902
 21
164.216708057085
 31
0.0
  0
LINE
  5
493
330
36
100
AcDbEntity
  8
2-0
  6
Continuous
 62
     7
100
AcDbLine
 10
3193.539251212902
 20
164.216708057085
 30
0.0
 11
3196.074632292406
 21
160.158365094225
 31
0.0
  0
LINE
  5
494
330
36
100
AcDbEntity
  8
2-0
  6
Continuous
 62
     7
100
AcDbLine
 10
3196.074632292406
 20
160.158365094225
 30
0.0
 11
3198.874737108214
 21
156.277937560695
 31
0.0
  0
LINE
  5
495
330
36
100
AcDbEntity
  8
2-0
  6
Continuous
 62
     7
100
AcDbLine
 10
3198.874737108214
 20
156.277937560695
 30
0.0
 11
3201.927125358578
 21
152.592665414498
 31
0.0
  0
LINE
  5
496
330
36
100
AcDbEntity
  8
2-0
  6
Continuous
 62
     7
100
AcDbLine
 10
3201.927125358578
 20
152.592665414498
 30
0.0
 11
3205.218235897258
 21
149.118921577557
 31
0.0
  0
LINE
  5
497
330
36
100
AcDbEntity
  8
2-0
  6
Continuous
 62
     7
100
AcDbLine
 10
3205.218235897258
 20
149.118921577557
 30
0.0
 11
3208.73344698297
 21
145.872139194122
 31
0.0
  0
LINE
  5
498
330
36
100
AcDbEntity
  8
2-0
  6
Continuous
 62
     7
100
AcDbLine
 10
3208.73344698297
 20
145.872139194122
 30
0.0
 11
3212.45714124083
 21
142.866743064411
 31
0.0
  0
LINE
  5
499
330
36
100
AcDbEntity
  8
2-0
  6
Continuous
 62
     7
100
AcDbLine
 10
3212.45714124083
 20
142.866743064411
 30
0.0
 11
3216.37277504721
 21
140.116085558136
 31
0.0
  0
LINE
  5
49A
330
36
100
AcDbEntity
  8
2-0
  6
Continuous
 62
     7
100
AcDbLine
 10
3216.37277504721
 20
140.116085558136
 30
0.0
 11
3220.462952029727
 21
137.632387292609
 31
0.0
  0
LINE
  5
49B
330
36
100
AcDbEntity
  8
2-0
  6
Continuous
 62
     7
100
AcDbLine
 10
3220.462952029727
 20
137.632387292609
 30
0.0
 11
3224.70950035582
 21
135.426682839
 31
0.0
  0
LINE
  5
49C
330
36
100
AcDbEntity
  8
2-0
  6
Continuous
 62
     7
100
AcDbLine
 10
3224.70950035582
 20
135.426682839
 30
0.0
 11
3229.093553466537
 21
133.508771697964
 31
0.0
  0
LINE
  5
49D
330
36
100
AcDbEntity
  8
2-0
  6
Continuous
 62
     7
100
AcDbLine
 10
3229.093553466537
 20
133.508771697964
 30
0.0
 11
3233.595633896866
 21
131.887174762428
 31
0.0
  0
LINE
  5
49E
330
36
100
AcDbEntity
  8
2-0
  6
Continuous
 62
     7
100
AcDbLine
 10
3233.595633896866
 20
131.887174762428
 30
0.0
 11
3238.195739810186
 21
130.569096460984
 31
0.0
  0
LINE
  5
49F
330
36
100
AcDbEntity
  8
2-0
  6
Continuous
 62
     7
100
AcDbLine
 10
3238.195739810186
 20
130.569096460984
 30
0.0
 11
3242.873433862395
 21
129.560392750061
 31
0.0
  0
LINE
  5
4A0
330
36
100
AcDbEntity
  8
2-0
  6
Continuous
 62
     7
100
AcDbLine
 10
3242.873433862395
 20
129.560392750061
 30
0.0
 11
3247.607934000916
 21
128.865545097091
 31
0.0
  0
LINE
  5
4A1
330
36
100
AcDbEntity
  8
2-0
  6
Continuous
 62
     7
100
AcDbLine
 10
3247.607934000916
 20
128.865545097091
 30
0.0
 11
3252.378205795176
 21
128.487640570254
 31
0.0
  0
LINE
  5
4A2
330
36
100
AcDbEntity
  8
2-0
  6
Continuous
 62
     7
100
AcDbLine
 10
3252.378205795176
 20
128.487640570254
 30
0.0
 11
3257.163055888331
 21
128.42835812325
 31
0.0
  0
LINE
  5
4A3
330
36
100
AcDbEntity
  8
2-0
  6
Continuous
 62
     7
100
AcDbLine
 10
3257.163055888331
 20
128.42835812325
 30
0.0
 11
3261.941226155101
 21
128.687961136052
 31
0.0
  0
LINE
  5
4A4
330
36
100
AcDbEntity
  8
2-0
  6
Continuous
 62
     7
100
AcDbLine
 10
3261.941226155101
 20
128.687961136052
 30
0.0
 11
3266.691488147325
 21
129.265296244759
 31
0.0
  0
LINE
  5
4A5
330
36
100
AcDbEntity
  8
2-0
  6
Continuous
 62
     7
100
AcDbLine
 10
3266.691488147325
 20
129.265296244759
 30
0.0
 11
3271.392737407681
 21
130.15779846576
 31
0.0
  0
LINE
  5
4A6
330
36
100
AcDbEntity
  8
2-0
  6
Continuous
 62
     7
100
AcDbLine
 10
3271.392737407681
 20
130.15779846576
 30
0.0
 11
3276.024087232551
 21
131.361502591438
 31
0.0
  0
LINE
  5
4A7
330
36
100
AcDbEntity
  8
2-0
  6
Continuous
 62
     7
100
AcDbLine
 10
3276.024087232551
 20
131.361502591438
 30
0.0
 11
3280.564961467427
 21
132.871060806793
 31
0.0
  0
LINE
  5
4A8
330
36
100
AcDbEntity
  8
2-0
  6
Continuous
 62
     7
100
AcDbLine
 10
3280.564961467427
 20
132.871060806793
 30
0.0
 11
3284.995185922624
 21
134.6797664487
 31
0.0
  0
LINE
  5
4A9
330
36
100
AcDbEntity
  8
2-0
  6
Continuous
 62
     7
100
AcDbLine
 10
3284.995185922624
 20
134.6797664487
 30
0.0
 11
3289.295078003147
 21
136.779583802272
 31
0.0
  0
LINE
  5
4AA
330
36
100
AcDbEntity
  8
2-0
  6
Continuous
 62
     7
100
AcDbLine
 10
3289.295078003147
 20
136.779583802272
 30
0.0
 11
3293.445534154488
 21
139.161183801913
 31
0.0
  0
LINE
  5
4AB
330
36
100
AcDbEntity
  8
2-0
  6
Continuous
 62
     7
100
AcDbLine
 10
3293.445534154488
 20
139.161183801913
 30
0.0
 11
3297.428114735879
 21
141.813985478486
 31
0.0
  0
LINE
  5
4AC
330
36
100
AcDbEntity
  8
2-0
  6
Continuous
 62
     7
100
AcDbLine
 10
3297.428114735879
 20
141.813985478486
 30
0.0
 11
3301.225125943897
 21
144.72620296842
 31
0.0
  0
LINE
  5
4AD
330
36
100
AcDbEntity
  8
2-0
  6
Continuous
 62
     7
100
AcDbLine
 10
3301.225125943897
 20
144.72620296842
 30
0.0
 11
3304.819698422472
 21
147.884897875936
 31
0.0
  0
LINE
  5
4AE
330
36
100
AcDbEntity
  8
2-0
  6
Continuous
 62
     7
100
AcDbLine
 10
3304.819698422472
 20
147.884897875936
 30
0.0
 11
3308.195862210036
 21
151.276036755729
 31
0.0
  0
LINE
  5
4AF
330
36
100
AcDbEntity
  8
2-0
  6
Continuous
 62
     7
100
AcDbLine
 10
3308.195862210036
 20
151.276036755729
 30
0.0
 11
3311.338617690848
 21
154.884553460736
 31
0.0
  0
LINE
  5
4B0
330
36
100
AcDbEntity
  8
2-0
  6
Continuous
 62
     7
100
AcDbLine
 10
3311.338617690848
 20
154.884553460736
 30
0.0
 11
3314.234002235265
 21
158.694416078003
 31
0.0
  0
LINE
  5
4B1
330
36
100
AcDbEntity
  8
2-0
  6
Continuous
 62
     7
100
AcDbLine
 10
3314.234002235265
 20
158.694416078003
 30
0.0
 11
3316.869152232893
 21
162.688698155235
 31
0.0
  0
LINE
  5
4B2
330
36
100
AcDbEntity
  8
2-0
  6
Continuous
 62
     7
100
AcDbLine
 10
3316.869152232893
 20
162.688698155235
 30
0.0
 11
3319.232360243017
 21
166.84965390162
 31
0.0
  0
LINE
  5
4B3
330
36
100
AcDbEntity
  8
2-0
  6
Continuous
 62
     7
100
AcDbLine
 10
3319.232360243017
 20
166.84965390162
 30
0.0
 11
3321.313127008405
 21
171.158797028804
 31
0.0
  0
LINE
  5
4B4
330
36
100
AcDbEntity
  8
2-0
  6
Continuous
 62
     7
100
AcDbLine
 10
3321.313127008405
 20
171.158797028804
 30
0.0
 11
3323.102208101389
 21
175.596982881742
 31
0.0
  0
LINE
  5
4B5
330
36
100
AcDbEntity
  8
2-0
  6
Continuous
 62
     7
100
AcDbLine
 10
3323.102208101389
 20
175.596982881742
 30
0.0
 11
3324.591654994995
 21
180.144493494552
 31
0.0
  0
LINE
  5
4B6
330
36
100
AcDbEntity
  8
2-0
  6
Continuous
 62
     7
100
AcDbLine
 10
3324.591654994995
 20
180.144493494552
 30
0.0
 11
3325.774850376657
 21
184.781125193459
 31
0.0
  0
LINE
  5
4B7
330
36
100
AcDbEntity
  8
2-0
  6
Continuous
 62
     7
100
AcDbLine
 10
3325.774850376657
 20
184.781125193459
 30
0.0
 11
3326.64653754759
 21
189.486278357653
 31
0.0
  0
LINE
  5
4B8
330
36
100
AcDbEntity
  8
2-0
  6
Continuous
 62
     7
100
AcDbLine
 10
3326.64653754759
 20
189.486278357653
 30
0.0
 11
3327.202843777253
 21
194.239048939253
 31
0.0
  0
LINE
  5
4B9
330
36
100
AcDbEntity
  8
2-0
  6
Continuous
 62
     7
100
AcDbLine
 10
3327.202843777253
 20
194.239048939253
 30
0.0
 11
3327.44129750911
 21
199.018321335786
 31
0.0
  0
LINE
  5
4BA
330
36
100
AcDbEntity
  8
2-0
  6
Continuous
 62
     7
100
AcDbLine
 10
3327.44129750911
 20
199.018321335786
 30
0.0
 11
3327.451092004948
 21
200.204166274283
 31
0.0
  0
LINE
  5
4BB
330
36
100
AcDbEntity
  8
2-0
  6
Continuous
 62
     7
100
AcDbLine
 10
3304.08976752536
 20
159.209303686958
 30
0.0
 11
3306.713151499162
 21
162.526660517775
 31
0.0
  0
LINE
  5
4BC
330
36
100
AcDbEntity
  8
2-0
  6
Continuous
 62
     7
100
AcDbLine
 10
3306.713151499162
 20
162.526660517775
 30
0.0
 11
3309.10971455128
 21
166.011410918334
 31
0.0
  0
LINE
  5
4BD
330
36
100
AcDbEntity
  8
2-0
  6
Continuous
 62
     7
100
AcDbLine
 10
3309.10971455128
 20
166.011410918334
 30
0.0
 11
3311.268809234745
 21
169.648072844441
 31
0.0
  0
LINE
  5
4BE
330
36
100
AcDbEntity
  8
2-0
  6
Continuous
 62
     7
100
AcDbLine
 10
3311.268809234745
 20
169.648072844441
 30
0.0
 11
3313.180843126725
 21
173.420489339591
 31
0.0
  0
LINE
  5
4BF
330
36
100
AcDbEntity
  8
2-0
  6
Continuous
 62
     7
100
AcDbLine
 10
3313.180843126725
 20
173.420489339591
 30
0.0
 11
3314.837321445728
 21
177.31190031707
 31
0.0
  0
LINE
  5
4C0
330
36
100
AcDbEntity
  8
2-0
  6
Continuous
 62
     7
100
AcDbLine
 10
3314.837321445728
 20
177.31190031707
 30
0.0
 11
3316.230884792199
 21
181.305017021643
 31
0.0
  0
LINE
  5
4C1
330
36
100
AcDbEntity
  8
2-0
  6
Continuous
 62
     7
100
AcDbLine
 10
3316.230884792199
 20
181.305017021643
 30
0.0
 11
3317.355341844858
 21
185.382098840014
 31
0.0
  0
LINE
  5
4C2
330
36
100
AcDbEntity
  8
2-0
  6
Continuous
 62
     7
100
AcDbLine
 10
3317.355341844858
 20
185.382098840014
 30
0.0
 11
3318.205696867485
 21
189.525032118798
 31
0.0
  0
LINE
  5
4C3
330
36
100
AcDbEntity
  8
2-0
  6
Continuous
 62
     7
100
AcDbLine
 10
3318.205696867485
 20
189.525032118798
 30
0.0
 11
3318.778171903982
 21
193.715410639833
 31
0.0
  0
LINE
  5
4C4
330
36
100
AcDbEntity
  8
2-0
  6
Continuous
 62
     7
100
AcDbLine
 10
3318.778171903982
 20
193.715410639833
 30
0.0
 11
3319.070223563058
 21
197.934617395302
 31
0.0
  0
LINE
  5
4C5
330
36
100
AcDbEntity
  8
2-0
  6
Continuous
 62
     7
100
AcDbLine
 10
3319.070223563058
 20
197.934617395302
 30
0.0
 11
3319.080554318011
 21
202.163907299348
 31
0.0
  0
LINE
  5
4C6
330
36
100
AcDbEntity
  8
2-0
  6
Continuous
 62
     7
100
AcDbLine
 10
3319.080554318011
 20
202.163907299348
 30
0.0
 11
3318.809118271377
 21
206.384490468716
 31
0.0
  0
LINE
  5
4C7
330
36
100
AcDbEntity
  8
2-0
  6
Continuous
 62
     7
100
AcDbLine
 10
3318.809118271377
 20
206.384490468716
 30
0.0
 11
3318.257121358844
 21
210.577615702419
 31
0.0
  0
LINE
  5
4C8
330
36
100
AcDbEntity
  8
2-0
  6
Continuous
 62
     7
100
AcDbLine
 10
3318.257121358844
 20
210.577615702419
 30
0.0
 11
3317.427015991523
 21
214.724653789549
 31
0.0
  0
LINE
  5
4C9
330
36
100
AcDbEntity
  8
2-0
  6
Continuous
 62
     7
100
AcDbLine
 10
3317.427015991523
 20
214.724653789549
 30
0.0
 11
3316.322490160372
 21
218.807180275108
 31
0.0
  0
LINE
  5
4CA
330
36
100
AcDbEntity
  8
2-0
  6
Continuous
 62
     7
100
AcDbLine
 10
3316.322490160372
 20
218.807180275108
 30
0.0
 11
3314.948451051208
 21
222.80705731615
 31
0.0
  0
LINE
  5
4CB
330
36
100
AcDbEntity
  8
2-0
  6
Continuous
 62
     7
100
AcDbLine
 10
3314.948451051208
 20
222.80705731615
 30
0.0
 11
3313.311003243057
 21
226.706514264565
 31
0.0
  0
LINE
  5
4CC
330
36
100
AcDbEntity
  8
2-0
  6
Continuous
 62
     7
100
AcDbLine
 10
3313.311003243057
 20
226.706514264565
 30
0.0
 11
3311.417421586745
 21
230.488226618492
 31
0.0
  0
LINE
  5
4CD
330
36
100
AcDbEntity
  8
2-0
  6
Continuous
 62
     7
100
AcDbLine
 10
3311.417421586745
 20
230.488226618492
 30
0.0
 11
3309.2761188842
 21
234.135392991588
 31
0.0
  0
LINE
  5
4CE
330
36
100
AcDbEntity
  8
2-0
  6
Continuous
 62
     7
100
AcDbLine
 10
3309.2761188842
 20
234.135392991588
 30
0.0
 11
3306.896608512067
 21
237.631809758204
 31
0.0
  0
LINE
  5
4CF
330
36
100
AcDbEntity
  8
2-0
  6
Continuous
 62
     7
100
AcDbLine
 10
3306.896608512067
 20
237.631809758204
 30
0.0
 11
3304.289462155687
 21
240.961943042832
 31
0.0
  0
LINE
  5
4D0
330
36
100
AcDbEntity
  8
2-0
  6
Continuous
 62
     7
100
AcDbLine
 10
3304.289462155687
 20
240.961943042832
 30
0.0
 11
3301.46626284124
 21
244.110997733985
 31
0.0
  0
LINE
  5
4D1
330
36
100
AcDbEntity
  8
2-0
  6
Continuous
 62
     7
100
AcDbLine
 10
3301.46626284124
 20
244.110997733985
 30
0.0
 11
3298.439553474681
 21
247.064983215897
 31
0.0
  0
LINE
  5
4D2
330
36
100
AcDbEntity
  8
2-0
  6
Continuous
 62
     7
100
AcDbLine
 10
3298.439553474681
 20
247.064983215897
 30
0.0
 11
3295.222781116138
 21
249.810775526012
 31
0.0
  0
LINE
  5
4D3
330
36
100
AcDbEntity
  8
2-0
  6
Continuous
 62
     7
100
AcDbLine
 10
3295.222781116138
 20
249.810775526012
 30
0.0
 11
3291.830237237336
 21
252.336175662103
 31
0.0
  0
LINE
  5
4D4
330
36
100
AcDbEntity
  8
2-0
  6
Continuous
 62
     7
100
AcDbLine
 10
3291.830237237336
 20
252.336175662103
 30
0.0
 11
3288.276994227461
 21
254.629963779988
 31
0.0
  0
LINE
  5
4D5
330
36
100
AcDbEntity
  8
2-0
  6
Continuous
 62
     7
100
AcDbLine
 10
3288.276994227461
 20
254.629963779988
 30
0.0
 11
3284.578838429577
 21
256.681949041033
 31
0.0
  0
LINE
  5
4D6
330
36
100
AcDbEntity
  8
2-0
  6
Continuous
 62
     7
100
AcDbLine
 10
3284.578838429577
 20
256.681949041033
 30
0.0
 11
3280.752200005076
 21
258.483014887997
 31
0.0
  0
LINE
  5
4D7
330
36
100
AcDbEntity
  8
2-0
  6
Continuous
 62
     7
100
AcDbLine
 10
3280.752200005076
 20
258.483014887997
 30
0.0
 11
3276.814079937786
 21
260.025159548062
 31
0.0
  0
LINE
  5
4D8
330
36
100
AcDbEntity
  8
2-0
  6
Continuous
 62
     7
100
AcDbLine
 10
3276.814079937786
 20
260.025159548062
 30
0.0
 11
3272.781974502015
 21
261.301531583093
 31
0.0
  0
LINE
  5
4D9
330
36
100
AcDbEntity
  8
2-0
  6
Continuous
 62
     7
100
AcDbLine
 10
3272.781974502015
 20
261.301531583093
 30
0.0
 11
3268.673797530144
 21
262.306460329204
 31
0.0
  0
LINE
  5
4DA
330
36
100
AcDbEntity
  8
2-0
  6
Continuous
 62
     7
100
AcDbLine
 10
3268.673797530144
 20
262.306460329204
 30
0.0
 11
3264.507800825062
 21
263.035481090371
 31
0.0
  0
LINE
  5
4DB
330
36
100
AcDbEntity
  8
2-0
  6
Continuous
 62
     7
100
AcDbLine
 10
3264.507800825062
 20
263.035481090371
 30
0.0
 11
3260.302493071087
 21
263.485354974177
 31
0.0
  0
LINE
  5
4DC
330
36
100
AcDbEntity
  8
2-0
  6
Continuous
 62
     7
100
AcDbLine
 10
3260.302493071087
 20
263.485354974177
 30
0.0
 11
3256.076557603613
 21
263.654083281564
 31
0.0
  0
LINE
  5
4DD
330
36
100
AcDbEntity
  8
2-0
  6
Continuous
 62
     7
100
AcDbLine
 10
3256.076557603613
 20
263.654083281564
 30
0.0
 11
3251.848769402808
 21
263.540916386642
 31
0.0
  0
LINE
  5
4DE
330
36
100
AcDbEntity
  8
2-0
  6
Continuous
 62
     7
100
AcDbLine
 10
3251.848769402808
 20
263.540916386642
 30
0.0
 11
3247.637911680163
 21
263.146357067135
 31
0.0
  0
LINE
  5
4DF
330
36
100
AcDbEntity
  8
2-0
  6
Continuous
 62
     7
100
AcDbLine
 10
3247.637911680163
 20
263.146357067135
 30
0.0
 11
3243.462692428463
 21
262.472158270634
 31
0.0
  0
LINE
  5
4E0
330
36
100
AcDbEntity
  8
2-0
  6
Continuous
 62
     7
100
AcDbLine
 10
3243.462692428463
 20
262.472158270634
 30
0.0
 11
3239.341661305945
 21
261.521315326606
 31
0.0
  0
LINE
  5
4E1
330
36
100
AcDbEntity
  8
2-0
  6
Continuous
 62
     7
100
AcDbLine
 10
3239.341661305945
 20
261.521315326606
 30
0.0
 11
3235.293127223901
 21
260.298052638751
 31
0.0
  0
LINE
  5
4E2
330
36
100
AcDbEntity
  8
2-0
  6
Continuous
 62
     7
100
AcDbLine
 10
3235.293127223901
 20
260.298052638751
 30
0.0
 11
3231.335077003873
 21
258.807804916821
 31
0.0
  0
LINE
  5
4E3
330
36
100
AcDbEntity
  8
2-0
  6
Continuous
 62
     7
100
AcDbLine
 10
3231.335077003873
 20
258.807804916821
 30
0.0
 11
3227.485095465831
 21
257.057193031308
 31
0.0
  0
LINE
  5
4E4
330
36
100
AcDbEntity
  8
2-0
  6
Continuous
 62
     7
100
AcDbLine
 10
3227.485095465831
 20
257.057193031308
 30
0.0
 11
3223.760287302353
 21
255.05399459824
 31
0.0
  0
LINE
  5
4E5
330
36
100
AcDbEntity
  8
2-0
  6
Continuous
 62
     7
100
AcDbLine
 10
3223.760287302353
 20
255.05399459824
 30
0.0
 11
3220.17720108592
 21
252.807109424807
 31
0.0
  0
LINE
  5
4E6
330
36
100
AcDbEntity
  8
2-0
  6
Continuous
 62
     7
100
AcDbLine
 10
3220.17720108592
 20
252.807109424807
 30
0.0
 11
3216.751755746956
 21
250.326519969307
 31
0.0
  0
LINE
  5
4E7
330
36
100
AcDbEntity
  8
2-0
  6
Continuous
 62
     7
100
AcDbLine
 10
3216.751755746956
 20
250.326519969307
 30
0.0
 11
3213.499169849207
 21
247.623246991095
 31
0.0
  0
LINE
  5
4E8
330
36
100
AcDbEntity
  8
2-0
  6
Continuous
 62
     7
100
AcDbLine
 10
3213.499169849207
 20
247.623246991095
 30
0.0
 11
3210.433893976739
 21
244.709300587567
 31
0.0
  0
LINE
  5
4E9
330
36
100
AcDbEntity
  8
2-0
  6
Continuous
 62
     7
100
AcDbLine
 10
3210.433893976739
 20
244.709300587567
 30
0.0
 11
3207.5695465329
 21
241.59762683572
 31
0.0
  0
LINE
  5
4EA
330
36
100
AcDbEntity
  8
2-0
  6
Continuous
 62
     7
100
AcDbLine
 10
3207.5695465329
 20
241.59762683572
 30
0.0
 11
3204.918853236496
 21
238.302050275333
 31
0.0
  0
LINE
  5
4EB
330
36
100
AcDbEntity
  8
2-0
  6
Continuous
 62
     7
100
AcDbLine
 10
3204.918853236496
 20
238.302050275333
 30
0.0
 11
3202.493590583988
 21
234.83721248933
 31
0.0
  0
LINE
  5
4EC
330
36
100
AcDbEntity
  8
2-0
  6
Continuous
 62
     7
100
AcDbLine
 10
3202.493590583988
 20
234.83721248933
 30
0.0
 11
3200.304533528888
 21
231.218507054166
 31
0.0
  0
LINE
  5
4ED
330
36
100
AcDbEntity
  8
2-0
  6
Continuous
 62
     7
100
AcDbLine
 10
3200.304533528888
 20
231.218507054166
 30
0.0
 11
3198.361407610811
 21
227.462011149275
 31
0.0
  0
LINE
  5
4EE
330
36
100
AcDbEntity
  8
2-0
  6
Continuous
 62
     7
100
AcDbLine
 10
3198.361407610811
 20
227.462011149275
 30
0.0
 11
3196.672845746861
 21
223.584414129396
 31
0.0
  0
LINE
  5
4EF
330
36
100
AcDbEntity
  8
2-0
  6
Continuous
 62
     7
100
AcDbLine
 10
3196.672845746861
 20
223.584414129396
 30
0.0
 11
3195.246349877318
 21
219.60294337713
 31
0.0
  0
LINE
  5
4F0
330
36
100
AcDbEntity
  8
2-0
  6
Continuous
 62
     7
100
AcDbLine
 10
3195.246349877318
 20
219.60294337713
 30
0.0
 11
3194.088257636033
 21
215.535287765154
 31
0.0
  0
LINE
  5
4F1
330
36
100
AcDbEntity
  8
2-0
  6
Continuous
 62
     7
100
AcDbLine
 10
3194.088257636033
 20
215.535287765154
 30
0.0
 11
3193.20371419359
 21
211.399519068117
 31
0.0
  0
LINE
  5
4F2
330
36
100
AcDbEntity
  8
2-0
  6
Continuous
 62
     7
100
AcDbLine
 10
3193.20371419359
 20
211.399519068117
 30
0.0
 11
3192.596649398355
 21
207.214011673385
 31
0.0
  0
LINE
  5
4F3
330
36
100
AcDbEntity
  8
2-0
  6
Continuous
 62
     7
100
AcDbLine
 10
3192.596649398355
 20
207.214011673385
 30
0.0
 11
3192.269760316952
 21
202.997360947344
 31
0.0
  0
LINE
  5
4F4
330
36
100
AcDbEntity
  8
2-0
  6
Continuous
 62
     7
100
AcDbLine
 10
3192.269760316952
 20
202.997360947344
 30
0.0
 11
3192.224499251729
 21
198.768300619926
 31
0.0
  0
LINE
  5
4F5
330
36
100
AcDbEntity
  8
2-0
  6
Continuous
 62
     7
100
AcDbLine
 10
3192.224499251729
 20
198.768300619926
 30
0.0
 11
3192.461067288486
 21
194.545619554424
 31
0.0
  0
LINE
  5
4F6
330
36
100
AcDbEntity
  8
2-0
  6
Continuous
 62
     7
100
AcDbLine
 10
3192.461067288486
 20
194.545619554424
 30
0.0
 11
3192.978413403078
 21
190.348078272354
 31
0.0
  0
LINE
  5
4F7
330
36
100
AcDbEntity
  8
2-0
  6
Continuous
 62
     7
100
AcDbLine
 10
3192.978413403078
 20
190.348078272354
 30
0.0
 11
3193.774239130916
 21
186.194325604239
 31
0.0
  0
LINE
  5
4F8
330
36
100
AcDbEntity
  8
2-0
  6
Continuous
 62
     7
100
AcDbLine
 10
3193.774239130916
 20
186.194325604239
 30
0.0
 11
3194.84500877857
 21
182.102815836607
 31
0.0
  0
LINE
  5
4F9
330
36
100
AcDbEntity
  8
2-0
  6
Continuous
 62
     7
100
AcDbLine
 10
3194.84500877857
 20
182.102815836607
 30
0.0
 11
3196.185965132153
 21
178.091726723317
 31
0.0
  0
LINE
  5
4FA
330
36
100
AcDbEntity
  8
2-0
  6
Continuous
 62
     7
100
AcDbLine
 10
3196.185965132153
 20
178.091726723317
 30
0.0
 11
3197.791150592657
 21
174.178878725458
 31
0.0
  0
LINE
  5
4FB
330
36
100
AcDbEntity
  8
2-0
  6
Continuous
 62
     7
100
AcDbLine
 10
3197.791150592657
 20
174.178878725458
 30
0.0
 11
3199.653433644366
 21
170.381655838626
 31
0.0
  0
LINE
  5
4FC
330
36
100
AcDbEntity
  8
2-0
  6
Continuous
 62
     7
100
AcDbLine
 10
3199.653433644366
 20
170.381655838626
 30
0.0
 11
3201.764540538754
 21
166.716928359339
 31
0.0
  0
LINE
  5
4FD
330
36
100
AcDbEntity
  8
2-0
  6
Continuous
 62
     7
100
AcDbLine
 10
3201.764540538754
 20
166.716928359339
 30
0.0
 11
3204.115092053066
 21
163.200977933704
 31
0.0
  0
LINE
  5
4FE
330
36
100
AcDbEntity
  8
2-0
  6
Continuous
 62
     7
100
AcDbLine
 10
3204.115092053066
 20
163.200977933704
 30
0.0
 11
3206.694645160335
 21
159.84942522134
 31
0.0
  0
LINE
  5
4FF
330
36
100
AcDbEntity
  8
2-0
  6
Continuous
 62
     7
100
AcDbLine
 10
3206.694645160335
 20
159.84942522134
 30
0.0
 11
3207.22930882561
 21
159.209303686958
 31
0.0
  0
LINE
  5
500
330
36
100
AcDbEntity
  8
2-0
  6
Continuous
 62
     7
100
AcDbLine
 10
3327.034078683758
 20
200.204166274283
 30
0.0
 11
3326.875527329515
 21
204.958945089343
 31
0.0
  0
LINE
  5
501
330
36
100
AcDbEntity
  8
2-0
  6
Continuous
 62
     7
100
AcDbLine
 10
3326.875527329515
 20
204.958945089343
 30
0.0
 11
3326.400577678521
 21
209.692599379751
 31
0.0
  0
LINE
  5
502
330
36
100
AcDbEntity
  8
2-0
  6
Continuous
 62
     7
100
AcDbLine
 10
3326.400577678521
 20
209.692599379751
 30
0.0
 11
3325.611339836419
 21
214.384098472864
 31
0.0
  0
LINE
  5
503
330
36
100
AcDbEntity
  8
2-0
  6
Continuous
 62
     7
100
AcDbLine
 10
3325.611339836419
 20
214.384098472864
 30
0.0
 11
3324.511320227987
 21
219.012598983088
 31
0.0
  0
LINE
  5
504
330
36
100
AcDbEntity
  8
2-0
  6
Continuous
 62
     7
100
AcDbLine
 10
3324.511320227987
 20
219.012598983088
 30
0.0
 11
3323.1054060188
 21
223.557537414847
 31
0.0
  0
LINE
  5
505
330
36
100
AcDbEntity
  8
2-0
  6
Continuous
 62
     7
100
AcDbLine
 10
3323.1054060188
 20
223.557537414847
 30
0.0
 11
3321.399843402534
 21
227.998721522051
 31
0.0
  0
LINE
  5
506
330
36
100
AcDbEntity
  8
2-0
  6
Continuous
 62
     7
100
AcDbLine
 10
3321.399843402534
 20
227.998721522051
 30
0.0
 11
3319.402209850389
 21
232.316420018174
 31
0.0
  0
LINE
  5
507
330
36
100
AcDbEntity
  8
2-0
  6
Continuous
 62
     7
100
AcDbLine
 10
3319.402209850389
 20
232.316420018174
 30
0.0
 11
3317.12138044591
 21
236.491450238393
 31
0.0
  0
LINE
  5
508
330
36
100
AcDbEntity
  8
2-0
  6
Continuous
 62
     7
100
AcDbLine
 10
3317.12138044591
 20
236.491450238393
 30
0.0
 11
3314.567488454776
 21
240.5052633643
 31
0.0
  0
LINE
  5
509
330
36
100
AcDbEntity
  8
2-0
  6
Continuous
 62
     7
100
AcDbLine
 10
3314.567488454776
 20
240.5052633643
 30
0.0
 11
3311.751880304746
 21
244.340026832568
 31
0.0
  0
LINE
  5
50A
330
36
100
AcDbEntity
  8
2-0
  6
Continuous
 62
     7
100
AcDbLine
 10
3311.751880304746
 20
244.340026832568
 30
0.0
 11
3308.687065175757
 21
247.978703561436
 31
0.0
  0
LINE
  5
50B
330
36
100
AcDbEntity
  8
2-0
  6
Continuous
 62
     7
100
AcDbLine
 10
3308.687065175757
 20
247.978703561436
 30
0.0
 11
3305.38665942417
 21
251.405127643037
 31
0.0
  0
LINE
  5
50C
330
36
100
AcDbEntity
  8
2-0
  6
Continuous
 62
     7
100
AcDbLine
 10
3305.38665942417
 20
251.405127643037
 30
0.0
 11
3301.865326088028
 21
254.604076165265
 31
0.0
  0
LINE
  5
50D
330
36
100
AcDbEntity
  8
2-0
  6
Continuous
 62
     7
100
AcDbLine
 10
3301.865326088028
 20
254.604076165265
 30
0.0
 11
3298.138709742141
 21
257.561336844111
 31
0.0
  0
LINE
  5
50E
330
36
100
AcDbEntity
  8
2-0
  6
Continuous
 62
     7
100
AcDbLine
 10
3298.138709742141
 20
257.561336844111
 30
0.0
 11
3294.223366992384
 21
260.263771165979
 31
0.0
  0
LINE
  5
50F
330
36
100
AcDbEntity
  8
2-0
  6
Continuous
 62
     7
100
AcDbLine
 10
3294.223366992384
 20
260.263771165979
 30
0.0
 11
3290.136692918034
 21
262.699372759451
 31
0.0
  0
LINE
  5
510
330
36
100
AcDbEntity
  8
2-0
  6
Continuous
 62
     7
100
AcDbLine
 10
3290.136692918034
 20
262.699372759451
 30
0.0
 11
3285.89684378894
 21
264.857320737186
 31
0.0
  0
LINE
  5
511
330
36
100
AcDbEntity
  8
2-0
  6
Continuous
 62
     7
100
AcDbLine
 10
3285.89684378894
 20
264.857320737186
 30
0.0
 11
3281.522656400867
 21
266.728027770931
 31
0.0
  0
LINE
  5
512
330
36
100
AcDbEntity
  8
2-0
  6
Continuous
 62
     7
100
AcDbLine
 10
3281.522656400867
 20
266.728027770931
 30
0.0
 11
3277.033564387408
 21
268.303182686103
 31
0.0
  0
LINE
  5
513
330
36
100
AcDbEntity
  8
2-0
  6
Continuous
 62
     7
100
AcDbLine
 10
3277.033564387408
 20
268.303182686103
 30
0.0
 11
3272.449511880267
 21
269.575787386651
 31
0.0
  0
LINE
  5
514
330
36
100
AcDbEntity
  8
2-0
  6
Continuous
 62
     7
100
AcDbLine
 10
3272.449511880267
 20
269.575787386651
 30
0.0
 11
3267.790864901494
 21
270.540187946197
 31
0.0
  0
LINE
  5
515
330
36
100
AcDbEntity
  8
2-0
  6
Continuous
 62
     7
100
AcDbLine
 10
3267.790864901494
 20
270.540187946197
 30
0.0
 11
3263.078320881354
 21
271.192099727288
 31
0.0
  0
LINE
  5
516
330
36
100
AcDbEntity
  8
2-0
  6
Continuous
 62
     7
100
AcDbLine
 10
3263.078320881354
 20
271.192099727288
 30
0.0
 11
3258.33281670381
 21
271.528626417176
 31
0.0
  0
LINE
  5
517
330
36
100
AcDbEntity
  8
2-0
  6
Continuous
 62
     7
100
AcDbLine
 10
3258.33281670381
 20
271.528626417176
 30
0.0
 11
3253.575435688169
 21
271.548272895555
 31
0.0
  0
LINE
  5
518
330
36
100
AcDbEntity
  8
2-0
  6
Continuous
 62
     7
100
AcDbLine
 10
3253.575435688169
 20
271.548272895555
 30
0.0
 11
3248.827313920137
 21
271.25095187708
 31
0.0
  0
LINE
  5
519
330
36
100
AcDbEntity
  8
2-0
  6
Continuous
 62
     7
100
AcDbLine
 10
3248.827313920137
 20
271.25095187708
 30
0.0
 11
3244.109546348447
 21
270.637984299153
 31
0.0
  0
LINE
  5
51A
330
36
100
AcDbEntity
  8
2-0
  6
Continuous
 62
     7
100
AcDbLine
 10
3244.109546348447
 20
270.637984299153
 30
0.0
 11
3239.443093064248
 21
269.712093453271
 31
0.0
  0
LINE
  5
51B
330
36
100
AcDbEntity
  8
2-0
  6
Continuous
 62
     7
100
AcDbLine
 10
3239.443093064248
 20
269.712093453271
 30
0.0
 11
3234.848686179651
 21
268.477392885985
 31
0.0
  0
LINE
  5
51C
330
36
100
AcDbEntity
  8
2-0
  6
Continuous
 62
     7
100
AcDbLine
 10
3234.848686179651
 20
268.477392885985
 30
0.0
 11
3230.34673771912
 21
266.9393681232441
 31
0.0
  0
LINE
  5
51D
330
36
100
AcDbEntity
  8
2-0
  6
Continuous
 62
     7
100
AcDbLine
 10
3230.34673771912
 20
266.9393681232441
 30
0.0
 11
3225.957248932961
 21
265.104852299308
 31
0.0
  0
LINE
  5
51E
330
36
100
AcDbEntity
  8
2-0
  6
Continuous
 62
     7
100
AcDbLine
 10
3225.957248932961
 20
265.104852299308
 30
0.0
 11
3221.699721435799
 21
262.981995798507
 31
0.0
  0
LINE
  5
51F
330
36
100
AcDbEntity
  8
2-0
  6
Continuous
 62
     7
100
AcDbLine
 10
3221.699721435799
 20
262.981995798507
 30
0.0
 11
3217.593070564828
 21
260.580230044725
 31
0.0
  0
LINE
  5
520
330
36
100
AcDbEntity
  8
2-0
  6
Continuous
 62
     7
100
AcDbLine
 10
3217.593070564828
 20
260.580230044725
 30
0.0
 11
3213.65554134278
 21
257.910225599486
 31
0.0
  0
LINE
  5
521
330
36
100
AcDbEntity
  8
2-0
  6
Continuous
 62
     7
100
AcDbLine
 10
3213.65554134278
 20
257.910225599486
 30
0.0
 11
3209.904627418959
 21
254.983844754795
 31
0.0
  0
LINE
  5
522
330
36
100
AcDbEntity
  8
2-0
  6
Continuous
 62
     7
100
AcDbLine
 10
3209.904627418959
 20
254.983844754795
 30
0.0
 11
3206.356993348489
 21
251.814088831365
 31
0.0
  0
LINE
  5
523
330
36
100
AcDbEntity
  8
2-0
  6
Continuous
 62
     7
100
AcDbLine
 10
3206.356993348489
 20
251.814088831365
 30
0.0
 11
3203.02840055504
 21
248.415040416368
 31
0.0
  0
LINE
  5
524
330
36
100
AcDbEntity
  8
2-0
  6
Continuous
 62
     7
100
AcDbLine
 10
3203.02840055504
 20
248.415040416368
 30
0.0
 11
3199.933637306011
 21
244.801800797337
 31
0.0
  0
LINE
  5
525
330
36
100
AcDbEntity
  8
2-0
  6
Continuous
 62
     7
100
AcDbLine
 10
3199.933637306011
 20
244.801800797337
 30
0.0
 11
3197.086453011223
 21
240.990422870183
 31
0.0
  0
LINE
  5
526
330
36
100
AcDbEntity
  8
2-0
  6
Continuous
 62
     7
100
AcDbLine
 10
3197.086453011223
 20
240.990422870183
 30
0.0
 11
3194.49949713707
 21
236.997839819417
 31
0.0
  0
LINE
  5
527
330
36
100
AcDbEntity
  8
2-0
  6
Continuous
 62
     7
100
AcDbLine
 10
3194.49949713707
 20
236.997839819417
 30
0.0
 11
3192.18426300748
 21
232.841789887418
 31
0.0
  0
LINE
  5
528
330
36
100
AcDbEntity
  8
2-0
  6
Continuous
 62
     7
100
AcDbLine
 10
3192.18426300748
 20
232.841789887418
 30
0.0
 11
3190.151036741399
 21
228.540737566997
 31
0.0
  0
LINE
  5
529
330
36
100
AcDbEntity
  8
2-0
  6
Continuous
 62
     7
100
AcDbLine
 10
3190.151036741399
 20
228.540737566997
 30
0.0
 11
3188.40885155363
 21
224.113791567372
 31
0.0
  0
LINE
  5
52A
330
36
100
AcDbEntity
  8
2-0
  6
Continuous
 62
     7
100
AcDbLine
 10
3188.40885155363
 20
224.113791567372
 30
0.0
 11
3186.965447622083
 21
219.580619918022
 31
0.0
  0
LINE
  5
52B
330
36
100
AcDbEntity
  8
2-0
  6
Continuous
 62
     7
100
AcDbLine
 10
3186.965447622083
 20
219.580619918022
 30
0.0
 11
3185.82723769972
 21
214.961362587593
 31
0.0
  0
LINE
  5
52C
330
36
100
AcDbEntity
  8
2-0
  6
Continuous
 62
     7
100
AcDbLine
 10
3185.82723769972
 20
214.961362587593
 30
0.0
 11
3184.99927862399
 21
210.276542006077
 31
0.0
  0
LINE
  5
52D
330
36
100
AcDbEntity
  8
2-0
  6
Continuous
 62
     7
100
AcDbLine
 10
3184.99927862399
 20
210.276542006077
 30
0.0
 11
3184.485248850312
 21
205.546971887784
 31
0.0
  0
LINE
  5
52E
330
36
100
AcDbEntity
  8
2-0
  6
Continuous
 62
     7
100
AcDbLine
 10
3184.485248850312
 20
205.546971887784
 30
0.0
 11
3184.287432109444
 21
200.793664760203
 31
0.0
  0
LINE
  5
52F
330
36
100
AcDbEntity
  8
2-0
  6
Continuous
 62
     7
100
AcDbLine
 10
3184.287432109444
 20
200.793664760203
 30
0.0
 11
3184.406707261326
 21
196.037738609576
 31
0.0
  0
LINE
  5
530
330
36
100
AcDbEntity
  8
2-0
  6
Continuous
 62
     7
100
AcDbLine
 10
3184.406707261326
 20
196.037738609576
 30
0.0
 11
3184.842544390478
 21
191.300323057935
 31
0.0
  0
LINE
  5
531
330
36
100
AcDbEntity
  8
2-0
  6
Continuous
 62
     7
100
AcDbLine
 10
3184.842544390478
 20
191.300323057935
 30
0.0
 11
3185.593007160315
 21
186.60246548845
 31
0.0
  0
LINE
  5
532
330
36
100
AcDbEntity
  8
2-0
  6
Continuous
 62
     7
100
AcDbLine
 10
3185.593007160315
 20
186.60246548845
 30
0.0
 11
3186.654761415897
 21
181.965037536143
 31
0.0
  0
LINE
  5
533
330
36
100
AcDbEntity
  8
2-0
  6
Continuous
 62
     7
100
AcDbLine
 10
3186.654761415897
 20
181.965037536143
 30
0.0
 11
3188.023089996905
 21
177.408642359419
 31
0.0
  0
LINE
  5
534
330
36
100
AcDbEntity
  8
2-0
  6
Continuous
 62
     7
100
AcDbLine
 10
3188.023089996905
 20
177.408642359419
 30
0.0
 11
3189.691913695038
 21
172.953523104378
 31
0.0
  0
LINE
  5
535
330
36
100
AcDbEntity
  8
2-0
  6
Continuous
 62
     7
100
AcDbLine
 10
3189.691913695038
 20
172.953523104378
 30
0.0
 11
3191.653818262709
 21
168.619472968601
 31
0.0
  0
LINE
  5
536
330
36
100
AcDbEntity
  8
2-0
  6
Continuous
 62
     7
100
AcDbLine
 10
3191.653818262709
 20
168.619472968601
 30
0.0
 11
3193.900087353057
 21
164.4257472639529
 31
0.0
  0
LINE
  5
537
330
36
100
AcDbEntity
  8
2-0
  6
Continuous
 62
     7
100
AcDbLine
 10
3193.900087353057
 20
164.4257472639529
 30
0.0
 11
3196.420741244917
 21
160.390977869114
 31
0.0
  0
LINE
  5
538
330
36
100
AcDbEntity
  8
2-0
  6
Continuous
 62
     7
100
AcDbLine
 10
3196.420741244917
 20
160.390977869114
 30
0.0
 11
3199.204581180713
 21
156.533090451893
 31
0.0
  0
LINE
  5
539
330
36
100
AcDbEntity
  8
2-0
  6
Continuous
 62
     7
100
AcDbLine
 10
3199.204581180713
 20
156.533090451893
 30
0.0
 11
3202.239239120282
 21
152.869224829099
 31
0.0
  0
LINE
  5
53A
330
36
100
AcDbEntity
  8
2-0
  6
Continuous
 62
     7
100
AcDbLine
 10
3202.239239120282
 20
152.869224829099
 30
0.0
 11
3205.511232689585
 21
149.415658817782
 31
0.0
  0
LINE
  5
53B
330
36
100
AcDbEntity
  8
2-0
  6
Continuous
 62
     7
100
AcDbLine
 10
3205.511232689585
 20
149.415658817782
 30
0.0
 11
3209.006025080181
 21
146.187735916175
 31
0.0
  0
LINE
  5
53C
330
36
100
AcDbEntity
  8
2-0
  6
Continuous
 62
     7
100
AcDbLine
 10
3209.006025080181
 20
146.187735916175
 30
0.0
 11
3212.708089633337
 21
143.199797135619
 31
0.0
  0
LINE
  5
53D
330
36
100
AcDbEntity
  8
2-0
  6
Continuous
 62
     7
100
AcDbLine
 10
3212.708089633337
 20
143.199797135619
 30
0.0
 11
3216.600978821848
 21
140.465117286338
 31
0.0
  0
LINE
  5
53E
330
36
100
AcDbEntity
  8
2-0
  6
Continuous
 62
     7
100
AcDbLine
 10
3216.600978821848
 20
140.465117286338
 30
0.0
 11
3220.667397323084
 21
137.995846000131
 31
0.0
  0
LINE
  5
53F
330
36
100
AcDbEntity
  8
2-0
  6
Continuous
 62
     7
100
AcDbLine
 10
3220.667397323084
 20
137.995846000131
 30
0.0
 11
3224.889278858633
 21
135.802953752008
 31
0.0
  0
LINE
  5
540
330
36
100
AcDbEntity
  8
2-0
  6
Continuous
 62
     7
100
AcDbLine
 10
3224.889278858633
 20
135.802953752008
 30
0.0
 11
3229.247866459127
 21
133.896183120572
 31
0.0
  0
LINE
  5
541
330
36
100
AcDbEntity
  8
2-0
  6
Continuous
 62
     7
100
AcDbLine
 10
3229.247866459127
 20
133.896183120572
 30
0.0
 11
3233.723795797686
 21
132.284005503712
 31
0.0
  0
LINE
  5
542
330
36
100
AcDbEntity
  8
2-0
  6
Continuous
 62
     7
100
AcDbLine
 10
3233.723795797686
 20
132.284005503712
 30
0.0
 11
3238.297181221723
 21
130.973583481882
 31
0.0
  0
LINE
  5
543
330
36
100
AcDbEntity
  8
2-0
  6
Continuous
 62
     7
100
AcDbLine
 10
3238.297181221723
 20
130.973583481882
 30
0.0
 11
3242.947704100888
 21
129.970738996204
 31
0.0
  0
LINE
  5
544
330
36
100
AcDbEntity
  8
2-0
  6
Continuous
 62
     7
100
AcDbLine
 10
3242.947704100888
 20
129.970738996204
 30
0.0
 11
3247.654703098654
 21
129.279927482753
 31
0.0
  0
LINE
  5
545
330
36
100
AcDbEntity
  8
2-0
  6
Continuous
 62
     7
100
AcDbLine
 10
3247.654703098654
 20
129.279927482753
 30
0.0
 11
3252.397265966474
 21
128.904218077952
 31
0.0
  0
LINE
  5
546
330
36
100
AcDbEntity
  8
2-0
  6
Continuous
 62
     7
100
AcDbLine
 10
3252.397265966474
 20
128.904218077952
 30
0.0
 11
3257.154322452691
 21
128.845279983017
 31
0.0
  0
LINE
  5
547
330
36
100
AcDbEntity
  8
2-0
  6
Continuous
 62
     7
100
AcDbLine
 10
3257.154322452691
 20
128.845279983017
 30
0.0
 11
3261.904737913417
 21
129.103375048035
 31
0.0
  0
LINE
  5
548
330
36
100
AcDbEntity
  8
2-0
  6
Continuous
 62
     7
100
AcDbLine
 10
3261.904737913417
 20
129.103375048035
 30
0.0
 11
3266.627407209503
 21
129.677356608612
 31
0.0
  0
LINE
  5
549
330
36
100
AcDbEntity
  8
2-0
  6
Continuous
 62
     7
100
AcDbLine
 10
3266.627407209503
 20
129.677356608612
 30
0.0
 11
3271.301348472427
 21
130.564674580275
 31
0.0
  0
LINE
  5
54A
330
36
100
AcDbEntity
  8
2-0
  6
Continuous
 62
     7
100
AcDbLine
 10
3271.301348472427
 20
130.564674580275
 30
0.0
 11
3275.905796322495
 21
131.761386787985
 31
0.0
  0
LINE
  5
54B
330
36
100
AcDbEntity
  8
2-0
  6
Continuous
 62
     7
100
AcDbLine
 10
3275.905796322495
 20
131.761386787985
 30
0.0
 11
3280.420294125259
 21
133.262176480424
 31
0.0
  0
LINE
  5
54C
330
36
100
AcDbEntity
  8
2-0
  6
Continuous
 62
     7
100
AcDbLine
 10
3280.420294125259
 20
133.262176480424
 30
0.0
 11
3284.824784876209
 21
135.060375951249
 31
0.0
  0
LINE
  5
54D
330
36
100
AcDbEntity
  8
2-0
  6
Continuous
 62
     7
100
AcDbLine
 10
3284.824784876209
 20
135.060375951249
 30
0.0
 11
3289.099700310015
 21
137.147996162374
 31
0.0
  0
LINE
  5
54E
330
36
100
AcDbEntity
  8
2-0
  6
Continuous
 62
     7
100
AcDbLine
 10
3289.099700310015
 20
137.147996162374
 30
0.0
 11
3293.226047838381
 21
139.515762237652
 31
0.0
  0
LINE
  5
54F
330
36
100
AcDbEntity
  8
2-0
  6
Continuous
 62
     7
100
AcDbLine
 10
3293.226047838381
 20
139.515762237652
 30
0.0
 11
3297.185494930293
 21
142.153154669285
 31
0.0
  0
LINE
  5
550
330
36
100
AcDbEntity
  8
2-0
  6
Continuous
 62
     7
100
AcDbLine
 10
3297.185494930293
 20
142.153154669285
 30
0.0
 11
3300.960450559765
 21
145.048456053874
 31
0.0
  0
LINE
  5
551
330
36
100
AcDbEntity
  8
2-0
  6
Continuous
 62
     7
100
AcDbLine
 10
3300.960450559765
 20
145.048456053874
 30
0.0
 11
3304.534143359218
 21
148.188803150488
 31
0.0
  0
LINE
  5
552
330
36
100
AcDbEntity
  8
2-0
  6
Continuous
 62
     7
100
AcDbLine
 10
3304.534143359218
 20
148.188803150488
 30
0.0
 11
3307.890696131296
 21
151.560244029451
 31
0.0
  0
LINE
  5
553
330
36
100
AcDbEntity
  8
2-0
  6
Continuous
 62
     7
100
AcDbLine
 10
3307.890696131296
 20
151.560244029451
 30
0.0
 11
3311.015196388048
 21
155.147800057952
 31
0.0
  0
LINE
  5
554
330
36
100
AcDbEntity
  8
2-0
  6
Continuous
 62
     7
100
AcDbLine
 10
3311.015196388048
 20
155.147800057952
 30
0.0
 11
3313.893762604117
 21
158.935532447099
 31
0.0
  0
LINE
  5
555
330
36
100
AcDbEntity
  8
2-0
  6
Continuous
 62
     7
100
AcDbLine
 10
3313.893762604117
 20
158.935532447099
 30
0.0
 11
3316.513605889552
 21
162.906613064745
 31
0.0
  0
LINE
  5
556
330
36
100
AcDbEntity
  8
2-0
  6
Continuous
 62
     7
100
AcDbLine
 10
3316.513605889552
 20
162.906613064745
 30
0.0
 11
3318.863086808279
 21
167.04339919949
 31
0.0
  0
LINE
  5
557
330
36
100
AcDbEntity
  8
2-0
  6
Continuous
 62
     7
100
AcDbLine
 10
3318.863086808279
 20
167.04339919949
 30
0.0
 11
3320.931767089767
 21
171.327511943695
 31
0.0
  0
LINE
  5
558
330
36
100
AcDbEntity
  8
2-0
  6
Continuous
 62
     7
100
AcDbLine
 10
3320.931767089767
 20
171.327511943695
 30
0.0
 11
3322.710456004163
 21
175.739917847268
 31
0.0
  0
LINE
  5
559
330
36
100
AcDbEntity
  8
2-0
  6
Continuous
 62
     7
100
AcDbLine
 10
3322.710456004163
 20
175.739917847268
 30
0.0
 11
3324.191251194851
 21
180.261013479448
 31
0.0
  0
LINE
  5
55A
330
36
100
AcDbEntity
  8
2-0
  6
Continuous
 62
     7
100
AcDbLine
 10
3324.191251194851
 20
180.261013479448
 30
0.0
 11
3325.367573787036
 21
184.870712522899
 31
0.0
  0
LINE
  5
55B
330
36
100
AcDbEntity
  8
2-0
  6
Continuous
 62
     7
100
AcDbLine
 10
3325.367573787036
 20
184.870712522899
 30
0.0
 11
3326.234197616352
 21
189.548535013176
 31
0.0
  0
LINE
  5
55C
330
36
100
AcDbEntity
  8
2-0
  6
Continuous
 62
     7
100
AcDbLine
 10
3326.234197616352
 20
189.548535013176
 30
0.0
 11
3326.787272447667
 21
194.273698327078
 31
0.0
  0
LINE
  5
55D
330
36
100
AcDbEntity
  8
2-0
  6
Continuous
 62
     7
100
AcDbLine
 10
3326.787272447667
 20
194.273698327078
 30
0.0
 11
3327.024341080897
 21
199.02520951566
 31
0.0
  0
LINE
  5
55E
330
36
100
AcDbEntity
  8
2-0
  6
Continuous
 62
     7
100
AcDbLine
 10
3327.024341080897
 20
199.02520951566
 30
0.0
 11
3327.034078683758
 21
200.204166274283
 31
0.0
  0
LINE
  5
55F
330
36
100
AcDbEntity
  8
2-0
  6
Continuous
 62
     7
100
AcDbLine
 10
3303.771475310766
 20
159.478729328238
 30
0.0
 11
3306.377617931266
 21
162.774283890792
 31
0.0
  0
LINE
  5
560
330
36
100
AcDbEntity
  8
2-0
  6
Continuous
 62
     7
100
AcDbLine
 10
3306.377617931266
 20
162.774283890792
 30
0.0
 11
3308.758430338145
 21
166.236131882314
 31
0.0
  0
LINE
  5
561
330
36
100
AcDbEntity
  8
2-0
  6
Continuous
 62
     7
100
AcDbLine
 10
3308.758430338145
 20
166.236131882314
 30
0.0
 11
3310.903335061382
 21
169.848893009402
 31
0.0
  0
LINE
  5
562
330
36
100
AcDbEntity
  8
2-0
  6
Continuous
 62
     7
100
AcDbLine
 10
3310.903335061382
 20
169.848893009402
 30
0.0
 11
3312.802802721279
 21
173.596516501985
 31
0.0
  0
LINE
  5
563
330
36
100
AcDbEntity
  8
2-0
  6
Continuous
 62
     7
100
AcDbLine
 10
3312.802802721279
 20
173.596516501985
 30
0.0
 11
3314.448394365581
 21
177.462352423665
 31
0.0
  0
LINE
  5
564
330
36
100
AcDbEntity
  8
2-0
  6
Continuous
 62
     7
100
AcDbLine
 10
3314.448394365581
 20
177.462352423665
 30
0.0
 11
3315.83279896204
 21
181.429225644032
 31
0.0
  0
LINE
  5
565
330
36
100
AcDbEntity
  8
2-0
  6
Continuous
 62
     7
100
AcDbLine
 10
3315.83279896204
 20
181.429225644032
 30
0.0
 11
3316.949865879851
 21
185.479512144304
 31
0.0
  0
LINE
  5
566
330
36
100
AcDbEntity
  8
2-0
  6
Continuous
 62
     7
100
AcDbLine
 10
3316.949865879851
 20
185.479512144304
 30
0.0
 11
3317.794632215683
 21
189.595217317297
 31
0.0
  0
LINE
  5
567
330
36
100
AcDbEntity
  8
2-0
  6
Continuous
 62
     7
100
AcDbLine
 10
3317.794632215683
 20
189.595217317297
 30
0.0
 11
3318.363344842842
 21
193.75805591384
 31
0.0
  0
LINE
  5
568
330
36
100
AcDbEntity
  8
2-0
  6
Continuous
 62
     7
100
AcDbLine
 10
3318.363344842842
 20
193.75805591384
 30
0.0
 11
3318.653477085663
 21
197.949533280453
 31
0.0
  0
LINE
  5
569
330
36
100
AcDbEntity
  8
2-0
  6
Continuous
 62
     7
100
AcDbLine
 10
3318.653477085663
 20
197.949533280453
 30
0.0
 11
3318.663739945029
 21
202.151027527369
 31
0.0
  0
LINE
  5
56A
330
36
100
AcDbEntity
  8
2-0
  6
Continuous
 62
     7
100
AcDbLine
 10
3318.663739945029
 20
202.151027527369
 30
0.0
 11
3318.39408782512
 21
206.343872261841
 31
0.0
  0
LINE
  5
56B
330
36
100
AcDbEntity
  8
2-0
  6
Continuous
 62
     7
100
AcDbLine
 10
3318.39408782512
 20
206.343872261841
 30
0.0
 11
3317.845718735996
 21
210.50943951916
 31
0.0
  0
LINE
  5
56C
330
36
100
AcDbEntity
  8
2-0
  6
Continuous
 62
     7
100
AcDbLine
 10
3317.845718735996
 20
210.50943951916
 30
0.0
 11
3317.021068971079
 21
214.629222522957
 31
0.0
  0
LINE
  5
56D
330
36
100
AcDbEntity
  8
2-0
  6
Continuous
 62
     7
100
AcDbLine
 10
3317.021068971079
 20
214.629222522957
 30
0.0
 11
3315.923802283187
 21
218.68491790708
 31
0.0
  0
LINE
  5
56E
330
36
100
AcDbEntity
  8
2-0
  6
Continuous
 62
     7
100
AcDbLine
 10
3315.923802283187
 20
218.68491790708
 30
0.0
 11
3314.558793607223
 21
222.658507033764
 31
0.0
  0
LINE
  5
56F
330
36
100
AcDbEntity
  8
2-0
  6
Continuous
 62
     7
100
AcDbLine
 10
3314.558793607223
 20
222.658507033764
 30
0.0
 11
3312.932107401817
 21
226.532336046807
 31
0.0
  0
LINE
  5
570
330
36
100
AcDbEntity
  8
2-0
  6
Continuous
 62
     7
100
AcDbLine
 10
3312.932107401817
 20
226.532336046807
 30
0.0
 11
3311.050970706163
 21
230.289194304104
 31
0.0
  0
LINE
  5
571
330
36
100
AcDbEntity
  8
2-0
  6
Continuous
 62
     7
100
AcDbLine
 10
3311.050970706163
 20
230.289194304104
 30
0.0
 11
3308.923741031735
 21
233.912390841057
 31
0.0
  0
LINE
  5
572
330
36
100
AcDbEntity
  8
2-0
  6
Continuous
 62
     7
100
AcDbLine
 10
3308.923741031735
 20
233.912390841057
 30
0.0
 11
3306.559869231545
 21
237.385828525171
 31
0.0
  0
LINE
  5
573
330
36
100
AcDbEntity
  8
2-0
  6
Continuous
 62
     7
100
AcDbLine
 10
3306.559869231545
 20
237.385828525171
 30
0.0
 11
3303.969857511916
 21
240.694075572375
 31
0.0
  0
LINE
  5
574
330
36
100
AcDbEntity
  8
2-0
  6
Continuous
 62
     7
100
AcDbLine
 10
3303.969857511916
 20
240.694075572375
 30
0.0
 11
3301.165212773279
 21
243.822434107326
 31
0.0
  0
LINE
  5
575
330
36
100
AcDbEntity
  8
2-0
  6
Continuous
 62
     7
100
AcDbLine
 10
3301.165212773279
 20
243.822434107326
 30
0.0
 11
3298.15839548735
 21
246.757005463112
 31
0.0
  0
LINE
  5
576
330
36
100
AcDbEntity
  8
2-0
  6
Continuous
 62
     7
100
AcDbLine
 10
3298.15839548735
 20
246.757005463112
 30
0.0
 11
3294.962764337751
 21
249.484751930229
 31
0.0
  0
LINE
  5
577
330
36
100
AcDbEntity
  8
2-0
  6
Continuous
 62
     7
100
AcDbLine
 10
3294.962764337751
 20
249.484751930229
 30
0.0
 11
3291.59251687007
 21
251.993554680496
 31
0.0
  0
LINE
  5
578
330
36
100
AcDbEntity
  8
2-0
  6
Continuous
 62
     7
100
AcDbLine
 10
3291.59251687007
 20
251.993554680496
 30
0.0
 11
3288.062626415031
 21
254.272267608574
 31
0.0
  0
LINE
  5
579
330
36
100
AcDbEntity
  8
2-0
  6
Continuous
 62
     7
100
AcDbLine
 10
3288.062626415031
 20
254.272267608574
 30
0.0
 11
3284.388775565
 21
256.310766851861
 31
0.0
  0
LINE
  5
57A
330
36
100
AcDbEntity
  8
2-0
  6
Continuous
 62
     7
100
AcDbLine
 10
3284.388775565
 20
256.310766851861
 30
0.0
 11
3280.587286499379
 21
258.099995768776
 31
0.0
  0
LINE
  5
57B
330
36
100
AcDbEntity
  8
2-0
  6
Continuous
 62
     7
100
AcDbLine
 10
3280.587286499379
 20
258.099995768776
 30
0.0
 11
3276.67504846846
 21
259.632005175598
 31
0.0
  0
LINE
  5
57C
330
36
100
AcDbEntity
  8
2-0
  6
Continuous
 62
     7
100
AcDbLine
 10
3276.67504846846
 20
259.632005175598
 30
0.0
 11
3272.669442757881
 21
260.899988663081
 31
0.0
  0
LINE
  5
57D
330
36
100
AcDbEntity
  8
2-0
  6
Continuous
 62
     7
100
AcDbLine
 10
3272.669442757881
 20
260.899988663081
 30
0.0
 11
3268.588265467074
 21
261.898312835966
 31
0.0
  0
LINE
  5
57E
330
36
100
AcDbEntity
  8
2-0
  6
Continuous
 62
     7
100
AcDbLine
 10
3268.588265467074
 20
261.898312835966
 30
0.0
 11
3264.449648444785
 21
262.622542341017
 31
0.0
  0
LINE
  5
57F
330
36
100
AcDbEntity
  8
2-0
  6
Continuous
 62
     7
100
AcDbLine
 10
3264.449648444785
 20
262.622542341017
 30
0.0
 11
3260.271978732918
 21
263.0694595724039
 31
0.0
  0
LINE
  5
580
330
36
100
AcDbEntity
  8
2-0
  6
Continuous
 62
     7
100
AcDbLine
 10
3260.271978732918
 20
263.0694595724039
 30
0.0
 11
3256.07381687661
 21
263.237078966879
 31
0.0
  0
LINE
  5
581
330
36
100
AcDbEntity
  8
2-0
  6
Continuous
 62
     7
100
AcDbLine
 10
3256.07381687661
 20
263.237078966879
 30
0.0
 11
3251.87381446347
 21
263.124655825231
 31
0.0
  0
LINE
  5
582
330
36
100
AcDbEntity
  8
2-0
  6
Continuous
 62
     7
100
AcDbLine
 10
3251.87381446347
 20
263.124655825231
 30
0.0
 11
3247.690631258329
 21
262.732689620836
 31
0.0
  0
LINE
  5
583
330
36
100
AcDbEntity
  8
2-0
  6
Continuous
 62
     7
100
AcDbLine
 10
3247.690631258329
 20
262.732689620836
 30
0.0
 11
3243.542852301665
 21
262.062921780597
 31
0.0
  0
LINE
  5
584
330
36
100
AcDbEntity
  8
2-0
  6
Continuous
 62
     7
100
AcDbLine
 10
3243.542852301665
 20
262.062921780597
 30
0.0
 11
3239.448905340012
 21
261.118327948135
 31
0.0
  0
LINE
  5
585
330
36
100
AcDbEntity
  8
2-0
  6
Continuous
 62
     7
100
AcDbLine
 10
3239.448905340012
 20
261.118327948135
 30
0.0
 11
3235.426978955187
 21
259.903104763606
 31
0.0
  0
LINE
  5
586
330
36
100
AcDbEntity
  8
2-0
  6
Continuous
 62
     7
100
AcDbLine
 10
3235.426978955187
 20
259.903104763606
 30
0.0
 11
3231.494941756097
 21
258.422651218869
 31
0.0
  0
LINE
  5
587
330
36
100
AcDbEntity
  8
2-0
  6
Continuous
 62
     7
100
AcDbLine
 10
3231.494941756097
 20
258.422651218869
 30
0.0
 11
3227.670262992093
 21
256.683544670856
 31
0.0
  0
LINE
  5
588
330
36
100
AcDbEntity
  8
2-0
  6
Continuous
 62
     7
100
AcDbLine
 10
3227.670262992093
 20
256.683544670856
 30
0.0
 11
3223.969934940627
 21
254.693511619701
 31
0.0
  0
LINE
  5
589
330
36
100
AcDbEntity
  8
2-0
  6
Continuous
 62
     7
100
AcDbLine
 10
3223.969934940627
 20
254.693511619701
 30
0.0
 11
3220.410397413974
 21
252.461393381453
 31
0.0
  0
LINE
  5
58A
330
36
100
AcDbEntity
  8
2-0
  6
Continuous
 62
     7
100
AcDbLine
 10
3220.410397413974
 20
252.461393381453
 30
0.0
 11
3217.007464720472
 21
249.997106807891
 31
0.0
  0
LINE
  5
58B
330
36
100
AcDbEntity
  8
2-0
  6
Continuous
 62
     7
100
AcDbLine
 10
3217.007464720472
 20
249.997106807891
 30
0.0
 11
3213.776255404713
 21
247.311600227948
 31
0.0
  0
LINE
  5
58C
330
36
100
AcDbEntity
  8
2-0
  6
Continuous
 62
     7
100
AcDbLine
 10
3213.776255404713
 20
247.311600227948
 30
0.0
 11
3210.731125078918
 21
244.416804806491
 31
0.0
  0
LINE
  5
58D
330
36
100
AcDbEntity
  8
2-0
  6
Continuous
 62
     7
100
AcDbLine
 10
3210.731125078918
 20
244.416804806491
 30
0.0
 11
3207.885602643828
 21
241.325581536561
 31
0.0
  0
LINE
  5
58E
330
36
100
AcDbEntity
  8
2-0
  6
Continuous
 62
     7
100
AcDbLine
 10
3207.885602643828
 20
241.325581536561
 30
0.0
 11
3205.252330182528
 21
238.051664100566
 31
0.0
  0
LINE
  5
58F
330
36
100
AcDbEntity
  8
2-0
  6
Continuous
 62
     7
100
AcDbLine
 10
3205.252330182528
 20
238.051664100566
 30
0.0
 11
3202.843006794216
 21
234.609597854299
 31
0.0
  0
LINE
  5
590
330
36
100
AcDbEntity
  8
2-0
  6
Continuous
 62
     7
100
AcDbLine
 10
3202.843006794216
 20
234.609597854299
 30
0.0
 11
3200.668336617462
 21
231.014675204854
 31
0.0
  0
LINE
  5
591
330
36
100
AcDbEntity
  8
2-0
  6
Continuous
 62
     7
100
AcDbLine
 10
3200.668336617462
 20
231.014675204854
 30
0.0
 11
3198.73798127388
 21
227.282867669535
 31
0.0
  0
LINE
  5
592
330
36
100
AcDbEntity
  8
2-0
  6
Continuous
 62
     7
100
AcDbLine
 10
3198.73798127388
 20
227.282867669535
 30
0.0
 11
3197.060516943481
 21
223.430754917629
 31
0.0
  0
LINE
  5
593
330
36
100
AcDbEntity
  8
2-0
  6
Continuous
 62
     7
100
AcDbLine
 10
3197.060516943481
 20
223.430754917629
 30
0.0
 11
3195.643396262444
 21
219.475451110268
 31
0.0
  0
LINE
  5
594
330
36
100
AcDbEntity
  8
2-0
  6
Continuous
 62
     7
100
AcDbLine
 10
3195.643396262444
 20
219.475451110268
 30
0.0
 11
3194.492915212538
 21
215.43452886566
 31
0.0
  0
LINE
  5
595
330
36
100
AcDbEntity
  8
2-0
  6
Continuous
 62
     7
100
AcDbLine
 10
3194.492915212538
 20
215.43452886566
 30
0.0
 11
3193.614185149363
 21
211.325941187488
 31
0.0
  0
LINE
  5
596
330
36
100
AcDbEntity
  8
2-0
  6
Continuous
 62
     7
100
AcDbLine
 10
3193.614185149363
 20
211.325941187488
 30
0.0
 11
3193.011110093608
 21
207.167941703327
 31
0.0
  0
LINE
  5
597
330
36
100
AcDbEntity
  8
2-0
  6
Continuous
 62
     7
100
AcDbLine
 10
3193.011110093608
 20
207.167941703327
 30
0.0
 11
3192.686369386288
 21
202.979003567455
 31
0.0
  0
LINE
  5
598
330
36
100
AcDbEntity
  8
2-0
  6
Continuous
 62
     7
100
AcDbLine
 10
3192.686369386288
 20
202.979003567455
 30
0.0
 11
3192.641405784961
 21
198.777737388348
 31
0.0
  0
LINE
  5
599
330
36
100
AcDbEntity
  8
2-0
  6
Continuous
 62
     7
100
AcDbLine
 10
3192.641405784961
 20
198.777737388348
 30
0.0
 11
3192.876419053851
 21
194.582808545495
 31
0.0
  0
LINE
  5
59A
330
36
100
AcDbEntity
  8
2-0
  6
Continuous
 62
     7
100
AcDbLine
 10
3192.876419053851
 20
194.582808545495
 30
0.0
 11
3193.390365076338
 21
190.412854262877
 31
0.0
  0
LINE
  5
59B
330
36
100
AcDbEntity
  8
2-0
  6
Continuous
 62
     7
100
AcDbLine
 10
3193.390365076338
 20
190.412854262877
 30
0.0
 11
3194.180960493753
 21
186.286400807533
 31
0.0
  0
LINE
  5
59C
330
36
100
AcDbEntity
  8
2-0
  6
Continuous
 62
     7
100
AcDbLine
 10
3194.180960493753
 20
186.286400807533
 30
0.0
 11
3195.244692849884
 21
182.2217811810889
 31
0.0
  0
LINE
  5
59D
330
36
100
AcDbEntity
  8
2-0
  6
Continuous
 62
     7
100
AcDbLine
 10
3195.244692849884
 20
182.2217811810889
 30
0.0
 11
3196.576836196113
 21
178.237053669921
 31
0.0
  0
LINE
  5
59E
330
36
100
AcDbEntity
  8
2-0
  6
Continuous
 62
     7
100
AcDbLine
 10
3196.576836196113
 20
178.237053669921
 30
0.0
 11
3198.171472087845
 21
174.349921615829
 31
0.0
  0
LINE
  5
59F
330
36
100
AcDbEntity
  8
2-0
  6
Continuous
 62
     7
100
AcDbLine
 10
3198.171472087845
 20
174.349921615829
 30
0.0
 11
3200.02151587898
 21
170.577654763651
 31
0.0
  0
LINE
  5
5A0
330
36
100
AcDbEntity
  8
2-0
  6
Continuous
 62
     7
100
AcDbLine
 10
3200.02151587898
 20
170.577654763651
 30
0.0
 11
3202.118748197556
 21
166.937012535269
 31
0.0
  0
LINE
  5
5A1
330
36
100
AcDbEntity
  8
2-0
  6
Continuous
 62
     7
100
AcDbLine
 10
3202.118748197556
 20
166.937012535269
 30
0.0
 11
3204.453851462768
 21
163.444169570871
 31
0.0
  0
LINE
  5
5A2
330
36
100
AcDbEntity
  8
2-0
  6
Continuous
 62
     7
100
AcDbLine
 10
3204.453851462768
 20
163.444169570871
 30
0.0
 11
3207.016451281105
 21
160.114643868279
 31
0.0
  0
LINE
  5
5A3
330
36
100
AcDbEntity
  8
2-0
  6
Continuous
 62
     7
100
AcDbLine
 10
3207.016451281105
 20
160.114643868279
 30
0.0
 11
3207.547601040203
 21
159.478729328237
 31
0.0
  0
TEXT
  5
5A4
330
36
100
AcDbEntity
  8
2-0
 62
     7
100
AcDbText
 10
3216.455
 20
142.198
 30
0.0
 40
48.64
  1
A
100
AcDbText
  0
TEXT
  5
5A5
330
36
100
AcDbEntity
  8
2-0
 62
     7
100
AcDbText
 10
3258.946
 20
142.301
 30
0.0
 40
48.64
  1
I
100
AcDbText
  0
TEXT
  5
5A6
330
36
100
AcDbEntity
  8
2-0
 62
     7
100
AcDbText
 10
3269.344
 20
142.267
 30
0.0
 40
48.64
  1
O
100
AcDbText
  0
LINE
  5
5A7
330
36
100
AcDbEntity
  8
C-0
  6
Continuous
 62
     5
100
AcDbLine
 10
2337.58847
 20
2670.02187
 30
0.0
 11
3849.999422
 21
2670.02187
 31
0.0
  0
LINE
  5
5A8
330
36
100
AcDbEntity
  8
C-0
  6
Continuous
 62
     5
100
AcDbLine
 10
2337.58847
 20
2620.02187
 30
0.0
 11
3849.999422
 21
2620.02187
 31
0.0
  0
LINE
  5
5A9
330
36
100
AcDbEntity
  8
C-0
  6
Continuous
 62
     5
100
AcDbLine
 10
2337.58847
 20
2520.02187
 30
0.0
 11
3789.999422
 21
2520.02187
 31
0.0
  0
LINE
  5
5AA
330
36
100
AcDbEntity
  8
C-0
  6
Continuous
 62
     5
100
AcDbLine
 10
2337.58847
 20
2570.02187
 30
0.0
 11
3789.999422
 21
2570.02187
 31
0.0
  0
LINE
  5
5AB
330
36
100
AcDbEntity
  8
C-0
  6
Continuous
 62
     5
100
AcDbLine
 10
2337.58847
 20
2670.02187
 30
0.0
 11
2337.58847
 21
2520.919562
 31
0.0
  0
LINE
  5
5AC
330
36
100
AcDbEntity
  8
C-0
  6
Continuous
 62
     5
100
AcDbLine
 10
3849.999422
 20
2670.02187
 30
0.0
 11
3849.999422
 21
2520.02187
 31
0.0
  0
LINE
  5
5AD
330
36
100
AcDbEntity
  8
C-0
  6
Continuous
 62
     5
100
AcDbLine
 10
2681.471848000001
 20
2670.02187
 30
0.0
 11
2681.471848000001
 21
2669.264148
 31
0.0
  0
LINE
  5
5AE
330
36
100
AcDbEntity
  8
C-0
  6
Continuous
 62
     5
100
AcDbLine
 10
2529.999422
 20
2620.02187
 30
0.0
 11
2529.999422
 21
2520.02187
 31
0.0
  0
TEXT
  5
5AF
330
36
100
AcDbEntity
  8
C-0
 62
     5
100
AcDbText
 10
2549.938
 20
2532.467
 30
0.0
 40
25.92
  1
奥行150㎜タイプは下地不燃材12㎜貼り標準仕様　
100
AcDbText
  0
TEXT
  5
5B0
330
36
100
AcDbEntity
  8
C-0
 62
     5
100
AcDbText
 10
2549.938
 20
2582.467
 30
0.0
 40
25.92
  1
SUS-430ステンレス 0.6ｔ　　　両フサギ
100
AcDbText
  0
LINE
  5
5B1
330
36
100
AcDbEntity
  8
C-0
  6
Continuous
 62
     5
100
AcDbLine
 10
2337.58847
 20
2520.02187
 30
0.0
 11
3849.999422
 21
2520.02187
 31
0.0
  0
LINE
  5
5B2
330
36
100
AcDbEntity
  8
C-0
  6
Continuous
 62
     5
100
AcDbLine
 10
2337.58847
 20
2570.02187
 30
0.0
 11
3849.999422
 21
2570.02187
 31
0.0
  0
TEXT
  5
5B3
330
36
100
AcDbEntity
  8
C-0
 62
     5
100
AcDbText
 10
2400.289
 20
2580.785
 30
0.0
 40
25.92
  1
表面 
100
AcDbText
  0
TEXT
  5
5B4
330
36
100
AcDbEntity
  8
C-0
 62
     5
100
AcDbText
 10
2401.374
 20
2533.062
 30
0.0
 40
25.92
  1
下地
100
AcDbText
  0
TEXT
  5
5B5
330
36
100
AcDbEntity
  8
C-0
 62
     5
100
AcDbText
 10
2381.879
 20
143.73
 30
0.0
 40
51.84000000000001
  1
ステンレス製水切カバー
100
AcDbText
  0
TEXT
  5
5B6
330
36
100
AcDbEntity
  8
C-0
 62
     5
100
AcDbText
 10
2692.708
 20
250.316
 30
0.0
 40
31.104
  1
品番
100
AcDbText
  0
TEXT
  5
5B7
330
36
100
AcDbEntity
  8
C-0
 62
     5
100
AcDbText
 10
2403.074
 20
2630.102000000001
 30
0.0
 40
25.92
  1
奥行150㎜タイプ：AM-1410・AM-1610・AM-1710・AM-1810　　受注生産品：奥行70/150㎜タイプ
100
AcDbText
  0
LINE
  5
5B8
330
36
100
AcDbEntity
  8
1-0
  6
Continuous
 62
     0
100
AcDbLine
 10
815.52167
 20
1481.138162
 30
0.0
 11
1115.52167
 21
1481.138162
 31
0.0
  0
LINE
  5
5B9
330
36
100
AcDbEntity
  8
1-0
  6
Continuous
 62
     0
100
AcDbLine
 10
1115.52167
 20
1481.138162
 30
0.0
 11
1115.52167
 21
1561.138162
 31
0.0
  0
LINE
  5
5BA
330
36
100
AcDbEntity
  8
1-0
  6
Continuous
 62
     0
100
AcDbLine
 10
815.52167
 20
1561.138162
 30
0.0
 11
815.52167
 21
1571.138162
 31
0.0
  0
LINE
  5
5BB
330
36
100
AcDbEntity
  8
1-0
  6
Continuous
 62
     0
100
AcDbLine
 10
815.52167
 20
1571.138162
 30
0.0
 11
1115.52167
 21
1561.138162
 31
0.0
  0
LINE
  5
5BC
330
36
100
AcDbEntity
  8
1-0
  6
Continuous
 62
     0
100
AcDbLine
 10
821.847379
 20
1546.913975
 30
0.0
 11
1109.738709
 21
1537.317598
 31
0.0
  0
LINE
  5
5BD
330
36
100
AcDbEntity
  8
1-0
  6
Continuous
 62
     0
100
AcDbLine
 10
815.52167
 20
1571.138162
 30
0.0
 11
815.52167
 21
1611.138162
 31
0.0
  0
LINE
  5
5BE
330
36
100
AcDbEntity
  8
1-0
  6
Continuous
 62
     0
100
AcDbLine
 10
815.52167
 20
1561.138162
 30
0.0
 11
815.52167
 21
1481.138162
 31
0.0
  0
LINE
  5
5BF
330
36
100
AcDbEntity
  8
1-0
  6
Continuous
 62
     0
100
AcDbLine
 10
822.707517
 20
1570.898634
 30
0.0
 11
821.847379
 21
1546.913975
 31
0.0
  0
LINE
  5
5C0
330
36
100
AcDbEntity
  8
1-0
  6
Continuous
 62
     0
100
AcDbLine
 10
1110.688917
 20
1561.299254
 30
0.0
 11
1109.738709
 21
1537.317598
 31
0.0
  0
LINE
  5
5C1
330
36
100
AcDbEntity
  8
1-0
  6
Continuous
 62
     0
100
AcDbLine
 10
822.707517
 20
1570.898634
 30
0.0
 11
1110.688917
 21
1561.299254
 31
0.0
  0
LINE
  5
5C2
330
36
100
AcDbEntity
  8
1-0
  6
Continuous
 62
     0
100
AcDbLine
 10
821.847379
 20
1546.913975
 30
0.0
 11
1109.738709
 21
1537.317598
 31
0.0
  0
LINE
  5
5C3
330
36
100
AcDbEntity
  8
1-0
  6
Continuous
 62
     0
100
AcDbLine
 10
822.707517
 20
1570.898634
 30
0.0
 11
821.847379
 21
1546.913975
 31
0.0
  0
LINE
  5
5C4
330
36
100
AcDbEntity
  8
1-0
  6
Continuous
 62
     0
100
AcDbLine
 10
1110.688917
 20
1561.299254
 30
0.0
 11
1109.738709
 21
1537.317598
 31
0.0
  0
LINE
  5
5C5
330
36
100
AcDbEntity
  8
1-0
  6
Continuous
 62
     0
100
AcDbLine
 10
1976.19186
 20
1479.138162
 30
0.0
 11
2116.19186
 21
1479.138162
 31
0.0
  0
LINE
  5
5C6
330
36
100
AcDbEntity
  8
1-0
  6
Continuous
 62
     0
100
AcDbLine
 10
1976.19186
 20
1561.138162
 30
0.0
 11
1976.19186
 21
1571.138162
 31
0.0
  0
LINE
  5
5C7
330
36
100
AcDbEntity
  8
1-0
  6
Continuous
 62
     0
100
AcDbLine
 10
1976.19186
 20
1571.138162
 30
0.0
 11
1976.19186
 21
1611.138162
 31
0.0
  0
LINE
  5
5C8
330
36
100
AcDbEntity
  8
1-0
  6
Continuous
 62
     0
100
AcDbLine
 10
1976.19186
 20
1561.138162
 30
0.0
 11
1976.19186
 21
1479.138162
 31
0.0
  0
LINE
  5
5C9
330
36
100
AcDbEntity
  8
1-0
  6
Continuous
 62
     0
100
AcDbLine
 10
1976.19186
 20
1571.138162
 30
0.0
 11
2044.19186
 21
1571.138162
 31
0.0
  0
LINE
  5
5CA
330
36
100
AcDbEntity
  8
1-0
  6
Continuous
 62
     0
100
AcDbLine
 10
2044.19186
 20
1571.138162
 30
0.0
 11
2116.19186
 21
1557.138162
 31
0.0
  0
LINE
  5
5CB
330
36
100
AcDbEntity
  8
1-0
  6
Continuous
 62
     0
100
AcDbLine
 10
2116.19186
 20
1479.138162
 30
0.0
 11
2116.19186
 21
1557.138162
 31
0.0
  0
LINE
  5
5CC
330
36
100
AcDbEntity
  8
1-0
  6
Continuous
 62
     0
100
AcDbLine
 10
3233.104468
 20
1606.211897
 30
0.0
 11
2997.294088
 21
1606.211897
 31
0.0
  0
LINE
  5
5CD
330
36
100
AcDbEntity
  8
1-0
  6
Continuous
 62
     0
100
AcDbLine
 10
2983.104468
 20
1592.022277
 30
0.0
 11
2983.104468
 21
1356.211897
 31
0.0
  0
LINE
  5
5CE
330
36
100
AcDbEntity
  8
1-0
  6
Continuous
 62
     0
100
AcDbLine
 10
2983.104468
 20
1356.211897
 30
0.0
 11
2989.104468
 21
1356.211897
 31
0.0
  0
LINE
  5
5CF
330
36
100
AcDbEntity
  8
1-0
  6
Continuous
 62
     0
100
AcDbLine
 10
2989.104468
 20
1356.211897
 30
0.0
 11
2989.104468
 21
1586.211897
 31
0.0
  0
LINE
  5
5D0
330
36
100
AcDbEntity
  8
1-0
  6
Continuous
 62
     0
100
AcDbLine
 10
3003.104468
 20
1600.211897
 30
0.0
 11
3233.104468
 21
1600.211897
 31
0.0
  0
LINE
  5
5D1
330
36
100
AcDbEntity
  8
1-0
  6
Continuous
 62
     0
100
AcDbLine
 10
3233.104468
 20
1600.211897
 30
0.0
 11
3233.104468
 21
1606.211897
 31
0.0
  0
ARC
  5
5D2
330
36
100
AcDbEntity
  8
1-0
  6
Continuous
 62
     0
100
AcDbCircle
 10
2984.713221
 20
1604.603144
 30
0.0
 40
18.908226
100
AcDbArc
 50
283.429
 51
346.571
  0
ARC
  5
5D3
330
36
100
AcDbEntity
  8
1-0
  6
Continuous
 62
     0
100
AcDbCircle
 10
2983.104468
 20
1606.211897
 30
0.0
 40
14.18962
100
AcDbArc
 50
270.0
 51
0.0
  0
LINE
  5
5D4
330
36
100
AcDbEntity
  8
1-0
  6
Continuous
 62
     0
100
AcDbLine
 10
815.52167
 20
1461.138162
 30
0.0
 11
815.52167
 21
1376.213634
 31
0.0
  0
LINE
  5
5D5
330
36
100
AcDbEntity
  8
1-0
  6
Continuous
 62
     0
100
AcDbLine
 10
1115.52167
 20
1461.138162
 30
0.0
 11
1115.52167
 21
1376.213634
 31
0.0
  0
TEXT
  5
5D6
330
36
100
AcDbEntity
  8
1-0
 62
     0
100
AcDbText
 10
934.7439999999998
 20
1376.834
 30
0.0
 40
36.288
  1
150
100
AcDbText
  0
LINE
  5
5D7
330
36
100
AcDbEntity
  8
1-0
  6
Continuous
 62
     0
100
AcDbLine
 10
1115.52166996081
 20
1376.213634288878
 30
0.0
 11
815.52166996081
 21
1376.213634288878
 31
0.0
  0
CIRCLE
  5
5D8
330
36
100
AcDbEntity
  8
1-0
  6
Continuous
 62
     0
100
AcDbCircle
 10
1115.52166996081
 20
1376.213634288878
 30
0.0
 40
0.25
  0
CIRCLE
  5
5D9
330
36
100
AcDbEntity
  8
1-0
  6
Continuous
 62
     0
100
AcDbCircle
 10
1115.52166996081
 20
1376.213634288878
 30
0.0
 40
0.1875
  0
CIRCLE
  5
5DA
330
36
100
AcDbEntity
  8
1-0
  6
Continuous
 62
     0
100
AcDbCircle
 10
1115.52166996081
 20
1376.213634288878
 30
0.0
 40
0.125
  0
CIRCLE
  5
5DB
330
36
100
AcDbEntity
  8
1-0
  6
Continuous
 62
     0
100
AcDbCircle
 10
1115.52166996081
 20
1376.213634288878
 30
0.0
 40
0.0625
  0
CIRCLE
  5
5DC
330
36
100
AcDbEntity
  8
1-0
  6
Continuous
 62
     0
100
AcDbCircle
 10
815.52166996081
 20
1376.213634288878
 30
0.0
 40
0.25
  0
CIRCLE
  5
5DD
330
36
100
AcDbEntity
  8
1-0
  6
Continuous
 62
     0
100
AcDbCircle
 10
815.52166996081
 20
1376.213634288878
 30
0.0
 40
0.1875
  0
CIRCLE
  5
5DE
330
36
100
AcDbEntity
  8
1-0
  6
Continuous
 62
     0
100
AcDbCircle
 10
815.52166996081
 20
1376.213634288878
 30
0.0
 40
0.125
  0
CIRCLE
  5
5DF
330
36
100
AcDbEntity
  8
1-0
  6
Continuous
 62
     0
100
AcDbCircle
 10
815.52166996081
 20
1376.213634288878
 30
0.0
 40
0.0625
  0
LINE
  5
5E0
330
36
100
AcDbEntity
  8
1-0
  6
Continuous
 62
     0
100
AcDbLine
 10
1135.52167
 20
1561.138162
 30
0.0
 11
1229.219085
 21
1561.138162
 31
0.0
  0
LINE
  5
5E1
330
36
100
AcDbEntity
  8
1-0
  6
Continuous
 62
     0
100
AcDbLine
 10
1135.52167
 20
1481.138162
 30
0.0
 11
1229.219085
 21
1481.138162
 31
0.0
  0
TEXT
  5
5E2
330
36
100
AcDbEntity
  8
1-0
 62
     0
100
AcDbText
 10
1228.599
 20
1498.738
 30
0.0
 40
36.288
  1
40
 50
90.0
100
AcDbText
  0
LINE
  5
5E3
330
36
100
AcDbEntity
  8
1-0
  6
Continuous
 62
     0
100
AcDbLine
 10
1229.219085260261
 20
1481.138161894233
 30
0.0
 11
1229.219085260262
 21
1561.138161894233
 31
0.0
  0
CIRCLE
  5
5E4
330
36
100
AcDbEntity
  8
1-0
  6
Continuous
 62
     0
100
AcDbCircle
 10
1229.219085260261
 20
1481.138161894233
 30
0.0
 40
0.25
  0
CIRCLE
  5
5E5
330
36
100
AcDbEntity
  8
1-0
  6
Continuous
 62
     0
100
AcDbCircle
 10
1229.219085260261
 20
1481.138161894233
 30
0.0
 40
0.1875
  0
CIRCLE
  5
5E6
330
36
100
AcDbEntity
  8
1-0
  6
Continuous
 62
     0
100
AcDbCircle
 10
1229.219085260261
 20
1481.138161894233
 30
0.0
 40
0.125
  0
CIRCLE
  5
5E7
330
36
100
AcDbEntity
  8
1-0
  6
Continuous
 62
     0
100
AcDbCircle
 10
1229.219085260261
 20
1481.138161894233
 30
0.0
 40
0.0625
  0
CIRCLE
  5
5E8
330
36
100
AcDbEntity
  8
1-0
  6
Continuous
 62
     0
100
AcDbCircle
 10
1229.219085260262
 20
1561.138161894233
 30
0.0
 40
0.25
  0
CIRCLE
  5
5E9
330
36
100
AcDbEntity
  8
1-0
  6
Continuous
 62
     0
100
AcDbCircle
 10
1229.219085260262
 20
1561.138161894233
 30
0.0
 40
0.1875
  0
CIRCLE
  5
5EA
330
36
100
AcDbEntity
  8
1-0
  6
Continuous
 62
     0
100
AcDbCircle
 10
1229.219085260262
 20
1561.138161894233
 30
0.0
 40
0.125
  0
CIRCLE
  5
5EB
330
36
100
AcDbEntity
  8
1-0
  6
Continuous
 62
     0
100
AcDbCircle
 10
1229.219085260262
 20
1561.138161894233
 30
0.0
 40
0.0625
  0
LINE
  5
5EC
330
36
100
AcDbEntity
  8
1-0
  6
Continuous
 62
     0
100
AcDbLine
 10
795.52167
 20
1611.138162
 30
0.0
 11
697.778218
 21
1611.138162
 31
0.0
  0
LINE
  5
5ED
330
36
100
AcDbEntity
  8
1-0
  6
Continuous
 62
     0
100
AcDbLine
 10
795.52167
 20
1571.138162
 30
0.0
 11
697.778218
 21
1571.138162
 31
0.0
  0
LINE
  5
5EE
330
36
100
AcDbEntity
  8
1-0
  6
Continuous
 62
     0
100
AcDbLine
 10
697.778218
 20
1601.138162
 30
0.0
 11
697.778218
 21
1581.138162
 31
0.0
  0
TEXT
  5
5EF
330
36
100
AcDbEntity
  8
1-0
 62
     0
100
AcDbText
 10
686.9769999999999
 20
1570.305
 30
0.0
 40
36.288
  1
20
 50
90.0
100
AcDbText
  0
CIRCLE
  5
5F0
330
36
100
AcDbEntity
  8
1-0
  6
Continuous
 62
     0
100
AcDbCircle
 10
697.7782184218339
 20
1611.138161894234
 30
0.0
 40
0.25
  0
CIRCLE
  5
5F1
330
36
100
AcDbEntity
  8
1-0
  6
Continuous
 62
     0
100
AcDbCircle
 10
697.7782184218339
 20
1611.138161894234
 30
0.0
 40
0.1875
  0
CIRCLE
  5
5F2
330
36
100
AcDbEntity
  8
1-0
  6
Continuous
 62
     0
100
AcDbCircle
 10
697.7782184218339
 20
1611.138161894234
 30
0.0
 40
0.125
  0
CIRCLE
  5
5F3
330
36
100
AcDbEntity
  8
1-0
  6
Continuous
 62
     0
100
AcDbCircle
 10
697.7782184218339
 20
1611.138161894234
 30
0.0
 40
0.0625
  0
ARC
  5
5F4
330
36
100
AcDbEntity
  8
1-0
 62
     0
100
AcDbCircle
 10
697.7732184218339
 20
1611.138161894234
 30
0.0
 40
2.5
100
AcDbArc
 50
90.11459140653
 51
270.114591405945
  0
LINE
  5
5F5
330
36
100
AcDbEntity
  8
1-0
 62
     0
100
AcDbLine
 10
697.7782184218589
 20
1606.138161894234
 30
0.0
 11
697.7782184218851
 21
1601.138161894234
 31
0.0
  0
CIRCLE
  5
5F6
330
36
100
AcDbEntity
  8
1-0
  6
Continuous
 62
     0
100
AcDbCircle
 10
697.7782184218339
 20
1571.138161894233
 30
0.0
 40
0.25
  0
CIRCLE
  5
5F7
330
36
100
AcDbEntity
  8
1-0
  6
Continuous
 62
     0
100
AcDbCircle
 10
697.7782184218339
 20
1571.138161894233
 30
0.0
 40
0.1875
  0
CIRCLE
  5
5F8
330
36
100
AcDbEntity
  8
1-0
  6
Continuous
 62
     0
100
AcDbCircle
 10
697.7782184218339
 20
1571.138161894233
 30
0.0
 40
0.125
  0
CIRCLE
  5
5F9
330
36
100
AcDbEntity
  8
1-0
  6
Continuous
 62
     0
100
AcDbCircle
 10
697.7782184218339
 20
1571.138161894233
 30
0.0
 40
0.0625
  0
ARC
  5
5FA
330
36
100
AcDbEntity
  8
1-0
 62
     0
100
AcDbCircle
 10
697.7832184218339
 20
1571.138161894233
 30
0.0
 40
2.5
100
AcDbArc
 50
270.1145914065301
 51
90.11459140594496
  0
LINE
  5
5FB
330
36
100
AcDbEntity
  8
1-0
 62
     0
100
AcDbLine
 10
697.778218421758
 20
1576.138161894233
 30
0.0
 11
697.7782184216811
 21
1581.138161894233
 31
0.0
  0
LINE
  5
5FC
330
36
100
AcDbEntity
  8
1-0
  6
Continuous
 62
     0
100
AcDbLine
 10
795.52167
 20
1571.138162
 30
0.0
 11
697.778218
 21
1571.138162
 31
0.0
  0
LINE
  5
5FD
330
36
100
AcDbEntity
  8
1-0
  6
Continuous
 62
     0
100
AcDbLine
 10
795.52167
 20
1481.138162
 30
0.0
 11
697.778218
 21
1481.138162
 31
0.0
  0
TEXT
  5
5FE
330
36
100
AcDbEntity
  8
1-0
 62
     0
100
AcDbText
 10
697.158
 20
1503.738
 30
0.0
 40
36.288
  1
45
 50
90.0
100
AcDbText
  0
LINE
  5
5FF
330
36
100
AcDbEntity
  8
1-0
  6
Continuous
 62
     0
100
AcDbLine
 10
697.7782184218339
 20
1481.138161894233
 30
0.0
 11
697.7782184218339
 21
1571.138161894233
 31
0.0
  0
CIRCLE
  5
600
330
36
100
AcDbEntity
  8
1-0
  6
Continuous
 62
     0
100
AcDbCircle
 10
697.7782184218339
 20
1481.138161894233
 30
0.0
 40
0.25
  0
CIRCLE
  5
601
330
36
100
AcDbEntity
  8
1-0
  6
Continuous
 62
     0
100
AcDbCircle
 10
697.7782184218339
 20
1481.138161894233
 30
0.0
 40
0.1875
  0
CIRCLE
  5
602
330
36
100
AcDbEntity
  8
1-0
  6
Continuous
 62
     0
100
AcDbCircle
 10
697.7782184218339
 20
1481.138161894233
 30
0.0
 40
0.125
  0
CIRCLE
  5
603
330
36
100
AcDbEntity
  8
1-0
  6
Continuous
 62
     0
100
AcDbCircle
 10
697.7782184218339
 20
1481.138161894233
 30
0.0
 40
0.0625
  0
CIRCLE
  5
604
330
36
100
AcDbEntity
  8
1-0
  6
Continuous
 62
     0
100
AcDbCircle
 10
697.7782184218339
 20
1571.138161894233
 30
0.0
 40
0.25
  0
CIRCLE
  5
605
330
36
100
AcDbEntity
  8
1-0
  6
Continuous
 62
     0
100
AcDbCircle
 10
697.7782184218339
 20
1571.138161894233
 30
0.0
 40
0.1875
  0
CIRCLE
  5
606
330
36
100
AcDbEntity
  8
1-0
  6
Continuous
 62
     0
100
AcDbCircle
 10
697.7782184218339
 20
1571.138161894233
 30
0.0
 40
0.125
  0
CIRCLE
  5
607
330
36
100
AcDbEntity
  8
1-0
  6
Continuous
 62
     0
100
AcDbCircle
 10
697.7782184218339
 20
1571.138161894233
 30
0.0
 40
0.0625
  0
LINE
  5
608
330
36
100
AcDbEntity
  8
1-0
  6
Continuous
 62
     0
100
AcDbLine
 10
937.5087329999999
 20
1566.138162
 30
0.0
 11
957.508733
 21
1566.138162
 31
0.0
  0
LINE
  5
609
330
36
100
AcDbEntity
  8
1-0
  6
Continuous
 62
     0
100
AcDbLine
 10
937.5087329999999
 20
1542.115786
 30
0.0
 11
957.508733
 21
1542.115786
 31
0.0
  0
LINE
  5
60A
330
36
100
AcDbEntity
  8
1-0
  6
Continuous
 62
     0
100
AcDbLine
 10
957.508733
 20
1576.138162
 30
0.0
 11
957.508733
 21
1586.138162
 31
0.0
  0
LINE
  5
60B
330
36
100
AcDbEntity
  8
1-0
  6
Continuous
 62
     0
100
AcDbLine
 10
957.508733
 20
1532.115786
 30
0.0
 11
957.508733
 21
1522.115786
 31
0.0
  0
LINE
  5
60C
330
36
100
AcDbEntity
  8
1-0
  6
Continuous
 62
     0
100
AcDbLine
 10
957.508733
 20
1665.077156
 30
0.0
 11
957.508733
 21
1566.138162
 31
0.0
  0
TEXT
  5
60D
330
36
100
AcDbEntity
  8
1-0
 62
     0
100
AcDbText
 10
956.8889999999999
 20
1613.401
 30
0.0
 40
36.288
  1
12
 50
90.0
100
AcDbText
  0
LINE
  5
60E
330
36
100
AcDbEntity
  8
1-0
  6
Continuous
 62
     0
100
AcDbLine
 10
957.508733
 20
1566.138162
 30
0.0
 11
957.508733
 21
1542.115786
 31
0.0
  0
LINE
  5
60F
330
36
100
AcDbEntity
  8
1-0
  6
Continuous
 62
     0
100
AcDbLine
 10
957.508733
 20
1566.138162
 30
0.0
 11
957.508733
 21
1542.115786
 31
0.0
  0
CIRCLE
  5
610
330
36
100
AcDbEntity
  8
1-0
  6
Continuous
 62
     0
100
AcDbCircle
 10
957.5087332499059
 20
1566.138161894234
 30
0.0
 40
0.25
  0
CIRCLE
  5
611
330
36
100
AcDbEntity
  8
1-0
  6
Continuous
 62
     0
100
AcDbCircle
 10
957.5087332499059
 20
1566.138161894234
 30
0.0
 40
0.1875
  0
CIRCLE
  5
612
330
36
100
AcDbEntity
  8
1-0
  6
Continuous
 62
     0
100
AcDbCircle
 10
957.5087332499059
 20
1566.138161894234
 30
0.0
 40
0.125
  0
CIRCLE
  5
613
330
36
100
AcDbEntity
  8
1-0
  6
Continuous
 62
     0
100
AcDbCircle
 10
957.5087332499059
 20
1566.138161894234
 30
0.0
 40
0.0625
  0
ARC
  5
614
330
36
100
AcDbEntity
  8
1-0
 62
     0
100
AcDbCircle
 10
957.5137332499059
 20
1566.138161894234
 30
0.0
 40
2.5
100
AcDbArc
 50
270.1145914065301
 51
90.11459140594496
  0
LINE
  5
615
330
36
100
AcDbEntity
  8
1-0
 62
     0
100
AcDbLine
 10
957.50873324983
 20
1571.138161894234
 30
0.0
 11
957.5087332497529
 21
1576.138161894234
 31
0.0
  0
CIRCLE
  5
616
330
36
100
AcDbEntity
  8
1-0
  6
Continuous
 62
     0
100
AcDbCircle
 10
957.5087332499059
 20
1542.115786462912
 30
0.0
 40
0.25
  0
CIRCLE
  5
617
330
36
100
AcDbEntity
  8
1-0
  6
Continuous
 62
     0
100
AcDbCircle
 10
957.5087332499059
 20
1542.115786462912
 30
0.0
 40
0.1875
  0
CIRCLE
  5
618
330
36
100
AcDbEntity
  8
1-0
  6
Continuous
 62
     0
100
AcDbCircle
 10
957.5087332499059
 20
1542.115786462912
 30
0.0
 40
0.125
  0
CIRCLE
  5
619
330
36
100
AcDbEntity
  8
1-0
  6
Continuous
 62
     0
100
AcDbCircle
 10
957.5087332499059
 20
1542.115786462912
 30
0.0
 40
0.0625
  0
ARC
  5
61A
330
36
100
AcDbEntity
  8
1-0
 62
     0
100
AcDbCircle
 10
957.5037332499059
 20
1542.115786462912
 30
0.0
 40
2.5
100
AcDbArc
 50
90.11459140653
 51
270.114591405945
  0
LINE
  5
61B
330
36
100
AcDbEntity
  8
1-0
 62
     0
100
AcDbLine
 10
957.508733249932
 20
1537.115786462912
 30
0.0
 11
957.508733249957
 21
1532.115786462912
 31
0.0
  0
TEXT
  5
61C
330
36
100
AcDbEntity
  8
1-0
 62
     0
100
AcDbText
 10
925.838
 20
996.415
 30
0.0
 40
41.472
  1
150巾
100
AcDbText
  0
TEXT
  5
61D
330
36
100
AcDbEntity
  8
1-0
 62
     0
100
AcDbText
 10
2008.759
 20
997.0260000000001
 30
0.0
 40
41.472
  1
70巾
100
AcDbText
  0
TEXT
  5
61E
330
36
100
AcDbEntity
  8
1-0
 62
     0
100
AcDbText
 10
3131.562
 20
989.0539999999999
 30
0.0
 40
41.472
  1
ブラケット
100
AcDbText
  0
LINE
  5
61F
330
36
100
AcDbEntity
  8
1-0
  6
Continuous
 62
     0
100
AcDbLine
 10
1956.19186
 20
1611.138162
 30
0.0
 11
1858.448408
 21
1611.138162
 31
0.0
  0
LINE
  5
620
330
36
100
AcDbEntity
  8
1-0
  6
Continuous
 62
     0
100
AcDbLine
 10
1956.19186
 20
1571.138162
 30
0.0
 11
1858.448408
 21
1571.138162
 31
0.0
  0
LINE
  5
621
330
36
100
AcDbEntity
  8
1-0
  6
Continuous
 62
     0
100
AcDbLine
 10
1858.448408
 20
1601.138162
 30
0.0
 11
1858.448408
 21
1581.138162
 31
0.0
  0
TEXT
  5
622
330
36
100
AcDbEntity
  8
1-0
 62
     0
100
AcDbText
 10
1854.2
 20
1568.762
 30
0.0
 40
36.288
  1
20
 50
90.0
100
AcDbText
  0
CIRCLE
  5
623
330
36
100
AcDbEntity
  8
1-0
  6
Continuous
 62
     0
100
AcDbCircle
 10
1858.448408000546
 20
1611.138161894234
 30
0.0
 40
0.25
  0
CIRCLE
  5
624
330
36
100
AcDbEntity
  8
1-0
  6
Continuous
 62
     0
100
AcDbCircle
 10
1858.448408000546
 20
1611.138161894234
 30
0.0
 40
0.1875
  0
CIRCLE
  5
625
330
36
100
AcDbEntity
  8
1-0
  6
Continuous
 62
     0
100
AcDbCircle
 10
1858.448408000546
 20
1611.138161894234
 30
0.0
 40
0.125
  0
CIRCLE
  5
626
330
36
100
AcDbEntity
  8
1-0
  6
Continuous
 62
     0
100
AcDbCircle
 10
1858.448408000546
 20
1611.138161894234
 30
0.0
 40
0.0625
  0
ARC
  5
627
330
36
100
AcDbEntity
  8
1-0
 62
     0
100
AcDbCircle
 10
1858.443408000546
 20
1611.138161894234
 30
0.0
 40
2.5
100
AcDbArc
 50
90.11459140653
 51
270.114591405945
  0
LINE
  5
628
330
36
100
AcDbEntity
  8
1-0
 62
     0
100
AcDbLine
 10
1858.448408000571
 20
1606.138161894234
 30
0.0
 11
1858.448408000597
 21
1601.138161894234
 31
0.0
  0
CIRCLE
  5
629
330
36
100
AcDbEntity
  8
1-0
  6
Continuous
 62
     0
100
AcDbCircle
 10
1858.448408000546
 20
1571.138161894233
 30
0.0
 40
0.25
  0
CIRCLE
  5
62A
330
36
100
AcDbEntity
  8
1-0
  6
Continuous
 62
     0
100
AcDbCircle
 10
1858.448408000546
 20
1571.138161894233
 30
0.0
 40
0.1875
  0
CIRCLE
  5
62B
330
36
100
AcDbEntity
  8
1-0
  6
Continuous
 62
     0
100
AcDbCircle
 10
1858.448408000546
 20
1571.138161894233
 30
0.0
 40
0.125
  0
CIRCLE
  5
62C
330
36
100
AcDbEntity
  8
1-0
  6
Continuous
 62
     0
100
AcDbCircle
 10
1858.448408000546
 20
1571.138161894233
 30
0.0
 40
0.0625
  0
ARC
  5
62D
330
36
100
AcDbEntity
  8
1-0
 62
     0
100
AcDbCircle
 10
1858.453408000546
 20
1571.138161894233
 30
0.0
 40
2.5
100
AcDbArc
 50
270.1145914065301
 51
90.11459140594496
  0
LINE
  5
62E
330
36
100
AcDbEntity
  8
1-0
 62
     0
100
AcDbLine
 10
1858.448408000469
 20
1576.138161894233
 30
0.0
 11
1858.448408000393
 21
1581.138161894233
 31
0.0
  0
LINE
  5
62F
330
36
100
AcDbEntity
  8
1-0
  6
Continuous
 62
     0
100
AcDbLine
 10
1956.19186
 20
1571.138162
 30
0.0
 11
1858.448408
 21
1571.138162
 31
0.0
  0
LINE
  5
630
330
36
100
AcDbEntity
  8
1-0
  6
Continuous
 62
     0
100
AcDbLine
 10
1956.19186
 20
1479.138162
 30
0.0
 11
1858.448408
 21
1479.138162
 31
0.0
  0
TEXT
  5
631
330
36
100
AcDbEntity
  8
1-0
 62
     0
100
AcDbText
 10
1857.828
 20
1502.738
 30
0.0
 40
36.288
  1
46
 50
90.0
100
AcDbText
  0
LINE
  5
632
330
36
100
AcDbEntity
  8
1-0
  6
Continuous
 62
     0
100
AcDbLine
 10
1858.448408000546
 20
1479.138161894234
 30
0.0
 11
1858.448408000546
 21
1571.138161894233
 31
0.0
  0
CIRCLE
  5
633
330
36
100
AcDbEntity
  8
1-0
  6
Continuous
 62
     0
100
AcDbCircle
 10
1858.448408000546
 20
1479.138161894234
 30
0.0
 40
0.25
  0
CIRCLE
  5
634
330
36
100
AcDbEntity
  8
1-0
  6
Continuous
 62
     0
100
AcDbCircle
 10
1858.448408000546
 20
1479.138161894234
 30
0.0
 40
0.1875
  0
CIRCLE
  5
635
330
36
100
AcDbEntity
  8
1-0
  6
Continuous
 62
     0
100
AcDbCircle
 10
1858.448408000546
 20
1479.138161894234
 30
0.0
 40
0.125
  0
CIRCLE
  5
636
330
36
100
AcDbEntity
  8
1-0
  6
Continuous
 62
     0
100
AcDbCircle
 10
1858.448408000546
 20
1479.138161894234
 30
0.0
 40
0.0625
  0
CIRCLE
  5
637
330
36
100
AcDbEntity
  8
1-0
  6
Continuous
 62
     0
100
AcDbCircle
 10
1858.448408000546
 20
1571.138161894233
 30
0.0
 40
0.25
  0
CIRCLE
  5
638
330
36
100
AcDbEntity
  8
1-0
  6
Continuous
 62
     0
100
AcDbCircle
 10
1858.448408000546
 20
1571.138161894233
 30
0.0
 40
0.1875
  0
CIRCLE
  5
639
330
36
100
AcDbEntity
  8
1-0
  6
Continuous
 62
     0
100
AcDbCircle
 10
1858.448408000546
 20
1571.138161894233
 30
0.0
 40
0.125
  0
CIRCLE
  5
63A
330
36
100
AcDbEntity
  8
1-0
  6
Continuous
 62
     0
100
AcDbCircle
 10
1858.448408000546
 20
1571.138161894233
 30
0.0
 40
0.0625
  0
LINE
  5
63B
330
36
100
AcDbEntity
  8
1-0
  6
Continuous
 62
     0
100
AcDbLine
 10
1976.19186
 20
1631.138162
 30
0.0
 11
1976.19186
 21
1687.095285
 31
0.0
  0
LINE
  5
63C
330
36
100
AcDbEntity
  8
1-0
  6
Continuous
 62
     0
100
AcDbLine
 10
2044.19186
 20
1591.138162
 30
0.0
 11
2044.19186
 21
1687.095285
 31
0.0
  0
TEXT
  5
63D
330
36
100
AcDbEntity
  8
1-0
 62
     0
100
AcDbText
 10
1990.614
 20
1687.715
 30
0.0
 40
36.288
  1
34
100
AcDbText
  0
LINE
  5
63E
330
36
100
AcDbEntity
  8
1-0
  6
Continuous
 62
     0
100
AcDbLine
 10
2044.191859539522
 20
1687.09528485733
 30
0.0
 11
1976.191859539522
 21
1687.09528485733
 31
0.0
  0
CIRCLE
  5
63F
330
36
100
AcDbEntity
  8
1-0
  6
Continuous
 62
     0
100
AcDbCircle
 10
2044.191859539522
 20
1687.09528485733
 30
0.0
 40
0.25
  0
CIRCLE
  5
640
330
36
100
AcDbEntity
  8
1-0
  6
Continuous
 62
     0
100
AcDbCircle
 10
2044.191859539522
 20
1687.09528485733
 30
0.0
 40
0.1875
  0
CIRCLE
  5
641
330
36
100
AcDbEntity
  8
1-0
  6
Continuous
 62
     0
100
AcDbCircle
 10
2044.191859539522
 20
1687.09528485733
 30
0.0
 40
0.125
  0
CIRCLE
  5
642
330
36
100
AcDbEntity
  8
1-0
  6
Continuous
 62
     0
100
AcDbCircle
 10
2044.191859539522
 20
1687.09528485733
 30
0.0
 40
0.0625
  0
CIRCLE
  5
643
330
36
100
AcDbEntity
  8
1-0
  6
Continuous
 62
     0
100
AcDbCircle
 10
1976.191859539522
 20
1687.09528485733
 30
0.0
 40
0.25
  0
CIRCLE
  5
644
330
36
100
AcDbEntity
  8
1-0
  6
Continuous
 62
     0
100
AcDbCircle
 10
1976.191859539522
 20
1687.09528485733
 30
0.0
 40
0.1875
  0
CIRCLE
  5
645
330
36
100
AcDbEntity
  8
1-0
  6
Continuous
 62
     0
100
AcDbCircle
 10
1976.191859539522
 20
1687.09528485733
 30
0.0
 40
0.125
  0
CIRCLE
  5
646
330
36
100
AcDbEntity
  8
1-0
  6
Continuous
 62
     0
100
AcDbCircle
 10
1976.191859539522
 20
1687.09528485733
 30
0.0
 40
0.0625
  0
LINE
  5
647
330
36
100
AcDbEntity
  8
1-0
  6
Continuous
 62
     0
100
AcDbLine
 10
2044.19186
 20
1591.138162
 30
0.0
 11
2044.19186
 21
1687.095285
 31
0.0
  0
LINE
  5
648
330
36
100
AcDbEntity
  8
1-0
  6
Continuous
 62
     0
100
AcDbLine
 10
2116.19186
 20
1577.138162
 30
0.0
 11
2116.19186
 21
1687.095285
 31
0.0
  0
TEXT
  5
649
330
36
100
AcDbEntity
  8
1-0
 62
     0
100
AcDbText
 10
2060.614
 20
1687.715
 30
0.0
 40
36.288
  1
36
100
AcDbText
  0
LINE
  5
64A
330
36
100
AcDbEntity
  8
1-0
  6
Continuous
 62
     0
100
AcDbLine
 10
2116.191859539522
 20
1687.09528485733
 30
0.0
 11
2044.191859539522
 21
1687.09528485733
 31
0.0
  0
CIRCLE
  5
64B
330
36
100
AcDbEntity
  8
1-0
  6
Continuous
 62
     0
100
AcDbCircle
 10
2116.191859539522
 20
1687.09528485733
 30
0.0
 40
0.25
  0
CIRCLE
  5
64C
330
36
100
AcDbEntity
  8
1-0
  6
Continuous
 62
     0
100
AcDbCircle
 10
2116.191859539522
 20
1687.09528485733
 30
0.0
 40
0.1875
  0
CIRCLE
  5
64D
330
36
100
AcDbEntity
  8
1-0
  6
Continuous
 62
     0
100
AcDbCircle
 10
2116.191859539522
 20
1687.09528485733
 30
0.0
 40
0.125
  0
CIRCLE
  5
64E
330
36
100
AcDbEntity
  8
1-0
  6
Continuous
 62
     0
100
AcDbCircle
 10
2116.191859539522
 20
1687.09528485733
 30
0.0
 40
0.0625
  0
CIRCLE
  5
64F
330
36
100
AcDbEntity
  8
1-0
  6
Continuous
 62
     0
100
AcDbCircle
 10
2044.191859539522
 20
1687.09528485733
 30
0.0
 40
0.25
  0
CIRCLE
  5
650
330
36
100
AcDbEntity
  8
1-0
  6
Continuous
 62
     0
100
AcDbCircle
 10
2044.191859539522
 20
1687.09528485733
 30
0.0
 40
0.1875
  0
CIRCLE
  5
651
330
36
100
AcDbEntity
  8
1-0
  6
Continuous
 62
     0
100
AcDbCircle
 10
2044.191859539522
 20
1687.09528485733
 30
0.0
 40
0.125
  0
CIRCLE
  5
652
330
36
100
AcDbEntity
  8
1-0
  6
Continuous
 62
     0
100
AcDbCircle
 10
2044.191859539522
 20
1687.09528485733
 30
0.0
 40
0.0625
  0
LINE
  5
653
330
36
100
AcDbEntity
  8
1-0
  6
Continuous
 62
     0
100
AcDbLine
 10
1976.19186
 20
1459.138162
 30
0.0
 11
1976.19186
 21
1376.213634
 31
0.0
  0
LINE
  5
654
330
36
100
AcDbEntity
  8
1-0
  6
Continuous
 62
     0
100
AcDbLine
 10
2116.19186
 20
1459.138162
 30
0.0
 11
2116.19186
 21
1376.213634
 31
0.0
  0
TEXT
  5
655
330
36
100
AcDbEntity
  8
1-0
 62
     0
100
AcDbText
 10
2026.614
 20
1376.834
 30
0.0
 40
36.288
  1
70
100
AcDbText
  0
LINE
  5
656
330
36
100
AcDbEntity
  8
1-0
  6
Continuous
 62
     0
100
AcDbLine
 10
2116.191859539522
 20
1376.213634288878
 30
0.0
 11
1976.191859539522
 21
1376.213634288878
 31
0.0
  0
CIRCLE
  5
657
330
36
100
AcDbEntity
  8
1-0
  6
Continuous
 62
     0
100
AcDbCircle
 10
2116.191859539522
 20
1376.213634288878
 30
0.0
 40
0.25
  0
CIRCLE
  5
658
330
36
100
AcDbEntity
  8
1-0
  6
Continuous
 62
     0
100
AcDbCircle
 10
2116.191859539522
 20
1376.213634288878
 30
0.0
 40
0.1875
  0
CIRCLE
  5
659
330
36
100
AcDbEntity
  8
1-0
  6
Continuous
 62
     0
100
AcDbCircle
 10
2116.191859539522
 20
1376.213634288878
 30
0.0
 40
0.125
  0
CIRCLE
  5
65A
330
36
100
AcDbEntity
  8
1-0
  6
Continuous
 62
     0
100
AcDbCircle
 10
2116.191859539522
 20
1376.213634288878
 30
0.0
 40
0.0625
  0
CIRCLE
  5
65B
330
36
100
AcDbEntity
  8
1-0
  6
Continuous
 62
     0
100
AcDbCircle
 10
1976.191859539522
 20
1376.213634288878
 30
0.0
 40
0.25
  0
CIRCLE
  5
65C
330
36
100
AcDbEntity
  8
1-0
  6
Continuous
 62
     0
100
AcDbCircle
 10
1976.191859539522
 20
1376.213634288878
 30
0.0
 40
0.1875
  0
CIRCLE
  5
65D
330
36
100
AcDbEntity
  8
1-0
  6
Continuous
 62
     0
100
AcDbCircle
 10
1976.191859539522
 20
1376.213634288878
 30
0.0
 40
0.125
  0
CIRCLE
  5
65E
330
36
100
AcDbEntity
  8
1-0
  6
Continuous
 62
     0
100
AcDbCircle
 10
1976.191859539522
 20
1376.213634288878
 30
0.0
 40
0.0625
  0
LINE
  5
65F
330
36
100
AcDbEntity
  8
1-0
  6
Continuous
 62
     0
100
AcDbLine
 10
2136.19186
 20
1479.138162
 30
0.0
 11
2222.290365
 21
1479.138162
 31
0.0
  0
LINE
  5
660
330
36
100
AcDbEntity
  8
1-0
  6
Continuous
 62
     0
100
AcDbLine
 10
2136.19186
 20
1557.138162
 30
0.0
 11
2222.290365
 21
1557.138162
 31
0.0
  0
TEXT
  5
661
330
36
100
AcDbEntity
  8
1-0
 62
     0
100
AcDbText
 10
2221.67
 20
1495.738
 30
0.0
 40
36.288
  1
39
 50
90.0
100
AcDbText
  0
LINE
  5
662
330
36
100
AcDbEntity
  8
1-0
  6
Continuous
 62
     0
100
AcDbLine
 10
2222.290365160854
 20
1557.138161894234
 30
0.0
 11
2222.290365160854
 21
1479.138161894234
 31
0.0
  0
CIRCLE
  5
663
330
36
100
AcDbEntity
  8
1-0
  6
Continuous
 62
     0
100
AcDbCircle
 10
2222.290365160854
 20
1557.138161894234
 30
0.0
 40
0.25
  0
CIRCLE
  5
664
330
36
100
AcDbEntity
  8
1-0
  6
Continuous
 62
     0
100
AcDbCircle
 10
2222.290365160854
 20
1557.138161894234
 30
0.0
 40
0.1875
  0
CIRCLE
  5
665
330
36
100
AcDbEntity
  8
1-0
  6
Continuous
 62
     0
100
AcDbCircle
 10
2222.290365160854
 20
1557.138161894234
 30
0.0
 40
0.125
  0
CIRCLE
  5
666
330
36
100
AcDbEntity
  8
1-0
  6
Continuous
 62
     0
100
AcDbCircle
 10
2222.290365160854
 20
1557.138161894234
 30
0.0
 40
0.0625
  0
CIRCLE
  5
667
330
36
100
AcDbEntity
  8
1-0
  6
Continuous
 62
     0
100
AcDbCircle
 10
2222.290365160854
 20
1479.138161894234
 30
0.0
 40
0.25
  0
CIRCLE
  5
668
330
36
100
AcDbEntity
  8
1-0
  6
Continuous
 62
     0
100
AcDbCircle
 10
2222.290365160854
 20
1479.138161894234
 30
0.0
 40
0.1875
  0
CIRCLE
  5
669
330
36
100
AcDbEntity
  8
1-0
  6
Continuous
 62
     0
100
AcDbCircle
 10
2222.290365160854
 20
1479.138161894234
 30
0.0
 40
0.125
  0
CIRCLE
  5
66A
330
36
100
AcDbEntity
  8
1-0
  6
Continuous
 62
     0
100
AcDbCircle
 10
2222.290365160854
 20
1479.138161894234
 30
0.0
 40
0.0625
  0
LINE
  5
66B
330
36
100
AcDbEntity
  8
1-0
  6
Continuous
 62
     0
100
AcDbLine
 10
2136.19186
 20
1557.138162
 30
0.0
 11
2222.290365
 21
1557.138162
 31
0.0
  0
LINE
  5
66C
330
36
100
AcDbEntity
  8
1-0
  6
Continuous
 62
     0
100
AcDbLine
 10
2136.275398
 20
1571.105853
 30
0.0
 11
2222.290365
 21
1571.105853
 31
0.0
  0
LINE
  5
66D
330
36
100
AcDbEntity
  8
1-0
  6
Continuous
 62
     0
100
AcDbLine
 10
2222.290365
 20
1547.138162
 30
0.0
 11
2222.290365
 21
1537.138162
 31
0.0
  0
LINE
  5
66E
330
36
100
AcDbEntity
  8
1-0
  6
Continuous
 62
     0
100
AcDbLine
 10
2222.290365
 20
1581.105853
 30
0.0
 11
2222.290365
 21
1591.105853
 31
0.0
  0
LINE
  5
66F
330
36
100
AcDbEntity
  8
1-0
  6
Continuous
 62
     0
100
AcDbLine
 10
2222.290365
 20
1564.122007
 30
0.0
 11
2185.335294
 21
1606.461311
 31
0.0
  0
LINE
  5
670
330
36
100
AcDbEntity
  8
1-0
  6
Continuous
 62
     0
100
AcDbLine
 10
2185.335294
 20
1606.461311
 30
0.0
 11
2185.335294
 21
1643.339483
 31
0.0
  0
TEXT
  5
671
330
36
100
AcDbEntity
  8
1-0
 62
     0
100
AcDbText
 10
2184.715
 20
1613.7
 30
0.0
 40
36.288
  1
7
 50
90.0
100
AcDbText
  0
LINE
  5
672
330
36
100
AcDbEntity
  8
1-0
  6
Continuous
 62
     0
100
AcDbLine
 10
2222.290365
 20
1557.138162
 30
0.0
 11
2222.290365
 21
1571.105853
 31
0.0
  0
LINE
  5
673
330
36
100
AcDbEntity
  8
1-0
  6
Continuous
 62
     0
100
AcDbLine
 10
2222.290365
 20
1557.138162
 30
0.0
 11
2222.290365
 21
1571.105853
 31
0.0
  0
CIRCLE
  5
674
330
36
100
AcDbEntity
  8
1-0
  6
Continuous
 62
     0
100
AcDbCircle
 10
2222.290365160854
 20
1557.138161894234
 30
0.0
 40
0.25
  0
CIRCLE
  5
675
330
36
100
AcDbEntity
  8
1-0
  6
Continuous
 62
     0
100
AcDbCircle
 10
2222.290365160854
 20
1557.138161894234
 30
0.0
 40
0.1875
  0
CIRCLE
  5
676
330
36
100
AcDbEntity
  8
1-0
  6
Continuous
 62
     0
100
AcDbCircle
 10
2222.290365160854
 20
1557.138161894234
 30
0.0
 40
0.125
  0
CIRCLE
  5
677
330
36
100
AcDbEntity
  8
1-0
  6
Continuous
 62
     0
100
AcDbCircle
 10
2222.290365160854
 20
1557.138161894234
 30
0.0
 40
0.0625
  0
ARC
  5
678
330
36
100
AcDbEntity
  8
1-0
 62
     0
100
AcDbCircle
 10
2222.285365160854
 20
1557.138161894234
 30
0.0
 40
2.5
100
AcDbArc
 50
90.11459140653
 51
270.114591405945
  0
LINE
  5
679
330
36
100
AcDbEntity
  8
1-0
 62
     0
100
AcDbLine
 10
2222.290365160879
 20
1552.138161894234
 30
0.0
 11
2222.290365160906
 21
1547.138161894234
 31
0.0
  0
CIRCLE
  5
67A
330
36
100
AcDbEntity
  8
1-0
  6
Continuous
 62
     0
100
AcDbCircle
 10
2222.290365160854
 20
1571.105852692569
 30
0.0
 40
0.25
  0
CIRCLE
  5
67B
330
36
100
AcDbEntity
  8
1-0
  6
Continuous
 62
     0
100
AcDbCircle
 10
2222.290365160854
 20
1571.105852692569
 30
0.0
 40
0.1875
  0
CIRCLE
  5
67C
330
36
100
AcDbEntity
  8
1-0
  6
Continuous
 62
     0
100
AcDbCircle
 10
2222.290365160854
 20
1571.105852692569
 30
0.0
 40
0.125
  0
CIRCLE
  5
67D
330
36
100
AcDbEntity
  8
1-0
  6
Continuous
 62
     0
100
AcDbCircle
 10
2222.290365160854
 20
1571.105852692569
 30
0.0
 40
0.0625
  0
ARC
  5
67E
330
36
100
AcDbEntity
  8
1-0
 62
     0
100
AcDbCircle
 10
2222.295365160854
 20
1571.105852692569
 30
0.0
 40
2.5
100
AcDbArc
 50
270.1145914065301
 51
90.11459140594496
  0
LINE
  5
67F
330
36
100
AcDbEntity
  8
1-0
 62
     0
100
AcDbLine
 10
2222.290365160778
 20
1576.105852692569
 30
0.0
 11
2222.290365160701
 21
1581.105852692569
 31
0.0
  0
LINE
  5
680
330
36
100
AcDbEntity
  8
1-0
  6
Continuous
 62
     0
100
AcDbLine
 10
2963.104468
 20
1356.211897
 30
0.0
 11
2879.550637
 21
1356.211897
 31
0.0
  0
LINE
  5
681
330
36
100
AcDbEntity
  8
1-0
  6
Continuous
 62
     0
100
AcDbLine
 10
2977.294088
 20
1606.211897
 30
0.0
 11
2879.550637
 21
1606.211897
 31
0.0
  0
TEXT
  5
682
330
36
100
AcDbEntity
  8
1-0
 62
     0
100
AcDbText
 10
2878.931
 20
1447.612
 30
0.0
 40
36.288
  1
125
 50
90.0
100
AcDbText
  0
LINE
  5
683
330
36
100
AcDbEntity
  8
1-0
  6
Continuous
 62
     0
100
AcDbLine
 10
2879.550636929504
 20
1606.211896764596
 30
0.0
 11
2879.550636929504
 21
1356.211896764596
 31
0.0
  0
CIRCLE
  5
684
330
36
100
AcDbEntity
  8
1-0
  6
Continuous
 62
     0
100
AcDbCircle
 10
2879.550636929504
 20
1606.211896764596
 30
0.0
 40
0.25
  0
CIRCLE
  5
685
330
36
100
AcDbEntity
  8
1-0
  6
Continuous
 62
     0
100
AcDbCircle
 10
2879.550636929504
 20
1606.211896764596
 30
0.0
 40
0.1875
  0
CIRCLE
  5
686
330
36
100
AcDbEntity
  8
1-0
  6
Continuous
 62
     0
100
AcDbCircle
 10
2879.550636929504
 20
1606.211896764596
 30
0.0
 40
0.125
  0
CIRCLE
  5
687
330
36
100
AcDbEntity
  8
1-0
  6
Continuous
 62
     0
100
AcDbCircle
 10
2879.550636929504
 20
1606.211896764596
 30
0.0
 40
0.0625
  0
CIRCLE
  5
688
330
36
100
AcDbEntity
  8
1-0
  6
Continuous
 62
     0
100
AcDbCircle
 10
2879.550636929504
 20
1356.211896764596
 30
0.0
 40
0.25
  0
CIRCLE
  5
689
330
36
100
AcDbEntity
  8
1-0
  6
Continuous
 62
     0
100
AcDbCircle
 10
2879.550636929504
 20
1356.211896764596
 30
0.0
 40
0.1875
  0
CIRCLE
  5
68A
330
36
100
AcDbEntity
  8
1-0
  6
Continuous
 62
     0
100
AcDbCircle
 10
2879.550636929504
 20
1356.211896764596
 30
0.0
 40
0.125
  0
CIRCLE
  5
68B
330
36
100
AcDbEntity
  8
1-0
  6
Continuous
 62
     0
100
AcDbCircle
 10
2879.550636929504
 20
1356.211896764596
 30
0.0
 40
0.0625
  0
LINE
  5
68C
330
36
100
AcDbEntity
  8
1-0
  6
Continuous
 62
     0
100
AcDbLine
 10
2983.104468
 20
1612.022277
 30
0.0
 11
2983.104468
 21
1697.904757
 31
0.0
  0
LINE
  5
68D
330
36
100
AcDbEntity
  8
1-0
  6
Continuous
 62
     0
100
AcDbLine
 10
3233.104468
 20
1626.211897
 30
0.0
 11
3233.104468
 21
1697.904757
 31
0.0
  0
TEXT
  5
68E
330
36
100
AcDbEntity
  8
1-0
 62
     0
100
AcDbText
 10
3077.327
 20
1698.525
 30
0.0
 40
36.288
  1
125
100
AcDbText
  0
LINE
  5
68F
330
36
100
AcDbEntity
  8
1-0
  6
Continuous
 62
     0
100
AcDbLine
 10
3233.104468368063
 20
1697.904756902318
 30
0.0
 11
2983.104468368063
 21
1697.904756902318
 31
0.0
  0
CIRCLE
  5
690
330
36
100
AcDbEntity
  8
1-0
  6
Continuous
 62
     0
100
AcDbCircle
 10
3233.104468368063
 20
1697.904756902318
 30
0.0
 40
0.25
  0
CIRCLE
  5
691
330
36
100
AcDbEntity
  8
1-0
  6
Continuous
 62
     0
100
AcDbCircle
 10
3233.104468368063
 20
1697.904756902318
 30
0.0
 40
0.1875
  0
CIRCLE
  5
692
330
36
100
AcDbEntity
  8
1-0
  6
Continuous
 62
     0
100
AcDbCircle
 10
3233.104468368063
 20
1697.904756902318
 30
0.0
 40
0.125
  0
CIRCLE
  5
693
330
36
100
AcDbEntity
  8
1-0
  6
Continuous
 62
     0
100
AcDbCircle
 10
3233.104468368063
 20
1697.904756902318
 30
0.0
 40
0.0625
  0
CIRCLE
  5
694
330
36
100
AcDbEntity
  8
1-0
  6
Continuous
 62
     0
100
AcDbCircle
 10
2983.104468368063
 20
1697.904756902318
 30
0.0
 40
0.25
  0
CIRCLE
  5
695
330
36
100
AcDbEntity
  8
1-0
  6
Continuous
 62
     0
100
AcDbCircle
 10
2983.104468368063
 20
1697.904756902318
 30
0.0
 40
0.1875
  0
CIRCLE
  5
696
330
36
100
AcDbEntity
  8
1-0
  6
Continuous
 62
     0
100
AcDbCircle
 10
2983.104468368063
 20
1697.904756902318
 30
0.0
 40
0.125
  0
CIRCLE
  5
697
330
36
100
AcDbEntity
  8
1-0
  6
Continuous
 62
     0
100
AcDbCircle
 10
2983.104468368063
 20
1697.904756902318
 30
0.0
 40
0.0625
  0
LINE
  5
698
330
36
100
AcDbEntity
  8
1-0
  6
Continuous
 62
     0
100
AcDbLine
 10
3382.566217
 20
1356.211897
 30
0.0
 11
3482.566217
 21
1356.211897
 31
0.0
  0
LINE
  5
699
330
36
100
AcDbEntity
  8
1-0
  6
Continuous
 62
     0
100
AcDbLine
 10
3382.566217
 20
1606.211897
 30
0.0
 11
3482.566217
 21
1606.211897
 31
0.0
  0
LINE
  5
69A
330
36
100
AcDbEntity
  8
1-0
  6
Continuous
 62
     0
100
AcDbLine
 10
3382.566217
 20
1626.211897
 30
0.0
 11
3382.566217
 21
1697.904757
 31
0.0
  0
LINE
  5
69B
330
36
100
AcDbEntity
  8
1-0
  6
Continuous
 62
     0
100
AcDbLine
 10
3482.566217
 20
1626.211897
 30
0.0
 11
3482.566217
 21
1697.904757
 31
0.0
  0
TEXT
  5
69C
330
36
100
AcDbEntity
  8
1-0
 62
     0
100
AcDbText
 10
3412.989
 20
1698.525
 30
0.0
 40
36.288
  1
50
100
AcDbText
  0
LINE
  5
69D
330
36
100
AcDbEntity
  8
1-0
  6
Continuous
 62
     0
100
AcDbLine
 10
3482.566217175433
 20
1697.904756902318
 30
0.0
 11
3382.566217175432
 21
1697.904756902318
 31
0.0
  0
CIRCLE
  5
69E
330
36
100
AcDbEntity
  8
1-0
  6
Continuous
 62
     0
100
AcDbCircle
 10
3482.566217175433
 20
1697.904756902318
 30
0.0
 40
0.25
  0
CIRCLE
  5
69F
330
36
100
AcDbEntity
  8
1-0
  6
Continuous
 62
     0
100
AcDbCircle
 10
3482.566217175433
 20
1697.904756902318
 30
0.0
 40
0.1875
  0
CIRCLE
  5
6A0
330
36
100
AcDbEntity
  8
1-0
  6
Continuous
 62
     0
100
AcDbCircle
 10
3482.566217175433
 20
1697.904756902318
 30
0.0
 40
0.125
  0
CIRCLE
  5
6A1
330
36
100
AcDbEntity
  8
1-0
  6
Continuous
 62
     0
100
AcDbCircle
 10
3482.566217175433
 20
1697.904756902318
 30
0.0
 40
0.0625
  0
CIRCLE
  5
6A2
330
36
100
AcDbEntity
  8
1-0
  6
Continuous
 62
     0
100
AcDbCircle
 10
3382.566217175432
 20
1697.904756902318
 30
0.0
 40
0.25
  0
CIRCLE
  5
6A3
330
36
100
AcDbEntity
  8
1-0
  6
Continuous
 62
     0
100
AcDbCircle
 10
3382.566217175432
 20
1697.904756902318
 30
0.0
 40
0.1875
  0
CIRCLE
  5
6A4
330
36
100
AcDbEntity
  8
1-0
  6
Continuous
 62
     0
100
AcDbCircle
 10
3382.566217175432
 20
1697.904756902318
 30
0.0
 40
0.125
  0
CIRCLE
  5
6A5
330
36
100
AcDbEntity
  8
1-0
  6
Continuous
 62
     0
100
AcDbCircle
 10
3382.566217175432
 20
1697.904756902318
 30
0.0
 40
0.0625
  0
LINE
  5
6A6
330
36
100
AcDbEntity
  8
A-0
  6
CENTER
 62
     0
100
AcDbLine
 10
3407.566217
 20
1392.211897
 30
0.0
 11
3457.566217
 21
1392.211897
 31
0.0
  0
LINE
  5
6A7
330
36
100
AcDbEntity
  8
A-0
  6
CENTER
 62
     0
100
AcDbLine
 10
3407.566217
 20
1552.211897
 30
0.0
 11
3457.566217
 21
1552.211897
 31
0.0
  0
LINE
  5
6A8
330
36
100
AcDbEntity
  8
A-0
  6
CENTER
 62
     0
100
AcDbLine
 10
3432.566217
 20
1577.211897
 30
0.0
 11
3432.566217
 21
1527.211897
 31
0.0
  0
CIRCLE
  5
6A9
330
36
100
AcDbEntity
  8
1-0
  6
Continuous
 62
     0
100
AcDbCircle
 10
3432.566217
 20
1552.211897
 30
0.0
 40
5.0
  0
CIRCLE
  5
6AA
330
36
100
AcDbEntity
  8
1-0
  6
Continuous
 62
     0
100
AcDbCircle
 10
3432.566217
 20
1392.211897
 30
0.0
 40
5.0
  0
LINE
  5
6AB
330
36
100
AcDbEntity
  8
1-0
  6
Continuous
 62
     0
100
AcDbLine
 10
3502.566217
 20
1606.211897
 30
0.0
 11
3547.127911
 21
1606.211897
 31
0.0
  0
LINE
  5
6AC
330
36
100
AcDbEntity
  8
1-0
  6
Continuous
 62
     0
100
AcDbLine
 10
3502.566217
 20
1552.211897
 30
0.0
 11
3547.127911
 21
1552.211897
 31
0.0
  0
TEXT
  5
6AD
330
36
100
AcDbEntity
  8
1-0
 62
     0
100
AcDbText
 10
3611.669274892982
 20
1550.072572554347
 30
0.0
 40
36.288
  1
27
 50
90.0
100
AcDbText
  0
LINE
  5
6AE
330
36
100
AcDbEntity
  8
1-0
  6
Continuous
 62
     0
100
AcDbLine
 10
3547.127911166326
 20
1552.211896764595
 30
0.0
 11
3547.127911166326
 21
1606.211896764596
 31
0.0
  0
CIRCLE
  5
6AF
330
36
100
AcDbEntity
  8
1-0
  6
Continuous
 62
     0
100
AcDbCircle
 10
3547.127911166326
 20
1552.211896764595
 30
0.0
 40
0.25
  0
CIRCLE
  5
6B0
330
36
100
AcDbEntity
  8
1-0
  6
Continuous
 62
     0
100
AcDbCircle
 10
3547.127911166326
 20
1552.211896764595
 30
0.0
 40
0.1875
  0
CIRCLE
  5
6B1
330
36
100
AcDbEntity
  8
1-0
  6
Continuous
 62
     0
100
AcDbCircle
 10
3547.127911166326
 20
1552.211896764595
 30
0.0
 40
0.125
  0
CIRCLE
  5
6B2
330
36
100
AcDbEntity
  8
1-0
  6
Continuous
 62
     0
100
AcDbCircle
 10
3547.127911166326
 20
1552.211896764595
 30
0.0
 40
0.0625
  0
CIRCLE
  5
6B3
330
36
100
AcDbEntity
  8
1-0
  6
Continuous
 62
     0
100
AcDbCircle
 10
3547.127911166326
 20
1606.211896764596
 30
0.0
 40
0.25
  0
CIRCLE
  5
6B4
330
36
100
AcDbEntity
  8
1-0
  6
Continuous
 62
     0
100
AcDbCircle
 10
3547.127911166326
 20
1606.211896764596
 30
0.0
 40
0.1875
  0
CIRCLE
  5
6B5
330
36
100
AcDbEntity
  8
1-0
  6
Continuous
 62
     0
100
AcDbCircle
 10
3547.127911166326
 20
1606.211896764596
 30
0.0
 40
0.125
  0
CIRCLE
  5
6B6
330
36
100
AcDbEntity
  8
1-0
  6
Continuous
 62
     0
100
AcDbCircle
 10
3547.127911166326
 20
1606.211896764596
 30
0.0
 40
0.0625
  0
LINE
  5
6B7
330
36
100
AcDbEntity
  8
1-0
  6
Continuous
 62
     0
100
AcDbLine
 10
3502.566217
 20
1392.211897
 30
0.0
 11
3550.362245
 21
1392.211897
 31
0.0
  0
LINE
  5
6B8
330
36
100
AcDbEntity
  8
1-0
  6
Continuous
 62
     0
100
AcDbLine
 10
3502.566217
 20
1356.211897
 30
0.0
 11
3550.362245
 21
1356.211897
 31
0.0
  0
TEXT
  5
6B9
330
36
100
AcDbEntity
  8
1-0
 62
     0
100
AcDbText
 10
3617.950139921264
 20
1347.082686625239
 30
0.0
 40
36.288
  1
18
 50
90.0
100
AcDbText
  0
LINE
  5
6BA
330
36
100
AcDbEntity
  8
1-0
  6
Continuous
 62
     0
100
AcDbLine
 10
3550.362244727102
 20
1356.211896764596
 30
0.0
 11
3550.362244727102
 21
1392.211896764596
 31
0.0
  0
CIRCLE
  5
6BB
330
36
100
AcDbEntity
  8
1-0
  6
Continuous
 62
     0
100
AcDbCircle
 10
3550.362244727102
 20
1356.211896764596
 30
0.0
 40
0.25
  0
CIRCLE
  5
6BC
330
36
100
AcDbEntity
  8
1-0
  6
Continuous
 62
     0
100
AcDbCircle
 10
3550.362244727102
 20
1356.211896764596
 30
0.0
 40
0.1875
  0
CIRCLE
  5
6BD
330
36
100
AcDbEntity
  8
1-0
  6
Continuous
 62
     0
100
AcDbCircle
 10
3550.362244727102
 20
1356.211896764596
 30
0.0
 40
0.125
  0
CIRCLE
  5
6BE
330
36
100
AcDbEntity
  8
1-0
  6
Continuous
 62
     0
100
AcDbCircle
 10
3550.362244727102
 20
1356.211896764596
 30
0.0
 40
0.0625
  0
CIRCLE
  5
6BF
330
36
100
AcDbEntity
  8
1-0
  6
Continuous
 62
     0
100
AcDbCircle
 10
3550.362244727102
 20
1392.211896764596
 30
0.0
 40
0.25
  0
CIRCLE
  5
6C0
330
36
100
AcDbEntity
  8
1-0
  6
Continuous
 62
     0
100
AcDbCircle
 10
3550.362244727102
 20
1392.211896764596
 30
0.0
 40
0.1875
  0
CIRCLE
  5
6C1
330
36
100
AcDbEntity
  8
1-0
  6
Continuous
 62
     0
100
AcDbCircle
 10
3550.362244727102
 20
1392.211896764596
 30
0.0
 40
0.125
  0
CIRCLE
  5
6C2
330
36
100
AcDbEntity
  8
1-0
  6
Continuous
 62
     0
100
AcDbCircle
 10
3550.362244727102
 20
1392.211896764596
 30
0.0
 40
0.0625
  0
LINE
  5
6C3
330
36
100
AcDbEntity
  8
1-0
  6
Continuous
 62
     0
100
AcDbLine
 10
3482.566217
 20
1336.211897
 30
0.0
 11
3482.566217
 21
1281.559398
 31
0.0
  0
LINE
  5
6C4
330
36
100
AcDbEntity
  8
1-0
  6
Continuous
 62
     0
100
AcDbLine
 10
3432.566217
 20
1336.211897
 30
0.0
 11
3432.566217
 21
1281.559398
 31
0.0
  0
TEXT
  5
6C5
330
36
100
AcDbEntity
  8
1-0
 62
     0
100
AcDbText
 10
3433.450245846108
 20
1217.798200858134
 30
0.0
 40
36.288
  1
25
100
AcDbText
  0
LINE
  5
6C6
330
36
100
AcDbEntity
  8
1-0
  6
Continuous
 62
     0
100
AcDbLine
 10
3432.566217175433
 20
1281.559398360538
 30
0.0
 11
3482.566217175433
 21
1281.559398360538
 31
0.0
  0
CIRCLE
  5
6C7
330
36
100
AcDbEntity
  8
1-0
  6
Continuous
 62
     0
100
AcDbCircle
 10
3432.566217175433
 20
1281.559398360538
 30
0.0
 40
0.25
  0
CIRCLE
  5
6C8
330
36
100
AcDbEntity
  8
1-0
  6
Continuous
 62
     0
100
AcDbCircle
 10
3432.566217175433
 20
1281.559398360538
 30
0.0
 40
0.1875
  0
CIRCLE
  5
6C9
330
36
100
AcDbEntity
  8
1-0
  6
Continuous
 62
     0
100
AcDbCircle
 10
3432.566217175433
 20
1281.559398360538
 30
0.0
 40
0.125
  0
CIRCLE
  5
6CA
330
36
100
AcDbEntity
  8
1-0
  6
Continuous
 62
     0
100
AcDbCircle
 10
3432.566217175433
 20
1281.559398360538
 30
0.0
 40
0.0625
  0
CIRCLE
  5
6CB
330
36
100
AcDbEntity
  8
1-0
  6
Continuous
 62
     0
100
AcDbCircle
 10
3482.566217175433
 20
1281.559398360538
 30
0.0
 40
0.25
  0
CIRCLE
  5
6CC
330
36
100
AcDbEntity
  8
1-0
  6
Continuous
 62
     0
100
AcDbCircle
 10
3482.566217175433
 20
1281.559398360538
 30
0.0
 40
0.1875
  0
CIRCLE
  5
6CD
330
36
100
AcDbEntity
  8
1-0
  6
Continuous
 62
     0
100
AcDbCircle
 10
3482.566217175433
 20
1281.559398360538
 30
0.0
 40
0.125
  0
CIRCLE
  5
6CE
330
36
100
AcDbEntity
  8
1-0
  6
Continuous
 62
     0
100
AcDbCircle
 10
3482.566217175433
 20
1281.559398360538
 30
0.0
 40
0.0625
  0
LINE
  5
6CF
330
36
100
AcDbEntity
  8
A-0
  6
CENTER
 62
     0
100
AcDbLine
 10
3432.566217
 20
1367.211897
 30
0.0
 11
3432.566217
 21
1417.211897
 31
0.0
  0
LINE
  5
6D0
330
36
100
AcDbEntity
  8
1-0
  6
Continuous
 62
     0
100
AcDbLine
 10
3482.566217
 20
1606.211897
 30
0.0
 11
3482.566217
 21
1356.211897
 31
0.0
  0
LINE
  5
6D1
330
36
100
AcDbEntity
  8
1-0
  6
Continuous
 62
     0
100
AcDbLine
 10
3382.566217
 20
1606.211897
 30
0.0
 11
3382.566217
 21
1356.211897
 31
0.0
  0
LINE
  5
6D2
330
36
100
AcDbEntity
  8
1-0
  6
Continuous
 62
     0
100
AcDbLine
 10
2983.104468
 20
1336.211897
 30
0.0
 11
2983.104468
 21
1281.559398
 31
0.0
  0
LINE
  5
6D3
330
36
100
AcDbEntity
  8
1-0
  6
Continuous
 62
     0
100
AcDbLine
 10
2989.104468
 20
1336.211897
 30
0.0
 11
2989.104468
 21
1281.559398
 31
0.0
  0
TEXT
  5
6D4
330
36
100
AcDbEntity
  8
1-0
 62
     0
100
AcDbText
 10
2975.207965969867
 20
1219.42925412799
 30
0.0
 40
36.288
  1
3
100
AcDbText
  0
LINE
  5
6D5
330
36
100
AcDbEntity
  8
1-0
  6
Continuous
 62
     0
100
AcDbLine
 10
2989.104468368063
 20
1281.559398360538
 30
0.0
 11
2983.104468368063
 21
1281.559398360538
 31
0.0
  0
CIRCLE
  5
6D6
330
36
100
AcDbEntity
  8
1-0
  6
Continuous
 62
     0
100
AcDbCircle
 10
2989.104468368063
 20
1281.559398360538
 30
0.0
 40
0.25
  0
CIRCLE
  5
6D7
330
36
100
AcDbEntity
  8
1-0
  6
Continuous
 62
     0
100
AcDbCircle
 10
2989.104468368063
 20
1281.559398360538
 30
0.0
 40
0.1875
  0
CIRCLE
  5
6D8
330
36
100
AcDbEntity
  8
1-0
  6
Continuous
 62
     0
100
AcDbCircle
 10
2989.104468368063
 20
1281.559398360538
 30
0.0
 40
0.125
  0
CIRCLE
  5
6D9
330
36
100
AcDbEntity
  8
1-0
  6
Continuous
 62
     0
100
AcDbCircle
 10
2989.104468368063
 20
1281.559398360538
 30
0.0
 40
0.0625
  0
CIRCLE
  5
6DA
330
36
100
AcDbEntity
  8
1-0
  6
Continuous
 62
     0
100
AcDbCircle
 10
2983.104468368063
 20
1281.559398360538
 30
0.0
 40
0.25
  0
CIRCLE
  5
6DB
330
36
100
AcDbEntity
  8
1-0
  6
Continuous
 62
     0
100
AcDbCircle
 10
2983.104468368063
 20
1281.559398360538
 30
0.0
 40
0.1875
  0
CIRCLE
  5
6DC
330
36
100
AcDbEntity
  8
1-0
  6
Continuous
 62
     0
100
AcDbCircle
 10
2983.104468368063
 20
1281.559398360538
 30
0.0
 40
0.125
  0
CIRCLE
  5
6DD
330
36
100
AcDbEntity
  8
1-0
  6
Continuous
 62
     0
100
AcDbCircle
 10
2983.104468368063
 20
1281.559398360538
 30
0.0
 40
0.0625
  0
TEXT
  5
6DE
330
36
100
AcDbEntity
  8
1-0
 62
     0
100
AcDbText
 10
3207.491
 20
939.2189999999999
 30
0.0
 40
20.736
  1
ビス穴径　5φ
100
AcDbText
  0
ENDSEC
  0
SECTION
  2
OBJECTS
  0
DICTIONARY
  5
C
330
0
100
AcDbDictionary
281
     1
  3
ACAD_COLOR
350
2F
  3
ACAD_GROUP
350
D
  3
ACAD_LAYOUT
350
2E
  3
ACAD_MATERIAL
350
10
  3
ACAD_MLINESTYLE
350
2B
  3
ACAD_PLOTSETTINGS
350
2D
  3
ACAD_PLOTSTYLENAME
350
E
  3
ACAD_TABLESTYLE
350
30
  3
ACAD_VISUALSTYLE
350
14
  3
AcDbVariableDictionary
350
6E1
  3
DWGPROPS
350
6E6
  0
DICTIONARY
  5
2F
102
{ACAD_REACTORS
330
C
102
}
330
C
100
AcDbDictionary
281
     1
  0
DICTIONARY
  5
D
102
{ACAD_REACTORS
330
C
102
}
330
C
100
AcDbDictionary
281
     1
  0
DICTIONARY
  5
2E
102
{ACAD_REACTORS
330
C
102
}
330
C
100
AcDbDictionary
281
     1
  3
Model
350
39
  3
レイアウト1
350
35
  0
DICTIONARY
  5
10
102
{ACAD_REACTORS
330
C
102
}
330
C
100
AcDbDictionary
281
     1
  3
ByBlock
350
12
  3
ByLayer
350
11
  3
Global
350
13
  0
DICTIONARY
  5
2B
102
{ACAD_REACTORS
330
C
102
}
330
C
100
AcDbDictionary
281
     1
  3
Standard
350
2C
  0
DICTIONARY
  5
2D
102
{ACAD_REACTORS
330
C
102
}
330
C
100
AcDbDictionary
281
     1
  0
ACDBDICTIONARYWDFLT
  5
E
102
{ACAD_REACTORS
330
C
102
}
330
C
100
AcDbDictionary
281
     1
  3
Normal
350
F
100
AcDbDictionaryWithDefault
340
F
  0
DICTIONARY
  5
30
102
{ACAD_REACTORS
330
C
102
}
330
C
100
AcDbDictionary
281
     1
  3
Standard
350
31
  0
DICTIONARY
  5
14
102
{ACAD_REACTORS
330
C
102
}
330
C
100
AcDbDictionary
281
     1
  3
2dWireframe
350
1A
  3
3D Hidden
350
1C
  3
3dWireframe
350
1B
  3
Basic
350
19
  3
Brighten
350
20
  3
ColorChange
350
24
  3
Conceptual
350
1D
  3
Dim
350
1F
  3
Facepattern
350
23
  3
Flat
350
15
  3
FlatWithEdges
350
16
  3
Gouraud
350
17
  3
GouraudWithEdges
350
18
  3
Linepattern
350
22
  3
Realistic
350
1E
  3
Thicken
350
21
  0
DICTIONARY
  5
6E1
102
{ACAD_REACTORS
330
C
102
}
330
C
100
AcDbDictionary
281
     1
  3
CTABLESTYLE
350
6E2
  3
DIMASSOC
350
6E5
  3
INDEXCTL
350
6E4
  3
SORTENTS
350
6E3
  0
XRECORD
  5
6E6
102
{ACAD_REACTORS
330
C
102
}
330
C
100
AcDbXrecord
280
     1
  1
DWGPROPS COOKIE
  2

  3

  4

  6

  7

  8
saisu
  9

300
=
301
=
302
=
303
=
304
=
305
=
306
=
307
=
308
=
309
=
 40
0.0007836226851852
 41
2457997.665160035
 42
2457997.665942929
  1

 90
        0
  0
LAYOUT
  5
39
102
{ACAD_XDICTIONARY
360
6F1
102
}
102
{ACAD_REACTORS
330
2E
102
}
330
2E
100
AcDbPlotSettings
  1

  2
ApeosPort-II 4000
  4

  6

 40
0.0
 41
0.0
 42
0.0
 43
0.0
 44
0.0
 45
0.0
 46
0.0
 47
0.0
 48
0.0
 49
0.0
140
0.0
141
0.0
142
1.0
143
1.0
 70
  1712
 72
     0
 73
     0
 74
     0
  7

 75
     0
147
1.0
148
0.0
149
0.0
100
AcDbLayout
  1
Model
 70
     1
 71
     0
 10
0.0
 20
0.0
 11
12.0
 21
9.0
 12
0.0
 22
0.0
 32
0.0
 14
0.0
 24
0.0
 34
0.0
 15
0.0
 25
0.0
 35
0.0
146
0.0
 13
0.0
 23
0.0
 33
0.0
 16
1.0
 26
0.0
 36
0.0
 17
0.0
 27
1.0
 37
0.0
 76
     0
330
36
331
51
  0
LAYOUT
  5
35
102
{ACAD_XDICTIONARY
360
6EF
102
}
102
{ACAD_REACTORS
330
2E
102
}
330
2E
100
AcDbPlotSettings
  1

  2
ApeosPort-II 4000
  4

  6

 40
0.0
 41
0.0
 42
0.0
 43
0.0
 44
0.0
 45
0.0
 46
0.0
 47
0.0
 48
0.0
 49
0.0
140
0.0
141
0.0
142
1.0
143
1.0
 70
   688
 72
     0
 73
     0
 74
     5
  7

 75
    16
147
1.0
148
0.0
149
0.0
100
AcDbLayout
  1
レイアウト1
 70
     1
 71
     1
 10
0.0
 20
0.0
 11
12.0
 21
9.0
 12
0.0
 22
0.0
 32
0.0
 14
1.000000000000000E+20
 24
1.000000000000000E+20
 34
1.000000000000000E+20
 15
-1.000000000000000E+20
 25
-1.000000000000000E+20
 35
-1.000000000000000E+20
146
0.0
 13
0.0
 23
0.0
 33
0.0
 16
1.0
 26
0.0
 36
0.0
 17
0.0
 27
1.0
 37
0.0
 76
     0
330
32
  0
MATERIAL
  5
12
102
{ACAD_XDICTIONARY
360
6E9
102
}
102
{ACAD_REACTORS
330
10
102
}
330
10
100
AcDbMaterial
  1
ByBlock
  0
MATERIAL
  5
11
102
{ACAD_XDICTIONARY
360
6E7
102
}
102
{ACAD_REACTORS
330
10
102
}
330
10
100
AcDbMaterial
  1
ByLayer
  0
MATERIAL
  5
13
102
{ACAD_XDICTIONARY
360
6EB
102
}
102
{ACAD_REACTORS
330
10
102
}
330
10
100
AcDbMaterial
  1
Global
  0
MLINESTYLE
  5
2C
102
{ACAD_REACTORS
330
2B
102
}
330
2B
100
AcDbMlineStyle
  2
STANDARD
 70
     0
  3

 62
   256
 51
90.0
 52
90.0
 71
     2
 49
0.5
 62
   256
  6
BYLAYER
 49
-0.5
 62
   256
  6
BYLAYER
  0
ACDBPLACEHOLDER
  5
F
102
{ACAD_REACTORS
330
E
102
}
330
E
  0
TABLESTYLE
  5
31
102
{ACAD_XDICTIONARY
360
6ED
102
}
102
{ACAD_REACTORS
330
30
102
}
330
30
100
AcDbTableStyle
  3
Standard
 70
     0
 71
     0
 40
0.06
 41
0.06
280
     0
281
     0
  7
STANDARD
140
0.18
170
     2
 62
     0
 63
     7
283
     0
274
    -2
284
     1
 64
     0
275
    -2
285
     1
 65
     0
276
    -2
286
     1
 66
     0
277
    -2
287
     1
 67
     0
278
    -2
288
     1
 68
     0
279
    -2
289
     1
 69
     0
  7
STANDARD
140
0.25
170
     5
 62
     0
 63
     7
283
     0
274
    -2
284
     1
 64
     0
275
    -2
285
     1
 65
     0
276
    -2
286
     1
 66
     0
277
    -2
287
     1
 67
     0
278
    -2
288
     1
 68
     0
279
    -2
289
     1
 69
     0
  7
STANDARD
140
0.18
170
     5
 62
     0
 63
     7
283
     0
274
    -2
284
     1
 64
     0
275
    -2
285
     1
 65
     0
276
    -2
286
     1
 66
     0
277
    -2
287
     1
 67
     0
278
    -2
288
     1
 68
     0
279
    -2
289
     1
 69
     0
  0
VISUALSTYLE
  5
1A
102
{ACAD_REACTORS
330
14
102
}
330
14
100
AcDbVisualStyle
  2
2dWireframe
 70
     4
 71
     0
 72
     2
 73
     0
 90
        0
 40
-0.6
 41
-30.0
 62
     5
 63
     7
 74
     1
 91
        4
 64
     7
 65
   257
 75
     1
175
     1
 42
1.0
 92
        0
 66
   257
 43
1.0
 76
     1
 77
     6
 78
     2
 67
     7
 79
     5
170
     0
171
     0
290
     0
174
     0
 93
        1
 44
0.0
173
     0
291
     0
 45
0.0
1001
ACAD
1000
AcDbSavedByObjectVersion
1070
     0
  0
VISUALSTYLE
  5
1C
102
{ACAD_REACTORS
330
14
102
}
330
14
100
AcDbVisualStyle
  2
3D Hidden
 70
     6
 71
     1
 72
     2
 73
     2
 90
        0
 40
-0.6
 41
-30.0
 62
     5
 63
     7
 74
     2
 91
        2
 64
     7
 65
   257
 75
     2
175
     1
 42
40.0
 92
        0
 66
   257
 43
1.0
 76
     1
 77
     6
 78
     2
 67
     7
 79
     3
170
     0
171
     0
290
     0
174
     0
 93
        1
 44
0.0
173
     0
291
     0
 45
0.0
1001
ACAD
1000
AcDbSavedByObjectVersion
1070
     0
  0
VISUALSTYLE
  5
1B
102
{ACAD_REACTORS
330
14
102
}
330
14
100
AcDbVisualStyle
  2
3dWireframe
 70
     5
 71
     0
 72
     2
 73
     0
 90
        0
 40
-0.6
 41
-30.0
 62
     5
 63
     7
 74
     1
 91
        4
 64
     7
 65
   257
 75
     1
175
     1
 42
1.0
 92
        0
 66
   257
 43
1.0
 76
     1
 77
     6
 78
     2
 67
     7
 79
     5
170
     0
171
     0
290
     0
174
     0
 93
        1
 44
0.0
173
     0
291
     0
 45
0.0
1001
ACAD
1000
AcDbSavedByObjectVersion
1070
     0
  0
VISUALSTYLE
  5
19
102
{ACAD_REACTORS
330
14
102
}
330
14
100
AcDbVisualStyle
  2
Basic
 70
     7
 71
     1
 72
     0
 73
     1
 90
        0
 40
-0.6
 41
-30.0
 62
     5
 63
     7
 74
     0
 91
        4
 64
     7
 65
   257
 75
     1
175
     1
 42
1.0
 92
        8
 66
     7
 43
1.0
 76
     1
 77
     6
 78
     2
 67
     7
 79
     5
170
     0
171
     0
290
     0
174
     0
 93
        1
 44
0.0
173
     0
291
     1
 45
0.0
1001
ACAD
1000
AcDbSavedByObjectVersion
1070
     0
  0
VISUALSTYLE
  5
20
102
{ACAD_REACTORS
330
14
102
}
330
14
100
AcDbVisualStyle
  2
Brighten
 70
    12
 71
     2
 72
     2
 73
     0
 90
        0
 40
-0.6
 41
-30.0
 62
     5
 63
     7
 74
     1
 91
        4
 64
     7
 65
   257
 75
     1
175
     1
 42
1.0
 92
        8
 66
     7
 43
1.0
 76
     1
 77
     6
 78
     2
 67
     7
 79
     5
170
     0
171
     0
290
     0
174
     0
 93
        1
 44
50.0
173
     0
291
     1
 45
0.0
1001
ACAD
1000
AcDbSavedByObjectVersion
1070
     0
  0
VISUALSTYLE
  5
24
102
{ACAD_REACTORS
330
14
102
}
330
14
100
AcDbVisualStyle
  2
ColorChange
 70
    16
 71
     2
 72
     2
 73
     3
 90
        0
 40
-0.6
 41
-30.0
 62
     5
 63
     8
 74
     1
 91
        4
 64
     7
 65
   257
 75
     1
175
     1
 42
1.0
 92
        8
 66
     8
 43
1.0
 76
     1
 77
     6
 78
     2
 67
     7
 79
     5
170
     0
171
     0
290
     0
174
     0
 93
        1
 44
0.0
173
     0
291
     1
 45
0.0
1001
ACAD
1000
AcDbSavedByObjectVersion
1070
     0
  0
VISUALSTYLE
  5
1D
102
{ACAD_REACTORS
330
14
102
}
330
14
100
AcDbVisualStyle
  2
Conceptual
 70
     9
 71
     3
 72
     2
 73
     0
 90
        0
 40
-0.6
 41
-30.0
 62
     5
 63
     7
 74
     2
 91
        2
 64
     7
 65
   257
 75
     1
175
     1
 42
40.0
 92
        8
 66
     7
 43
1.0
 76
     1
 77
     6
 78
     2
 67
     7
 79
     3
170
     0
171
     0
290
     0
174
     0
 93
        1
 44
0.0
173
     0
291
     0
 45
0.0
1001
ACAD
1000
AcDbSavedByObjectVersion
1070
     0
  0
VISUALSTYLE
  5
1F
102
{ACAD_REACTORS
330
14
102
}
330
14
100
AcDbVisualStyle
  2
Dim
 70
    11
 71
     2
 72
     2
 73
     0
 90
        0
 40
-0.6
 41
-30.0
 62
     5
 63
     7
 74
     1
 91
        4
 64
     7
 65
   257
 75
     1
175
     1
 42
1.0
 92
        8
 66
     7
 43
1.0
 76
     1
 77
     6
 78
     2
 67
     7
 79
     5
170
     0
171
     0
290
     0
174
     0
 93
        1
 44
-50.0
173
     0
291
     1
 45
0.0
1001
ACAD
1000
AcDbSavedByObjectVersion
1070
     0
  0
VISUALSTYLE
  5
23
102
{ACAD_REACTORS
330
14
102
}
330
14
100
AcDbVisualStyle
  2
Facepattern
 70
    15
 71
     2
 72
     2
 73
     0
 90
        0
 40
-0.6
 41
-30.0
 62
     5
 63
     7
 74
     1
 91
        4
 64
     7
 65
   257
 75
     1
175
     1
 42
1.0
 92
        8
 66
     7
 43
1.0
 76
     1
 77
     6
 78
     2
 67
     7
 79
     5
170
     0
171
     0
290
     0
174
     0
 93
        1
 44
0.0
173
     0
291
     1
 45
0.0
1001
ACAD
1000
AcDbSavedByObjectVersion
1070
     0
  0
VISUALSTYLE
  5
15
102
{ACAD_REACTORS
330
14
102
}
330
14
100
AcDbVisualStyle
  2
Flat
 70
     0
 71
     2
 72
     1
 73
     1
 90
        2
 40
-0.6
 41
30.0
 62
     5
 63
     7
 74
     0
 91
        4
 64
     7
 65
   257
 75
     1
175
     1
 42
1.0
 92
        8
 66
     7
 43
1.0
 76
     1
 77
     6
 78
     2
 67
     7
 79
     5
170
     0
171
     0
290
     0
174
     0
 93
       13
 44
0.0
173
     0
291
     1
 45
0.0
1001
ACAD
1000
AcDbSavedByObjectVersion
1070
     0
  0
VISUALSTYLE
  5
16
102
{ACAD_REACTORS
330
14
102
}
330
14
100
AcDbVisualStyle
  2
FlatWithEdges
 70
     1
 71
     2
 72
     1
 73
     1
 90
        2
 40
-0.6
 41
30.0
 62
     5
 63
     7
 74
     1
 91
        4
 64
     7
 65
   257
 75
     1
175
     1
 42
1.0
 92
        0
 66
   257
 43
1.0
 76
     1
 77
     6
 78
     2
 67
     7
 79
     5
170
     0
171
     0
290
     0
174
     0
 93
       13
 44
0.0
173
     0
291
     1
 45
0.0
1001
ACAD
1000
AcDbSavedByObjectVersion
1070
     0
  0
VISUALSTYLE
  5
17
102
{ACAD_REACTORS
330
14
102
}
330
14
100
AcDbVisualStyle
  2
Gouraud
 70
     2
 71
     2
 72
     2
 73
     1
 90
        2
 40
-0.6
 41
30.0
 62
     5
 63
     7
 74
     0
 91
        4
 64
     7
 65
   257
 75
     1
175
     1
 42
1.0
 92
        0
 66
     7
 43
1.0
 76
     1
 77
     6
 78
     2
 67
     7
 79
     5
170
     0
171
     0
290
     0
174
     0
 93
       13
 44
0.0
173
     0
291
     1
 45
0.0
1001
ACAD
1000
AcDbSavedByObjectVersion
1070
     0
  0
VISUALSTYLE
  5
18
102
{ACAD_REACTORS
330
14
102
}
330
14
100
AcDbVisualStyle
  2
GouraudWithEdges
 70
     3
 71
     2
 72
     2
 73
     1
 90
        2
 40
-0.6
 41
30.0
 62
     5
 63
     7
 74
     1
 91
        4
 64
     7
 65
   257
 75
     1
175
     1
 42
1.0
 92
        0
 66
   257
 43
1.0
 76
     1
 77
     6
 78
     2
 67
     7
 79
     5
170
     0
171
     0
290
     0
174
     0
 93
       13
 44
0.0
173
     0
291
     1
 45
0.0
1001
ACAD
1000
AcDbSavedByObjectVersion
1070
     0
  0
VISUALSTYLE
  5
22
102
{ACAD_REACTORS
330
14
102
}
330
14
100
AcDbVisualStyle
  2
Linepattern
 70
    14
 71
     2
 72
     2
 73
     0
 90
        0
 40
-0.6
 41
-30.0
 62
     5
 63
     7
 74
     1
 91
        4
 64
     7
 65
   257
 75
     7
175
     7
 42
1.0
 92
        8
 66
     7
 43
1.0
 76
     1
 77
     6
 78
     2
 67
     7
 79
     5
170
     0
171
     0
290
     0
174
     0
 93
        1
 44
0.0
173
     0
291
     1
 45
0.0
1001
ACAD
1000
AcDbSavedByObjectVersion
1070
     0
  0
VISUALSTYLE
  5
1E
102
{ACAD_REACTORS
330
14
102
}
330
14
100
AcDbVisualStyle
  2
Realistic
 70
     8
 71
     2
 72
     2
 73
     0
 90
        0
 40
-0.6
 41
-30.0
 62
     5
 63
     7
 74
     1
 91
        0
 64
     7
 65
   257
 75
     1
175
     1
 42
1.0
 92
        8
 66
     8
 43
1.0
 76
     1
 77
     6
 78
     2
 67
     7
 79
     5
170
     0
171
     0
290
     0
174
     0
 93
       13
 44
0.0
173
     0
291
     0
 45
0.0
1001
ACAD
1000
AcDbSavedByObjectVersion
1070
     0
  0
VISUALSTYLE
  5
21
102
{ACAD_REACTORS
330
14
102
}
330
14
100
AcDbVisualStyle
  2
Thicken
 70
    13
 71
     2
 72
     2
 73
     0
 90
        0
 40
-0.6
 41
-30.0
 62
     5
 63
     7
 74
     1
 91
        4
 64
     7
 65
   257
 75
     1
175
     1
 42
1.0
 92
       12
 66
     7
 43
1.0
 76
     1
 77
     6
 78
     2
 67
     7
 79
     5
170
     0
171
     0
290
     0
174
     0
 93
        1
 44
0.0
173
     0
291
     1
 45
0.0
1001
ACAD
1000
AcDbSavedByObjectVersion
1070
     0
  0
DICTIONARYVAR
  5
6E2
102
{ACAD_REACTORS
330
6E1
102
}
330
6E1
100
DictionaryVariables
280
     0
  1
STANDARD
  0
DICTIONARYVAR
  5
6E5
102
{ACAD_REACTORS
330
6E1
102
}
330
6E1
100
DictionaryVariables
280
     0
  1
1
  0
DICTIONARYVAR
  5
6E4
102
{ACAD_REACTORS
330
6E1
102
}
330
6E1
100
DictionaryVariables
280
     0
  1
0
  0
DICTIONARYVAR
  5
6E3
102
{ACAD_REACTORS
330
6E1
102
}
330
6E1
100
DictionaryVariables
280
     0
  1
127
  0
DICTIONARY
  5
6F1
330
39
100
AcDbDictionary
280
     1
281
     1
  3
ACAD_XREC_ROUNDTRIP
360
6F2
  0
DICTIONARY
  5
6EF
330
35
100
AcDbDictionary
280
     1
281
     1
  3
ACAD_XREC_ROUNDTRIP
360
6F0
  0
DICTIONARY
  5
6E9
330
12
100
AcDbDictionary
280
     1
281
     1
  3
ACAD_XREC_ROUNDTRIP
360
6EA
  0
DICTIONARY
  5
6E7
330
11
100
AcDbDictionary
280
     1
281
     1
  3
ACAD_XREC_ROUNDTRIP
360
6E8
  0
DICTIONARY
  5
6EB
330
13
100
AcDbDictionary
280
     1
281
     1
  3
ACAD_XREC_ROUNDTRIP
360
6EC
  0
DICTIONARY
  5
6ED
330
31
100
AcDbDictionary
280
     1
281
     1
  3
ACAD_XREC_ROUNDTRIP
360
6EE
  0
XRECORD
  5
6F2
102
{ACAD_REACTORS
330
6F1
102
}
330
6F1
100
AcDbXrecord
280
     1
102
SHADEPLOT
 70
     0
102
SHADEPLOTRESLEVEL
 70
     2
102
SHADEPLOTCUSTOMDPI
 70
   300
  0
XRECORD
  5
6F0
102
{ACAD_REACTORS
330
6EF
102
}
330
6EF
100
AcDbXrecord
280
     1
102
SHADEPLOT
 70
     0
102
SHADEPLOTRESLEVEL
 70
     2
102
SHADEPLOTCUSTOMDPI
 70
   300
  0
XRECORD
  5
6EA
102
{ACAD_REACTORS
330
6E9
102
}
330
6E9
100
AcDbXrecord
280
     1
102
MATERIAL
148
0.0
149
0.0
149
0.0
 93
        0
 94
       63
282
     0
 72
     1
 77
     1
171
     1
175
     1
179
     1
273
     0
  0
XRECORD
  5
6E8
102
{ACAD_REACTORS
330
6E7
102
}
330
6E7
100
AcDbXrecord
280
     1
102
MATERIAL
148
0.0
149
0.0
149
0.0
 93
        0
 94
       63
282
     0
 72
     1
 77
     1
171
     1
175
     1
179
     1
273
     0
  0
XRECORD
  5
6EC
102
{ACAD_REACTORS
330
6EB
102
}
330
6EB
100
AcDbXrecord
280
     1
102
MATERIAL
148
0.0
149
0.0
149
0.0
 93
        0
 94
       63
282
     0
 72
     1
 77
     1
171
     1
175
     1
179
     1
273
     0
  0
XRECORD
  5
6EE
102
{ACAD_REACTORS
330
6ED
102
}
330
6ED
100
AcDbXrecord
280
     1
102
ACAD_ROUNDTRIP_PRE2007_TABLESTYLE
 90
      512
 91
        0
  1

 92
      512
 93
        0
  2

 94
      512
 95
        0
  3

  0
ENDSEC
  0
EOF
