  0
SECTION
  2
HEADER
  9
$ACADVER
  1
AC1021
  9
$ACADMAINTVER
 70
    50
  9
$DWGCODEPAGE
  3
ANSI_932
  9
$LASTSAVEDBY
  1
suzuki
  9
$INSBASE
 10
0.0
 20
0.0
 30
0.0
  9
$EXTMIN
 10
-0.1281640493871237
 20
-0.0906302920675444
 30
-0.0015258207003583
  9
$EXTMAX
 10
4200.128183607161
 20
2970.090644122207
 30
0.0000000349246037
  9
$LIMMIN
 10
0.0
 20
0.0
  9
$LIMMAX
 10
12.0
 20
9.0
  9
$ORTHOMODE
 70
     0
  9
$REGENMODE
 70
     1
  9
$FILLMODE
 70
     1
  9
$QTEXTMODE
 70
     0
  9
$MIRRTEXT
 70
     0
  9
$LTSCALE
 40
10.0
  9
$ATTMODE
 70
     1
  9
$TEXTSIZE
 40
0.0
  9
$TRACEWID
 40
0.05
  9
$TEXTSTYLE
  7
STANDARD
  9
$CLAYER
  8
0
  9
$CELTYPE
  6
CONTINUOUS
  9
$CECOLOR
 62
   256
  9
$CELTSCALE
 40
1.0
  9
$DISPSILH
 70
     0
  9
$DIMSCALE
 40
1.0
  9
$DIMASZ
 40
0.18
  9
$DIMEXO
 40
0.0625
  9
$DIMDLI
 40
0.38
  9
$DIMRND
 40
0.0
  9
$DIMDLE
 40
0.0
  9
$DIMEXE
 40
0.18
  9
$DIMTP
 40
0.0
  9
$DIMTM
 40
0.0
  9
$DIMTXT
 40
0.18
  9
$DIMCEN
 40
0.09
  9
$DIMTSZ
 40
0.0
  9
$DIMTOL
 70
     0
  9
$DIMLIM
 70
     0
  9
$DIMTIH
 70
     1
  9
$DIMTOH
 70
     1
  9
$DIMSE1
 70
     0
  9
$DIMSE2
 70
     0
  9
$DIMTAD
 70
     0
  9
$DIMZIN
 70
     0
  9
$DIMBLK
  1

  9
$DIMASO
 70
     1
  9
$DIMSHO
 70
     1
  9
$DIMPOST
  1

  9
$DIMAPOST
  1

  9
$DIMALT
 70
     0
  9
$DIMALTD
 70
     2
  9
$DIMALTF
 40
25.4
  9
$DIMLFAC
 40
1.0
  9
$DIMTOFL
 70
     0
  9
$DIMTVP
 40
0.0
  9
$DIMTIX
 70
     0
  9
$DIMSOXD
 70
     0
  9
$DIMSAH
 70
     0
  9
$DIMBLK1
  1

  9
$DIMBLK2
  1

  9
$DIMSTYLE
  2
Standard
  9
$DIMCLRD
 70
     0
  9
$DIMCLRE
 70
     0
  9
$DIMCLRT
 70
     0
  9
$DIMTFAC
 40
1.0
  9
$DIMGAP
 40
0.09
  9
$DIMJUST
 70
     0
  9
$DIMSD1
 70
     0
  9
$DIMSD2
 70
     0
  9
$DIMTOLJ
 70
     1
  9
$DIMTZIN
 70
     0
  9
$DIMALTZ
 70
     0
  9
$DIMALTTZ
 70
     0
  9
$DIMUPT
 70
     0
  9
$DIMDEC
 70
     4
  9
$DIMTDEC
 70
     4
  9
$DIMALTU
 70
     2
  9
$DIMALTTD
 70
     2
  9
$DIMTXSTY
  7
STANDARD
  9
$DIMAUNIT
 70
     0
  9
$DIMADEC
 70
     0
  9
$DIMALTRND
 40
0.0
  9
$DIMAZIN
 70
     0
  9
$DIMDSEP
 70
    46
  9
$DIMATFIT
 70
     3
  9
$DIMFRAC
 70
     0
  9
$DIMLDRBLK
  1

  9
$DIMLUNIT
 70
     2
  9
$DIMLWD
 70
    -2
  9
$DIMLWE
 70
    -2
  9
$DIMTMOVE
 70
     0
  9
$DIMFXL
 40
1.0
  9
$DIMFXLON
 70
     0
  9
$DIMJOGANG
 40
0.7853981633974483
  9
$DIMTFILL
 70
     0
  9
$DIMTFILLCLR
 70
     0
  9
$DIMARCSYM
 70
     0
  9
$DIMLTYPE
  6

  9
$DIMLTEX1
  6

  9
$DIMLTEX2
  6

  9
$LUNITS
 70
     2
  9
$LUPREC
 70
     4
  9
$SKETCHINC
 40
0.1
  9
$FILLETRAD
 40
0.0
  9
$AUNITS
 70
     0
  9
$AUPREC
 70
     0
  9
$MENU
  1
.
  9
$ELEVATION
 40
0.0
  9
$PELEVATION
 40
0.0
  9
$THICKNESS
 40
0.0
  9
$LIMCHECK
 70
     0
  9
$CHAMFERA
 40
0.0
  9
$CHAMFERB
 40
0.0
  9
$CHAMFERC
 40
0.0
  9
$CHAMFERD
 40
0.0
  9
$SKPOLY
 70
     0
  9
$TDCREATE
 40
2460248.779629630
  9
$TDUCREATE
 40
2460248.404629630
  9
$TDUPDATE
 40
2460248.779872685
  9
$TDUUPDATE
 40
2460248.404872686
  9
$TDINDWG
 40
0.0002430556
  9
$TDUSRTIMER
 40
0.0002430556
  9
$USRTIMER
 70
     1
  9
$ANGBASE
 50
0.0
  9
$ANGDIR
 70
     0
  9
$PDMODE
 70
     0
  9
$PDSIZE
 40
5.0
  9
$PLINEWID
 40
0.0
  9
$SPLFRAME
 70
     0
  9
$SPLINETYPE
 70
     6
  9
$SPLINESEGS
 70
     8
  9
$HANDSEED
  5
4BD
  9
$SURFTAB1
 70
     6
  9
$SURFTAB2
 70
     6
  9
$SURFTYPE
 70
     6
  9
$SURFU
 70
     6
  9
$SURFV
 70
     6
  9
$UCSBASE
  2

  9
$UCSNAME
  2

  9
$UCSORG
 10
0.0
 20
0.0
 30
0.0
  9
$UCSXDIR
 10
1.0
 20
0.0
 30
0.0
  9
$UCSYDIR
 10
0.0
 20
1.0
 30
0.0
  9
$UCSORTHOREF
  2

  9
$UCSORTHOVIEW
 70
     0
  9
$UCSORGTOP
 10
0.0
 20
0.0
 30
0.0
  9
$UCSORGBOTTOM
 10
0.0
 20
0.0
 30
0.0
  9
$UCSORGLEFT
 10
0.0
 20
0.0
 30
0.0
  9
$UCSORGRIGHT
 10
0.0
 20
0.0
 30
0.0
  9
$UCSORGFRONT
 10
0.0
 20
0.0
 30
0.0
  9
$UCSORGBACK
 10
0.0
 20
0.0
 30
0.0
  9
$PUCSBASE
  2

  9
$PUCSNAME
  2

  9
$PUCSORG
 10
0.0
 20
0.0
 30
0.0
  9
$PUCSXDIR
 10
1.0
 20
0.0
 30
0.0
  9
$PUCSYDIR
 10
0.0
 20
1.0
 30
0.0
  9
$PUCSORTHOREF
  2

  9
$PUCSORTHOVIEW
 70
     0
  9
$PUCSORGTOP
 10
0.0
 20
0.0
 30
0.0
  9
$PUCSORGBOTTOM
 10
0.0
 20
0.0
 30
0.0
  9
$PUCSORGLEFT
 10
0.0
 20
0.0
 30
0.0
  9
$PUCSORGRIGHT
 10
0.0
 20
0.0
 30
0.0
  9
$PUCSORGFRONT
 10
0.0
 20
0.0
 30
0.0
  9
$PUCSORGBACK
 10
0.0
 20
0.0
 30
0.0
  9
$USERI1
 70
     0
  9
$USERI2
 70
     0
  9
$USERI3
 70
     0
  9
$USERI4
 70
     0
  9
$USERI5
 70
     0
  9
$USERR1
 40
0.0
  9
$USERR2
 40
0.0
  9
$USERR3
 40
0.0
  9
$USERR4
 40
0.0
  9
$USERR5
 40
0.0
  9
$WORLDVIEW
 70
     1
  9
$SHADEDGE
 70
     3
  9
$SHADEDIF
 70
    70
  9
$TILEMODE
 70
     1
  9
$MAXACTVP
 70
    64
  9
$PINSBASE
 10
0.0
 20
0.0
 30
0.0
  9
$PLIMCHECK
 70
     0
  9
$PEXTMIN
 10
1.000000000000000E+20
 20
1.000000000000000E+20
 30
1.000000000000000E+20
  9
$PEXTMAX
 10
-1.000000000000000E+20
 20
-1.000000000000000E+20
 30
-1.000000000000000E+20
  9
$PLIMMIN
 10
0.0
 20
0.0
  9
$PLIMMAX
 10
12.0
 20
9.0
  9
$UNITMODE
 70
     0
  9
$VISRETAIN
 70
     1
  9
$PLINEGEN
 70
     0
  9
$PSLTSCALE
 70
     1
  9
$TREEDEPTH
 70
  3020
  9
$CMLSTYLE
  2
Standard
  9
$CMLJUST
 70
     0
  9
$CMLSCALE
 40
1.0
  9
$PROXYGRAPHICS
 70
     1
  9
$MEASUREMENT
 70
     0
  9
$CELWEIGHT
370
    -1
  9
$ENDCAPS
280
     0
  9
$JOINSTYLE
280
     0
  9
$LWDISPLAY
290
     0
  9
$INSUNITS
 70
     0
  9
$HYPERLINKBASE
  1

  9
$STYLESHEET
  1

  9
$XEDIT
290
     1
  9
$CEPSNTYPE
380
     0
  9
$PSTYLEMODE
290
     1
  9
$FINGERPRINTGUID
  2
{601DF7ED-9147-CB44-B180-F669C9D5D399}
  9
$VERSIONGUID
  2
{27448ED7-B229-3744-AD55-D9899AFD2D7D}
  9
$EXTNAMES
290
     1
  9
$PSVPSCALE
 40
0.0
  9
$OLESTARTUP
290
     0
  9
$SORTENTS
280
   127
  9
$INDEXCTL
280
     0
  9
$HIDETEXT
280
     0
  9
$XCLIPFRAME
290
     0
  9
$HALOGAP
280
     0
  9
$OBSCOLOR
 70
   257
  9
$OBSLTYPE
280
     0
  9
$INTERSECTIONDISPLAY
280
     0
  9
$INTERSECTIONCOLOR
 70
   257
  9
$DIMASSOC
280
     1
  9
$PROJECTNAME
  1

  9
$CAMERADISPLAY
290
     0
  9
$LENSLENGTH
 40
50.0
  9
$CAMERAHEIGHT
 40
0.0
  9
$STEPSPERSEC
 40
2.0
  9
$STEPSIZE
 40
6.0
  9
$3DDWFPREC
 40
2.0
  9
$PSOLWIDTH
 40
0.25
  9
$PSOLHEIGHT
 40
4.0
  9
$LOFTANG1
 40
1.570796326794896
  9
$LOFTANG2
 40
1.570796326794896
  9
$LOFTMAG1
 40
0.0
  9
$LOFTMAG2
 40
0.0
  9
$LOFTPARAM
 70
     7
  9
$LOFTNORMALS
280
     1
  9
$LATITUDE
 40
37.795
  9
$LONGITUDE
 40
-122.394
  9
$NORTHDIRECTION
 40
0.0
  9
$TIMEZONE
 70
 -8000
  9
$LIGHTGLYPHDISPLAY
280
     1
  9
$TILEMODELIGHTSYNCH
280
     1
  9
$CMATERIAL
347
11
  9
$SOLIDHIST
280
     0
  9
$SHOWHIST
280
     1
  9
$DWFFRAME
280
     2
  9
$DGNFRAME
280
     0
  9
$REALWORLDSCALE
290
     1
  9
$INTERFERECOLOR
 62
     1
  9
$INTERFEREOBJVS
345
33
  9
$INTERFEREVPVS
346
30
  9
$CSHADOW
280
     0
  9
$SHADOWPLANELOCATION
 40
0.0
  0
ENDSEC
  0
SECTION
  2
CLASSES
  0
CLASS
  1
ACDBDICTIONARYWDFLT
  2
AcDbDictionaryWithDefault
  3
ObjectDBX Classes
 90
        0
 91
        1
280
     0
281
     0
  0
CLASS
  1
MATERIAL
  2
AcDbMaterial
  3
ObjectDBX Classes
 90
     1153
 91
        3
280
     0
281
     0
  0
CLASS
  1
VISUALSTYLE
  2
AcDbVisualStyle
  3
ObjectDBX Classes
 90
     4095
 91
       24
280
     0
281
     0
  0
CLASS
  1
SCALE
  2
AcDbScale
  3
ObjectDBX Classes
 90
     1153
 91
       17
280
     0
281
     0
  0
CLASS
  1
TABLESTYLE
  2
AcDbTableStyle
  3
ObjectDBX Classes
 90
     4095
 91
        1
280
     0
281
     0
  0
CLASS
  1
MLEADERSTYLE
  2
AcDbMLeaderStyle
  3
ACDB_MLEADERSTYLE_CLASS
 90
     4095
 91
        1
280
     0
281
     0
  0
CLASS
  1
ACDBSECTIONVIEWSTYLE
  2
AcDbSectionViewStyle
  3
ObjectDBX Classes
 90
     1025
 91
        1
280
     0
281
     0
  0
CLASS
  1
ACDBDETAILVIEWSTYLE
  2
AcDbDetailViewStyle
  3
ObjectDBX Classes
 90
     1025
 91
        1
280
     0
281
     0
  0
CLASS
  1
DICTIONARYVAR
  2
AcDbDictionaryVar
  3
ObjectDBX Classes
 90
        0
 91
       10
280
     0
281
     0
  0
CLASS
  1
CELLSTYLEMAP
  2
AcDbCellStyleMap
  3
ObjectDBX Classes
 90
     1152
 91
        1
280
     0
281
     0
  0
ENDSEC
  0
SECTION
  2
TABLES
  0
TABLE
  2
VPORT
  5
8
330
0
100
AcDbSymbolTable
 70
     1
  0
VPORT
  5
8C
330
8
100
AcDbSymbolTableRecord
100
AcDbViewportTableRecord
  2
*Active
 70
     0
 10
0.0
 20
0.0
 11
1.0
 21
1.0
 12
2100.000009778886
 22
1485.000006915069
 13
0.0
 23
0.0
 14
1.0
 24
1.0
 15
0.0
 25
0.0
 16
0.0
 26
0.0
 36
1.0
 17
0.0
 27
0.0
 37
0.0
 40
2991.447488789556
 41
2.283154121863799
 42
50.0
 43
0.0
 44
0.0
 50
0.0
 51
0.0
 71
     0
 72
   100
 73
     1
 74
     0
 75
     1
 76
     0
 77
     0
 78
     0
281
     0
 65
     1
110
0.0
120
0.0
130
0.0
111
1.0
121
0.0
131
0.0
112
0.0
122
1.0
132
0.0
 79
     0
146
0.0
348
2F
 60
     3
 61
     5
292
     1
282
     1
141
0.0
142
0.0
 63
   250
421
  3355443
1001
ACAD_NAV_VCDISPLAY
1070
     3
  0
ENDTAB
  0
TABLE
  2
LTYPE
  5
5
330
0
100
AcDbSymbolTable
 70
     9
  0
LTYPE
  5
5A
330
5
100
AcDbSymbolTableRecord
100
AcDbLinetypeTableRecord
  2
ByBlock
 70
     0
  3

 72
    65
 73
     0
 40
0.0
  0
LTYPE
  5
5B
330
5
100
AcDbSymbolTableRecord
100
AcDbLinetypeTableRecord
  2
ByLayer
 70
     0
  3

 72
    65
 73
     0
 40
0.0
  0
LTYPE
  5
5C
330
5
100
AcDbSymbolTableRecord
100
AcDbLinetypeTableRecord
  2
CONTINUOUS
 70
     0
  3
SolidLine
 72
    65
 73
     0
 40
0.0
  0
LTYPE
  5
73
330
5
100
AcDbSymbolTableRecord
100
AcDbLinetypeTableRecord
  2
DOT
 70
     0
  3
--  --  --  --  --  --  --  --     
 72
    65
 73
     2
 40
3.0
 49
1.0
 74
     0
 49
-2.0
 74
     0
  0
LTYPE
  5
74
330
5
100
AcDbSymbolTableRecord
100
AcDbLinetypeTableRecord
  2
DASHED
 70
     0
  3
----    ----    ----    ----    
 72
    65
 73
     2
 40
5.0
 49
2.0
 74
     0
 49
-3.0
 74
     0
  0
LTYPE
  5
75
330
5
100
AcDbSymbolTableRecord
100
AcDbLinetypeTableRecord
  2
DASHED2
 70
     0
  3
------  ------  ------  ------ 
 72
    65
 73
     2
 40
10.0
 49
4.0
 74
     0
 49
-6.0
 74
     0
  0
LTYPE
  5
76
330
5
100
AcDbSymbolTableRecord
100
AcDbLinetypeTableRecord
  2
CENTER
 70
     0
  3
----- - ----- - ----- - ----- - 
 72
    65
 73
     4
 40
10.0
 49
6.0
 74
     0
 49
-3.0
 74
     0
 49
1.0
 74
     0
 49
-3.0
 74
     0
  0
LTYPE
  5
77
330
5
100
AcDbSymbolTableRecord
100
AcDbLinetypeTableRecord
  2
CENTER2
 70
     0
  3
----------  --  ----------  -- 
 72
    65
 73
     4
 40
17.0
 49
12.0
 74
     0
 49
-5.0
 74
     0
 49
2.0
 74
     0
 49
-5.0
 74
     0
  0
LTYPE
  5
78
330
5
100
AcDbSymbolTableRecord
100
AcDbLinetypeTableRecord
  2
PHANTOM
 70
     0
  3
--- - - --- - - --- - - --- - -
 72
    65
 73
     6
 40
13.0
 49
5.0
 74
     0
 49
-3.0
 74
     0
 49
1.0
 74
     0
 49
-3.0
 74
     0
 49
1.0
 74
     0
 49
-3.0
 74
     0
  0
LTYPE
  5
79
330
5
100
AcDbSymbolTableRecord
100
AcDbLinetypeTableRecord
  2
PHANTOM2
 70
     0
  3
--------  -  -  --------  -  -
 72
    65
 73
     6
 40
20.0
 49
6.0
 74
     0
 49
-5.0
 74
     0
 49
2.0
 74
     0
 49
-5.0
 74
     0
 49
2.0
 74
     0
 49
-5.0
 74
     0
  0
LTYPE
  5
7A
330
5
100
AcDbSymbolTableRecord
100
AcDbLinetypeTableRecord
  2
HIDDEN
 70
     0
  3
-   -   -   -   -   -   -   -   
 72
    65
 73
     2
 40
3.0
 49
0.5
 74
     0
 49
-2.5
 74
     0
  0
ENDTAB
  0
TABLE
  2
LAYER
  5
2
330
0
100
AcDbSymbolTable
 70
    11
  0
LAYER
  5
54
102
{ACAD_XDICTIONARY
360
463
102
}
330
2
100
AcDbSymbolTableRecord
100
AcDbLayerTableRecord
  2
0
 70
     0
 62
     7
  6
CONTINUOUS
370
    -3
390
F
347
21
  0
LAYER
  5
7F
102
{ACAD_XDICTIONARY
360
465
102
}
330
2
100
AcDbSymbolTableRecord
100
AcDbLayerTableRecord
  2
2-0
 70
     0
 62
     7
  6
CONTINUOUS
370
    -3
390
F
347
21
  0
LAYER
  5
80
102
{ACAD_XDICTIONARY
360
467
102
}
330
2
100
AcDbSymbolTableRecord
100
AcDbLayerTableRecord
  2
4-0
 70
     0
 62
    -7
  6
CONTINUOUS
370
    -3
390
F
347
21
  0
LAYER
  5
81
102
{ACAD_XDICTIONARY
360
469
102
}
330
2
100
AcDbSymbolTableRecord
100
AcDbLayerTableRecord
  2
5-0
 70
     0
 62
    -7
  6
CONTINUOUS
370
    -3
390
F
347
21
  0
LAYER
  5
82
102
{ACAD_XDICTIONARY
360
46B
102
}
330
2
100
AcDbSymbolTableRecord
100
AcDbLayerTableRecord
  2
6-0
 70
     0
 62
     7
  6
CONTINUOUS
370
    -3
390
F
347
21
  0
LAYER
  5
83
102
{ACAD_XDICTIONARY
360
46D
102
}
330
2
100
AcDbSymbolTableRecord
100
AcDbLayerTableRecord
  2
7-0
 70
     0
 62
     7
  6
CONTINUOUS
370
    -3
390
F
347
21
  0
LAYER
  5
84
102
{ACAD_XDICTIONARY
360
46F
102
}
330
2
100
AcDbSymbolTableRecord
100
AcDbLayerTableRecord
  2
8-0
 70
     0
 62
     1
  6
CONTINUOUS
370
    -3
390
F
347
21
  0
LAYER
  5
85
102
{ACAD_XDICTIONARY
360
471
102
}
330
2
100
AcDbSymbolTableRecord
100
AcDbLayerTableRecord
  2
9-0
 70
     0
 62
     6
  6
CENTER
370
    -3
390
F
347
21
  0
LAYER
  5
86
102
{ACAD_XDICTIONARY
360
473
102
}
330
2
100
AcDbSymbolTableRecord
100
AcDbLayerTableRecord
  2
C-0
 70
     0
 62
     4
  6
CONTINUOUS
370
    -3
390
F
347
21
  0
LAYER
  5
87
102
{ACAD_XDICTIONARY
360
475
102
}
330
2
100
AcDbSymbolTableRecord
100
AcDbLayerTableRecord
  2
D-0
 70
     0
 62
     5
  6
CONTINUOUS
370
    -3
390
F
347
21
  0
LAYER
  5
8D
102
{ACAD_XDICTIONARY
360
477
102
}
330
2
100
AcDbSymbolTableRecord
100
AcDbLayerTableRecord
  2
1-0
 70
     0
 62
     7
  6
CONTINUOUS
370
    -3
390
F
347
21
  0
ENDTAB
  0
TABLE
  2
STYLE
  5
3
330
0
100
AcDbSymbolTable
 70
     6
  0
STYLE
  5
55
330
3
100
AcDbSymbolTableRecord
100
AcDbTextStyleTableRecord
  2
STANDARD
 70
     0
 40
0.0
 41
1.0
 50
0.0
 71
     0
 42
0.0
  3
txt.shx
  4
extfont.shx
  0
STYLE
  5
59
330
3
100
AcDbSymbolTableRecord
100
AcDbTextStyleTableRecord
  2
Annotative
 70
     0
 40
0.0
 41
1.0
 50
0.0
 71
     0
 42
0.2
  3
txt
  4

1001
AcadAnnotative
1000
AnnotativeData
1002
{
1070
     1
1070
     1
1002
}
  0
STYLE
  5
7B
330
3
100
AcDbSymbolTableRecord
100
AcDbTextStyleTableRecord
  2
TATEGAKI
 70
     4
 40
0.0
 41
1.0
 50
0.0
 71
     0
 42
0.0
  3
txt.shx
  4
extfont.shx
  0
STYLE
  5
7C
330
3
100
AcDbSymbolTableRecord
100
AcDbTextStyleTableRecord
  2
DIM
 70
     0
 40
0.0
 41
0.75
 50
0.0
 71
     0
 42
0.0
  3
txt.shx
  4
extfont.shx
  0
STYLE
  5
7D
330
3
100
AcDbSymbolTableRecord
100
AcDbTextStyleTableRecord
  2
_GOTHIC__
 70
     0
 40
0.0
 41
1.0
 50
0.0
 71
     0
 42
0.0
  3
MS Gothic
  4

  0
STYLE
  5
7E
330
3
100
AcDbSymbolTableRecord
100
AcDbTextStyleTableRecord
  2
_TATEGOTHIC_
 70
     4
 40
0.0
 41
1.0
 50
0.0
 71
     0
 42
0.0
  3
@MS Gothic
  4

  0
ENDTAB
  0
TABLE
  2
VIEW
  5
6
330
0
100
AcDbSymbolTable
 70
     0
  0
ENDTAB
  0
TABLE
  2
UCS
  5
7
330
0
100
AcDbSymbolTable
 70
     0
  0
ENDTAB
  0
TABLE
  2
APPID
  5
9
330
0
100
AcDbSymbolTable
 70
     4
  0
APPID
  5
56
330
9
100
AcDbSymbolTableRecord
100
AcDbRegAppTableRecord
  2
ACAD
 70
     0
  0
APPID
  5
5D
330
9
100
AcDbSymbolTableRecord
100
AcDbRegAppTableRecord
  2
AcadAnnotative
 70
     0
  0
APPID
  5
484
330
9
100
AcDbSymbolTableRecord
100
AcDbRegAppTableRecord
  2
ACAD_NAV_VCDISPLAY
 70
     0
  0
APPID
  5
4B8
330
9
100
AcDbSymbolTableRecord
100
AcDbRegAppTableRecord
  2
ACAD_MLEADERVER
 70
     0
  0
ENDTAB
  0
TABLE
  2
DIMSTYLE
  5
A
330
0
100
AcDbSymbolTable
 70
     2
100
AcDbDimStyleTable
 71
     0
  0
DIMSTYLE
105
57
330
A
100
AcDbSymbolTableRecord
100
AcDbDimStyleTableRecord
  2
Standard
 70
     0
340
55
  0
DIMSTYLE
105
58
330
A
100
AcDbSymbolTableRecord
100
AcDbDimStyleTableRecord
  2
Annotative
 70
     0
340
55
1001
AcadAnnotative
1000
AnnotativeData
1002
{
1070
     1
1070
     1
1002
}
  0
ENDTAB
  0
TABLE
  2
BLOCK_RECORD
  5
1
330
0
100
AcDbSymbolTable
 70
     0
  0
BLOCK_RECORD
  5
6F
330
1
100
AcDbSymbolTableRecord
100
AcDbBlockTableRecord
  2
*Model_Space
340
72
 70
     0
280
     1
281
     0
  0
BLOCK_RECORD
  5
6B
330
1
100
AcDbSymbolTableRecord
100
AcDbBlockTableRecord
  2
*Paper_Space
340
6E
 70
     0
280
     1
281
     0
  0
ENDTAB
  0
ENDSEC
  0
SECTION
  2
BLOCKS
  0
BLOCK
  5
70
330
6F
100
AcDbEntity
  8
0
100
AcDbBlockBegin
  2
*Model_Space
 70
     0
 10
0.0
 20
0.0
 30
0.0
  3
*Model_Space
  1

  0
ENDBLK
  5
71
330
6F
100
AcDbEntity
  8
0
100
AcDbBlockEnd
  0
BLOCK
  5
6C
330
6B
100
AcDbEntity
 67
     1
  8
0
100
AcDbBlockBegin
  2
*Paper_Space
 70
     0
 10
0.0
 20
0.0
 30
0.0
  3
*Paper_Space
  1

  0
ENDBLK
  5
6D
330
6B
100
AcDbEntity
 67
     1
  8
0
100
AcDbBlockEnd
  0
ENDSEC
  0
SECTION
  2
ENTITIES
  0
LINE
  5
8E
330
6F
100
AcDbEntity
  8
1-0
  6
Continuous
 62
     7
100
AcDbLine
 10
0.0
 20
0.0
 30
0.0
 11
4200.0
 21
0.0
 31
0.0
  0
LINE
  5
8F
330
6F
100
AcDbEntity
  8
1-0
  6
Continuous
 62
     7
100
AcDbLine
 10
4200.0
 20
0.0
 30
0.0
 11
4200.0
 21
2970.0
 31
0.0
  0
LINE
  5
90
330
6F
100
AcDbEntity
  8
1-0
  6
Continuous
 62
     7
100
AcDbLine
 10
4200.0
 20
2970.0
 30
0.0
 11
0.0
 21
2970.0
 31
0.0
  0
LINE
  5
91
330
6F
100
AcDbEntity
  8
1-0
  6
Continuous
 62
     7
100
AcDbLine
 10
0.0
 20
2970.0
 30
0.0
 11
0.0
 21
0.0
 31
0.0
  0
LINE
  5
92
330
6F
100
AcDbEntity
  8
7-0
  6
Continuous
 62
     7
100
AcDbLine
 10
100.0
 20
100.0
 30
0.0
 11
4100.0
 21
100.0
 31
0.0
  0
LINE
  5
93
330
6F
100
AcDbEntity
  8
7-0
  6
Continuous
 62
     7
100
AcDbLine
 10
2500.0
 20
300.0
 30
0.0
 11
4100.0
 21
300.0
 31
0.0
  0
LINE
  5
94
330
6F
100
AcDbEntity
  8
6-0
  6
Continuous
 62
     7
100
AcDbLine
 10
2500.0
 20
240.0
 30
0.0
 11
3150.0
 21
240.0
 31
0.0
  0
LINE
  5
95
330
6F
100
AcDbEntity
  8
7-0
  6
Continuous
 62
     7
100
AcDbLine
 10
4100.0
 20
100.0
 30
0.0
 11
4100.0
 21
2870.0
 31
0.0
  0
LINE
  5
96
330
6F
100
AcDbEntity
  8
7-0
  6
Continuous
 62
     7
100
AcDbLine
 10
4100.0
 20
2870.0
 30
0.0
 11
100.0
 21
2870.0
 31
0.0
  0
LINE
  5
97
330
6F
100
AcDbEntity
  8
7-0
  6
Continuous
 62
     7
100
AcDbLine
 10
100.0
 20
2870.0
 30
0.0
 11
100.0
 21
100.0
 31
0.0
  0
LINE
  5
98
330
6F
100
AcDbEntity
  8
6-0
  6
Continuous
 62
     7
100
AcDbLine
 10
3150.0
 20
100.0
 30
0.0
 11
3150.0
 21
300.0
 31
0.0
  0
LINE
  5
99
330
6F
100
AcDbEntity
  8
7-0
  6
Continuous
 62
     7
100
AcDbLine
 10
2500.0
 20
100.0
 30
0.0
 11
2500.0
 21
300.0
 31
0.0
  0
TEXT
  5
9A
330
6F
100
AcDbEntity
  8
D-0
 62
     5
100
AcDbText
 10
2788.434
 20
252.531
 30
0.0
 40
31.104
  1
品番
100
AcDbText
  0
TEXT
  5
9B
330
6F
100
AcDbEntity
  8
D-0
 62
     5
100
AcDbText
 10
2600.595
 20
140.854
 30
0.0
 40
51.84000000000001
  1
SCHS-1050S
100
AcDbText
  0
TEXT
  5
9C
330
6F
100
AcDbEntity
  8
D-0
 62
     5
100
AcDbText
 10
3353.56
 20
192.32
 30
0.0
 40
62.208
  1
アイオ産業株式会社
100
AcDbText
  0
TEXT
  5
9D
330
6F
100
AcDbEntity
  8
D-0
 62
     5
100
AcDbText
 10
3427.941
 20
124.513
 30
0.0
 40
31.104
  1
アイオシステムキッチン事業部
100
AcDbText
  0
ARC
  5
9E
330
6F
100
AcDbEntity
  8
2-0
  6
Continuous
 62
     7
100
AcDbCircle
 10
3255.659538175486
 20
200.204166274297
 30
0.0
 40
63.24278074506601
100
AcDbArc
 50
319.753
 51
220.247
  0
CIRCLE
  5
9F
330
6F
100
AcDbEntity
  8
2-0
  6
Continuous
 62
     7
100
AcDbCircle
 10
3255.659538175486
 20
200.204166274297
 30
0.0
 40
71.58304716886799
  0
CIRCLE
  5
A0
330
6F
100
AcDbEntity
  8
2-0
  6
Continuous
 62
     7
100
AcDbCircle
 10
3255.659538175486
 20
200.204166274297
 30
0.0
 40
72.000060490058
  0
CIRCLE
  5
A1
330
6F
100
AcDbEntity
  8
2-0
  6
Continuous
 62
     7
100
AcDbCircle
 10
3255.659538175486
 20
200.204166274297
 30
0.0
 40
72.417073811248
  0
CIRCLE
  5
A2
330
6F
100
AcDbEntity
  8
2-0
  6
Continuous
 62
     7
100
AcDbCircle
 10
3255.659538175486
 20
200.204166274297
 30
0.0
 40
72.834087132438
  0
CIRCLE
  5
A3
330
6F
100
AcDbEntity
  8
2-0
  6
Continuous
 62
     7
100
AcDbCircle
 10
3255.659538175486
 20
200.204166274297
 30
0.0
 40
73.251100453628
  0
CIRCLE
  5
A4
330
6F
100
AcDbEntity
  8
2-0
  6
Continuous
 62
     7
100
AcDbCircle
 10
3255.659538175486
 20
200.204166274297
 30
0.0
 40
73.459607114223
  0
CIRCLE
  5
A5
330
6F
100
AcDbEntity
  8
2-0
  6
Continuous
 62
     7
100
AcDbCircle
 10
3255.659538175486
 20
200.204166274297
 30
0.0
 40
73.04259379303299
  0
CIRCLE
  5
A6
330
6F
100
AcDbEntity
  8
2-0
  6
Continuous
 62
     7
100
AcDbCircle
 10
3255.659538175486
 20
200.204166274297
 30
0.0
 40
72.62558047184301
  0
CIRCLE
  5
A7
330
6F
100
AcDbEntity
  8
2-0
  6
Continuous
 62
     7
100
AcDbCircle
 10
3255.659538175486
 20
200.204166274297
 30
0.0
 40
72.20856715065299
  0
CIRCLE
  5
A8
330
6F
100
AcDbEntity
  8
2-0
  6
Continuous
 62
     7
100
AcDbCircle
 10
3255.659538175486
 20
200.204166274297
 30
0.0
 40
71.791553829463
  0
CIRCLE
  5
A9
330
6F
100
AcDbEntity
  8
2-0
  6
Continuous
 62
     7
100
AcDbCircle
 10
3255.659538175486
 20
200.204166274297
 30
0.0
 40
71.791553829463
  0
ARC
  5
AA
330
6F
100
AcDbEntity
  8
2-0
  6
Continuous
 62
     7
100
AcDbCircle
 10
3255.659538175486
 20
200.204166274297
 30
0.0
 40
63.45128740566099
100
AcDbArc
 50
319.753
 51
220.247
  0
CIRCLE
  5
AB
330
6F
100
AcDbEntity
  8
2-0
  6
Continuous
 62
     7
100
AcDbCircle
 10
3255.659538175486
 20
200.204166274297
 30
0.0
 40
71.374540508273
  0
ARC
  5
AC
330
6F
100
AcDbEntity
  8
2-0
  6
Continuous
 62
     7
100
AcDbCircle
 10
3255.659538175486
 20
200.204166274297
 30
0.0
 40
63.03427408447099
100
AcDbArc
 50
319.753
 51
220.247
  0
TEXT
  5
AD
330
6F
100
AcDbEntity
  8
2-0
 62
     7
100
AcDbText
 10
3216.455
 20
142.198
 30
0.0
 40
48.64
  1
A
100
AcDbText
  0
TEXT
  5
AE
330
6F
100
AcDbEntity
  8
2-0
 62
     7
100
AcDbText
 10
3258.946
 20
142.301
 30
0.0
 40
48.64
  1
I
100
AcDbText
  0
TEXT
  5
AF
330
6F
100
AcDbEntity
  8
2-0
 62
     7
100
AcDbText
 10
3269.344
 20
142.267
 30
0.0
 40
48.64
  1
O
100
AcDbText
  0
LINE
  5
B0
330
6F
100
AcDbEntity
  8
2-0
  6
CENTER
 62
     8
100
AcDbLine
 10
1231.467625
 20
1404.817566
 30
0.0
 11
1575.967625
 21
1094.817566
 31
0.0
  0
LINE
  5
B1
330
6F
100
AcDbEntity
  8
2-0
  6
CENTER
 62
     8
100
AcDbLine
 10
881.4676249999999
 20
1404.817566
 30
0.0
 11
1226.467625
 21
1094.817566
 31
0.0
  0
LINE
  5
B2
330
6F
100
AcDbEntity
  8
2-0
  6
CENTER
 62
     8
100
AcDbLine
 10
879.467625
 20
1404.817566
 30
0.0
 11
534.467625
 21
1094.817566
 31
0.0
  0
LINE
  5
B3
330
6F
100
AcDbEntity
  8
2-0
  6
Continuous
 62
     7
100
AcDbLine
 10
1226.467625
 20
1404.817566
 30
0.0
 11
1226.467625
 21
784.817566
 31
0.0
  0
LINE
  5
B4
330
6F
100
AcDbEntity
  8
2-0
  6
Continuous
 62
     7
100
AcDbLine
 10
1231.467625
 20
1404.817566
 30
0.0
 11
1231.467625
 21
784.817566
 31
0.0
  0
LINE
  5
B5
330
6F
100
AcDbEntity
  8
2-0
  6
Continuous
 62
     7
100
AcDbLine
 10
879.467625
 20
1404.817566
 30
0.0
 11
879.467625
 21
784.817566
 31
0.0
  0
LINE
  5
B6
330
6F
100
AcDbEntity
  8
2-0
  6
Continuous
 62
     7
100
AcDbLine
 10
881.4676249999999
 20
1404.817566
 30
0.0
 11
883.956558
 21
784.817566
 31
0.0
  0
LINE
  5
B7
330
6F
100
AcDbEntity
  8
8-0
  6
Continuous
 62
     4
100
AcDbLine
 10
490.1121459999999
 20
1404.817566
 30
0.0
 11
373.631949
 21
1404.817566
 31
0.0
  0
LINE
  5
B8
330
6F
100
AcDbEntity
  8
8-0
  6
Continuous
 62
     4
100
AcDbLine
 10
514.4676249999999
 20
784.817566
 30
0.0
 11
373.631949
 21
784.817566
 31
0.0
  0
TEXT
  5
B9
330
6F
100
AcDbEntity
  8
8-0
 62
     4
100
AcDbText
 10
373.0119999999999
 20
1061.218
 30
0.0
 40
36.288
  1
620
 50
90.0
100
AcDbText
  0
LINE
  5
BA
330
6F
100
AcDbEntity
  8
8-0
  6
Continuous
 62
     4
100
AcDbLine
 10
373.631949058064
 20
784.8175658422259
 30
0.0
 11
373.6319490580651
 21
1404.817565842227
 31
0.0
  0
CIRCLE
  5
BB
330
6F
100
AcDbEntity
  8
8-0
  6
Continuous
 62
     4
100
AcDbCircle
 10
373.631949058064
 20
784.8175658422259
 30
0.0
 40
0.25
  0
CIRCLE
  5
BC
330
6F
100
AcDbEntity
  8
8-0
  6
Continuous
 62
     4
100
AcDbCircle
 10
373.631949058064
 20
784.8175658422259
 30
0.0
 40
0.1875
  0
CIRCLE
  5
BD
330
6F
100
AcDbEntity
  8
8-0
  6
Continuous
 62
     4
100
AcDbCircle
 10
373.631949058064
 20
784.8175658422259
 30
0.0
 40
0.125
  0
CIRCLE
  5
BE
330
6F
100
AcDbEntity
  8
8-0
  6
Continuous
 62
     4
100
AcDbCircle
 10
373.631949058064
 20
784.8175658422259
 30
0.0
 40
0.0625
  0
CIRCLE
  5
BF
330
6F
100
AcDbEntity
  8
8-0
  6
Continuous
 62
     4
100
AcDbCircle
 10
373.6319490580651
 20
1404.817565842227
 30
0.0
 40
0.25
  0
CIRCLE
  5
C0
330
6F
100
AcDbEntity
  8
8-0
  6
Continuous
 62
     4
100
AcDbCircle
 10
373.6319490580651
 20
1404.817565842227
 30
0.0
 40
0.1875
  0
CIRCLE
  5
C1
330
6F
100
AcDbEntity
  8
8-0
  6
Continuous
 62
     4
100
AcDbCircle
 10
373.6319490580651
 20
1404.817565842227
 30
0.0
 40
0.125
  0
CIRCLE
  5
C2
330
6F
100
AcDbEntity
  8
8-0
  6
Continuous
 62
     4
100
AcDbCircle
 10
373.6319490580651
 20
1404.817565842227
 30
0.0
 40
0.0625
  0
LINE
  5
C3
330
6F
100
AcDbEntity
  8
2-0
  6
DASHED2
 62
     7
100
AcDbLine
 10
1237.967625
 20
824.8175660000001
 30
0.0
 11
1237.967625
 21
1409.817566
 31
0.0
  0
LINE
  5
C4
330
6F
100
AcDbEntity
  8
2-0
  6
DASHED2
 62
     7
100
AcDbLine
 10
1222.967625
 20
824.8175660000001
 30
0.0
 11
1222.967625
 21
1409.817566
 31
0.0
  0
LINE
  5
C5
330
6F
100
AcDbEntity
  8
2-0
  6
Continuous
 62
     7
100
AcDbLine
 10
1575.467625
 20
784.817566
 30
0.0
 11
1576.467625
 21
1404.817566
 31
0.0
  0
LINE
  5
C6
330
6F
100
AcDbEntity
  8
2-0
  6
Continuous
 62
     7
100
AcDbLine
 10
534.467625
 20
1404.817566
 30
0.0
 11
534.467625
 21
784.817566
 31
0.0
  0
LINE
  5
C7
330
6F
100
AcDbEntity
  8
2-0
  6
DASHED2
 62
     7
100
AcDbLine
 10
1568.467625
 20
824.8175660000001
 30
0.0
 11
1568.467625
 21
1409.817566
 31
0.0
  0
LINE
  5
C8
330
6F
100
AcDbEntity
  8
2-0
  6
DASHED2
 62
     7
100
AcDbLine
 10
542.467625
 20
1409.817566
 30
0.0
 11
542.467625
 21
824.8175660000001
 31
0.0
  0
LINE
  5
C9
330
6F
100
AcDbEntity
  8
2-0
  6
Continuous
 62
     7
100
AcDbLine
 10
530.4676249999999
 20
1409.817566
 30
0.0
 11
530.4676249999999
 21
809.817566
 31
0.0
  0
LINE
  5
CA
330
6F
100
AcDbEntity
  8
2-0
  6
Continuous
 62
     7
100
AcDbLine
 10
1580.467625
 20
809.817566
 30
0.0
 11
1580.467625
 21
1409.817566
 31
0.0
  0
LINE
  5
CB
330
6F
100
AcDbEntity
  8
2-0
  6
DASHED2
 62
     7
100
AcDbLine
 10
542.467625
 20
824.8175660000001
 30
0.0
 11
1568.467625
 21
824.8175660000001
 31
0.0
  0
LINE
  5
CC
330
6F
100
AcDbEntity
  8
8-0
  6
Continuous
 62
     4
100
AcDbLine
 10
1580.467625
 20
693.795167
 30
0.0
 11
1580.467625
 21
575.815211
 31
0.0
  0
LINE
  5
CD
330
6F
100
AcDbEntity
  8
8-0
  6
Continuous
 62
     4
100
AcDbLine
 10
530.4676249999999
 20
689.5445959999999
 30
0.0
 11
530.4676249999999
 21
575.815211
 31
0.0
  0
TEXT
  5
CE
330
6F
100
AcDbEntity
  8
8-0
 62
     4
100
AcDbText
 10
1013.49
 20
576.4349999999999
 30
0.0
 40
36.288
  1
1050
100
AcDbText
  0
LINE
  5
CF
330
6F
100
AcDbEntity
  8
8-0
  6
Continuous
 62
     4
100
AcDbLine
 10
530.4676251542409
 20
575.815210895426
 30
0.0
 11
1580.46762515424
 21
575.815210895426
 31
0.0
  0
CIRCLE
  5
D0
330
6F
100
AcDbEntity
  8
8-0
  6
Continuous
 62
     4
100
AcDbCircle
 10
530.4676251542409
 20
575.815210895426
 30
0.0
 40
0.25
  0
CIRCLE
  5
D1
330
6F
100
AcDbEntity
  8
8-0
  6
Continuous
 62
     4
100
AcDbCircle
 10
530.4676251542409
 20
575.815210895426
 30
0.0
 40
0.1875
  0
CIRCLE
  5
D2
330
6F
100
AcDbEntity
  8
8-0
  6
Continuous
 62
     4
100
AcDbCircle
 10
530.4676251542409
 20
575.815210895426
 30
0.0
 40
0.125
  0
CIRCLE
  5
D3
330
6F
100
AcDbEntity
  8
8-0
  6
Continuous
 62
     4
100
AcDbCircle
 10
530.4676251542409
 20
575.815210895426
 30
0.0
 40
0.0625
  0
CIRCLE
  5
D4
330
6F
100
AcDbEntity
  8
8-0
  6
Continuous
 62
     4
100
AcDbCircle
 10
1580.46762515424
 20
575.815210895426
 30
0.0
 40
0.25
  0
CIRCLE
  5
D5
330
6F
100
AcDbEntity
  8
8-0
  6
Continuous
 62
     4
100
AcDbCircle
 10
1580.46762515424
 20
575.815210895426
 30
0.0
 40
0.1875
  0
CIRCLE
  5
D6
330
6F
100
AcDbEntity
  8
8-0
  6
Continuous
 62
     4
100
AcDbCircle
 10
1580.46762515424
 20
575.815210895426
 30
0.0
 40
0.125
  0
CIRCLE
  5
D7
330
6F
100
AcDbEntity
  8
8-0
  6
Continuous
 62
     4
100
AcDbCircle
 10
1580.46762515424
 20
575.815210895426
 30
0.0
 40
0.0625
  0
LINE
  5
D8
330
6F
100
AcDbEntity
  8
8-0
  6
Continuous
 62
     4
100
AcDbLine
 10
1226.467625
 20
755.817566
 30
0.0
 11
1226.467625
 21
675.815211
 31
0.0
  0
LINE
  5
D9
330
6F
100
AcDbEntity
  8
8-0
  6
Continuous
 62
     4
100
AcDbLine
 10
881.4676249999999
 20
740.9557859999999
 30
0.0
 11
881.4676249999999
 21
675.815211
 31
0.0
  0
TEXT
  5
DA
330
6F
100
AcDbEntity
  8
8-0
 62
     4
100
AcDbText
 10
1023.19
 20
676.4349999999999
 30
0.0
 40
36.288
  1
345
100
AcDbText
  0
LINE
  5
DB
330
6F
100
AcDbEntity
  8
8-0
  6
Continuous
 62
     4
100
AcDbLine
 10
881.467625154241
 20
675.815210895426
 30
0.0
 11
1226.467625154241
 21
675.815210895426
 31
0.0
  0
CIRCLE
  5
DC
330
6F
100
AcDbEntity
  8
8-0
  6
Continuous
 62
     4
100
AcDbCircle
 10
881.467625154241
 20
675.815210895426
 30
0.0
 40
0.25
  0
CIRCLE
  5
DD
330
6F
100
AcDbEntity
  8
8-0
  6
Continuous
 62
     4
100
AcDbCircle
 10
881.467625154241
 20
675.815210895426
 30
0.0
 40
0.1875
  0
CIRCLE
  5
DE
330
6F
100
AcDbEntity
  8
8-0
  6
Continuous
 62
     4
100
AcDbCircle
 10
881.467625154241
 20
675.815210895426
 30
0.0
 40
0.125
  0
CIRCLE
  5
DF
330
6F
100
AcDbEntity
  8
8-0
  6
Continuous
 62
     4
100
AcDbCircle
 10
881.467625154241
 20
675.815210895426
 30
0.0
 40
0.0625
  0
CIRCLE
  5
E0
330
6F
100
AcDbEntity
  8
8-0
  6
Continuous
 62
     4
100
AcDbCircle
 10
1226.467625154241
 20
675.815210895426
 30
0.0
 40
0.25
  0
CIRCLE
  5
E1
330
6F
100
AcDbEntity
  8
8-0
  6
Continuous
 62
     4
100
AcDbCircle
 10
1226.467625154241
 20
675.815210895426
 30
0.0
 40
0.1875
  0
CIRCLE
  5
E2
330
6F
100
AcDbEntity
  8
8-0
  6
Continuous
 62
     4
100
AcDbCircle
 10
1226.467625154241
 20
675.815210895426
 30
0.0
 40
0.125
  0
CIRCLE
  5
E3
330
6F
100
AcDbEntity
  8
8-0
  6
Continuous
 62
     4
100
AcDbCircle
 10
1226.467625154241
 20
675.815210895426
 30
0.0
 40
0.0625
  0
LINE
  5
E4
330
6F
100
AcDbEntity
  8
2-0
  6
CENTER
 62
     8
100
AcDbLine
 10
1226.467625
 20
1094.817566
 30
0.0
 11
883.956558
 21
784.817566
 31
0.0
  0
LINE
  5
E5
330
6F
100
AcDbEntity
  8
2-0
  6
DASHED2
 62
     7
100
AcDbLine
 10
1222.967625
 20
1103.817566
 30
0.0
 11
542.467625
 21
1103.817566
 31
0.0
  0
LINE
  5
E6
330
6F
100
AcDbEntity
  8
2-0
  6
DASHED2
 62
     7
100
AcDbLine
 10
1222.967625
 20
1115.817566
 30
0.0
 11
542.467625
 21
1115.817566
 31
0.0
  0
LINE
  5
E7
330
6F
100
AcDbEntity
  8
2-0
  6
DASHED2
 62
     7
100
AcDbLine
 10
1580.467625
 20
809.817566
 30
0.0
 11
530.4676249999999
 21
809.817566
 31
0.0
  0
LINE
  5
E8
330
6F
100
AcDbEntity
  8
8-0
  6
Continuous
 62
     4
100
AcDbLine
 10
879.467625
 20
740.9642869999999
 30
0.0
 11
879.467625
 21
675.815211
 31
0.0
  0
LINE
  5
E9
330
6F
100
AcDbEntity
  8
8-0
  6
Continuous
 62
     4
100
AcDbLine
 10
881.4676249999999
 20
740.9557859999999
 30
0.0
 11
881.4676249999999
 21
675.815211
 31
0.0
  0
TEXT
  5
EA
330
6F
100
AcDbEntity
  8
8-0
 62
     4
100
AcDbText
 10
911.401
 20
608.9349999999999
 30
0.0
 40
36.288
  1
2
100
AcDbText
  0
LINE
  5
EB
330
6F
100
AcDbEntity
  8
8-0
  6
Continuous
 62
     4
100
AcDbLine
 10
881.467625154241
 20
675.815210895426
 30
0.0
 11
879.467625154241
 21
675.815210895426
 31
0.0
  0
CIRCLE
  5
EC
330
6F
100
AcDbEntity
  8
8-0
  6
Continuous
 62
     4
100
AcDbCircle
 10
881.467625154241
 20
675.815210895426
 30
0.0
 40
0.25
  0
CIRCLE
  5
ED
330
6F
100
AcDbEntity
  8
8-0
  6
Continuous
 62
     4
100
AcDbCircle
 10
881.467625154241
 20
675.815210895426
 30
0.0
 40
0.1875
  0
CIRCLE
  5
EE
330
6F
100
AcDbEntity
  8
8-0
  6
Continuous
 62
     4
100
AcDbCircle
 10
881.467625154241
 20
675.815210895426
 30
0.0
 40
0.125
  0
CIRCLE
  5
EF
330
6F
100
AcDbEntity
  8
8-0
  6
Continuous
 62
     4
100
AcDbCircle
 10
881.467625154241
 20
675.815210895426
 30
0.0
 40
0.0625
  0
CIRCLE
  5
F0
330
6F
100
AcDbEntity
  8
8-0
  6
Continuous
 62
     4
100
AcDbCircle
 10
879.467625154241
 20
675.815210895426
 30
0.0
 40
0.25
  0
CIRCLE
  5
F1
330
6F
100
AcDbEntity
  8
8-0
  6
Continuous
 62
     4
100
AcDbCircle
 10
879.467625154241
 20
675.815210895426
 30
0.0
 40
0.1875
  0
CIRCLE
  5
F2
330
6F
100
AcDbEntity
  8
8-0
  6
Continuous
 62
     4
100
AcDbCircle
 10
879.467625154241
 20
675.815210895426
 30
0.0
 40
0.125
  0
CIRCLE
  5
F3
330
6F
100
AcDbEntity
  8
8-0
  6
Continuous
 62
     4
100
AcDbCircle
 10
879.467625154241
 20
675.815210895426
 30
0.0
 40
0.0625
  0
LINE
  5
F4
330
6F
100
AcDbEntity
  8
8-0
  6
Continuous
 62
     4
100
AcDbLine
 10
530.4676249999999
 20
740.775887
 30
0.0
 11
530.4676249999999
 21
675.815211
 31
0.0
  0
LINE
  5
F5
330
6F
100
AcDbEntity
  8
8-0
  6
Continuous
 62
     4
100
AcDbLine
 10
534.467625
 20
755.817566
 30
0.0
 11
534.467625
 21
675.815211
 31
0.0
  0
TEXT
  5
F6
330
6F
100
AcDbEntity
  8
8-0
 62
     4
100
AcDbText
 10
564.2
 20
608.9349999999999
 30
0.0
 40
36.288
  1
4
100
AcDbText
  0
LINE
  5
F7
330
6F
100
AcDbEntity
  8
8-0
  6
Continuous
 62
     4
100
AcDbLine
 10
534.4676251542409
 20
675.815210895426
 30
0.0
 11
530.4676251542409
 21
675.815210895426
 31
0.0
  0
CIRCLE
  5
F8
330
6F
100
AcDbEntity
  8
8-0
  6
Continuous
 62
     4
100
AcDbCircle
 10
534.4676251542409
 20
675.815210895426
 30
0.0
 40
0.25
  0
CIRCLE
  5
F9
330
6F
100
AcDbEntity
  8
8-0
  6
Continuous
 62
     4
100
AcDbCircle
 10
534.4676251542409
 20
675.815210895426
 30
0.0
 40
0.1875
  0
CIRCLE
  5
FA
330
6F
100
AcDbEntity
  8
8-0
  6
Continuous
 62
     4
100
AcDbCircle
 10
534.4676251542409
 20
675.815210895426
 30
0.0
 40
0.125
  0
CIRCLE
  5
FB
330
6F
100
AcDbEntity
  8
8-0
  6
Continuous
 62
     4
100
AcDbCircle
 10
534.4676251542409
 20
675.815210895426
 30
0.0
 40
0.0625
  0
CIRCLE
  5
FC
330
6F
100
AcDbEntity
  8
8-0
  6
Continuous
 62
     4
100
AcDbCircle
 10
530.4676251542409
 20
675.815210895426
 30
0.0
 40
0.25
  0
CIRCLE
  5
FD
330
6F
100
AcDbEntity
  8
8-0
  6
Continuous
 62
     4
100
AcDbCircle
 10
530.4676251542409
 20
675.815210895426
 30
0.0
 40
0.1875
  0
CIRCLE
  5
FE
330
6F
100
AcDbEntity
  8
8-0
  6
Continuous
 62
     4
100
AcDbCircle
 10
530.4676251542409
 20
675.815210895426
 30
0.0
 40
0.125
  0
CIRCLE
  5
FF
330
6F
100
AcDbEntity
  8
8-0
  6
Continuous
 62
     4
100
AcDbCircle
 10
530.4676251542409
 20
675.815210895426
 30
0.0
 40
0.0625
  0
LINE
  5
100
330
6F
100
AcDbEntity
  8
8-0
  6
Continuous
 62
     4
100
AcDbLine
 10
879.467625
 20
740.9642869999999
 30
0.0
 11
879.467625
 21
675.815211
 31
0.0
  0
LINE
  5
101
330
6F
100
AcDbEntity
  8
8-0
  6
Continuous
 62
     4
100
AcDbLine
 10
534.467625
 20
745.8175660000001
 30
0.0
 11
534.467625
 21
675.815211
 31
0.0
  0
TEXT
  5
102
330
6F
100
AcDbEntity
  8
8-0
 62
     4
100
AcDbText
 10
676.19
 20
676.4349999999999
 30
0.0
 40
36.288
  1
345
100
AcDbText
  0
LINE
  5
103
330
6F
100
AcDbEntity
  8
8-0
  6
Continuous
 62
     4
100
AcDbLine
 10
534.4676251542409
 20
675.815210895426
 30
0.0
 11
879.467625154241
 21
675.815210895426
 31
0.0
  0
CIRCLE
  5
104
330
6F
100
AcDbEntity
  8
8-0
  6
Continuous
 62
     4
100
AcDbCircle
 10
534.4676251542409
 20
675.815210895426
 30
0.0
 40
0.25
  0
CIRCLE
  5
105
330
6F
100
AcDbEntity
  8
8-0
  6
Continuous
 62
     4
100
AcDbCircle
 10
534.4676251542409
 20
675.815210895426
 30
0.0
 40
0.1875
  0
CIRCLE
  5
106
330
6F
100
AcDbEntity
  8
8-0
  6
Continuous
 62
     4
100
AcDbCircle
 10
534.4676251542409
 20
675.815210895426
 30
0.0
 40
0.125
  0
CIRCLE
  5
107
330
6F
100
AcDbEntity
  8
8-0
  6
Continuous
 62
     4
100
AcDbCircle
 10
534.4676251542409
 20
675.815210895426
 30
0.0
 40
0.0625
  0
CIRCLE
  5
108
330
6F
100
AcDbEntity
  8
8-0
  6
Continuous
 62
     4
100
AcDbCircle
 10
879.467625154241
 20
675.815210895426
 30
0.0
 40
0.25
  0
CIRCLE
  5
109
330
6F
100
AcDbEntity
  8
8-0
  6
Continuous
 62
     4
100
AcDbCircle
 10
879.467625154241
 20
675.815210895426
 30
0.0
 40
0.1875
  0
CIRCLE
  5
10A
330
6F
100
AcDbEntity
  8
8-0
  6
Continuous
 62
     4
100
AcDbCircle
 10
879.467625154241
 20
675.815210895426
 30
0.0
 40
0.125
  0
CIRCLE
  5
10B
330
6F
100
AcDbEntity
  8
8-0
  6
Continuous
 62
     4
100
AcDbCircle
 10
879.467625154241
 20
675.815210895426
 30
0.0
 40
0.0625
  0
LINE
  5
10C
330
6F
100
AcDbEntity
  8
2-0
  6
CENTER
 62
     8
100
AcDbLine
 10
534.467625
 20
1094.817566
 30
0.0
 11
879.467625
 21
784.817566
 31
0.0
  0
LINE
  5
10D
330
6F
100
AcDbEntity
  8
2-0
  6
Continuous
 62
     7
100
AcDbLine
 10
879.467625
 20
784.817566
 30
0.0
 11
534.467625
 21
784.817566
 31
0.0
  0
LINE
  5
10E
330
6F
100
AcDbEntity
  8
8-0
  6
Continuous
 62
     4
100
AcDbLine
 10
1576.467625
 20
755.817566
 30
0.0
 11
1576.467625
 21
675.815211
 31
0.0
  0
LINE
  5
10F
330
6F
100
AcDbEntity
  8
8-0
  6
Continuous
 62
     4
100
AcDbLine
 10
1580.467625
 20
743.693153
 30
0.0
 11
1580.467625
 21
675.815211
 31
0.0
  0
TEXT
  5
110
330
6F
100
AcDbEntity
  8
8-0
 62
     4
100
AcDbText
 10
1610.2
 20
608.9349999999999
 30
0.0
 40
36.288
  1
4
100
AcDbText
  0
LINE
  5
111
330
6F
100
AcDbEntity
  8
8-0
  6
Continuous
 62
     4
100
AcDbLine
 10
1580.46762515424
 20
675.815210895426
 30
0.0
 11
1576.46762515424
 21
675.815210895426
 31
0.0
  0
CIRCLE
  5
112
330
6F
100
AcDbEntity
  8
8-0
  6
Continuous
 62
     4
100
AcDbCircle
 10
1580.46762515424
 20
675.815210895426
 30
0.0
 40
0.25
  0
CIRCLE
  5
113
330
6F
100
AcDbEntity
  8
8-0
  6
Continuous
 62
     4
100
AcDbCircle
 10
1580.46762515424
 20
675.815210895426
 30
0.0
 40
0.1875
  0
CIRCLE
  5
114
330
6F
100
AcDbEntity
  8
8-0
  6
Continuous
 62
     4
100
AcDbCircle
 10
1580.46762515424
 20
675.815210895426
 30
0.0
 40
0.125
  0
CIRCLE
  5
115
330
6F
100
AcDbEntity
  8
8-0
  6
Continuous
 62
     4
100
AcDbCircle
 10
1580.46762515424
 20
675.815210895426
 30
0.0
 40
0.0625
  0
CIRCLE
  5
116
330
6F
100
AcDbEntity
  8
8-0
  6
Continuous
 62
     4
100
AcDbCircle
 10
1576.46762515424
 20
675.815210895426
 30
0.0
 40
0.25
  0
CIRCLE
  5
117
330
6F
100
AcDbEntity
  8
8-0
  6
Continuous
 62
     4
100
AcDbCircle
 10
1576.46762515424
 20
675.815210895426
 30
0.0
 40
0.1875
  0
CIRCLE
  5
118
330
6F
100
AcDbEntity
  8
8-0
  6
Continuous
 62
     4
100
AcDbCircle
 10
1576.46762515424
 20
675.815210895426
 30
0.0
 40
0.125
  0
CIRCLE
  5
119
330
6F
100
AcDbEntity
  8
8-0
  6
Continuous
 62
     4
100
AcDbCircle
 10
1576.46762515424
 20
675.815210895426
 30
0.0
 40
0.0625
  0
LINE
  5
11A
330
6F
100
AcDbEntity
  8
8-0
  6
Continuous
 62
     4
100
AcDbLine
 10
1226.467625
 20
745.8175660000001
 30
0.0
 11
1226.467625
 21
675.815211
 31
0.0
  0
LINE
  5
11B
330
6F
100
AcDbEntity
  8
8-0
  6
Continuous
 62
     4
100
AcDbLine
 10
1231.467625
 20
742.33297
 30
0.0
 11
1231.467625
 21
675.815211
 31
0.0
  0
TEXT
  5
11C
330
6F
100
AcDbEntity
  8
8-0
 62
     4
100
AcDbText
 10
1259.901
 20
608.9349999999999
 30
0.0
 40
36.288
  1
5
100
AcDbText
  0
LINE
  5
11D
330
6F
100
AcDbEntity
  8
8-0
  6
Continuous
 62
     4
100
AcDbLine
 10
1231.46762515424
 20
675.815210895426
 30
0.0
 11
1226.467625154241
 21
675.815210895426
 31
0.0
  0
CIRCLE
  5
11E
330
6F
100
AcDbEntity
  8
8-0
  6
Continuous
 62
     4
100
AcDbCircle
 10
1231.46762515424
 20
675.815210895426
 30
0.0
 40
0.25
  0
CIRCLE
  5
11F
330
6F
100
AcDbEntity
  8
8-0
  6
Continuous
 62
     4
100
AcDbCircle
 10
1231.46762515424
 20
675.815210895426
 30
0.0
 40
0.1875
  0
CIRCLE
  5
120
330
6F
100
AcDbEntity
  8
8-0
  6
Continuous
 62
     4
100
AcDbCircle
 10
1231.46762515424
 20
675.815210895426
 30
0.0
 40
0.125
  0
CIRCLE
  5
121
330
6F
100
AcDbEntity
  8
8-0
  6
Continuous
 62
     4
100
AcDbCircle
 10
1231.46762515424
 20
675.815210895426
 30
0.0
 40
0.0625
  0
CIRCLE
  5
122
330
6F
100
AcDbEntity
  8
8-0
  6
Continuous
 62
     4
100
AcDbCircle
 10
1226.467625154241
 20
675.815210895426
 30
0.0
 40
0.25
  0
CIRCLE
  5
123
330
6F
100
AcDbEntity
  8
8-0
  6
Continuous
 62
     4
100
AcDbCircle
 10
1226.467625154241
 20
675.815210895426
 30
0.0
 40
0.1875
  0
CIRCLE
  5
124
330
6F
100
AcDbEntity
  8
8-0
  6
Continuous
 62
     4
100
AcDbCircle
 10
1226.467625154241
 20
675.815210895426
 30
0.0
 40
0.125
  0
CIRCLE
  5
125
330
6F
100
AcDbEntity
  8
8-0
  6
Continuous
 62
     4
100
AcDbCircle
 10
1226.467625154241
 20
675.815210895426
 30
0.0
 40
0.0625
  0
LINE
  5
126
330
6F
100
AcDbEntity
  8
8-0
  6
Continuous
 62
     4
100
AcDbLine
 10
1576.467625
 20
755.817566
 30
0.0
 11
1576.467625
 21
675.815211
 31
0.0
  0
LINE
  5
127
330
6F
100
AcDbEntity
  8
8-0
  6
Continuous
 62
     4
100
AcDbLine
 10
1231.467625
 20
742.33297
 30
0.0
 11
1231.467625
 21
675.815211
 31
0.0
  0
TEXT
  5
128
330
6F
100
AcDbEntity
  8
8-0
 62
     4
100
AcDbText
 10
1373.19
 20
676.4349999999999
 30
0.0
 40
36.288
  1
345
100
AcDbText
  0
LINE
  5
129
330
6F
100
AcDbEntity
  8
8-0
  6
Continuous
 62
     4
100
AcDbLine
 10
1231.46762515424
 20
675.815210895426
 30
0.0
 11
1576.46762515424
 21
675.815210895426
 31
0.0
  0
CIRCLE
  5
12A
330
6F
100
AcDbEntity
  8
8-0
  6
Continuous
 62
     4
100
AcDbCircle
 10
1231.46762515424
 20
675.815210895426
 30
0.0
 40
0.25
  0
CIRCLE
  5
12B
330
6F
100
AcDbEntity
  8
8-0
  6
Continuous
 62
     4
100
AcDbCircle
 10
1231.46762515424
 20
675.815210895426
 30
0.0
 40
0.1875
  0
CIRCLE
  5
12C
330
6F
100
AcDbEntity
  8
8-0
  6
Continuous
 62
     4
100
AcDbCircle
 10
1231.46762515424
 20
675.815210895426
 30
0.0
 40
0.125
  0
CIRCLE
  5
12D
330
6F
100
AcDbEntity
  8
8-0
  6
Continuous
 62
     4
100
AcDbCircle
 10
1231.46762515424
 20
675.815210895426
 30
0.0
 40
0.0625
  0
CIRCLE
  5
12E
330
6F
100
AcDbEntity
  8
8-0
  6
Continuous
 62
     4
100
AcDbCircle
 10
1576.46762515424
 20
675.815210895426
 30
0.0
 40
0.25
  0
CIRCLE
  5
12F
330
6F
100
AcDbEntity
  8
8-0
  6
Continuous
 62
     4
100
AcDbCircle
 10
1576.46762515424
 20
675.815210895426
 30
0.0
 40
0.1875
  0
CIRCLE
  5
130
330
6F
100
AcDbEntity
  8
8-0
  6
Continuous
 62
     4
100
AcDbCircle
 10
1576.46762515424
 20
675.815210895426
 30
0.0
 40
0.125
  0
CIRCLE
  5
131
330
6F
100
AcDbEntity
  8
8-0
  6
Continuous
 62
     4
100
AcDbCircle
 10
1576.46762515424
 20
675.815210895426
 30
0.0
 40
0.0625
  0
LINE
  5
132
330
6F
100
AcDbEntity
  8
2-0
  6
CENTER
 62
     8
100
AcDbLine
 10
1575.967625
 20
1094.817566
 30
0.0
 11
1231.467625
 21
784.817566
 31
0.0
  0
LINE
  5
133
330
6F
100
AcDbEntity
  8
2-0
  6
Continuous
 62
     7
100
AcDbLine
 10
1575.467625
 20
784.817566
 30
0.0
 11
1231.467625
 21
784.817566
 31
0.0
  0
LINE
  5
134
330
6F
100
AcDbEntity
  8
8-0
  6
Continuous
 62
     4
100
AcDbLine
 10
490.1121459999999
 20
1404.817566
 30
0.0
 11
373.631949
 21
1404.817566
 31
0.0
  0
LINE
  5
135
330
6F
100
AcDbEntity
  8
8-0
  6
Continuous
 62
     4
100
AcDbLine
 10
490.096735
 20
1409.817566
 30
0.0
 11
373.631949
 21
1409.817566
 31
0.0
  0
TEXT
  5
136
330
6F
100
AcDbEntity
  8
8-0
 62
     4
100
AcDbText
 10
340.512
 20
1424.928
 30
0.0
 40
36.288
  1
5
 50
90.0
100
AcDbText
  0
LINE
  5
137
330
6F
100
AcDbEntity
  8
8-0
  6
Continuous
 62
     4
100
AcDbLine
 10
373.631949058064
 20
1409.817565842226
 30
0.0
 11
373.631949058064
 21
1404.817565842227
 31
0.0
  0
CIRCLE
  5
138
330
6F
100
AcDbEntity
  8
8-0
  6
Continuous
 62
     4
100
AcDbCircle
 10
373.631949058064
 20
1409.817565842226
 30
0.0
 40
0.25
  0
CIRCLE
  5
139
330
6F
100
AcDbEntity
  8
8-0
  6
Continuous
 62
     4
100
AcDbCircle
 10
373.631949058064
 20
1409.817565842226
 30
0.0
 40
0.1875
  0
CIRCLE
  5
13A
330
6F
100
AcDbEntity
  8
8-0
  6
Continuous
 62
     4
100
AcDbCircle
 10
373.631949058064
 20
1409.817565842226
 30
0.0
 40
0.125
  0
CIRCLE
  5
13B
330
6F
100
AcDbEntity
  8
8-0
  6
Continuous
 62
     4
100
AcDbCircle
 10
373.631949058064
 20
1409.817565842226
 30
0.0
 40
0.0625
  0
CIRCLE
  5
13C
330
6F
100
AcDbEntity
  8
8-0
  6
Continuous
 62
     4
100
AcDbCircle
 10
373.631949058064
 20
1404.817565842227
 30
0.0
 40
0.25
  0
CIRCLE
  5
13D
330
6F
100
AcDbEntity
  8
8-0
  6
Continuous
 62
     4
100
AcDbCircle
 10
373.631949058064
 20
1404.817565842227
 30
0.0
 40
0.1875
  0
CIRCLE
  5
13E
330
6F
100
AcDbEntity
  8
8-0
  6
Continuous
 62
     4
100
AcDbCircle
 10
373.631949058064
 20
1404.817565842227
 30
0.0
 40
0.125
  0
CIRCLE
  5
13F
330
6F
100
AcDbEntity
  8
8-0
  6
Continuous
 62
     4
100
AcDbCircle
 10
373.631949058064
 20
1404.817565842227
 30
0.0
 40
0.0625
  0
LINE
  5
140
330
6F
100
AcDbEntity
  8
2-0
  6
Continuous
 62
     7
100
AcDbLine
 10
1225.467625
 20
1404.817566
 30
0.0
 11
881.4676249999999
 21
1404.817566
 31
0.0
  0
LINE
  5
141
330
6F
100
AcDbEntity
  8
2-0
  6
DASHED2
 62
     7
100
AcDbLine
 10
1222.967625
 20
1392.117566
 30
0.0
 11
542.467625
 21
1392.117566
 31
0.0
  0
LINE
  5
142
330
6F
100
AcDbEntity
  8
2-0
  6
Continuous
 62
     7
100
AcDbLine
 10
1580.467625
 20
1409.817566
 30
0.0
 11
530.4676249999999
 21
1409.817566
 31
0.0
  0
LINE
  5
143
330
6F
100
AcDbEntity
  8
2-0
  6
Continuous
 62
     7
100
AcDbLine
 10
879.467625
 20
1404.817566
 30
0.0
 11
534.467625
 21
1404.817566
 31
0.0
  0
LINE
  5
144
330
6F
100
AcDbEntity
  8
2-0
  6
DASHED2
 62
     7
100
AcDbLine
 10
1568.467625
 20
1392.117566
 30
0.0
 11
1237.967625
 21
1392.117566
 31
0.0
  0
LINE
  5
145
330
6F
100
AcDbEntity
  8
2-0
  6
Continuous
 62
     7
100
AcDbLine
 10
1575.467625
 20
1404.817566
 30
0.0
 11
1231.467625
 21
1404.817566
 31
0.0
  0
CIRCLE
  5
146
330
6F
100
AcDbEntity
  8
2-0
  6
CENTER
 62
     7
100
AcDbCircle
 10
1571.385902299147
 20
825.8387959541979
 30
0.0
 40
35.65880700000001
  0
TEXT
  5
147
330
6F
100
AcDbEntity
  8
2-0
 62
     7
100
AcDbText
 10
1623.492
 20
759.7699999999999
 30
0.0
 40
25.92
  1
A
100
AcDbText
  0
CIRCLE
  5
148
330
6F
100
AcDbEntity
  8
2-0
  6
CENTER
 62
     7
100
AcDbCircle
 10
537.561079364642
 20
828.0880636818988
 30
0.0
 40
35.65880700000001
  0
TEXT
  5
149
330
6F
100
AcDbEntity
  8
2-0
 62
     7
100
AcDbText
 10
589.6669999999999
 20
762.0189999999999
 30
0.0
 40
25.92
  1
A
100
AcDbText
  0
LINE
  5
14A
330
6F
100
AcDbEntity
  8
2-0
  6
Continuous
 62
     7
100
AcDbLine
 10
2092.084358
 20
1409.817566
 30
0.0
 11
2437.084358
 21
1409.817566
 31
0.0
  0
TEXT
  5
14B
330
6F
100
AcDbEntity
  8
D-0
 62
     5
100
AcDbText
 10
3334.771
 20
766.5149999999999
 30
0.0
 40
20.736
  1
火山性ガラス質複層板 6t（化粧仕上）
100
AcDbText
  0
LINE
  5
14C
330
6F
100
AcDbEntity
  8
2-0
  6
Continuous
 62
     7
100
AcDbLine
 10
3251.133384126273
 20
868.640733509328
 30
0.0
 11
3313.158113065108
 21
758.1253019947
 31
0.0
  0
LINE
  5
14D
330
6F
100
AcDbEntity
  8
2-0
  6
Continuous
 62
     7
100
AcDbLine
 10
3313.158113065108
 20
758.1253019947
 30
0.0
 11
3801.702485359481
 21
758.1253019947
 31
0.0
  0
LINE
  5
14E
330
6F
100
AcDbEntity
  8
2-0
  6
Continuous
 62
     7
100
AcDbLine
 10
3347.01883
 20
1151.386472
 30
0.0
 11
3432.01883
 21
1151.386472
 31
0.0
  0
LINE
  5
14F
330
6F
100
AcDbEntity
  8
2-0
  6
Continuous
 62
     7
100
AcDbLine
 10
3079.139737
 20
857.3740519999999
 30
0.0
 11
3432.01883
 21
857.3740519999999
 31
0.0
  0
LINE
  5
150
330
6F
100
AcDbEntity
  8
2-0
  6
Continuous
 62
     7
100
AcDbLine
 10
3079.139737
 20
887.374052
 30
0.0
 11
3387.018830000001
 21
887.374052
 31
0.0
  0
LINE
  5
151
330
6F
100
AcDbEntity
  8
2-0
  6
Continuous
 62
     7
100
AcDbLine
 10
3079.139737
 20
944.8740519999999
 30
0.0
 11
3079.139737
 21
857.3740519999999
 31
0.0
  0
LINE
  5
152
330
6F
100
AcDbEntity
  8
2-0
  6
Continuous
 62
     7
100
AcDbLine
 10
3363.168310000001
 20
887.374052
 30
0.0
 11
3363.168310000001
 21
1151.386472
 31
0.0
  0
LINE
  5
153
330
6F
100
AcDbEntity
  8
2-0
  6
Continuous
 62
     7
100
AcDbLine
 10
3347.01883
 20
887.374052
 30
0.0
 11
3347.01883
 21
1151.386472
 31
0.0
  0
LINE
  5
154
330
6F
100
AcDbEntity
  8
2-0
  6
Continuous
 62
     7
100
AcDbLine
 10
3359.518830000001
 20
887.374052
 30
0.0
 11
3359.518830000001
 21
1151.386472
 31
0.0
  0
TEXT
  5
155
330
6F
100
AcDbEntity
  8
D-0
 62
     5
100
AcDbText
 10
3012.461
 20
1009.876
 30
0.0
 40
20.736
  1
パーチクルボード
100
AcDbText
  0
LINE
  5
156
330
6F
100
AcDbEntity
  8
2-0
  6
Continuous
 62
     7
100
AcDbLine
 10
3293.881256509082
 20
911.238910634726
 30
0.0
 11
3235.648351575875
 21
1001.997022162719
 31
0.0
  0
LINE
  5
157
330
6F
100
AcDbEntity
  8
2-0
  6
Continuous
 62
     7
100
AcDbLine
 10
3235.648351575875
 20
1001.997022162719
 30
0.0
 11
3005.534715212239
 21
1001.997022162719
 31
0.0
  0
LINE
  5
158
330
6F
100
AcDbEntity
  8
2-0
  6
Continuous
 62
     7
100
AcDbLine
 10
3079.139737
 20
932.3740519999999
 30
0.0
 11
3347.01883
 21
932.3740519999999
 31
0.0
  0
LINE
  5
159
330
6F
100
AcDbEntity
  8
2-0
  6
Continuous
 62
     7
100
AcDbLine
 10
3079.139737
 20
944.8740519999999
 30
0.0
 11
3347.01883
 21
944.8740519999999
 31
0.0
  0
LINE
  5
15A
330
6F
100
AcDbEntity
  8
2-0
  6
Continuous
 62
     7
100
AcDbLine
 10
3387.018830000001
 20
857.3740519999999
 30
0.0
 11
3387.018830000001
 21
1151.386472
 31
0.0
  0
LINE
  5
15B
330
6F
100
AcDbEntity
  8
2-0
  6
Continuous
 62
     7
100
AcDbLine
 10
3432.01883
 20
857.3740519999999
 30
0.0
 11
3432.01883
 21
1151.386472
 31
0.0
  0
TEXT
  5
15C
330
6F
100
AcDbEntity
  8
D-0
 62
     5
100
AcDbText
 10
3350.524
 20
718.7610000000001
 30
0.0
 40
20.736
  1
(不燃認定品)
100
AcDbText
  0
LINE
  5
15D
330
6F
100
AcDbEntity
  8
2-0
  6
Continuous
 62
     7
100
AcDbLine
 10
3383.16831
 20
887.374052
 30
0.0
 11
3383.16831
 21
1151.386472
 31
0.0
  0
LINE
  5
15E
330
6F
100
AcDbEntity
  8
2-0
  6
Continuous
 62
     7
100
AcDbLine
 10
3378.16831
 20
887.374052
 30
0.0
 11
3378.16831
 21
1151.386472
 31
0.0
  0
LINE
  5
15F
330
6F
100
AcDbEntity
  8
2-0
  6
Continuous
 62
     7
100
AcDbLine
 10
3373.16831
 20
887.374052
 30
0.0
 11
3373.16831
 21
1151.386472
 31
0.0
  0
LINE
  5
160
330
6F
100
AcDbEntity
  8
2-0
  6
Continuous
 62
     7
100
AcDbLine
 10
3368.16831
 20
887.374052
 30
0.0
 11
3368.16831
 21
1151.386472
 31
0.0
  0
LINE
  5
161
330
6F
100
AcDbEntity
  8
2-0
  6
Continuous
 62
     7
100
AcDbLine
 10
3369.957966192994
 20
1022.345064989724
 30
0.0
 11
3311.725061259787
 21
1114.012267426808
 31
0.0
  0
LINE
  5
162
330
6F
100
AcDbEntity
  8
2-0
  6
Continuous
 62
     7
100
AcDbLine
 10
3311.725061259787
 20
1114.012267426808
 30
0.0
 11
3136.043243077969
 21
1114.012267426808
 31
0.0
  0
TEXT
  5
163
330
6F
100
AcDbEntity
  8
D-0
 62
     5
100
AcDbText
 10
3139.738
 20
1120.982
 30
0.0
 40
20.736
  1
ラワンベニヤ
100
AcDbText
  0
LINE
  5
164
330
6F
100
AcDbEntity
  8
2-0
  6
Continuous
 62
     7
100
AcDbLine
 10
3417.450083817942
 20
1025.993410241768
 30
0.0
 11
3479.474812756777
 21
915.4779787271358
 31
0.0
  0
LINE
  5
165
330
6F
100
AcDbEntity
  8
2-0
  6
Continuous
 62
     7
100
AcDbLine
 10
3479.474812756777
 20
915.4779787271358
 30
0.0
 11
3968.01918505115
 21
915.4779787271358
 31
0.0
  0
TEXT
  5
166
330
6F
100
AcDbEntity
  8
D-0
 62
     5
100
AcDbText
 10
3501.088
 20
923.868
 30
0.0
 40
20.736
  1
火山性ガラス質複層板 9t（化粧仕上）
100
AcDbText
  0
TEXT
  5
167
330
6F
100
AcDbEntity
  8
D-0
 62
     5
100
AcDbText
 10
3516.841
 20
876.1139999999999
 30
0.0
 40
20.736
  1
(不燃認定品)
100
AcDbText
  0
TEXT
  5
168
330
6F
100
AcDbEntity
  8
D-0
 62
     5
100
AcDbText
 10
3327.66
 20
623.7519999999999
 30
0.0
 40
25.92
  1
Ａ部 詳細図
100
AcDbText
  0
LINE
  5
169
330
6F
100
AcDbEntity
  8
2-0
  6
Continuous
 62
     7
100
AcDbLine
 10
3248.575132
 20
664.148235
 30
0.0
 11
3581.355660000001
 21
664.148235
 31
0.0
  0
LINE
  5
16A
330
6F
100
AcDbEntity
  8
2-0
  6
Continuous
 62
     7
100
AcDbLine
 10
3248.575132
 20
614.148235
 30
0.0
 11
3581.355660000001
 21
614.148235
 31
0.0
  0
LINE
  5
16B
330
6F
100
AcDbEntity
  8
2-0
  6
Continuous
 62
     7
100
AcDbLine
 10
3248.575132
 20
664.148235
 30
0.0
 11
3248.575132
 21
614.148235
 31
0.0
  0
LINE
  5
16C
330
6F
100
AcDbEntity
  8
2-0
  6
Continuous
 62
     7
100
AcDbLine
 10
3581.355660000001
 20
664.148235
 30
0.0
 11
3581.355660000001
 21
614.148235
 31
0.0
  0
LINE
  5
16D
330
6F
100
AcDbEntity
  8
2-0
  6
Continuous
 62
     7
100
AcDbLine
 10
2824.879484
 20
1369.934631
 30
0.0
 11
2824.879484
 21
639.148235
 31
0.0
  0
LINE
  5
16E
330
6F
100
AcDbEntity
  8
2-0
  6
Continuous
 62
     7
100
AcDbLine
 10
2824.879484
 20
1369.934631
 30
0.0
 11
4032.839867
 21
1369.934631
 31
0.0
  0
LINE
  5
16F
330
6F
100
AcDbEntity
  8
2-0
  6
Continuous
 62
     7
100
AcDbLine
 10
2824.879484
 20
639.148235
 30
0.0
 11
3248.575132
 21
639.148235
 31
0.0
  0
LINE
  5
170
330
6F
100
AcDbEntity
  8
2-0
  6
Continuous
 62
     7
100
AcDbLine
 10
4032.839867
 20
1369.934631
 30
0.0
 11
4032.839867
 21
639.148235
 31
0.0
  0
LINE
  5
171
330
6F
100
AcDbEntity
  8
2-0
  6
Continuous
 62
     7
100
AcDbLine
 10
3581.355660000001
 20
639.148235
 30
0.0
 11
4032.839867
 21
639.148235
 31
0.0
  0
LINE
  5
172
330
6F
100
AcDbEntity
  8
2-0
  6
Continuous
 62
     4
100
AcDbLine
 10
3089.173427
 20
887.374052
 30
0.0
 11
2993.905342
 21
887.374052
 31
0.0
  0
LINE
  5
173
330
6F
100
AcDbEntity
  8
2-0
  6
Continuous
 62
     4
100
AcDbLine
 10
3089.04591
 20
857.3740519999999
 30
0.0
 11
2993.905342
 21
857.3740519999999
 31
0.0
  0
LINE
  5
174
330
6F
100
AcDbEntity
  8
2-0
  6
Continuous
 62
     4
100
AcDbLine
 10
2993.905342
 20
897.3740519999999
 30
0.0
 11
2993.905342
 21
907.3740519999999
 31
0.0
  0
LINE
  5
175
330
6F
100
AcDbEntity
  8
2-0
  6
Continuous
 62
     4
100
AcDbLine
 10
2993.905342
 20
847.3740519999999
 30
0.0
 11
2993.905342
 21
837.374052
 31
0.0
  0
TEXT
  5
176
330
6F
100
AcDbEntity
  8
2-0
 62
     4
100
AcDbText
 10
2990.605
 20
864.3739999999999
 30
0.0
 40
25.92
  1
6
 50
90.0
100
AcDbText
  0
LINE
  5
177
330
6F
100
AcDbEntity
  8
2-0
  6
Continuous
 62
     4
100
AcDbLine
 10
2993.905342
 20
887.374052
 30
0.0
 11
2993.905342
 21
857.3740519999999
 31
0.0
  0
CIRCLE
  5
178
330
6F
100
AcDbEntity
  8
2-0
  6
Continuous
 62
     4
100
AcDbCircle
 10
2993.905341964075
 20
887.3740524051468
 30
0.0
 40
0.25
  0
CIRCLE
  5
179
330
6F
100
AcDbEntity
  8
2-0
  6
Continuous
 62
     4
100
AcDbCircle
 10
2993.905341964075
 20
887.3740524051468
 30
0.0
 40
0.1875
  0
CIRCLE
  5
17A
330
6F
100
AcDbEntity
  8
2-0
  6
Continuous
 62
     4
100
AcDbCircle
 10
2993.905341964075
 20
887.3740524051468
 30
0.0
 40
0.125
  0
CIRCLE
  5
17B
330
6F
100
AcDbEntity
  8
2-0
  6
Continuous
 62
     4
100
AcDbCircle
 10
2993.905341964075
 20
887.3740524051468
 30
0.0
 40
0.0625
  0
ARC
  5
17C
330
6F
100
AcDbEntity
  8
2-0
 62
     4
100
AcDbCircle
 10
2993.910341964075
 20
887.3740524051468
 30
0.0
 40
2.5
100
AcDbArc
 50
270.1145914065301
 51
90.11459140594496
  0
LINE
  5
17D
330
6F
100
AcDbEntity
  8
2-0
 62
     4
100
AcDbLine
 10
2993.905341963999
 20
892.3740524051469
 30
0.0
 11
2993.905341963922
 21
897.374052405147
 31
0.0
  0
CIRCLE
  5
17E
330
6F
100
AcDbEntity
  8
2-0
  6
Continuous
 62
     4
100
AcDbCircle
 10
2993.905341964075
 20
857.3740524051469
 30
0.0
 40
0.25
  0
CIRCLE
  5
17F
330
6F
100
AcDbEntity
  8
2-0
  6
Continuous
 62
     4
100
AcDbCircle
 10
2993.905341964075
 20
857.3740524051469
 30
0.0
 40
0.1875
  0
CIRCLE
  5
180
330
6F
100
AcDbEntity
  8
2-0
  6
Continuous
 62
     4
100
AcDbCircle
 10
2993.905341964075
 20
857.3740524051469
 30
0.0
 40
0.125
  0
CIRCLE
  5
181
330
6F
100
AcDbEntity
  8
2-0
  6
Continuous
 62
     4
100
AcDbCircle
 10
2993.905341964075
 20
857.3740524051469
 30
0.0
 40
0.0625
  0
ARC
  5
182
330
6F
100
AcDbEntity
  8
2-0
 62
     4
100
AcDbCircle
 10
2993.900341964075
 20
857.3740524051469
 30
0.0
 40
2.5
100
AcDbArc
 50
90.11459140653
 51
270.114591405945
  0
LINE
  5
183
330
6F
100
AcDbEntity
  8
2-0
 62
     4
100
AcDbLine
 10
2993.905341964099
 20
852.3740524051468
 30
0.0
 11
2993.905341964126
 21
847.374052405147
 31
0.0
  0
LINE
  5
184
330
6F
100
AcDbEntity
  8
2-0
  6
Continuous
 62
     4
100
AcDbLine
 10
3089.173427
 20
887.374052
 30
0.0
 11
2993.905342
 21
887.374052
 31
0.0
  0
LINE
  5
185
330
6F
100
AcDbEntity
  8
2-0
  6
Continuous
 62
     4
100
AcDbLine
 10
3088.982151
 20
932.3740519999999
 30
0.0
 11
2993.905342
 21
932.3740519999999
 31
0.0
  0
LINE
  5
186
330
6F
100
AcDbEntity
  8
2-0
  6
Continuous
 62
     4
100
AcDbLine
 10
2993.905342
 20
897.3740519999999
 30
0.0
 11
2993.905342
 21
922.3740519999999
 31
0.0
  0
TEXT
  5
187
330
6F
100
AcDbEntity
  8
2-0
 62
     4
100
AcDbText
 10
2990.605
 20
901.8739999999999
 30
0.0
 40
25.92
  1
9
 50
90.0
100
AcDbText
  0
CIRCLE
  5
188
330
6F
100
AcDbEntity
  8
2-0
  6
Continuous
 62
     4
100
AcDbCircle
 10
2993.905341964075
 20
887.3740524051468
 30
0.0
 40
0.25
  0
CIRCLE
  5
189
330
6F
100
AcDbEntity
  8
2-0
  6
Continuous
 62
     4
100
AcDbCircle
 10
2993.905341964075
 20
887.3740524051468
 30
0.0
 40
0.1875
  0
CIRCLE
  5
18A
330
6F
100
AcDbEntity
  8
2-0
  6
Continuous
 62
     4
100
AcDbCircle
 10
2993.905341964075
 20
887.3740524051468
 30
0.0
 40
0.125
  0
CIRCLE
  5
18B
330
6F
100
AcDbEntity
  8
2-0
  6
Continuous
 62
     4
100
AcDbCircle
 10
2993.905341964075
 20
887.3740524051468
 30
0.0
 40
0.0625
  0
ARC
  5
18C
330
6F
100
AcDbEntity
  8
2-0
 62
     4
100
AcDbCircle
 10
2993.910341964075
 20
887.3740524051468
 30
0.0
 40
2.5
100
AcDbArc
 50
270.1145914065301
 51
90.11459140594496
  0
LINE
  5
18D
330
6F
100
AcDbEntity
  8
2-0
 62
     4
100
AcDbLine
 10
2993.905341963999
 20
892.3740524051469
 30
0.0
 11
2993.905341963922
 21
897.374052405147
 31
0.0
  0
CIRCLE
  5
18E
330
6F
100
AcDbEntity
  8
2-0
  6
Continuous
 62
     4
100
AcDbCircle
 10
2993.905341964075
 20
932.374052405146
 30
0.0
 40
0.25
  0
CIRCLE
  5
18F
330
6F
100
AcDbEntity
  8
2-0
  6
Continuous
 62
     4
100
AcDbCircle
 10
2993.905341964075
 20
932.374052405146
 30
0.0
 40
0.1875
  0
CIRCLE
  5
190
330
6F
100
AcDbEntity
  8
2-0
  6
Continuous
 62
     4
100
AcDbCircle
 10
2993.905341964075
 20
932.374052405146
 30
0.0
 40
0.125
  0
CIRCLE
  5
191
330
6F
100
AcDbEntity
  8
2-0
  6
Continuous
 62
     4
100
AcDbCircle
 10
2993.905341964075
 20
932.374052405146
 30
0.0
 40
0.0625
  0
ARC
  5
192
330
6F
100
AcDbEntity
  8
2-0
 62
     4
100
AcDbCircle
 10
2993.900341964075
 20
932.374052405146
 30
0.0
 40
2.5
100
AcDbArc
 50
90.11459140653
 51
270.114591405945
  0
LINE
  5
193
330
6F
100
AcDbEntity
  8
2-0
 62
     4
100
AcDbLine
 10
2993.905341964099
 20
927.374052405146
 30
0.0
 11
2993.905341964126
 21
922.3740524051461
 31
0.0
  0
LINE
  5
194
330
6F
100
AcDbEntity
  8
2-0
  6
Continuous
 62
     4
100
AcDbLine
 10
3089.035284
 20
944.8740519999999
 30
0.0
 11
2993.905342
 21
944.8740519999999
 31
0.0
  0
LINE
  5
195
330
6F
100
AcDbEntity
  8
2-0
  6
Continuous
 62
     4
100
AcDbLine
 10
3088.982151
 20
932.3740519999999
 30
0.0
 11
2993.905342
 21
932.3740519999999
 31
0.0
  0
LINE
  5
196
330
6F
100
AcDbEntity
  8
2-0
  6
Continuous
 62
     4
100
AcDbLine
 10
2993.905342
 20
954.874052
 30
0.0
 11
2993.905342
 21
964.874052
 31
0.0
  0
LINE
  5
197
330
6F
100
AcDbEntity
  8
2-0
  6
Continuous
 62
     4
100
AcDbLine
 10
2993.905342
 20
922.3740519999999
 30
0.0
 11
2993.905342
 21
912.374052
 31
0.0
  0
TEXT
  5
198
330
6F
100
AcDbEntity
  8
2-0
 62
     4
100
AcDbText
 10
2992.392
 20
959.425
 30
0.0
 40
25.92
  1
2.5
 50
90.0
100
AcDbText
  0
LINE
  5
199
330
6F
100
AcDbEntity
  8
2-0
  6
Continuous
 62
     4
100
AcDbLine
 10
2993.905342
 20
944.8740519999999
 30
0.0
 11
2993.905342
 21
932.3740519999999
 31
0.0
  0
CIRCLE
  5
19A
330
6F
100
AcDbEntity
  8
2-0
  6
Continuous
 62
     4
100
AcDbCircle
 10
2993.905341964075
 20
944.874052405146
 30
0.0
 40
0.25
  0
CIRCLE
  5
19B
330
6F
100
AcDbEntity
  8
2-0
  6
Continuous
 62
     4
100
AcDbCircle
 10
2993.905341964075
 20
944.874052405146
 30
0.0
 40
0.1875
  0
CIRCLE
  5
19C
330
6F
100
AcDbEntity
  8
2-0
  6
Continuous
 62
     4
100
AcDbCircle
 10
2993.905341964075
 20
944.874052405146
 30
0.0
 40
0.125
  0
CIRCLE
  5
19D
330
6F
100
AcDbEntity
  8
2-0
  6
Continuous
 62
     4
100
AcDbCircle
 10
2993.905341964075
 20
944.874052405146
 30
0.0
 40
0.0625
  0
ARC
  5
19E
330
6F
100
AcDbEntity
  8
2-0
 62
     4
100
AcDbCircle
 10
2993.910341964075
 20
944.874052405146
 30
0.0
 40
2.5
100
AcDbArc
 50
270.1145914065301
 51
90.11459140594496
  0
LINE
  5
19F
330
6F
100
AcDbEntity
  8
2-0
 62
     4
100
AcDbLine
 10
2993.905341963999
 20
949.8740524051459
 30
0.0
 11
2993.905341963922
 21
954.874052405146
 31
0.0
  0
CIRCLE
  5
1A0
330
6F
100
AcDbEntity
  8
2-0
  6
Continuous
 62
     4
100
AcDbCircle
 10
2993.905341964075
 20
932.374052405146
 30
0.0
 40
0.25
  0
CIRCLE
  5
1A1
330
6F
100
AcDbEntity
  8
2-0
  6
Continuous
 62
     4
100
AcDbCircle
 10
2993.905341964075
 20
932.374052405146
 30
0.0
 40
0.1875
  0
CIRCLE
  5
1A2
330
6F
100
AcDbEntity
  8
2-0
  6
Continuous
 62
     4
100
AcDbCircle
 10
2993.905341964075
 20
932.374052405146
 30
0.0
 40
0.125
  0
CIRCLE
  5
1A3
330
6F
100
AcDbEntity
  8
2-0
  6
Continuous
 62
     4
100
AcDbCircle
 10
2993.905341964075
 20
932.374052405146
 30
0.0
 40
0.0625
  0
ARC
  5
1A4
330
6F
100
AcDbEntity
  8
2-0
 62
     4
100
AcDbCircle
 10
2993.900341964075
 20
932.374052405146
 30
0.0
 40
2.5
100
AcDbArc
 50
90.11459140653
 51
270.114591405945
  0
LINE
  5
1A5
330
6F
100
AcDbEntity
  8
2-0
 62
     4
100
AcDbLine
 10
2993.905341964099
 20
927.374052405146
 30
0.0
 11
2993.905341964126
 21
922.3740524051461
 31
0.0
  0
LINE
  5
1A6
330
6F
100
AcDbEntity
  8
2-0
  6
Continuous
 62
     4
100
AcDbLine
 10
3067.261458
 20
944.8740519999999
 30
0.0
 11
2943.905342
 21
944.8740519999999
 31
0.0
  0
LINE
  5
1A7
330
6F
100
AcDbEntity
  8
2-0
  6
Continuous
 62
     4
100
AcDbLine
 10
3066.889533
 20
857.3740519999999
 30
0.0
 11
2943.905342
 21
857.3740519999999
 31
0.0
  0
LINE
  5
1A8
330
6F
100
AcDbEntity
  8
2-0
  6
Continuous
 62
     4
100
AcDbLine
 10
2943.905342
 20
934.8740519999999
 30
0.0
 11
2943.905342
 21
867.374052
 31
0.0
  0
TEXT
  5
1A9
330
6F
100
AcDbEntity
  8
2-0
 62
     4
100
AcDbText
 10
2940.605
 20
869.1239999999998
 30
0.0
 40
25.92
  1
17.5
 50
90.0
100
AcDbText
  0
CIRCLE
  5
1AA
330
6F
100
AcDbEntity
  8
2-0
  6
Continuous
 62
     4
100
AcDbCircle
 10
2943.905341964074
 20
944.8740524051428
 30
0.0
 40
0.25
  0
CIRCLE
  5
1AB
330
6F
100
AcDbEntity
  8
2-0
  6
Continuous
 62
     4
100
AcDbCircle
 10
2943.905341964074
 20
944.8740524051428
 30
0.0
 40
0.1875
  0
CIRCLE
  5
1AC
330
6F
100
AcDbEntity
  8
2-0
  6
Continuous
 62
     4
100
AcDbCircle
 10
2943.905341964074
 20
944.8740524051428
 30
0.0
 40
0.125
  0
CIRCLE
  5
1AD
330
6F
100
AcDbEntity
  8
2-0
  6
Continuous
 62
     4
100
AcDbCircle
 10
2943.905341964074
 20
944.8740524051428
 30
0.0
 40
0.0625
  0
ARC
  5
1AE
330
6F
100
AcDbEntity
  8
2-0
 62
     4
100
AcDbCircle
 10
2943.900341964074
 20
944.8740524051428
 30
0.0
 40
2.5
100
AcDbArc
 50
90.11459140653
 51
270.114591405945
  0
LINE
  5
1AF
330
6F
100
AcDbEntity
  8
2-0
 62
     4
100
AcDbLine
 10
2943.9053419641
 20
939.8740524051429
 30
0.0
 11
2943.905341964125
 21
934.8740524051429
 31
0.0
  0
CIRCLE
  5
1B0
330
6F
100
AcDbEntity
  8
2-0
  6
Continuous
 62
     4
100
AcDbCircle
 10
2943.905341964074
 20
857.3740524051469
 30
0.0
 40
0.25
  0
CIRCLE
  5
1B1
330
6F
100
AcDbEntity
  8
2-0
  6
Continuous
 62
     4
100
AcDbCircle
 10
2943.905341964074
 20
857.3740524051469
 30
0.0
 40
0.1875
  0
CIRCLE
  5
1B2
330
6F
100
AcDbEntity
  8
2-0
  6
Continuous
 62
     4
100
AcDbCircle
 10
2943.905341964074
 20
857.3740524051469
 30
0.0
 40
0.125
  0
CIRCLE
  5
1B3
330
6F
100
AcDbEntity
  8
2-0
  6
Continuous
 62
     4
100
AcDbCircle
 10
2943.905341964074
 20
857.3740524051469
 30
0.0
 40
0.0625
  0
ARC
  5
1B4
330
6F
100
AcDbEntity
  8
2-0
 62
     4
100
AcDbCircle
 10
2943.910341964074
 20
857.3740524051469
 30
0.0
 40
2.5
100
AcDbArc
 50
270.1145914065301
 51
90.11459140594496
  0
LINE
  5
1B5
330
6F
100
AcDbEntity
  8
2-0
 62
     4
100
AcDbLine
 10
2943.905341963997
 20
862.3740524051468
 30
0.0
 11
2943.905341963921
 21
867.3740524051469
 31
0.0
  0
LINE
  5
1B6
330
6F
100
AcDbEntity
  8
2-0
  6
Continuous
 62
     4
100
AcDbLine
 10
3344.51883
 20
1159.541117
 30
0.0
 11
3344.51883
 21
1282.897233
 31
0.0
  0
LINE
  5
1B7
330
6F
100
AcDbEntity
  8
2-0
  6
Continuous
 62
     4
100
AcDbLine
 10
3432.01883
 20
1159.913042
 30
0.0
 11
3432.01883
 21
1282.897233
 31
0.0
  0
LINE
  5
1B8
330
6F
100
AcDbEntity
  8
2-0
  6
Continuous
 62
     4
100
AcDbLine
 10
3354.51883
 20
1282.897233
 30
0.0
 11
3422.018830000001
 21
1282.897233
 31
0.0
  0
TEXT
  5
1B9
330
6F
100
AcDbEntity
  8
2-0
 62
     4
100
AcDbText
 10
3358.285
 20
1286.197
 30
0.0
 40
25.92
  1
17.5
100
AcDbText
  0
CIRCLE
  5
1BA
330
6F
100
AcDbEntity
  8
2-0
  6
Continuous
 62
     4
100
AcDbCircle
 10
3344.51882987139
 20
1282.897232915373
 30
0.0
 40
0.25
  0
CIRCLE
  5
1BB
330
6F
100
AcDbEntity
  8
2-0
  6
Continuous
 62
     4
100
AcDbCircle
 10
3344.51882987139
 20
1282.897232915373
 30
0.0
 40
0.1875
  0
CIRCLE
  5
1BC
330
6F
100
AcDbEntity
  8
2-0
  6
Continuous
 62
     4
100
AcDbCircle
 10
3344.51882987139
 20
1282.897232915373
 30
0.0
 40
0.125
  0
CIRCLE
  5
1BD
330
6F
100
AcDbEntity
  8
2-0
  6
Continuous
 62
     4
100
AcDbCircle
 10
3344.51882987139
 20
1282.897232915373
 30
0.0
 40
0.0625
  0
ARC
  5
1BE
330
6F
100
AcDbEntity
  8
2-0
 62
     4
100
AcDbCircle
 10
3344.51882987139
 20
1282.892232915373
 30
0.0
 40
2.5
100
AcDbArc
 50
180.1145914065301
 51
0.1145914059449637
  0
LINE
  5
1BF
330
6F
100
AcDbEntity
  8
2-0
 62
     4
100
AcDbLine
 10
3349.518829871389
 20
1282.897232915424
 30
0.0
 11
3354.51882987139
 21
1282.897232915475
 31
0.0
  0
CIRCLE
  5
1C0
330
6F
100
AcDbEntity
  8
2-0
  6
Continuous
 62
     4
100
AcDbCircle
 10
3432.018829871385
 20
1282.897232915373
 30
0.0
 40
0.25
  0
CIRCLE
  5
1C1
330
6F
100
AcDbEntity
  8
2-0
  6
Continuous
 62
     4
100
AcDbCircle
 10
3432.018829871385
 20
1282.897232915373
 30
0.0
 40
0.1875
  0
CIRCLE
  5
1C2
330
6F
100
AcDbEntity
  8
2-0
  6
Continuous
 62
     4
100
AcDbCircle
 10
3432.018829871385
 20
1282.897232915373
 30
0.0
 40
0.125
  0
CIRCLE
  5
1C3
330
6F
100
AcDbEntity
  8
2-0
  6
Continuous
 62
     4
100
AcDbCircle
 10
3432.018829871385
 20
1282.897232915373
 30
0.0
 40
0.0625
  0
ARC
  5
1C4
330
6F
100
AcDbEntity
  8
2-0
 62
     4
100
AcDbCircle
 10
3432.018829871385
 20
1282.902232915373
 30
0.0
 40
2.5
100
AcDbArc
 50
0.1145914065300158
 51
180.114591405945
  0
LINE
  5
1C5
330
6F
100
AcDbEntity
  8
2-0
 62
     4
100
AcDbLine
 10
3427.018829871385
 20
1282.897232915373
 30
0.0
 11
3422.018829871385
 21
1282.897232915373
 31
0.0
  0
LINE
  5
1C6
330
6F
100
AcDbEntity
  8
2-0
  6
Continuous
 62
     4
100
AcDbLine
 10
3344.51883
 20
1137.767291
 30
0.0
 11
3344.51883
 21
1232.897233
 31
0.0
  0
LINE
  5
1C7
330
6F
100
AcDbEntity
  8
2-0
  6
Continuous
 62
     4
100
AcDbLine
 10
3357.01883
 20
1137.820423
 30
0.0
 11
3357.01883
 21
1232.897233
 31
0.0
  0
LINE
  5
1C8
330
6F
100
AcDbEntity
  8
2-0
  6
Continuous
 62
     4
100
AcDbLine
 10
3334.51883
 20
1232.897233
 30
0.0
 11
3324.518830000001
 21
1232.897233
 31
0.0
  0
LINE
  5
1C9
330
6F
100
AcDbEntity
  8
2-0
  6
Continuous
 62
     4
100
AcDbLine
 10
3367.01883
 20
1232.897233
 30
0.0
 11
3377.01883
 21
1232.897233
 31
0.0
  0
TEXT
  5
1CA
330
6F
100
AcDbEntity
  8
2-0
 62
     4
100
AcDbText
 10
3280.845
 20
1236.197
 30
0.0
 40
25.92
  1
2.5
100
AcDbText
  0
LINE
  5
1CB
330
6F
100
AcDbEntity
  8
2-0
  6
Continuous
 62
     4
100
AcDbLine
 10
3344.51883
 20
1232.897233
 30
0.0
 11
3357.01883
 21
1232.897233
 31
0.0
  0
CIRCLE
  5
1CC
330
6F
100
AcDbEntity
  8
2-0
  6
Continuous
 62
     4
100
AcDbCircle
 10
3344.518829871385
 20
1232.897232915373
 30
0.0
 40
0.25
  0
CIRCLE
  5
1CD
330
6F
100
AcDbEntity
  8
2-0
  6
Continuous
 62
     4
100
AcDbCircle
 10
3344.518829871385
 20
1232.897232915373
 30
0.0
 40
0.1875
  0
CIRCLE
  5
1CE
330
6F
100
AcDbEntity
  8
2-0
  6
Continuous
 62
     4
100
AcDbCircle
 10
3344.518829871385
 20
1232.897232915373
 30
0.0
 40
0.125
  0
CIRCLE
  5
1CF
330
6F
100
AcDbEntity
  8
2-0
  6
Continuous
 62
     4
100
AcDbCircle
 10
3344.518829871385
 20
1232.897232915373
 30
0.0
 40
0.0625
  0
ARC
  5
1D0
330
6F
100
AcDbEntity
  8
2-0
 62
     4
100
AcDbCircle
 10
3344.518829871385
 20
1232.902232915373
 30
0.0
 40
2.5
100
AcDbArc
 50
0.1145914065300158
 51
180.114591405945
  0
LINE
  5
1D1
330
6F
100
AcDbEntity
  8
2-0
 62
     4
100
AcDbLine
 10
3339.518829871385
 20
1232.897232915373
 30
0.0
 11
3334.518829871385
 21
1232.897232915373
 31
0.0
  0
CIRCLE
  5
1D2
330
6F
100
AcDbEntity
  8
2-0
  6
Continuous
 62
     4
100
AcDbCircle
 10
3357.018829871385
 20
1232.897232915373
 30
0.0
 40
0.25
  0
CIRCLE
  5
1D3
330
6F
100
AcDbEntity
  8
2-0
  6
Continuous
 62
     4
100
AcDbCircle
 10
3357.018829871385
 20
1232.897232915373
 30
0.0
 40
0.1875
  0
CIRCLE
  5
1D4
330
6F
100
AcDbEntity
  8
2-0
  6
Continuous
 62
     4
100
AcDbCircle
 10
3357.018829871385
 20
1232.897232915373
 30
0.0
 40
0.125
  0
CIRCLE
  5
1D5
330
6F
100
AcDbEntity
  8
2-0
  6
Continuous
 62
     4
100
AcDbCircle
 10
3357.018829871385
 20
1232.897232915373
 30
0.0
 40
0.0625
  0
ARC
  5
1D6
330
6F
100
AcDbEntity
  8
2-0
 62
     4
100
AcDbCircle
 10
3357.018829871385
 20
1232.892232915373
 30
0.0
 40
2.5
100
AcDbArc
 50
180.1145914065301
 51
0.1145914059449637
  0
LINE
  5
1D7
330
6F
100
AcDbEntity
  8
2-0
 62
     4
100
AcDbLine
 10
3362.018829871385
 20
1232.897232915424
 30
0.0
 11
3367.018829871385
 21
1232.897232915475
 31
0.0
  0
LINE
  5
1D8
330
6F
100
AcDbEntity
  8
2-0
  6
Continuous
 62
     4
100
AcDbLine
 10
3387.018830000001
 20
1137.629148
 30
0.0
 11
3387.018830000001
 21
1232.897233
 31
0.0
  0
LINE
  5
1D9
330
6F
100
AcDbEntity
  8
2-0
  6
Continuous
 62
     4
100
AcDbLine
 10
3357.01883
 20
1137.820423
 30
0.0
 11
3357.01883
 21
1232.897233
 31
0.0
  0
LINE
  5
1DA
330
6F
100
AcDbEntity
  8
2-0
  6
Continuous
 62
     4
100
AcDbLine
 10
3397.01883
 20
1232.897233
 30
0.0
 11
3407.01883
 21
1232.897233
 31
0.0
  0
LINE
  5
1DB
330
6F
100
AcDbEntity
  8
2-0
  6
Continuous
 62
     4
100
AcDbLine
 10
3347.01883
 20
1232.897233
 30
0.0
 11
3337.01883
 21
1232.897233
 31
0.0
  0
TEXT
  5
1DC
330
6F
100
AcDbEntity
  8
2-0
 62
     4
100
AcDbText
 10
3366.035
 20
1236.197
 30
0.0
 40
25.92
  1
6
100
AcDbText
  0
LINE
  5
1DD
330
6F
100
AcDbEntity
  8
2-0
  6
Continuous
 62
     4
100
AcDbLine
 10
3387.018830000001
 20
1232.897233
 30
0.0
 11
3357.01883
 21
1232.897233
 31
0.0
  0
CIRCLE
  5
1DE
330
6F
100
AcDbEntity
  8
2-0
  6
Continuous
 62
     4
100
AcDbCircle
 10
3387.018829871385
 20
1232.897232915373
 30
0.0
 40
0.25
  0
CIRCLE
  5
1DF
330
6F
100
AcDbEntity
  8
2-0
  6
Continuous
 62
     4
100
AcDbCircle
 10
3387.018829871385
 20
1232.897232915373
 30
0.0
 40
0.1875
  0
CIRCLE
  5
1E0
330
6F
100
AcDbEntity
  8
2-0
  6
Continuous
 62
     4
100
AcDbCircle
 10
3387.018829871385
 20
1232.897232915373
 30
0.0
 40
0.125
  0
CIRCLE
  5
1E1
330
6F
100
AcDbEntity
  8
2-0
  6
Continuous
 62
     4
100
AcDbCircle
 10
3387.018829871385
 20
1232.897232915373
 30
0.0
 40
0.0625
  0
ARC
  5
1E2
330
6F
100
AcDbEntity
  8
2-0
 62
     4
100
AcDbCircle
 10
3387.018829871385
 20
1232.892232915373
 30
0.0
 40
2.5
100
AcDbArc
 50
180.1145914065301
 51
0.1145914059449637
  0
LINE
  5
1E3
330
6F
100
AcDbEntity
  8
2-0
 62
     4
100
AcDbLine
 10
3392.018829871385
 20
1232.897232915424
 30
0.0
 11
3397.018829871385
 21
1232.897232915475
 31
0.0
  0
CIRCLE
  5
1E4
330
6F
100
AcDbEntity
  8
2-0
  6
Continuous
 62
     4
100
AcDbCircle
 10
3357.018829871385
 20
1232.897232915373
 30
0.0
 40
0.25
  0
CIRCLE
  5
1E5
330
6F
100
AcDbEntity
  8
2-0
  6
Continuous
 62
     4
100
AcDbCircle
 10
3357.018829871385
 20
1232.897232915373
 30
0.0
 40
0.1875
  0
CIRCLE
  5
1E6
330
6F
100
AcDbEntity
  8
2-0
  6
Continuous
 62
     4
100
AcDbCircle
 10
3357.018829871385
 20
1232.897232915373
 30
0.0
 40
0.125
  0
CIRCLE
  5
1E7
330
6F
100
AcDbEntity
  8
2-0
  6
Continuous
 62
     4
100
AcDbCircle
 10
3357.018829871385
 20
1232.897232915373
 30
0.0
 40
0.0625
  0
ARC
  5
1E8
330
6F
100
AcDbEntity
  8
2-0
 62
     4
100
AcDbCircle
 10
3357.018829871385
 20
1232.902232915373
 30
0.0
 40
2.5
100
AcDbArc
 50
0.1145914065300158
 51
180.114591405945
  0
LINE
  5
1E9
330
6F
100
AcDbEntity
  8
2-0
 62
     4
100
AcDbLine
 10
3352.018829871385
 20
1232.897232915373
 30
0.0
 11
3347.018829871385
 21
1232.897232915373
 31
0.0
  0
LINE
  5
1EA
330
6F
100
AcDbEntity
  8
2-0
  6
Continuous
 62
     4
100
AcDbLine
 10
3387.018830000001
 20
1137.629148
 30
0.0
 11
3387.018830000001
 21
1232.897233
 31
0.0
  0
LINE
  5
1EB
330
6F
100
AcDbEntity
  8
2-0
  6
Continuous
 62
     4
100
AcDbLine
 10
3432.01883
 20
1137.756665
 30
0.0
 11
3432.01883
 21
1232.897233
 31
0.0
  0
LINE
  5
1EC
330
6F
100
AcDbEntity
  8
2-0
  6
Continuous
 62
     4
100
AcDbLine
 10
3397.01883
 20
1232.897233
 30
0.0
 11
3422.018830000001
 21
1232.897233
 31
0.0
  0
TEXT
  5
1ED
330
6F
100
AcDbEntity
  8
2-0
 62
     4
100
AcDbText
 10
3403.535
 20
1236.197
 30
0.0
 40
25.92
  1
9
100
AcDbText
  0
CIRCLE
  5
1EE
330
6F
100
AcDbEntity
  8
2-0
  6
Continuous
 62
     4
100
AcDbCircle
 10
3387.018829871385
 20
1232.897232915373
 30
0.0
 40
0.25
  0
CIRCLE
  5
1EF
330
6F
100
AcDbEntity
  8
2-0
  6
Continuous
 62
     4
100
AcDbCircle
 10
3387.018829871385
 20
1232.897232915373
 30
0.0
 40
0.1875
  0
CIRCLE
  5
1F0
330
6F
100
AcDbEntity
  8
2-0
  6
Continuous
 62
     4
100
AcDbCircle
 10
3387.018829871385
 20
1232.897232915373
 30
0.0
 40
0.125
  0
CIRCLE
  5
1F1
330
6F
100
AcDbEntity
  8
2-0
  6
Continuous
 62
     4
100
AcDbCircle
 10
3387.018829871385
 20
1232.897232915373
 30
0.0
 40
0.0625
  0
ARC
  5
1F2
330
6F
100
AcDbEntity
  8
2-0
 62
     4
100
AcDbCircle
 10
3387.018829871385
 20
1232.892232915373
 30
0.0
 40
2.5
100
AcDbArc
 50
180.1145914065301
 51
0.1145914059449637
  0
LINE
  5
1F3
330
6F
100
AcDbEntity
  8
2-0
 62
     4
100
AcDbLine
 10
3392.018829871385
 20
1232.897232915424
 30
0.0
 11
3397.018829871385
 21
1232.897232915475
 31
0.0
  0
CIRCLE
  5
1F4
330
6F
100
AcDbEntity
  8
2-0
  6
Continuous
 62
     4
100
AcDbCircle
 10
3432.018829871385
 20
1232.897232915373
 30
0.0
 40
0.25
  0
CIRCLE
  5
1F5
330
6F
100
AcDbEntity
  8
2-0
  6
Continuous
 62
     4
100
AcDbCircle
 10
3432.018829871385
 20
1232.897232915373
 30
0.0
 40
0.1875
  0
CIRCLE
  5
1F6
330
6F
100
AcDbEntity
  8
2-0
  6
Continuous
 62
     4
100
AcDbCircle
 10
3432.018829871385
 20
1232.897232915373
 30
0.0
 40
0.125
  0
CIRCLE
  5
1F7
330
6F
100
AcDbEntity
  8
2-0
  6
Continuous
 62
     4
100
AcDbCircle
 10
3432.018829871385
 20
1232.897232915373
 30
0.0
 40
0.0625
  0
ARC
  5
1F8
330
6F
100
AcDbEntity
  8
2-0
 62
     4
100
AcDbCircle
 10
3432.018829871385
 20
1232.902232915373
 30
0.0
 40
2.5
100
AcDbArc
 50
0.1145914065300158
 51
180.114591405945
  0
LINE
  5
1F9
330
6F
100
AcDbEntity
  8
2-0
 62
     4
100
AcDbLine
 10
3427.018829871385
 20
1232.897232915373
 30
0.0
 11
3422.018829871385
 21
1232.897232915373
 31
0.0
  0
LINE
  5
1FA
330
6F
100
AcDbEntity
  8
2-0
  6
Continuous
 62
     7
100
AcDbLine
 10
3251.133384000001
 20
868.640734
 30
0.0
 11
3266.366307
 21
852.934707
 31
0.0
  0
LINE
  5
1FB
330
6F
100
AcDbEntity
  8
2-0
  6
Continuous
 62
     7
100
AcDbLine
 10
3251.133384000001
 20
868.640734
 30
0.0
 11
3256.60463
 21
847.456148
 31
0.0
  0
LINE
  5
1FC
330
6F
100
AcDbEntity
  8
2-0
  6
Continuous
 62
     7
100
AcDbLine
 10
3293.881257000001
 20
911.238911
 30
0.0
 11
3289.404149
 21
927.5756450000001
 31
0.0
  0
LINE
  5
1FD
330
6F
100
AcDbEntity
  8
2-0
  6
Continuous
 62
     7
100
AcDbLine
 10
3293.881257000001
 20
911.238911
 30
0.0
 11
3280.896603
 21
922.11697
 31
0.0
  0
LINE
  5
1FE
330
6F
100
AcDbEntity
  8
2-0
  6
Continuous
 62
     7
100
AcDbLine
 10
3369.957966
 20
1022.345065
 30
0.0
 11
3364.843835
 21
1041.866326
 31
0.0
  0
LINE
  5
1FF
330
6F
100
AcDbEntity
  8
2-0
  6
Continuous
 62
     7
100
AcDbLine
 10
3369.957966
 20
1022.345065
 30
0.0
 11
3354.460202
 21
1035.269975
 31
0.0
  0
LINE
  5
200
330
6F
100
AcDbEntity
  8
2-0
  6
Continuous
 62
     7
100
AcDbLine
 10
3417.450084
 20
1025.99341
 30
0.0
 11
3431.14809
 21
1011.111928
 31
0.0
  0
LINE
  5
201
330
6F
100
AcDbEntity
  8
2-0
  6
Continuous
 62
     7
100
AcDbLine
 10
3417.450084
 20
1025.99341
 30
0.0
 11
3423.017094
 21
1006.548558
 31
0.0
  0
TEXT
  5
202
330
6F
100
AcDbEntity
  8
D-0
 62
     5
100
AcDbText
 10
2827.966
 20
1480.361
 30
0.0
 40
25.92
  1
ご注意
100
AcDbText
  0
TEXT
  5
203
330
6F
100
AcDbEntity
  8
D-0
 62
     5
100
AcDbText
 10
2893.841
 20
1416.254
 30
0.0
 40
25.92
  1
〇　底板6ｍｍ、側板9ｍｍの不燃加工となっております。
100
AcDbText
  0
LINE
  5
204
330
6F
100
AcDbEntity
  8
2-0
  6
Continuous
 62
     7
100
AcDbLine
 10
883.956558
 20
784.817566
 30
0.0
 11
1226.467625
 21
784.817566
 31
0.0
  0
LINE
  5
205
330
6F
100
AcDbEntity
  8
8-0
  6
Continuous
 62
     4
100
AcDbLine
 10
488.5926249999999
 20
1881.820003
 30
0.0
 11
373.631949
 21
1881.820003
 31
0.0
  0
LINE
  5
206
330
6F
100
AcDbEntity
  8
8-0
  6
Continuous
 62
     4
100
AcDbLine
 10
487.467625
 20
2243.820003
 30
0.0
 11
373.631949
 21
2243.820003
 31
0.0
  0
TEXT
  5
207
330
6F
100
AcDbEntity
  8
8-0
 62
     4
100
AcDbText
 10
373.0119999999999
 20
2029.22
 30
0.0
 40
36.288
  1
362
 50
90.0
100
AcDbText
  0
LINE
  5
208
330
6F
100
AcDbEntity
  8
8-0
  6
Continuous
 62
     4
100
AcDbLine
 10
373.631949058063
 20
2243.820003284814
 30
0.0
 11
373.631949058063
 21
1881.820003284814
 31
0.0
  0
CIRCLE
  5
209
330
6F
100
AcDbEntity
  8
8-0
  6
Continuous
 62
     4
100
AcDbCircle
 10
373.631949058063
 20
2243.820003284814
 30
0.0
 40
0.25
  0
CIRCLE
  5
20A
330
6F
100
AcDbEntity
  8
8-0
  6
Continuous
 62
     4
100
AcDbCircle
 10
373.631949058063
 20
2243.820003284814
 30
0.0
 40
0.1875
  0
CIRCLE
  5
20B
330
6F
100
AcDbEntity
  8
8-0
  6
Continuous
 62
     4
100
AcDbCircle
 10
373.631949058063
 20
2243.820003284814
 30
0.0
 40
0.125
  0
CIRCLE
  5
20C
330
6F
100
AcDbEntity
  8
8-0
  6
Continuous
 62
     4
100
AcDbCircle
 10
373.631949058063
 20
2243.820003284814
 30
0.0
 40
0.0625
  0
CIRCLE
  5
20D
330
6F
100
AcDbEntity
  8
8-0
  6
Continuous
 62
     4
100
AcDbCircle
 10
373.631949058063
 20
1881.820003284814
 30
0.0
 40
0.25
  0
CIRCLE
  5
20E
330
6F
100
AcDbEntity
  8
8-0
  6
Continuous
 62
     4
100
AcDbCircle
 10
373.631949058063
 20
1881.820003284814
 30
0.0
 40
0.1875
  0
CIRCLE
  5
20F
330
6F
100
AcDbEntity
  8
8-0
  6
Continuous
 62
     4
100
AcDbCircle
 10
373.631949058063
 20
1881.820003284814
 30
0.0
 40
0.125
  0
CIRCLE
  5
210
330
6F
100
AcDbEntity
  8
8-0
  6
Continuous
 62
     4
100
AcDbCircle
 10
373.631949058063
 20
1881.820003284814
 30
0.0
 40
0.0625
  0
LINE
  5
211
330
6F
100
AcDbEntity
  8
8-0
  6
Continuous
 62
     4
100
AcDbLine
 10
1222.967625
 20
2101.566777
 30
0.0
 11
1222.967625
 21
2113.17125
 31
0.0
  0
LINE
  5
212
330
6F
100
AcDbEntity
  8
8-0
  6
Continuous
 62
     4
100
AcDbLine
 10
1237.967625
 20
2104.141498
 30
0.0
 11
1237.967625
 21
2113.17125
 31
0.0
  0
TEXT
  5
213
330
6F
100
AcDbEntity
  8
8-0
 62
     4
100
AcDbText
 10
1249.828
 20
2146.291
 30
0.0
 40
36.288
  1
15
100
AcDbText
  0
LINE
  5
214
330
6F
100
AcDbEntity
  8
8-0
  6
Continuous
 62
     4
100
AcDbLine
 10
1237.96762515424
 20
2113.171249918527
 30
0.0
 11
1222.96762515424
 21
2113.171249918527
 31
0.0
  0
CIRCLE
  5
215
330
6F
100
AcDbEntity
  8
8-0
  6
Continuous
 62
     4
100
AcDbCircle
 10
1237.96762515424
 20
2113.171249918527
 30
0.0
 40
0.25
  0
CIRCLE
  5
216
330
6F
100
AcDbEntity
  8
8-0
  6
Continuous
 62
     4
100
AcDbCircle
 10
1237.96762515424
 20
2113.171249918527
 30
0.0
 40
0.1875
  0
CIRCLE
  5
217
330
6F
100
AcDbEntity
  8
8-0
  6
Continuous
 62
     4
100
AcDbCircle
 10
1237.96762515424
 20
2113.171249918527
 30
0.0
 40
0.125
  0
CIRCLE
  5
218
330
6F
100
AcDbEntity
  8
8-0
  6
Continuous
 62
     4
100
AcDbCircle
 10
1237.96762515424
 20
2113.171249918527
 30
0.0
 40
0.0625
  0
CIRCLE
  5
219
330
6F
100
AcDbEntity
  8
8-0
  6
Continuous
 62
     4
100
AcDbCircle
 10
1222.96762515424
 20
2113.171249918527
 30
0.0
 40
0.25
  0
CIRCLE
  5
21A
330
6F
100
AcDbEntity
  8
8-0
  6
Continuous
 62
     4
100
AcDbCircle
 10
1222.96762515424
 20
2113.171249918527
 30
0.0
 40
0.1875
  0
CIRCLE
  5
21B
330
6F
100
AcDbEntity
  8
8-0
  6
Continuous
 62
     4
100
AcDbCircle
 10
1222.96762515424
 20
2113.171249918527
 30
0.0
 40
0.125
  0
CIRCLE
  5
21C
330
6F
100
AcDbEntity
  8
8-0
  6
Continuous
 62
     4
100
AcDbCircle
 10
1222.96762515424
 20
2113.171249918527
 30
0.0
 40
0.0625
  0
LINE
  5
21D
330
6F
100
AcDbEntity
  8
2-0
  6
DASHED2
 62
     7
100
AcDbLine
 10
1237.967625
 20
1898.820003
 30
0.0
 11
1237.967625
 21
2221.120003
 31
0.0
  0
LINE
  5
21E
330
6F
100
AcDbEntity
  8
2-0
  6
DASHED2
 62
     7
100
AcDbLine
 10
1222.967625
 20
1898.820003
 30
0.0
 11
1222.967625
 21
2221.120003
 31
0.0
  0
LINE
  5
21F
330
6F
100
AcDbEntity
  8
2-0
  6
Continuous
 62
     7
100
AcDbLine
 10
1562.967625
 20
1898.820003
 30
0.0
 11
1562.967625
 21
2243.820003
 31
0.0
  0
LINE
  5
220
330
6F
100
AcDbEntity
  8
2-0
  6
Continuous
 62
     7
100
AcDbLine
 10
1580.467625
 20
1898.820003
 30
0.0
 11
1580.467625
 21
2243.820003
 31
0.0
  0
LINE
  5
221
330
6F
100
AcDbEntity
  8
2-0
  6
Continuous
 62
     7
100
AcDbLine
 10
882.4676249999999
 20
1881.820003
 30
0.0
 11
1226.467625
 21
1881.820003
 31
0.0
  0
LINE
  5
222
330
6F
100
AcDbEntity
  8
2-0
  6
Continuous
 62
     7
100
AcDbLine
 10
882.4676249999999
 20
1896.820003
 30
0.0
 11
1226.467625
 21
1896.820003
 31
0.0
  0
LINE
  5
223
330
6F
100
AcDbEntity
  8
2-0
  6
Continuous
 62
     7
100
AcDbLine
 10
530.4676249999999
 20
1898.820003
 30
0.0
 11
1580.467625
 21
1898.820003
 31
0.0
  0
LINE
  5
224
330
6F
100
AcDbEntity
  8
2-0
  6
Continuous
 62
     7
100
AcDbLine
 10
536.467625
 20
1896.820003
 30
0.0
 11
880.4676249999999
 21
1896.820003
 31
0.0
  0
LINE
  5
225
330
6F
100
AcDbEntity
  8
2-0
  6
Continuous
 62
     7
100
AcDbLine
 10
536.467625
 20
1881.820003
 30
0.0
 11
880.4676249999999
 21
1881.820003
 31
0.0
  0
LINE
  5
226
330
6F
100
AcDbEntity
  8
2-0
  6
Continuous
 62
     7
100
AcDbLine
 10
536.467625
 20
1896.820003
 30
0.0
 11
536.467625
 21
1881.820003
 31
0.0
  0
LINE
  5
227
330
6F
100
AcDbEntity
  8
2-0
  6
Continuous
 62
     7
100
AcDbLine
 10
880.4676249999999
 20
1896.820003
 30
0.0
 11
880.4676249999999
 21
1881.820003
 31
0.0
  0
LINE
  5
228
330
6F
100
AcDbEntity
  8
2-0
  6
Continuous
 62
     7
100
AcDbLine
 10
882.4676249999999
 20
1896.820003
 30
0.0
 11
882.4676249999999
 21
1881.820003
 31
0.0
  0
LINE
  5
229
330
6F
100
AcDbEntity
  8
2-0
  6
Continuous
 62
     7
100
AcDbLine
 10
1229.467625
 20
1896.820003
 30
0.0
 11
1573.467625
 21
1896.820003
 31
0.0
  0
LINE
  5
22A
330
6F
100
AcDbEntity
  8
2-0
  6
Continuous
 62
     7
100
AcDbLine
 10
1229.467625
 20
1881.820003
 30
0.0
 11
1573.467625
 21
1881.820003
 31
0.0
  0
LINE
  5
22B
330
6F
100
AcDbEntity
  8
2-0
  6
Continuous
 62
     7
100
AcDbLine
 10
1226.467625
 20
1896.820003
 30
0.0
 11
1226.467625
 21
1881.820003
 31
0.0
  0
LINE
  5
22C
330
6F
100
AcDbEntity
  8
2-0
  6
Continuous
 62
     7
100
AcDbLine
 10
1229.467625
 20
1896.820003
 30
0.0
 11
1229.467625
 21
1881.820003
 31
0.0
  0
LINE
  5
22D
330
6F
100
AcDbEntity
  8
2-0
  6
Continuous
 62
     7
100
AcDbLine
 10
1573.467625
 20
1896.820003
 30
0.0
 11
1573.467625
 21
1881.820003
 31
0.0
  0
LINE
  5
22E
330
6F
100
AcDbEntity
  8
8-0
  6
Continuous
 62
     4
100
AcDbLine
 10
530.4676249999999
 20
2283.20494
 30
0.0
 11
530.4676249999999
 21
2448.165616000001
 31
0.0
  0
LINE
  5
22F
330
6F
100
AcDbEntity
  8
8-0
  6
Continuous
 62
     4
100
AcDbLine
 10
1230.467625
 20
2447.694222
 30
0.0
 11
1230.467625
 21
2448.165616000001
 31
0.0
  0
TEXT
  5
230
330
6F
100
AcDbEntity
  8
8-0
 62
     4
100
AcDbText
 10
849.69
 20
2448.786
 30
0.0
 40
36.288
  1
700
100
AcDbText
  0
LINE
  5
231
330
6F
100
AcDbEntity
  8
8-0
  6
Continuous
 62
     4
100
AcDbLine
 10
1230.46762515424
 20
2448.165616210535
 30
0.0
 11
530.4676251542409
 21
2448.165616210535
 31
0.0
  0
CIRCLE
  5
232
330
6F
100
AcDbEntity
  8
8-0
  6
Continuous
 62
     4
100
AcDbCircle
 10
1230.46762515424
 20
2448.165616210535
 30
0.0
 40
0.25
  0
CIRCLE
  5
233
330
6F
100
AcDbEntity
  8
8-0
  6
Continuous
 62
     4
100
AcDbCircle
 10
1230.46762515424
 20
2448.165616210535
 30
0.0
 40
0.1875
  0
CIRCLE
  5
234
330
6F
100
AcDbEntity
  8
8-0
  6
Continuous
 62
     4
100
AcDbCircle
 10
1230.46762515424
 20
2448.165616210535
 30
0.0
 40
0.125
  0
CIRCLE
  5
235
330
6F
100
AcDbEntity
  8
8-0
  6
Continuous
 62
     4
100
AcDbCircle
 10
1230.46762515424
 20
2448.165616210535
 30
0.0
 40
0.0625
  0
CIRCLE
  5
236
330
6F
100
AcDbEntity
  8
8-0
  6
Continuous
 62
     4
100
AcDbCircle
 10
530.4676251542409
 20
2448.165616210535
 30
0.0
 40
0.25
  0
CIRCLE
  5
237
330
6F
100
AcDbEntity
  8
8-0
  6
Continuous
 62
     4
100
AcDbCircle
 10
530.4676251542409
 20
2448.165616210535
 30
0.0
 40
0.1875
  0
CIRCLE
  5
238
330
6F
100
AcDbEntity
  8
8-0
  6
Continuous
 62
     4
100
AcDbCircle
 10
530.4676251542409
 20
2448.165616210535
 30
0.0
 40
0.125
  0
CIRCLE
  5
239
330
6F
100
AcDbEntity
  8
8-0
  6
Continuous
 62
     4
100
AcDbCircle
 10
530.4676251542409
 20
2448.165616210535
 30
0.0
 40
0.0625
  0
LINE
  5
23A
330
6F
100
AcDbEntity
  8
2-0
  6
DASHED2
 62
     7
100
AcDbLine
 10
1562.967625
 20
2221.120003
 30
0.0
 11
547.9676249999999
 21
2221.120003
 31
0.0
  0
LINE
  5
23B
330
6F
100
AcDbEntity
  8
2-0
  6
DASHED2
 62
     7
100
AcDbLine
 10
1562.967625
 20
2223.820003
 30
0.0
 11
547.9676249999999
 21
2223.820003
 31
0.0
  0
LINE
  5
23C
330
6F
100
AcDbEntity
  8
2-0
  6
Continuous
 62
     7
100
AcDbLine
 10
1580.467625
 20
2243.820003
 30
0.0
 11
530.4676249999999
 21
2243.820003
 31
0.0
  0
LINE
  5
23D
330
6F
100
AcDbEntity
  8
8-0
  6
Continuous
 62
     4
100
AcDbLine
 10
1580.467625
 20
2341.376174
 30
0.0
 11
1580.467625
 21
2448.165616000001
 31
0.0
  0
LINE
  5
23E
330
6F
100
AcDbEntity
  8
8-0
  6
Continuous
 62
     4
100
AcDbLine
 10
1230.467625
 20
2447.694222
 30
0.0
 11
1230.467625
 21
2448.165616000001
 31
0.0
  0
TEXT
  5
23F
330
6F
100
AcDbEntity
  8
8-0
 62
     4
100
AcDbText
 10
1374.69
 20
2448.786
 30
0.0
 40
36.288
  1
350
100
AcDbText
  0
LINE
  5
240
330
6F
100
AcDbEntity
  8
8-0
  6
Continuous
 62
     4
100
AcDbLine
 10
1230.46762515424
 20
2448.165616210535
 30
0.0
 11
1580.46762515424
 21
2448.165616210535
 31
0.0
  0
CIRCLE
  5
241
330
6F
100
AcDbEntity
  8
8-0
  6
Continuous
 62
     4
100
AcDbCircle
 10
1230.46762515424
 20
2448.165616210535
 30
0.0
 40
0.25
  0
CIRCLE
  5
242
330
6F
100
AcDbEntity
  8
8-0
  6
Continuous
 62
     4
100
AcDbCircle
 10
1230.46762515424
 20
2448.165616210535
 30
0.0
 40
0.1875
  0
CIRCLE
  5
243
330
6F
100
AcDbEntity
  8
8-0
  6
Continuous
 62
     4
100
AcDbCircle
 10
1230.46762515424
 20
2448.165616210535
 30
0.0
 40
0.125
  0
CIRCLE
  5
244
330
6F
100
AcDbEntity
  8
8-0
  6
Continuous
 62
     4
100
AcDbCircle
 10
1230.46762515424
 20
2448.165616210535
 30
0.0
 40
0.0625
  0
CIRCLE
  5
245
330
6F
100
AcDbEntity
  8
8-0
  6
Continuous
 62
     4
100
AcDbCircle
 10
1580.46762515424
 20
2448.165616210535
 30
0.0
 40
0.25
  0
CIRCLE
  5
246
330
6F
100
AcDbEntity
  8
8-0
  6
Continuous
 62
     4
100
AcDbCircle
 10
1580.46762515424
 20
2448.165616210535
 30
0.0
 40
0.1875
  0
CIRCLE
  5
247
330
6F
100
AcDbEntity
  8
8-0
  6
Continuous
 62
     4
100
AcDbCircle
 10
1580.46762515424
 20
2448.165616210535
 30
0.0
 40
0.125
  0
CIRCLE
  5
248
330
6F
100
AcDbEntity
  8
8-0
  6
Continuous
 62
     4
100
AcDbCircle
 10
1580.46762515424
 20
2448.165616210535
 30
0.0
 40
0.0625
  0
LINE
  5
249
330
6F
100
AcDbEntity
  8
9-0
  6
CENTER
 62
     6
100
AcDbLine
 10
1230.467625
 20
2223.820003
 30
0.0
 11
1230.467625
 21
2444.476746
 31
0.0
  0
LINE
  5
24A
330
6F
100
AcDbEntity
  8
8-0
  6
Continuous
 62
     4
100
AcDbLine
 10
1250.467625
 20
2283.783501
 30
0.0
 11
1250.467625
 21
2348.165616000001
 31
0.0
  0
LINE
  5
24B
330
6F
100
AcDbEntity
  8
8-0
  6
Continuous
 62
     4
100
AcDbLine
 10
1210.467625
 20
2287.807864
 30
0.0
 11
1210.467625
 21
2348.165616000001
 31
0.0
  0
LINE
  5
24C
330
6F
100
AcDbEntity
  8
8-0
  6
Continuous
 62
     4
100
AcDbLine
 10
1240.467625
 20
2348.165616000001
 30
0.0
 11
1220.467625
 21
2348.165616000001
 31
0.0
  0
LINE
  5
24D
330
6F
100
AcDbEntity
  8
8-0
  6
Continuous
 62
     4
100
AcDbLine
 10
1230.467625
 20
2348.165616000001
 30
0.0
 11
1211.74674
 21
2378.513799
 31
0.0
  0
LINE
  5
24E
330
6F
100
AcDbEntity
  8
8-0
  6
Continuous
 62
     4
100
AcDbLine
 10
1211.74674
 20
2378.513799
 30
0.0
 11
1149.462476
 21
2378.513799
 31
0.0
  0
TEXT
  5
24F
330
6F
100
AcDbEntity
  8
8-0
 62
     4
100
AcDbText
 10
1161.027
 20
2379.134
 30
0.0
 40
36.288
  1
40
100
AcDbText
  0
CIRCLE
  5
250
330
6F
100
AcDbEntity
  8
8-0
  6
Continuous
 62
     4
100
AcDbCircle
 10
1250.467625154241
 20
2348.165616210535
 30
0.0
 40
0.25
  0
CIRCLE
  5
251
330
6F
100
AcDbEntity
  8
8-0
  6
Continuous
 62
     4
100
AcDbCircle
 10
1250.467625154241
 20
2348.165616210535
 30
0.0
 40
0.1875
  0
CIRCLE
  5
252
330
6F
100
AcDbEntity
  8
8-0
  6
Continuous
 62
     4
100
AcDbCircle
 10
1250.467625154241
 20
2348.165616210535
 30
0.0
 40
0.125
  0
CIRCLE
  5
253
330
6F
100
AcDbEntity
  8
8-0
  6
Continuous
 62
     4
100
AcDbCircle
 10
1250.467625154241
 20
2348.165616210535
 30
0.0
 40
0.0625
  0
ARC
  5
254
330
6F
100
AcDbEntity
  8
8-0
 62
     4
100
AcDbCircle
 10
1250.467625154241
 20
2348.170616210535
 30
0.0
 40
2.5
100
AcDbArc
 50
0.1145914065300158
 51
180.114591405945
  0
LINE
  5
255
330
6F
100
AcDbEntity
  8
8-0
 62
     4
100
AcDbLine
 10
1245.467625154241
 20
2348.165616210535
 30
0.0
 11
1240.467625154241
 21
2348.165616210535
 31
0.0
  0
CIRCLE
  5
256
330
6F
100
AcDbEntity
  8
8-0
  6
Continuous
 62
     4
100
AcDbCircle
 10
1210.467625154241
 20
2348.165616210535
 30
0.0
 40
0.25
  0
CIRCLE
  5
257
330
6F
100
AcDbEntity
  8
8-0
  6
Continuous
 62
     4
100
AcDbCircle
 10
1210.467625154241
 20
2348.165616210535
 30
0.0
 40
0.1875
  0
CIRCLE
  5
258
330
6F
100
AcDbEntity
  8
8-0
  6
Continuous
 62
     4
100
AcDbCircle
 10
1210.467625154241
 20
2348.165616210535
 30
0.0
 40
0.125
  0
CIRCLE
  5
259
330
6F
100
AcDbEntity
  8
8-0
  6
Continuous
 62
     4
100
AcDbCircle
 10
1210.467625154241
 20
2348.165616210535
 30
0.0
 40
0.0625
  0
ARC
  5
25A
330
6F
100
AcDbEntity
  8
8-0
 62
     4
100
AcDbCircle
 10
1210.467625154241
 20
2348.160616210535
 30
0.0
 40
2.5
100
AcDbArc
 50
180.1145914065301
 51
0.1145914059449637
  0
LINE
  5
25B
330
6F
100
AcDbEntity
  8
8-0
 62
     4
100
AcDbLine
 10
1215.467625154241
 20
2348.165616210586
 30
0.0
 11
1220.467625154241
 21
2348.165616210637
 31
0.0
  0
LINE
  5
25C
330
6F
100
AcDbEntity
  8
2-0
  6
DASHED2
 62
     7
100
AcDbLine
 10
1250.467625
 20
2243.820003
 30
0.0
 11
1210.467625
 21
2223.820003
 31
0.0
  0
LINE
  5
25D
330
6F
100
AcDbEntity
  8
2-0
  6
DASHED2
 62
     7
100
AcDbLine
 10
1250.467625
 20
2223.820003
 30
0.0
 11
1250.467625
 21
2243.820003
 31
0.0
  0
LINE
  5
25E
330
6F
100
AcDbEntity
  8
2-0
  6
DASHED2
 62
     7
100
AcDbLine
 10
1210.467625
 20
2223.820003
 30
0.0
 11
1210.467625
 21
2243.820003
 31
0.0
  0
LINE
  5
25F
330
6F
100
AcDbEntity
  8
8-0
  6
Continuous
 62
     4
100
AcDbLine
 10
1562.967625
 20
2283.783501
 30
0.0
 11
1562.967625
 21
2348.165616000001
 31
0.0
  0
LINE
  5
260
330
6F
100
AcDbEntity
  8
8-0
  6
Continuous
 62
     4
100
AcDbLine
 10
1580.467625
 20
2285.393246
 30
0.0
 11
1580.467625
 21
2348.165616000001
 31
0.0
  0
LINE
  5
261
330
6F
100
AcDbEntity
  8
8-0
  6
Continuous
 62
     4
100
AcDbLine
 10
1552.967625
 20
2348.165616000001
 30
0.0
 11
1542.967625
 21
2348.165616000001
 31
0.0
  0
LINE
  5
262
330
6F
100
AcDbEntity
  8
8-0
  6
Continuous
 62
     4
100
AcDbLine
 10
1590.467625
 20
2348.165616000001
 30
0.0
 11
1600.467625
 21
2348.165616000001
 31
0.0
  0
LINE
  5
263
330
6F
100
AcDbEntity
  8
8-0
  6
Continuous
 62
     4
100
AcDbLine
 10
1571.717625
 20
2348.165616000001
 30
0.0
 11
1596.245524
 21
2378.546328
 31
0.0
  0
LINE
  5
264
330
6F
100
AcDbEntity
  8
8-0
  6
Continuous
 62
     4
100
AcDbLine
 10
1596.245524
 20
2378.546328
 30
0.0
 11
1700.103392
 21
2378.546328
 31
0.0
  0
TEXT
  5
265
330
6F
100
AcDbEntity
  8
8-0
 62
     4
100
AcDbText
 10
1606.197
 20
2379.166000000001
 30
0.0
 40
36.288
  1
17.5
100
AcDbText
  0
LINE
  5
266
330
6F
100
AcDbEntity
  8
8-0
  6
Continuous
 62
     4
100
AcDbLine
 10
1562.967625
 20
2348.165616000001
 30
0.0
 11
1580.467625
 21
2348.165616000001
 31
0.0
  0
LINE
  5
267
330
6F
100
AcDbEntity
  8
8-0
  6
Continuous
 62
     4
100
AcDbLine
 10
1562.967625
 20
2348.165616000001
 30
0.0
 11
1580.467625
 21
2348.165616000001
 31
0.0
  0
CIRCLE
  5
268
330
6F
100
AcDbEntity
  8
8-0
  6
Continuous
 62
     4
100
AcDbCircle
 10
1562.96762515424
 20
2348.165616210535
 30
0.0
 40
0.25
  0
CIRCLE
  5
269
330
6F
100
AcDbEntity
  8
8-0
  6
Continuous
 62
     4
100
AcDbCircle
 10
1562.96762515424
 20
2348.165616210535
 30
0.0
 40
0.1875
  0
CIRCLE
  5
26A
330
6F
100
AcDbEntity
  8
8-0
  6
Continuous
 62
     4
100
AcDbCircle
 10
1562.96762515424
 20
2348.165616210535
 30
0.0
 40
0.125
  0
CIRCLE
  5
26B
330
6F
100
AcDbEntity
  8
8-0
  6
Continuous
 62
     4
100
AcDbCircle
 10
1562.96762515424
 20
2348.165616210535
 30
0.0
 40
0.0625
  0
ARC
  5
26C
330
6F
100
AcDbEntity
  8
8-0
 62
     4
100
AcDbCircle
 10
1562.96762515424
 20
2348.170616210535
 30
0.0
 40
2.5
100
AcDbArc
 50
0.1145914065300158
 51
180.114591405945
  0
LINE
  5
26D
330
6F
100
AcDbEntity
  8
8-0
 62
     4
100
AcDbLine
 10
1557.96762515424
 20
2348.165616210535
 30
0.0
 11
1552.96762515424
 21
2348.165616210535
 31
0.0
  0
CIRCLE
  5
26E
330
6F
100
AcDbEntity
  8
8-0
  6
Continuous
 62
     4
100
AcDbCircle
 10
1580.46762515424
 20
2348.165616210535
 30
0.0
 40
0.25
  0
CIRCLE
  5
26F
330
6F
100
AcDbEntity
  8
8-0
  6
Continuous
 62
     4
100
AcDbCircle
 10
1580.46762515424
 20
2348.165616210535
 30
0.0
 40
0.1875
  0
CIRCLE
  5
270
330
6F
100
AcDbEntity
  8
8-0
  6
Continuous
 62
     4
100
AcDbCircle
 10
1580.46762515424
 20
2348.165616210535
 30
0.0
 40
0.125
  0
CIRCLE
  5
271
330
6F
100
AcDbEntity
  8
8-0
  6
Continuous
 62
     4
100
AcDbCircle
 10
1580.46762515424
 20
2348.165616210535
 30
0.0
 40
0.0625
  0
ARC
  5
272
330
6F
100
AcDbEntity
  8
8-0
 62
     4
100
AcDbCircle
 10
1580.46762515424
 20
2348.160616210535
 30
0.0
 40
2.5
100
AcDbArc
 50
180.1145914065301
 51
0.1145914059449637
  0
LINE
  5
273
330
6F
100
AcDbEntity
  8
8-0
 62
     4
100
AcDbLine
 10
1585.46762515424
 20
2348.165616210586
 30
0.0
 11
1590.46762515424
 21
2348.165616210637
 31
0.0
  0
LINE
  5
274
330
6F
100
AcDbEntity
  8
8-0
  6
Continuous
 62
     4
100
AcDbLine
 10
1562.967625
 20
2283.783501
 30
0.0
 11
1562.967625
 21
2348.165616000001
 31
0.0
  0
LINE
  5
275
330
6F
100
AcDbEntity
  8
8-0
  6
Continuous
 62
     4
100
AcDbLine
 10
1522.967625
 20
2287.807864
 30
0.0
 11
1522.967625
 21
2348.165616000001
 31
0.0
  0
LINE
  5
276
330
6F
100
AcDbEntity
  8
8-0
  6
Continuous
 62
     4
100
AcDbLine
 10
1552.967625
 20
2348.165616000001
 30
0.0
 11
1532.967625
 21
2348.165616000001
 31
0.0
  0
LINE
  5
277
330
6F
100
AcDbEntity
  8
8-0
  6
Continuous
 62
     4
100
AcDbLine
 10
1542.967625
 20
2348.165616000001
 30
0.0
 11
1519.24674
 21
2378.513799
 31
0.0
  0
LINE
  5
278
330
6F
100
AcDbEntity
  8
8-0
  6
Continuous
 62
     4
100
AcDbLine
 10
1519.24674
 20
2378.513799
 30
0.0
 11
1456.962476
 21
2378.513799
 31
0.0
  0
TEXT
  5
279
330
6F
100
AcDbEntity
  8
8-0
 62
     4
100
AcDbText
 10
1468.527
 20
2379.134
 30
0.0
 40
36.288
  1
40
100
AcDbText
  0
CIRCLE
  5
27A
330
6F
100
AcDbEntity
  8
8-0
  6
Continuous
 62
     4
100
AcDbCircle
 10
1562.96762515424
 20
2348.165616210535
 30
0.0
 40
0.25
  0
CIRCLE
  5
27B
330
6F
100
AcDbEntity
  8
8-0
  6
Continuous
 62
     4
100
AcDbCircle
 10
1562.96762515424
 20
2348.165616210535
 30
0.0
 40
0.1875
  0
CIRCLE
  5
27C
330
6F
100
AcDbEntity
  8
8-0
  6
Continuous
 62
     4
100
AcDbCircle
 10
1562.96762515424
 20
2348.165616210535
 30
0.0
 40
0.125
  0
CIRCLE
  5
27D
330
6F
100
AcDbEntity
  8
8-0
  6
Continuous
 62
     4
100
AcDbCircle
 10
1562.96762515424
 20
2348.165616210535
 30
0.0
 40
0.0625
  0
ARC
  5
27E
330
6F
100
AcDbEntity
  8
8-0
 62
     4
100
AcDbCircle
 10
1562.96762515424
 20
2348.170616210535
 30
0.0
 40
2.5
100
AcDbArc
 50
0.1145914065300158
 51
180.114591405945
  0
LINE
  5
27F
330
6F
100
AcDbEntity
  8
8-0
 62
     4
100
AcDbLine
 10
1557.96762515424
 20
2348.165616210535
 30
0.0
 11
1552.96762515424
 21
2348.165616210535
 31
0.0
  0
CIRCLE
  5
280
330
6F
100
AcDbEntity
  8
8-0
  6
Continuous
 62
     4
100
AcDbCircle
 10
1522.96762515424
 20
2348.165616210535
 30
0.0
 40
0.25
  0
CIRCLE
  5
281
330
6F
100
AcDbEntity
  8
8-0
  6
Continuous
 62
     4
100
AcDbCircle
 10
1522.96762515424
 20
2348.165616210535
 30
0.0
 40
0.1875
  0
CIRCLE
  5
282
330
6F
100
AcDbEntity
  8
8-0
  6
Continuous
 62
     4
100
AcDbCircle
 10
1522.96762515424
 20
2348.165616210535
 30
0.0
 40
0.125
  0
CIRCLE
  5
283
330
6F
100
AcDbEntity
  8
8-0
  6
Continuous
 62
     4
100
AcDbCircle
 10
1522.96762515424
 20
2348.165616210535
 30
0.0
 40
0.0625
  0
ARC
  5
284
330
6F
100
AcDbEntity
  8
8-0
 62
     4
100
AcDbCircle
 10
1522.96762515424
 20
2348.160616210535
 30
0.0
 40
2.5
100
AcDbArc
 50
180.1145914065301
 51
0.1145914059449637
  0
LINE
  5
285
330
6F
100
AcDbEntity
  8
8-0
 62
     4
100
AcDbLine
 10
1527.96762515424
 20
2348.165616210586
 30
0.0
 11
1532.96762515424
 21
2348.165616210637
 31
0.0
  0
LINE
  5
286
330
6F
100
AcDbEntity
  8
2-0
  6
DASHED2
 62
     7
100
AcDbLine
 10
1522.967625
 20
2223.820003
 30
0.0
 11
1562.967625
 21
2243.820003
 31
0.0
  0
LINE
  5
287
330
6F
100
AcDbEntity
  8
2-0
  6
DASHED2
 62
     7
100
AcDbLine
 10
1522.967625
 20
2243.820003
 30
0.0
 11
1522.967625
 21
2223.820003
 31
0.0
  0
LINE
  5
288
330
6F
100
AcDbEntity
  8
2-0
  6
DASHED2
 62
     7
100
AcDbLine
 10
587.967625
 20
2243.820003
 30
0.0
 11
587.967625
 21
2223.820003
 31
0.0
  0
LINE
  5
289
330
6F
100
AcDbEntity
  8
8-0
  6
Continuous
 62
     4
100
AcDbLine
 10
547.9676249999999
 20
2283.783501
 30
0.0
 11
547.9676249999999
 21
2348.165616000001
 31
0.0
  0
LINE
  5
28A
330
6F
100
AcDbEntity
  8
8-0
  6
Continuous
 62
     4
100
AcDbLine
 10
587.967625
 20
2287.807864
 30
0.0
 11
587.967625
 21
2348.165616000001
 31
0.0
  0
LINE
  5
28B
330
6F
100
AcDbEntity
  8
8-0
  6
Continuous
 62
     4
100
AcDbLine
 10
557.967625
 20
2348.165616000001
 30
0.0
 11
577.967625
 21
2348.165616000001
 31
0.0
  0
LINE
  5
28C
330
6F
100
AcDbEntity
  8
8-0
  6
Continuous
 62
     4
100
AcDbLine
 10
567.9676249999999
 20
2348.165616000001
 30
0.0
 11
591.68851
 21
2378.513799
 31
0.0
  0
LINE
  5
28D
330
6F
100
AcDbEntity
  8
8-0
  6
Continuous
 62
     4
100
AcDbLine
 10
591.68851
 20
2378.513799
 30
0.0
 11
653.972774
 21
2378.513799
 31
0.0
  0
TEXT
  5
28E
330
6F
100
AcDbEntity
  8
8-0
 62
     4
100
AcDbText
 10
603.253
 20
2379.134
 30
0.0
 40
36.288
  1
40
100
AcDbText
  0
CIRCLE
  5
28F
330
6F
100
AcDbEntity
  8
8-0
  6
Continuous
 62
     4
100
AcDbCircle
 10
547.9676251542409
 20
2348.165616210535
 30
0.0
 40
0.25
  0
CIRCLE
  5
290
330
6F
100
AcDbEntity
  8
8-0
  6
Continuous
 62
     4
100
AcDbCircle
 10
547.9676251542409
 20
2348.165616210535
 30
0.0
 40
0.1875
  0
CIRCLE
  5
291
330
6F
100
AcDbEntity
  8
8-0
  6
Continuous
 62
     4
100
AcDbCircle
 10
547.9676251542409
 20
2348.165616210535
 30
0.0
 40
0.125
  0
CIRCLE
  5
292
330
6F
100
AcDbEntity
  8
8-0
  6
Continuous
 62
     4
100
AcDbCircle
 10
547.9676251542409
 20
2348.165616210535
 30
0.0
 40
0.0625
  0
ARC
  5
293
330
6F
100
AcDbEntity
  8
8-0
 62
     4
100
AcDbCircle
 10
547.9676251542409
 20
2348.160616210535
 30
0.0
 40
2.5
100
AcDbArc
 50
180.1145914065301
 51
0.1145914059449637
  0
LINE
  5
294
330
6F
100
AcDbEntity
  8
8-0
 62
     4
100
AcDbLine
 10
552.967625154241
 20
2348.165616210586
 30
0.0
 11
557.967625154241
 21
2348.165616210637
 31
0.0
  0
CIRCLE
  5
295
330
6F
100
AcDbEntity
  8
8-0
  6
Continuous
 62
     4
100
AcDbCircle
 10
587.9676251542409
 20
2348.165616210535
 30
0.0
 40
0.25
  0
CIRCLE
  5
296
330
6F
100
AcDbEntity
  8
8-0
  6
Continuous
 62
     4
100
AcDbCircle
 10
587.9676251542409
 20
2348.165616210535
 30
0.0
 40
0.1875
  0
CIRCLE
  5
297
330
6F
100
AcDbEntity
  8
8-0
  6
Continuous
 62
     4
100
AcDbCircle
 10
587.9676251542409
 20
2348.165616210535
 30
0.0
 40
0.125
  0
CIRCLE
  5
298
330
6F
100
AcDbEntity
  8
8-0
  6
Continuous
 62
     4
100
AcDbCircle
 10
587.9676251542409
 20
2348.165616210535
 30
0.0
 40
0.0625
  0
ARC
  5
299
330
6F
100
AcDbEntity
  8
8-0
 62
     4
100
AcDbCircle
 10
587.9676251542409
 20
2348.170616210535
 30
0.0
 40
2.5
100
AcDbArc
 50
0.1145914065300158
 51
180.114591405945
  0
LINE
  5
29A
330
6F
100
AcDbEntity
  8
8-0
 62
     4
100
AcDbLine
 10
582.967625154241
 20
2348.165616210535
 30
0.0
 11
577.967625154241
 21
2348.165616210535
 31
0.0
  0
LINE
  5
29B
330
6F
100
AcDbEntity
  8
8-0
  6
Continuous
 62
     4
100
AcDbLine
 10
547.9676249999999
 20
2283.783501
 30
0.0
 11
547.9676249999999
 21
2348.165616000001
 31
0.0
  0
LINE
  5
29C
330
6F
100
AcDbEntity
  8
8-0
  6
Continuous
 62
     4
100
AcDbLine
 10
530.4676249999999
 20
2285.393246
 30
0.0
 11
530.4676249999999
 21
2348.165616000001
 31
0.0
  0
LINE
  5
29D
330
6F
100
AcDbEntity
  8
8-0
  6
Continuous
 62
     4
100
AcDbLine
 10
557.967625
 20
2348.165616000001
 30
0.0
 11
567.9676249999999
 21
2348.165616000001
 31
0.0
  0
LINE
  5
29E
330
6F
100
AcDbEntity
  8
8-0
  6
Continuous
 62
     4
100
AcDbLine
 10
520.467625
 20
2348.165616000001
 30
0.0
 11
510.4676249999999
 21
2348.165616000001
 31
0.0
  0
LINE
  5
29F
330
6F
100
AcDbEntity
  8
8-0
  6
Continuous
 62
     4
100
AcDbLine
 10
539.217625
 20
2348.165616000001
 30
0.0
 11
514.6897259999999
 21
2378.546328
 31
0.0
  0
LINE
  5
2A0
330
6F
100
AcDbEntity
  8
8-0
  6
Continuous
 62
     4
100
AcDbLine
 10
514.6897259999999
 20
2378.546328
 30
0.0
 11
410.831858
 21
2378.546328
 31
0.0
  0
TEXT
  5
2A1
330
6F
100
AcDbEntity
  8
8-0
 62
     4
100
AcDbText
 10
420.783
 20
2379.166000000001
 30
0.0
 40
36.288
  1
17.5
100
AcDbText
  0
LINE
  5
2A2
330
6F
100
AcDbEntity
  8
8-0
  6
Continuous
 62
     4
100
AcDbLine
 10
547.9676249999999
 20
2348.165616000001
 30
0.0
 11
530.4676249999999
 21
2348.165616000001
 31
0.0
  0
LINE
  5
2A3
330
6F
100
AcDbEntity
  8
8-0
  6
Continuous
 62
     4
100
AcDbLine
 10
547.9676249999999
 20
2348.165616000001
 30
0.0
 11
530.4676249999999
 21
2348.165616000001
 31
0.0
  0
CIRCLE
  5
2A4
330
6F
100
AcDbEntity
  8
8-0
  6
Continuous
 62
     4
100
AcDbCircle
 10
547.9676251542409
 20
2348.165616210535
 30
0.0
 40
0.25
  0
CIRCLE
  5
2A5
330
6F
100
AcDbEntity
  8
8-0
  6
Continuous
 62
     4
100
AcDbCircle
 10
547.9676251542409
 20
2348.165616210535
 30
0.0
 40
0.1875
  0
CIRCLE
  5
2A6
330
6F
100
AcDbEntity
  8
8-0
  6
Continuous
 62
     4
100
AcDbCircle
 10
547.9676251542409
 20
2348.165616210535
 30
0.0
 40
0.125
  0
CIRCLE
  5
2A7
330
6F
100
AcDbEntity
  8
8-0
  6
Continuous
 62
     4
100
AcDbCircle
 10
547.9676251542409
 20
2348.165616210535
 30
0.0
 40
0.0625
  0
ARC
  5
2A8
330
6F
100
AcDbEntity
  8
8-0
 62
     4
100
AcDbCircle
 10
547.9676251542409
 20
2348.160616210535
 30
0.0
 40
2.5
100
AcDbArc
 50
180.1145914065301
 51
0.1145914059449637
  0
LINE
  5
2A9
330
6F
100
AcDbEntity
  8
8-0
 62
     4
100
AcDbLine
 10
552.967625154241
 20
2348.165616210586
 30
0.0
 11
557.967625154241
 21
2348.165616210637
 31
0.0
  0
CIRCLE
  5
2AA
330
6F
100
AcDbEntity
  8
8-0
  6
Continuous
 62
     4
100
AcDbCircle
 10
530.4676251542409
 20
2348.165616210535
 30
0.0
 40
0.25
  0
CIRCLE
  5
2AB
330
6F
100
AcDbEntity
  8
8-0
  6
Continuous
 62
     4
100
AcDbCircle
 10
530.4676251542409
 20
2348.165616210535
 30
0.0
 40
0.1875
  0
CIRCLE
  5
2AC
330
6F
100
AcDbEntity
  8
8-0
  6
Continuous
 62
     4
100
AcDbCircle
 10
530.4676251542409
 20
2348.165616210535
 30
0.0
 40
0.125
  0
CIRCLE
  5
2AD
330
6F
100
AcDbEntity
  8
8-0
  6
Continuous
 62
     4
100
AcDbCircle
 10
530.4676251542409
 20
2348.165616210535
 30
0.0
 40
0.0625
  0
ARC
  5
2AE
330
6F
100
AcDbEntity
  8
8-0
 62
     4
100
AcDbCircle
 10
530.4676251542409
 20
2348.170616210535
 30
0.0
 40
2.5
100
AcDbArc
 50
0.1145914065300158
 51
180.114591405945
  0
LINE
  5
2AF
330
6F
100
AcDbEntity
  8
8-0
 62
     4
100
AcDbLine
 10
525.4676251542409
 20
2348.165616210535
 30
0.0
 11
520.467625154241
 21
2348.165616210535
 31
0.0
  0
LINE
  5
2B0
330
6F
100
AcDbEntity
  8
2-0
  6
Continuous
 62
     7
100
AcDbLine
 10
530.4676249999999
 20
1898.820003
 30
0.0
 11
530.4676249999999
 21
2243.820003
 31
0.0
  0
LINE
  5
2B1
330
6F
100
AcDbEntity
  8
2-0
  6
Continuous
 62
     7
100
AcDbLine
 10
547.9676249999999
 20
1898.820003
 30
0.0
 11
547.9676249999999
 21
2243.820003
 31
0.0
  0
LINE
  5
2B2
330
6F
100
AcDbEntity
  8
2-0
  6
DASHED2
 62
     7
100
AcDbLine
 10
547.9676249999999
 20
2221.120003
 30
0.0
 11
587.967625
 21
2241.120003
 31
0.0
  0
LINE
  5
2B3
330
6F
100
AcDbEntity
  8
8-0
  6
Continuous
 62
     4
100
AcDbLine
 10
1600.467625
 20
1409.817566
 30
0.0
 11
1701.703801
 21
1409.817566
 31
0.0
  0
LINE
  5
2B4
330
6F
100
AcDbEntity
  8
8-0
  6
Continuous
 62
     4
100
AcDbLine
 10
1600.467625
 20
809.817566
 30
0.0
 11
1701.703801
 21
809.817566
 31
0.0
  0
TEXT
  5
2B5
330
6F
100
AcDbEntity
  8
8-0
 62
     4
100
AcDbText
 10
1701.083999999999
 20
1076.218
 30
0.0
 40
36.288
  1
600
 50
90.0
100
AcDbText
  0
LINE
  5
2B6
330
6F
100
AcDbEntity
  8
8-0
  6
Continuous
 62
     4
100
AcDbLine
 10
1701.70380101674
 20
809.817565842226
 30
0.0
 11
1701.70380101674
 21
1409.817565842226
 31
0.0
  0
CIRCLE
  5
2B7
330
6F
100
AcDbEntity
  8
8-0
  6
Continuous
 62
     4
100
AcDbCircle
 10
1701.70380101674
 20
809.817565842226
 30
0.0
 40
0.25
  0
CIRCLE
  5
2B8
330
6F
100
AcDbEntity
  8
8-0
  6
Continuous
 62
     4
100
AcDbCircle
 10
1701.70380101674
 20
809.817565842226
 30
0.0
 40
0.1875
  0
CIRCLE
  5
2B9
330
6F
100
AcDbEntity
  8
8-0
  6
Continuous
 62
     4
100
AcDbCircle
 10
1701.70380101674
 20
809.817565842226
 30
0.0
 40
0.125
  0
CIRCLE
  5
2BA
330
6F
100
AcDbEntity
  8
8-0
  6
Continuous
 62
     4
100
AcDbCircle
 10
1701.70380101674
 20
809.817565842226
 30
0.0
 40
0.0625
  0
CIRCLE
  5
2BB
330
6F
100
AcDbEntity
  8
8-0
  6
Continuous
 62
     4
100
AcDbCircle
 10
1701.70380101674
 20
1409.817565842226
 30
0.0
 40
0.25
  0
CIRCLE
  5
2BC
330
6F
100
AcDbEntity
  8
8-0
  6
Continuous
 62
     4
100
AcDbCircle
 10
1701.70380101674
 20
1409.817565842226
 30
0.0
 40
0.1875
  0
CIRCLE
  5
2BD
330
6F
100
AcDbEntity
  8
8-0
  6
Continuous
 62
     4
100
AcDbCircle
 10
1701.70380101674
 20
1409.817565842226
 30
0.0
 40
0.125
  0
CIRCLE
  5
2BE
330
6F
100
AcDbEntity
  8
8-0
  6
Continuous
 62
     4
100
AcDbCircle
 10
1701.70380101674
 20
1409.817565842226
 30
0.0
 40
0.0625
  0
LINE
  5
2BF
330
6F
100
AcDbEntity
  8
2-0
  6
DASHED2
 62
     7
100
AcDbLine
 10
1222.967625
 20
1936.120003
 30
0.0
 11
547.9676249999999
 21
1936.120003
 31
0.0
  0
LINE
  5
2C0
330
6F
100
AcDbEntity
  8
8-0
  6
Continuous
 62
     4
100
AcDbLine
 10
510.4676249999999
 20
1409.817566
 30
0.0
 11
232.193405
 21
1409.817566
 31
0.0
  0
LINE
  5
2C1
330
6F
100
AcDbEntity
  8
8-0
  6
Continuous
 62
     4
100
AcDbLine
 10
514.4676249999999
 20
784.817566
 30
0.0
 11
232.193405
 21
784.817566
 31
0.0
  0
TEXT
  5
2C2
330
6F
100
AcDbEntity
  8
8-0
 62
     4
100
AcDbText
 10
231.573
 20
1063.718
 30
0.0
 40
36.288
  1
625
 50
90.0
100
AcDbText
  0
LINE
  5
2C3
330
6F
100
AcDbEntity
  8
8-0
  6
Continuous
 62
     4
100
AcDbLine
 10
232.193404807445
 20
784.8175658422259
 30
0.0
 11
232.193404807446
 21
1409.817565842226
 31
0.0
  0
CIRCLE
  5
2C4
330
6F
100
AcDbEntity
  8
8-0
  6
Continuous
 62
     4
100
AcDbCircle
 10
232.193404807445
 20
784.8175658422259
 30
0.0
 40
0.25
  0
CIRCLE
  5
2C5
330
6F
100
AcDbEntity
  8
8-0
  6
Continuous
 62
     4
100
AcDbCircle
 10
232.193404807445
 20
784.8175658422259
 30
0.0
 40
0.1875
  0
CIRCLE
  5
2C6
330
6F
100
AcDbEntity
  8
8-0
  6
Continuous
 62
     4
100
AcDbCircle
 10
232.193404807445
 20
784.8175658422259
 30
0.0
 40
0.125
  0
CIRCLE
  5
2C7
330
6F
100
AcDbEntity
  8
8-0
  6
Continuous
 62
     4
100
AcDbCircle
 10
232.193404807445
 20
784.8175658422259
 30
0.0
 40
0.0625
  0
CIRCLE
  5
2C8
330
6F
100
AcDbEntity
  8
8-0
  6
Continuous
 62
     4
100
AcDbCircle
 10
232.193404807446
 20
1409.817565842226
 30
0.0
 40
0.25
  0
CIRCLE
  5
2C9
330
6F
100
AcDbEntity
  8
8-0
  6
Continuous
 62
     4
100
AcDbCircle
 10
232.193404807446
 20
1409.817565842226
 30
0.0
 40
0.1875
  0
CIRCLE
  5
2CA
330
6F
100
AcDbEntity
  8
8-0
  6
Continuous
 62
     4
100
AcDbCircle
 10
232.193404807446
 20
1409.817565842226
 30
0.0
 40
0.125
  0
CIRCLE
  5
2CB
330
6F
100
AcDbEntity
  8
8-0
  6
Continuous
 62
     4
100
AcDbCircle
 10
232.193404807446
 20
1409.817565842226
 30
0.0
 40
0.0625
  0
LINE
  5
2CC
330
6F
100
AcDbEntity
  8
2-0
  6
Continuous
 62
     7
100
AcDbLine
 10
2092.084358
 20
809.817566
 30
0.0
 11
2437.084358
 21
809.817566
 31
0.0
  0
LINE
  5
2CD
330
6F
100
AcDbEntity
  8
2-0
  6
Continuous
 62
     7
100
AcDbLine
 10
2092.084358
 20
809.817566
 30
0.0
 11
2437.084358
 21
809.817566
 31
0.0
  0
LINE
  5
2CE
330
6F
100
AcDbEntity
  8
2-0
  6
Continuous
 62
     7
100
AcDbLine
 10
2092.084358
 20
809.817566
 30
0.0
 11
2092.084358
 21
1409.817566
 31
0.0
  0
LINE
  5
2CF
330
6F
100
AcDbEntity
  8
2-0
  6
Continuous
 62
     7
100
AcDbLine
 10
2454.084358
 20
784.817566
 30
0.0
 11
2454.084358
 21
1404.817566
 31
0.0
  0
LINE
  5
2D0
330
6F
100
AcDbEntity
  8
2-0
  6
Continuous
 62
     7
100
AcDbLine
 10
2439.084358000001
 20
784.817566
 30
0.0
 11
2439.084358000001
 21
1404.817566
 31
0.0
  0
LINE
  5
2D1
330
6F
100
AcDbEntity
  8
2-0
  6
Continuous
 62
     7
100
AcDbLine
 10
2437.084358
 20
809.817566
 30
0.0
 11
2437.084358
 21
1409.817566
 31
0.0
  0
LINE
  5
2D2
330
6F
100
AcDbEntity
  8
2-0
  6
Continuous
 62
     7
100
AcDbLine
 10
2439.084358000001
 20
1404.817566
 30
0.0
 11
2454.084358
 21
1404.817566
 31
0.0
  0
LINE
  5
2D3
330
6F
100
AcDbEntity
  8
2-0
  6
Continuous
 62
     7
100
AcDbLine
 10
2092.084358
 20
1394.817566
 30
0.0
 11
2437.084358
 21
1394.817566
 31
0.0
  0
LINE
  5
2D4
330
6F
100
AcDbEntity
  8
2-0
  6
Continuous
 62
     7
100
AcDbLine
 10
2112.084358
 20
827.3175660000001
 30
0.0
 11
2112.084358
 21
1394.817566
 31
0.0
  0
LINE
  5
2D5
330
6F
100
AcDbEntity
  8
2-0
  6
Continuous
 62
     7
100
AcDbLine
 10
2114.784358
 20
827.3175660000001
 30
0.0
 11
2114.784358
 21
1394.817566
 31
0.0
  0
LINE
  5
2D6
330
6F
100
AcDbEntity
  8
2-0
  6
Continuous
 62
     7
100
AcDbLine
 10
2092.084358
 20
827.3175660000001
 30
0.0
 11
2437.084358
 21
827.3175660000001
 31
0.0
  0
LINE
  5
2D7
330
6F
100
AcDbEntity
  8
2-0
  6
Continuous
 62
     7
100
AcDbLine
 10
2092.084358
 20
862.3175660000001
 30
0.0
 11
2112.084358
 21
862.3175660000001
 31
0.0
  0
LINE
  5
2D8
330
6F
100
AcDbEntity
  8
2-0
  6
Continuous
 62
     7
100
AcDbLine
 10
2092.084358
 20
1354.817566
 30
0.0
 11
2112.084358
 21
1354.817566
 31
0.0
  0
LINE
  5
2D9
330
6F
100
AcDbEntity
  8
2-0
  6
DASHED2
 62
     7
100
AcDbLine
 10
2112.084358
 20
1394.817566
 30
0.0
 11
2092.084358
 21
1354.817566
 31
0.0
  0
LINE
  5
2DA
330
6F
100
AcDbEntity
  8
2-0
  6
DASHED2
 62
     7
100
AcDbLine
 10
2092.084358
 20
827.3175660000001
 30
0.0
 11
2112.084358
 21
862.3175660000001
 31
0.0
  0
LINE
  5
2DB
330
6F
100
AcDbEntity
  8
2-0
  6
Continuous
 62
     7
100
AcDbLine
 10
2439.084358000001
 20
784.817566
 30
0.0
 11
2454.084358
 21
784.817566
 31
0.0
  0
LINE
  5
2DC
330
6F
100
AcDbEntity
  8
8-0
  6
Continuous
 62
     4
100
AcDbLine
 10
2054.475207
 20
809.817566
 30
0.0
 11
1939.514531
 21
809.817566
 31
0.0
  0
LINE
  5
2DD
330
6F
100
AcDbEntity
  8
8-0
  6
Continuous
 62
     4
100
AcDbLine
 10
2054.428974
 20
827.3175660000001
 30
0.0
 11
1939.514531
 21
827.3175660000001
 31
0.0
  0
LINE
  5
2DE
330
6F
100
AcDbEntity
  8
8-0
  6
Continuous
 62
     4
100
AcDbLine
 10
1939.514531
 20
799.8175660000001
 30
0.0
 11
1939.514531
 21
789.817566
 31
0.0
  0
LINE
  5
2DF
330
6F
100
AcDbEntity
  8
8-0
  6
Continuous
 62
     4
100
AcDbLine
 10
1939.514531
 20
837.3175660000001
 30
0.0
 11
1939.514531
 21
847.317566
 31
0.0
  0
LINE
  5
2E0
330
6F
100
AcDbEntity
  8
8-0
  6
Continuous
 62
     4
100
AcDbLine
 10
1939.514531
 20
818.5675660000001
 30
0.0
 11
1909.243423
 21
799.0997059999999
 31
0.0
  0
LINE
  5
2E1
330
6F
100
AcDbEntity
  8
8-0
  6
Continuous
 62
     4
100
AcDbLine
 10
1909.243423
 20
799.0997059999999
 30
0.0
 11
1909.243423
 21
695.241838
 31
0.0
  0
TEXT
  5
2E2
330
6F
100
AcDbEntity
  8
8-0
 62
     4
100
AcDbText
 10
1908.623
 20
702.3710000000001
 30
0.0
 40
36.288
  1
17.5
 50
90.0
100
AcDbText
  0
LINE
  5
2E3
330
6F
100
AcDbEntity
  8
8-0
  6
Continuous
 62
     4
100
AcDbLine
 10
1939.514531
 20
809.817566
 30
0.0
 11
1939.514531
 21
827.3175660000001
 31
0.0
  0
LINE
  5
2E4
330
6F
100
AcDbEntity
  8
8-0
  6
Continuous
 62
     4
100
AcDbLine
 10
1939.514531
 20
809.817566
 30
0.0
 11
1939.514531
 21
827.3175660000001
 31
0.0
  0
CIRCLE
  5
2E5
330
6F
100
AcDbEntity
  8
8-0
  6
Continuous
 62
     4
100
AcDbCircle
 10
1939.514530930304
 20
809.817565842226
 30
0.0
 40
0.25
  0
CIRCLE
  5
2E6
330
6F
100
AcDbEntity
  8
8-0
  6
Continuous
 62
     4
100
AcDbCircle
 10
1939.514530930304
 20
809.817565842226
 30
0.0
 40
0.1875
  0
CIRCLE
  5
2E7
330
6F
100
AcDbEntity
  8
8-0
  6
Continuous
 62
     4
100
AcDbCircle
 10
1939.514530930304
 20
809.817565842226
 30
0.0
 40
0.125
  0
CIRCLE
  5
2E8
330
6F
100
AcDbEntity
  8
8-0
  6
Continuous
 62
     4
100
AcDbCircle
 10
1939.514530930304
 20
809.817565842226
 30
0.0
 40
0.0625
  0
ARC
  5
2E9
330
6F
100
AcDbEntity
  8
8-0
 62
     4
100
AcDbCircle
 10
1939.509530930304
 20
809.817565842226
 30
0.0
 40
2.5
100
AcDbArc
 50
90.11459140653
 51
270.114591405945
  0
LINE
  5
2EA
330
6F
100
AcDbEntity
  8
8-0
 62
     4
100
AcDbLine
 10
1939.51453093033
 20
804.8175658422259
 30
0.0
 11
1939.514530930355
 21
799.8175658422259
 31
0.0
  0
CIRCLE
  5
2EB
330
6F
100
AcDbEntity
  8
8-0
  6
Continuous
 62
     4
100
AcDbCircle
 10
1939.514530930304
 20
827.317565842225
 30
0.0
 40
0.25
  0
CIRCLE
  5
2EC
330
6F
100
AcDbEntity
  8
8-0
  6
Continuous
 62
     4
100
AcDbCircle
 10
1939.514530930304
 20
827.317565842225
 30
0.0
 40
0.1875
  0
CIRCLE
  5
2ED
330
6F
100
AcDbEntity
  8
8-0
  6
Continuous
 62
     4
100
AcDbCircle
 10
1939.514530930304
 20
827.317565842225
 30
0.0
 40
0.125
  0
CIRCLE
  5
2EE
330
6F
100
AcDbEntity
  8
8-0
  6
Continuous
 62
     4
100
AcDbCircle
 10
1939.514530930304
 20
827.317565842225
 30
0.0
 40
0.0625
  0
ARC
  5
2EF
330
6F
100
AcDbEntity
  8
8-0
 62
     4
100
AcDbCircle
 10
1939.519530930304
 20
827.3175658422259
 30
0.0
 40
2.5
100
AcDbArc
 50
270.1145914065301
 51
90.11459140594496
  0
LINE
  5
2F0
330
6F
100
AcDbEntity
  8
8-0
 62
     4
100
AcDbLine
 10
1939.514530930228
 20
832.317565842225
 30
0.0
 11
1939.514530930151
 21
837.3175658422249
 31
0.0
  0
LINE
  5
2F1
330
6F
100
AcDbEntity
  8
8-0
  6
Continuous
 62
     4
100
AcDbLine
 10
2054.52144
 20
862.3175660000001
 30
0.0
 11
1939.514531
 21
862.3175660000001
 31
0.0
  0
LINE
  5
2F2
330
6F
100
AcDbEntity
  8
8-0
  6
Continuous
 62
     4
100
AcDbLine
 10
2054.428974
 20
827.3175660000001
 30
0.0
 11
1939.514531
 21
827.3175660000001
 31
0.0
  0
TEXT
  5
2F3
330
6F
100
AcDbEntity
  8
8-0
 62
     4
100
AcDbText
 10
1906.395
 20
862.5989999999999
 30
0.0
 40
36.288
  1
35
 50
90.0
100
AcDbText
  0
LINE
  5
2F4
330
6F
100
AcDbEntity
  8
8-0
  6
Continuous
 62
     4
100
AcDbLine
 10
1939.514530930304
 20
827.317565842225
 30
0.0
 11
1939.514530930304
 21
862.3175658422249
 31
0.0
  0
CIRCLE
  5
2F5
330
6F
100
AcDbEntity
  8
8-0
  6
Continuous
 62
     4
100
AcDbCircle
 10
1939.514530930304
 20
827.317565842225
 30
0.0
 40
0.25
  0
CIRCLE
  5
2F6
330
6F
100
AcDbEntity
  8
8-0
  6
Continuous
 62
     4
100
AcDbCircle
 10
1939.514530930304
 20
827.317565842225
 30
0.0
 40
0.1875
  0
CIRCLE
  5
2F7
330
6F
100
AcDbEntity
  8
8-0
  6
Continuous
 62
     4
100
AcDbCircle
 10
1939.514530930304
 20
827.317565842225
 30
0.0
 40
0.125
  0
CIRCLE
  5
2F8
330
6F
100
AcDbEntity
  8
8-0
  6
Continuous
 62
     4
100
AcDbCircle
 10
1939.514530930304
 20
827.317565842225
 30
0.0
 40
0.0625
  0
CIRCLE
  5
2F9
330
6F
100
AcDbEntity
  8
8-0
  6
Continuous
 62
     4
100
AcDbCircle
 10
1939.514530930304
 20
862.3175658422249
 30
0.0
 40
0.25
  0
CIRCLE
  5
2FA
330
6F
100
AcDbEntity
  8
8-0
  6
Continuous
 62
     4
100
AcDbCircle
 10
1939.514530930304
 20
862.3175658422249
 30
0.0
 40
0.1875
  0
CIRCLE
  5
2FB
330
6F
100
AcDbEntity
  8
8-0
  6
Continuous
 62
     4
100
AcDbCircle
 10
1939.514530930304
 20
862.3175658422249
 30
0.0
 40
0.125
  0
CIRCLE
  5
2FC
330
6F
100
AcDbEntity
  8
8-0
  6
Continuous
 62
     4
100
AcDbCircle
 10
1939.514530930304
 20
862.3175658422249
 30
0.0
 40
0.0625
  0
LINE
  5
2FD
330
6F
100
AcDbEntity
  8
8-0
  6
Continuous
 62
     4
100
AcDbLine
 10
2054.475207
 20
1409.817566
 30
0.0
 11
1939.514531
 21
1409.817566
 31
0.0
  0
LINE
  5
2FE
330
6F
100
AcDbEntity
  8
8-0
  6
Continuous
 62
     4
100
AcDbLine
 10
2054.428974
 20
1394.817566
 30
0.0
 11
1939.514531
 21
1394.817566
 31
0.0
  0
LINE
  5
2FF
330
6F
100
AcDbEntity
  8
8-0
  6
Continuous
 62
     4
100
AcDbLine
 10
1939.514531
 20
1419.817566
 30
0.0
 11
1939.514531
 21
1429.817566
 31
0.0
  0
LINE
  5
300
330
6F
100
AcDbEntity
  8
8-0
  6
Continuous
 62
     4
100
AcDbLine
 10
1939.514531
 20
1384.817566
 30
0.0
 11
1939.514531
 21
1374.817566
 31
0.0
  0
LINE
  5
301
330
6F
100
AcDbEntity
  8
8-0
  6
Continuous
 62
     4
100
AcDbLine
 10
1939.514531
 20
1402.317566
 30
0.0
 11
1909.243423
 21
1420.535426
 31
0.0
  0
LINE
  5
302
330
6F
100
AcDbEntity
  8
8-0
  6
Continuous
 62
     4
100
AcDbLine
 10
1909.243423
 20
1420.535426
 30
0.0
 11
1909.243423
 21
1478.91106
 31
0.0
  0
TEXT
  5
303
330
6F
100
AcDbEntity
  8
8-0
 62
     4
100
AcDbText
 10
1908.623
 20
1427.323
 30
0.0
 40
36.288
  1
15
 50
90.0
100
AcDbText
  0
LINE
  5
304
330
6F
100
AcDbEntity
  8
8-0
  6
Continuous
 62
     4
100
AcDbLine
 10
1939.514531
 20
1409.817566
 30
0.0
 11
1939.514531
 21
1394.817566
 31
0.0
  0
LINE
  5
305
330
6F
100
AcDbEntity
  8
8-0
  6
Continuous
 62
     4
100
AcDbLine
 10
1939.514531
 20
1409.817566
 30
0.0
 11
1939.514531
 21
1394.817566
 31
0.0
  0
CIRCLE
  5
306
330
6F
100
AcDbEntity
  8
8-0
  6
Continuous
 62
     4
100
AcDbCircle
 10
1939.514530930304
 20
1409.817565842226
 30
0.0
 40
0.25
  0
CIRCLE
  5
307
330
6F
100
AcDbEntity
  8
8-0
  6
Continuous
 62
     4
100
AcDbCircle
 10
1939.514530930304
 20
1409.817565842226
 30
0.0
 40
0.1875
  0
CIRCLE
  5
308
330
6F
100
AcDbEntity
  8
8-0
  6
Continuous
 62
     4
100
AcDbCircle
 10
1939.514530930304
 20
1409.817565842226
 30
0.0
 40
0.125
  0
CIRCLE
  5
309
330
6F
100
AcDbEntity
  8
8-0
  6
Continuous
 62
     4
100
AcDbCircle
 10
1939.514530930304
 20
1409.817565842226
 30
0.0
 40
0.0625
  0
ARC
  5
30A
330
6F
100
AcDbEntity
  8
8-0
 62
     4
100
AcDbCircle
 10
1939.519530930304
 20
1409.817565842226
 30
0.0
 40
2.5
100
AcDbArc
 50
270.1145914065301
 51
90.11459140594496
  0
LINE
  5
30B
330
6F
100
AcDbEntity
  8
8-0
 62
     4
100
AcDbLine
 10
1939.514530930228
 20
1414.817565842226
 30
0.0
 11
1939.514530930151
 21
1419.817565842226
 31
0.0
  0
CIRCLE
  5
30C
330
6F
100
AcDbEntity
  8
8-0
  6
Continuous
 62
     4
100
AcDbCircle
 10
1939.514530930304
 20
1394.817565842226
 30
0.0
 40
0.25
  0
CIRCLE
  5
30D
330
6F
100
AcDbEntity
  8
8-0
  6
Continuous
 62
     4
100
AcDbCircle
 10
1939.514530930304
 20
1394.817565842226
 30
0.0
 40
0.1875
  0
CIRCLE
  5
30E
330
6F
100
AcDbEntity
  8
8-0
  6
Continuous
 62
     4
100
AcDbCircle
 10
1939.514530930304
 20
1394.817565842226
 30
0.0
 40
0.125
  0
CIRCLE
  5
30F
330
6F
100
AcDbEntity
  8
8-0
  6
Continuous
 62
     4
100
AcDbCircle
 10
1939.514530930304
 20
1394.817565842226
 30
0.0
 40
0.0625
  0
ARC
  5
310
330
6F
100
AcDbEntity
  8
8-0
 62
     4
100
AcDbCircle
 10
1939.509530930304
 20
1394.817565842226
 30
0.0
 40
2.5
100
AcDbArc
 50
90.11459140653
 51
270.114591405945
  0
LINE
  5
311
330
6F
100
AcDbEntity
  8
8-0
 62
     4
100
AcDbLine
 10
1939.51453093033
 20
1389.817565842226
 30
0.0
 11
1939.514530930355
 21
1384.817565842226
 31
0.0
  0
LINE
  5
312
330
6F
100
AcDbEntity
  8
8-0
  6
Continuous
 62
     4
100
AcDbLine
 10
2054.52144
 20
1394.817566
 30
0.0
 11
1939.514531
 21
1394.817566
 31
0.0
  0
LINE
  5
313
330
6F
100
AcDbEntity
  8
8-0
  6
Continuous
 62
     4
100
AcDbLine
 10
2053.494043
 20
1354.817566
 30
0.0
 11
1939.514531
 21
1354.817566
 31
0.0
  0
LINE
  5
314
330
6F
100
AcDbEntity
  8
8-0
  6
Continuous
 62
     4
100
AcDbLine
 10
1939.514531
 20
1384.817566
 30
0.0
 11
1939.514531
 21
1364.817566
 31
0.0
  0
LINE
  5
315
330
6F
100
AcDbEntity
  8
8-0
  6
Continuous
 62
     4
100
AcDbLine
 10
1939.514531
 20
1374.817566
 30
0.0
 11
1909.455056
 21
1353.742739
 31
0.0
  0
LINE
  5
316
330
6F
100
AcDbEntity
  8
8-0
  6
Continuous
 62
     4
100
AcDbLine
 10
1909.455056
 20
1353.742739
 30
0.0
 11
1909.455056
 21
1291.458475
 31
0.0
  0
TEXT
  5
317
330
6F
100
AcDbEntity
  8
8-0
 62
     4
100
AcDbText
 10
1908.835
 20
1300.201
 30
0.0
 40
36.288
  1
40
 50
90.0
100
AcDbText
  0
CIRCLE
  5
318
330
6F
100
AcDbEntity
  8
8-0
  6
Continuous
 62
     4
100
AcDbCircle
 10
1939.514530930304
 20
1394.817565842225
 30
0.0
 40
0.25
  0
CIRCLE
  5
319
330
6F
100
AcDbEntity
  8
8-0
  6
Continuous
 62
     4
100
AcDbCircle
 10
1939.514530930304
 20
1394.817565842225
 30
0.0
 40
0.1875
  0
CIRCLE
  5
31A
330
6F
100
AcDbEntity
  8
8-0
  6
Continuous
 62
     4
100
AcDbCircle
 10
1939.514530930304
 20
1394.817565842225
 30
0.0
 40
0.125
  0
CIRCLE
  5
31B
330
6F
100
AcDbEntity
  8
8-0
  6
Continuous
 62
     4
100
AcDbCircle
 10
1939.514530930304
 20
1394.817565842225
 30
0.0
 40
0.0625
  0
ARC
  5
31C
330
6F
100
AcDbEntity
  8
8-0
 62
     4
100
AcDbCircle
 10
1939.509530930304
 20
1394.817565842225
 30
0.0
 40
2.5
100
AcDbArc
 50
90.11459140653
 51
270.114591405945
  0
LINE
  5
31D
330
6F
100
AcDbEntity
  8
8-0
 62
     4
100
AcDbLine
 10
1939.51453093033
 20
1389.817565842225
 30
0.0
 11
1939.514530930355
 21
1384.817565842225
 31
0.0
  0
CIRCLE
  5
31E
330
6F
100
AcDbEntity
  8
8-0
  6
Continuous
 62
     4
100
AcDbCircle
 10
1939.514530930304
 20
1354.817565842225
 30
0.0
 40
0.25
  0
CIRCLE
  5
31F
330
6F
100
AcDbEntity
  8
8-0
  6
Continuous
 62
     4
100
AcDbCircle
 10
1939.514530930304
 20
1354.817565842225
 30
0.0
 40
0.1875
  0
CIRCLE
  5
320
330
6F
100
AcDbEntity
  8
8-0
  6
Continuous
 62
     4
100
AcDbCircle
 10
1939.514530930304
 20
1354.817565842225
 30
0.0
 40
0.125
  0
CIRCLE
  5
321
330
6F
100
AcDbEntity
  8
8-0
  6
Continuous
 62
     4
100
AcDbCircle
 10
1939.514530930304
 20
1354.817565842225
 30
0.0
 40
0.0625
  0
ARC
  5
322
330
6F
100
AcDbEntity
  8
8-0
 62
     4
100
AcDbCircle
 10
1939.519530930304
 20
1354.817565842225
 30
0.0
 40
2.5
100
AcDbArc
 50
270.1145914065301
 51
90.11459140594496
  0
LINE
  5
323
330
6F
100
AcDbEntity
  8
8-0
 62
     4
100
AcDbLine
 10
1939.514530930228
 20
1359.817565842225
 30
0.0
 11
1939.514530930151
 21
1364.817565842225
 31
0.0
  0
LINE
  5
324
330
6F
100
AcDbEntity
  8
8-0
  6
Continuous
 62
     4
100
AcDbLine
 10
2437.084358
 20
742.365135
 30
0.0
 11
2437.084358
 21
675.815211
 31
0.0
  0
LINE
  5
325
330
6F
100
AcDbEntity
  8
8-0
  6
Continuous
 62
     4
100
AcDbLine
 10
2092.084358
 20
740.898688
 30
0.0
 11
2092.084358
 21
675.815211
 31
0.0
  0
TEXT
  5
326
330
6F
100
AcDbEntity
  8
8-0
 62
     4
100
AcDbText
 10
2233.807
 20
676.4349999999999
 30
0.0
 40
36.288
  1
345
100
AcDbText
  0
LINE
  5
327
330
6F
100
AcDbEntity
  8
8-0
  6
Continuous
 62
     4
100
AcDbLine
 10
2092.084357762477
 20
675.815210895425
 30
0.0
 11
2437.084357762478
 21
675.815210895425
 31
0.0
  0
CIRCLE
  5
328
330
6F
100
AcDbEntity
  8
8-0
  6
Continuous
 62
     4
100
AcDbCircle
 10
2092.084357762477
 20
675.815210895425
 30
0.0
 40
0.25
  0
CIRCLE
  5
329
330
6F
100
AcDbEntity
  8
8-0
  6
Continuous
 62
     4
100
AcDbCircle
 10
2092.084357762477
 20
675.815210895425
 30
0.0
 40
0.1875
  0
CIRCLE
  5
32A
330
6F
100
AcDbEntity
  8
8-0
  6
Continuous
 62
     4
100
AcDbCircle
 10
2092.084357762477
 20
675.815210895425
 30
0.0
 40
0.125
  0
CIRCLE
  5
32B
330
6F
100
AcDbEntity
  8
8-0
  6
Continuous
 62
     4
100
AcDbCircle
 10
2092.084357762477
 20
675.815210895425
 30
0.0
 40
0.0625
  0
CIRCLE
  5
32C
330
6F
100
AcDbEntity
  8
8-0
  6
Continuous
 62
     4
100
AcDbCircle
 10
2437.084357762478
 20
675.815210895425
 30
0.0
 40
0.25
  0
CIRCLE
  5
32D
330
6F
100
AcDbEntity
  8
8-0
  6
Continuous
 62
     4
100
AcDbCircle
 10
2437.084357762478
 20
675.815210895425
 30
0.0
 40
0.1875
  0
CIRCLE
  5
32E
330
6F
100
AcDbEntity
  8
8-0
  6
Continuous
 62
     4
100
AcDbCircle
 10
2437.084357762478
 20
675.815210895425
 30
0.0
 40
0.125
  0
CIRCLE
  5
32F
330
6F
100
AcDbEntity
  8
8-0
  6
Continuous
 62
     4
100
AcDbCircle
 10
2437.084357762478
 20
675.815210895425
 30
0.0
 40
0.0625
  0
LINE
  5
330
330
6F
100
AcDbEntity
  8
8-0
  6
Continuous
 62
     4
100
AcDbLine
 10
2454.084358
 20
692.4671489999999
 30
0.0
 11
2454.084358
 21
575.815211
 31
0.0
  0
LINE
  5
331
330
6F
100
AcDbEntity
  8
8-0
  6
Continuous
 62
     4
100
AcDbLine
 10
2092.084358
 20
690.91569
 30
0.0
 11
2092.084358
 21
575.815211
 31
0.0
  0
TEXT
  5
332
330
6F
100
AcDbEntity
  8
8-0
 62
     4
100
AcDbText
 10
2242.307
 20
576.4349999999999
 30
0.0
 40
36.288
  1
362
100
AcDbText
  0
LINE
  5
333
330
6F
100
AcDbEntity
  8
8-0
  6
Continuous
 62
     4
100
AcDbLine
 10
2092.084357762477
 20
575.815210895425
 30
0.0
 11
2454.084357762477
 21
575.815210895425
 31
0.0
  0
CIRCLE
  5
334
330
6F
100
AcDbEntity
  8
8-0
  6
Continuous
 62
     4
100
AcDbCircle
 10
2092.084357762477
 20
575.815210895425
 30
0.0
 40
0.25
  0
CIRCLE
  5
335
330
6F
100
AcDbEntity
  8
8-0
  6
Continuous
 62
     4
100
AcDbCircle
 10
2092.084357762477
 20
575.815210895425
 30
0.0
 40
0.1875
  0
CIRCLE
  5
336
330
6F
100
AcDbEntity
  8
8-0
  6
Continuous
 62
     4
100
AcDbCircle
 10
2092.084357762477
 20
575.815210895425
 30
0.0
 40
0.125
  0
CIRCLE
  5
337
330
6F
100
AcDbEntity
  8
8-0
  6
Continuous
 62
     4
100
AcDbCircle
 10
2092.084357762477
 20
575.815210895425
 30
0.0
 40
0.0625
  0
CIRCLE
  5
338
330
6F
100
AcDbEntity
  8
8-0
  6
Continuous
 62
     4
100
AcDbCircle
 10
2454.084357762477
 20
575.815210895425
 30
0.0
 40
0.25
  0
CIRCLE
  5
339
330
6F
100
AcDbEntity
  8
8-0
  6
Continuous
 62
     4
100
AcDbCircle
 10
2454.084357762477
 20
575.815210895425
 30
0.0
 40
0.1875
  0
CIRCLE
  5
33A
330
6F
100
AcDbEntity
  8
8-0
  6
Continuous
 62
     4
100
AcDbCircle
 10
2454.084357762477
 20
575.815210895425
 30
0.0
 40
0.125
  0
CIRCLE
  5
33B
330
6F
100
AcDbEntity
  8
8-0
  6
Continuous
 62
     4
100
AcDbCircle
 10
2454.084357762477
 20
575.815210895425
 30
0.0
 40
0.0625
  0
LINE
  5
33C
330
6F
100
AcDbEntity
  8
8-0
  6
Continuous
 62
     4
100
AcDbLine
 10
2437.084358
 20
742.365135
 30
0.0
 11
2437.084358
 21
675.815211
 31
0.0
  0
LINE
  5
33D
330
6F
100
AcDbEntity
  8
8-0
  6
Continuous
 62
     4
100
AcDbLine
 10
2439.084358000001
 20
742.3566339999999
 30
0.0
 11
2439.084358000001
 21
675.815211
 31
0.0
  0
LINE
  5
33E
330
6F
100
AcDbEntity
  8
8-0
  6
Continuous
 62
     4
100
AcDbLine
 10
2427.084358
 20
675.815211
 30
0.0
 11
2417.084358
 21
675.815211
 31
0.0
  0
LINE
  5
33F
330
6F
100
AcDbEntity
  8
8-0
  6
Continuous
 62
     4
100
AcDbLine
 10
2449.084358
 20
675.815211
 30
0.0
 11
2459.084358
 21
675.815211
 31
0.0
  0
LINE
  5
340
330
6F
100
AcDbEntity
  8
8-0
  6
Continuous
 62
     4
100
AcDbLine
 10
2438.084358
 20
675.815211
 30
0.0
 11
2411.897177
 21
621.515211
 31
0.0
  0
LINE
  5
341
330
6F
100
AcDbEntity
  8
8-0
  6
Continuous
 62
     4
100
AcDbLine
 10
2411.897177
 20
621.515211
 30
0.0
 11
2373.77535
 21
621.515211
 31
0.0
  0
TEXT
  5
342
330
6F
100
AcDbEntity
  8
8-0
 62
     4
100
AcDbText
 10
2384.459
 20
622.135
 30
0.0
 40
36.288
  1
2
100
AcDbText
  0
LINE
  5
343
330
6F
100
AcDbEntity
  8
8-0
  6
Continuous
 62
     4
100
AcDbLine
 10
2437.084358
 20
675.815211
 30
0.0
 11
2439.084358000001
 21
675.815211
 31
0.0
  0
LINE
  5
344
330
6F
100
AcDbEntity
  8
8-0
  6
Continuous
 62
     4
100
AcDbLine
 10
2437.084358
 20
675.815211
 30
0.0
 11
2439.084358000001
 21
675.815211
 31
0.0
  0
CIRCLE
  5
345
330
6F
100
AcDbEntity
  8
8-0
  6
Continuous
 62
     4
100
AcDbCircle
 10
2437.084357762478
 20
675.815210895425
 30
0.0
 40
0.25
  0
CIRCLE
  5
346
330
6F
100
AcDbEntity
  8
8-0
  6
Continuous
 62
     4
100
AcDbCircle
 10
2437.084357762478
 20
675.815210895425
 30
0.0
 40
0.1875
  0
CIRCLE
  5
347
330
6F
100
AcDbEntity
  8
8-0
  6
Continuous
 62
     4
100
AcDbCircle
 10
2437.084357762478
 20
675.815210895425
 30
0.0
 40
0.125
  0
CIRCLE
  5
348
330
6F
100
AcDbEntity
  8
8-0
  6
Continuous
 62
     4
100
AcDbCircle
 10
2437.084357762478
 20
675.815210895425
 30
0.0
 40
0.0625
  0
ARC
  5
349
330
6F
100
AcDbEntity
  8
8-0
 62
     4
100
AcDbCircle
 10
2437.084357762478
 20
675.820210895425
 30
0.0
 40
2.5
100
AcDbArc
 50
0.1145914065300158
 51
180.114591405945
  0
LINE
  5
34A
330
6F
100
AcDbEntity
  8
8-0
 62
     4
100
AcDbLine
 10
2432.084357762477
 20
675.815210895425
 30
0.0
 11
2427.084357762478
 21
675.815210895425
 31
0.0
  0
CIRCLE
  5
34B
330
6F
100
AcDbEntity
  8
8-0
  6
Continuous
 62
     4
100
AcDbCircle
 10
2439.084357762478
 20
675.815210895425
 30
0.0
 40
0.25
  0
CIRCLE
  5
34C
330
6F
100
AcDbEntity
  8
8-0
  6
Continuous
 62
     4
100
AcDbCircle
 10
2439.084357762478
 20
675.815210895425
 30
0.0
 40
0.1875
  0
CIRCLE
  5
34D
330
6F
100
AcDbEntity
  8
8-0
  6
Continuous
 62
     4
100
AcDbCircle
 10
2439.084357762478
 20
675.815210895425
 30
0.0
 40
0.125
  0
CIRCLE
  5
34E
330
6F
100
AcDbEntity
  8
8-0
  6
Continuous
 62
     4
100
AcDbCircle
 10
2439.084357762478
 20
675.815210895425
 30
0.0
 40
0.0625
  0
ARC
  5
34F
330
6F
100
AcDbEntity
  8
8-0
 62
     4
100
AcDbCircle
 10
2439.084357762478
 20
675.810210895425
 30
0.0
 40
2.5
100
AcDbArc
 50
180.1145914065301
 51
0.1145914059449637
  0
LINE
  5
350
330
6F
100
AcDbEntity
  8
8-0
 62
     4
100
AcDbLine
 10
2444.084357762478
 20
675.8152108954759
 30
0.0
 11
2449.084357762477
 21
675.815210895527
 31
0.0
  0
LINE
  5
351
330
6F
100
AcDbEntity
  8
8-0
  6
Continuous
 62
     4
100
AcDbLine
 10
2454.084358
 20
742.4331439999999
 30
0.0
 11
2454.084358
 21
675.815211
 31
0.0
  0
LINE
  5
352
330
6F
100
AcDbEntity
  8
8-0
  6
Continuous
 62
     4
100
AcDbLine
 10
2439.084358000001
 20
742.3566339999999
 30
0.0
 11
2439.084358000001
 21
675.815211
 31
0.0
  0
LINE
  5
353
330
6F
100
AcDbEntity
  8
8-0
  6
Continuous
 62
     4
100
AcDbLine
 10
2464.084358
 20
675.815211
 30
0.0
 11
2474.084358
 21
675.815211
 31
0.0
  0
LINE
  5
354
330
6F
100
AcDbEntity
  8
8-0
  6
Continuous
 62
     4
100
AcDbLine
 10
2429.084358
 20
675.815211
 30
0.0
 11
2419.084358
 21
675.815211
 31
0.0
  0
LINE
  5
355
330
6F
100
AcDbEntity
  8
8-0
  6
Continuous
 62
     4
100
AcDbLine
 10
2446.584358
 20
675.815211
 30
0.0
 11
2473.233857
 21
621.515211
 31
0.0
  0
LINE
  5
356
330
6F
100
AcDbEntity
  8
8-0
  6
Continuous
 62
     4
100
AcDbLine
 10
2473.233857
 20
621.515211
 30
0.0
 11
2531.609491000001
 21
621.515211
 31
0.0
  0
TEXT
  5
357
330
6F
100
AcDbEntity
  8
8-0
 62
     4
100
AcDbText
 10
2482.844
 20
622.135
 30
0.0
 40
36.288
  1
15
100
AcDbText
  0
LINE
  5
358
330
6F
100
AcDbEntity
  8
8-0
  6
Continuous
 62
     4
100
AcDbLine
 10
2454.084358
 20
675.815211
 30
0.0
 11
2439.084358000001
 21
675.815211
 31
0.0
  0
LINE
  5
359
330
6F
100
AcDbEntity
  8
8-0
  6
Continuous
 62
     4
100
AcDbLine
 10
2454.084358
 20
675.815211
 30
0.0
 11
2439.084358000001
 21
675.815211
 31
0.0
  0
CIRCLE
  5
35A
330
6F
100
AcDbEntity
  8
8-0
  6
Continuous
 62
     4
100
AcDbCircle
 10
2454.084357762477
 20
675.815210895425
 30
0.0
 40
0.25
  0
CIRCLE
  5
35B
330
6F
100
AcDbEntity
  8
8-0
  6
Continuous
 62
     4
100
AcDbCircle
 10
2454.084357762477
 20
675.815210895425
 30
0.0
 40
0.1875
  0
CIRCLE
  5
35C
330
6F
100
AcDbEntity
  8
8-0
  6
Continuous
 62
     4
100
AcDbCircle
 10
2454.084357762477
 20
675.815210895425
 30
0.0
 40
0.125
  0
CIRCLE
  5
35D
330
6F
100
AcDbEntity
  8
8-0
  6
Continuous
 62
     4
100
AcDbCircle
 10
2454.084357762477
 20
675.815210895425
 30
0.0
 40
0.0625
  0
ARC
  5
35E
330
6F
100
AcDbEntity
  8
8-0
 62
     4
100
AcDbCircle
 10
2454.084357762477
 20
675.810210895425
 30
0.0
 40
2.5
100
AcDbArc
 50
180.1145914065301
 51
0.1145914059449637
  0
LINE
  5
35F
330
6F
100
AcDbEntity
  8
8-0
 62
     4
100
AcDbLine
 10
2459.084357762478
 20
675.8152108954759
 30
0.0
 11
2464.084357762478
 21
675.815210895527
 31
0.0
  0
CIRCLE
  5
360
330
6F
100
AcDbEntity
  8
8-0
  6
Continuous
 62
     4
100
AcDbCircle
 10
2439.084357762478
 20
675.815210895425
 30
0.0
 40
0.25
  0
CIRCLE
  5
361
330
6F
100
AcDbEntity
  8
8-0
  6
Continuous
 62
     4
100
AcDbCircle
 10
2439.084357762478
 20
675.815210895425
 30
0.0
 40
0.1875
  0
CIRCLE
  5
362
330
6F
100
AcDbEntity
  8
8-0
  6
Continuous
 62
     4
100
AcDbCircle
 10
2439.084357762478
 20
675.815210895425
 30
0.0
 40
0.125
  0
CIRCLE
  5
363
330
6F
100
AcDbEntity
  8
8-0
  6
Continuous
 62
     4
100
AcDbCircle
 10
2439.084357762478
 20
675.815210895425
 30
0.0
 40
0.0625
  0
ARC
  5
364
330
6F
100
AcDbEntity
  8
8-0
 62
     4
100
AcDbCircle
 10
2439.084357762478
 20
675.820210895425
 30
0.0
 40
2.5
100
AcDbArc
 50
0.1145914065300158
 51
180.114591405945
  0
LINE
  5
365
330
6F
100
AcDbEntity
  8
8-0
 62
     4
100
AcDbLine
 10
2434.084357762478
 20
675.815210895425
 30
0.0
 11
2429.084357762477
 21
675.815210895425
 31
0.0
  0
LINE
  5
366
330
6F
100
AcDbEntity
  8
8-0
  6
Continuous
 62
     4
100
AcDbLine
 10
1954.475207
 20
809.817566
 30
0.0
 11
1839.514531
 21
809.817566
 31
0.0
  0
LINE
  5
367
330
6F
100
AcDbEntity
  8
8-0
  6
Continuous
 62
     4
100
AcDbLine
 10
1868.464307
 20
1109.817566
 30
0.0
 11
1839.514531
 21
1109.817566
 31
0.0
  0
TEXT
  5
368
330
6F
100
AcDbEntity
  8
8-0
 62
     4
100
AcDbText
 10
1838.895
 20
926.218
 30
0.0
 40
36.288
  1
300
 50
90.0
100
AcDbText
  0
LINE
  5
369
330
6F
100
AcDbEntity
  8
8-0
  6
Continuous
 62
     4
100
AcDbLine
 10
1839.514530930304
 20
1109.817565842226
 30
0.0
 11
1839.514530930304
 21
809.817565842226
 31
0.0
  0
CIRCLE
  5
36A
330
6F
100
AcDbEntity
  8
8-0
  6
Continuous
 62
     4
100
AcDbCircle
 10
1839.514530930304
 20
1109.817565842226
 30
0.0
 40
0.25
  0
CIRCLE
  5
36B
330
6F
100
AcDbEntity
  8
8-0
  6
Continuous
 62
     4
100
AcDbCircle
 10
1839.514530930304
 20
1109.817565842226
 30
0.0
 40
0.1875
  0
CIRCLE
  5
36C
330
6F
100
AcDbEntity
  8
8-0
  6
Continuous
 62
     4
100
AcDbCircle
 10
1839.514530930304
 20
1109.817565842226
 30
0.0
 40
0.125
  0
CIRCLE
  5
36D
330
6F
100
AcDbEntity
  8
8-0
  6
Continuous
 62
     4
100
AcDbCircle
 10
1839.514530930304
 20
1109.817565842226
 30
0.0
 40
0.0625
  0
CIRCLE
  5
36E
330
6F
100
AcDbEntity
  8
8-0
  6
Continuous
 62
     4
100
AcDbCircle
 10
1839.514530930304
 20
809.817565842226
 30
0.0
 40
0.25
  0
CIRCLE
  5
36F
330
6F
100
AcDbEntity
  8
8-0
  6
Continuous
 62
     4
100
AcDbCircle
 10
1839.514530930304
 20
809.817565842226
 30
0.0
 40
0.1875
  0
CIRCLE
  5
370
330
6F
100
AcDbEntity
  8
8-0
  6
Continuous
 62
     4
100
AcDbCircle
 10
1839.514530930304
 20
809.817565842226
 30
0.0
 40
0.125
  0
CIRCLE
  5
371
330
6F
100
AcDbEntity
  8
8-0
  6
Continuous
 62
     4
100
AcDbCircle
 10
1839.514530930304
 20
809.817565842226
 30
0.0
 40
0.0625
  0
LINE
  5
372
330
6F
100
AcDbEntity
  8
8-0
  6
Continuous
 62
     4
100
AcDbLine
 10
2498.623912
 20
1404.817566
 30
0.0
 11
2613.584588
 21
1404.817566
 31
0.0
  0
LINE
  5
373
330
6F
100
AcDbEntity
  8
8-0
  6
Continuous
 62
     4
100
AcDbLine
 10
2474.084358
 20
784.817566
 30
0.0
 11
2613.584588
 21
784.817566
 31
0.0
  0
TEXT
  5
374
330
6F
100
AcDbEntity
  8
8-0
 62
     4
100
AcDbText
 10
2612.965
 20
1061.218
 30
0.0
 40
36.288
  1
620
 50
90.0
100
AcDbText
  0
LINE
  5
375
330
6F
100
AcDbEntity
  8
8-0
  6
Continuous
 62
     4
100
AcDbLine
 10
2613.584588139864
 20
784.8175658422259
 30
0.0
 11
2613.584588139864
 21
1404.817565842226
 31
0.0
  0
CIRCLE
  5
376
330
6F
100
AcDbEntity
  8
8-0
  6
Continuous
 62
     4
100
AcDbCircle
 10
2613.584588139864
 20
784.8175658422259
 30
0.0
 40
0.25
  0
CIRCLE
  5
377
330
6F
100
AcDbEntity
  8
8-0
  6
Continuous
 62
     4
100
AcDbCircle
 10
2613.584588139864
 20
784.8175658422259
 30
0.0
 40
0.1875
  0
CIRCLE
  5
378
330
6F
100
AcDbEntity
  8
8-0
  6
Continuous
 62
     4
100
AcDbCircle
 10
2613.584588139864
 20
784.8175658422259
 30
0.0
 40
0.125
  0
CIRCLE
  5
379
330
6F
100
AcDbEntity
  8
8-0
  6
Continuous
 62
     4
100
AcDbCircle
 10
2613.584588139864
 20
784.8175658422259
 30
0.0
 40
0.0625
  0
CIRCLE
  5
37A
330
6F
100
AcDbEntity
  8
8-0
  6
Continuous
 62
     4
100
AcDbCircle
 10
2613.584588139864
 20
1404.817565842226
 30
0.0
 40
0.25
  0
CIRCLE
  5
37B
330
6F
100
AcDbEntity
  8
8-0
  6
Continuous
 62
     4
100
AcDbCircle
 10
2613.584588139864
 20
1404.817565842226
 30
0.0
 40
0.1875
  0
CIRCLE
  5
37C
330
6F
100
AcDbEntity
  8
8-0
  6
Continuous
 62
     4
100
AcDbCircle
 10
2613.584588139864
 20
1404.817565842226
 30
0.0
 40
0.125
  0
CIRCLE
  5
37D
330
6F
100
AcDbEntity
  8
8-0
  6
Continuous
 62
     4
100
AcDbCircle
 10
2613.584588139864
 20
1404.817565842226
 30
0.0
 40
0.0625
  0
LINE
  5
37E
330
6F
100
AcDbEntity
  8
8-0
  6
Continuous
 62
     4
100
AcDbLine
 10
2498.623912
 20
1404.817566
 30
0.0
 11
2613.584588
 21
1404.817566
 31
0.0
  0
LINE
  5
37F
330
6F
100
AcDbEntity
  8
8-0
  6
Continuous
 62
     4
100
AcDbLine
 10
2498.627394
 20
1409.817566
 30
0.0
 11
2613.584588
 21
1409.817566
 31
0.0
  0
TEXT
  5
380
330
6F
100
AcDbEntity
  8
8-0
 62
     4
100
AcDbText
 10
2680.465
 20
1435.428
 30
0.0
 40
36.288
  1
5
 50
90.0
100
AcDbText
  0
LINE
  5
381
330
6F
100
AcDbEntity
  8
8-0
  6
Continuous
 62
     4
100
AcDbLine
 10
2613.584588139864
 20
1409.817565842226
 30
0.0
 11
2613.584588139864
 21
1404.817565842226
 31
0.0
  0
CIRCLE
  5
382
330
6F
100
AcDbEntity
  8
8-0
  6
Continuous
 62
     4
100
AcDbCircle
 10
2613.584588139864
 20
1409.817565842226
 30
0.0
 40
0.25
  0
CIRCLE
  5
383
330
6F
100
AcDbEntity
  8
8-0
  6
Continuous
 62
     4
100
AcDbCircle
 10
2613.584588139864
 20
1409.817565842226
 30
0.0
 40
0.1875
  0
CIRCLE
  5
384
330
6F
100
AcDbEntity
  8
8-0
  6
Continuous
 62
     4
100
AcDbCircle
 10
2613.584588139864
 20
1409.817565842226
 30
0.0
 40
0.125
  0
CIRCLE
  5
385
330
6F
100
AcDbEntity
  8
8-0
  6
Continuous
 62
     4
100
AcDbCircle
 10
2613.584588139864
 20
1409.817565842226
 30
0.0
 40
0.0625
  0
CIRCLE
  5
386
330
6F
100
AcDbEntity
  8
8-0
  6
Continuous
 62
     4
100
AcDbCircle
 10
2613.584588139864
 20
1404.817565842226
 30
0.0
 40
0.25
  0
CIRCLE
  5
387
330
6F
100
AcDbEntity
  8
8-0
  6
Continuous
 62
     4
100
AcDbCircle
 10
2613.584588139864
 20
1404.817565842226
 30
0.0
 40
0.1875
  0
CIRCLE
  5
388
330
6F
100
AcDbEntity
  8
8-0
  6
Continuous
 62
     4
100
AcDbCircle
 10
2613.584588139864
 20
1404.817565842226
 30
0.0
 40
0.125
  0
CIRCLE
  5
389
330
6F
100
AcDbEntity
  8
8-0
  6
Continuous
 62
     4
100
AcDbCircle
 10
2613.584588139864
 20
1404.817565842226
 30
0.0
 40
0.0625
  0
LINE
  5
38A
330
6F
100
AcDbEntity
  8
8-0
  6
Continuous
 62
     4
100
AcDbLine
 10
2437.084358
 20
1452.269997
 30
0.0
 11
2437.084358
 21
1518.819921
 31
0.0
  0
LINE
  5
38B
330
6F
100
AcDbEntity
  8
8-0
  6
Continuous
 62
     4
100
AcDbLine
 10
2092.084358
 20
1453.736443
 30
0.0
 11
2092.084358
 21
1518.819921
 31
0.0
  0
TEXT
  5
38C
330
6F
100
AcDbEntity
  8
8-0
 62
     4
100
AcDbText
 10
2233.807
 20
1519.44
 30
0.0
 40
36.288
  1
345
100
AcDbText
  0
LINE
  5
38D
330
6F
100
AcDbEntity
  8
8-0
  6
Continuous
 62
     4
100
AcDbLine
 10
2092.084357762477
 20
1518.819920789026
 30
0.0
 11
2437.084357762478
 21
1518.819920789026
 31
0.0
  0
CIRCLE
  5
38E
330
6F
100
AcDbEntity
  8
8-0
  6
Continuous
 62
     4
100
AcDbCircle
 10
2092.084357762477
 20
1518.819920789026
 30
0.0
 40
0.25
  0
CIRCLE
  5
38F
330
6F
100
AcDbEntity
  8
8-0
  6
Continuous
 62
     4
100
AcDbCircle
 10
2092.084357762477
 20
1518.819920789026
 30
0.0
 40
0.1875
  0
CIRCLE
  5
390
330
6F
100
AcDbEntity
  8
8-0
  6
Continuous
 62
     4
100
AcDbCircle
 10
2092.084357762477
 20
1518.819920789026
 30
0.0
 40
0.125
  0
CIRCLE
  5
391
330
6F
100
AcDbEntity
  8
8-0
  6
Continuous
 62
     4
100
AcDbCircle
 10
2092.084357762477
 20
1518.819920789026
 30
0.0
 40
0.0625
  0
CIRCLE
  5
392
330
6F
100
AcDbEntity
  8
8-0
  6
Continuous
 62
     4
100
AcDbCircle
 10
2437.084357762478
 20
1518.819920789026
 30
0.0
 40
0.25
  0
CIRCLE
  5
393
330
6F
100
AcDbEntity
  8
8-0
  6
Continuous
 62
     4
100
AcDbCircle
 10
2437.084357762478
 20
1518.819920789026
 30
0.0
 40
0.1875
  0
CIRCLE
  5
394
330
6F
100
AcDbEntity
  8
8-0
  6
Continuous
 62
     4
100
AcDbCircle
 10
2437.084357762478
 20
1518.819920789026
 30
0.0
 40
0.125
  0
CIRCLE
  5
395
330
6F
100
AcDbEntity
  8
8-0
  6
Continuous
 62
     4
100
AcDbCircle
 10
2437.084357762478
 20
1518.819920789026
 30
0.0
 40
0.0625
  0
LINE
  5
396
330
6F
100
AcDbEntity
  8
9-0
  6
CENTER
 62
     6
100
AcDbLine
 10
2175.305714
 20
1109.817566
 30
0.0
 11
1843.60268
 21
1109.817566
 31
0.0
  0
CIRCLE
  5
397
330
6F
100
AcDbEntity
  8
2-0
  6
Continuous
 62
     7
100
AcDbCircle
 10
2132.284358
 20
1109.717566
 30
0.0
 40
2.5
  0
ARC
  5
398
330
6F
100
AcDbEntity
  8
2-0
  6
Continuous
 62
     7
100
AcDbCircle
 10
2392.096858
 20
1115.717566
 30
0.0
 40
7.6875
100
AcDbArc
 50
282.68
 51
77.31999999999999
  0
LINE
  5
399
330
6F
100
AcDbEntity
  8
2-0
  6
Continuous
 62
     7
100
AcDbLine
 10
2115.784358
 20
1123.217566
 30
0.0
 11
2393.784358
 21
1123.217566
 31
0.0
  0
CIRCLE
  5
39A
330
6F
100
AcDbEntity
  8
2-0
  6
Continuous
 62
     7
100
AcDbCircle
 10
2371.284358
 20
1109.717566
 30
0.0
 40
2.5
  0
ARC
  5
39B
330
6F
100
AcDbEntity
  8
2-0
  6
Continuous
 62
     7
100
AcDbCircle
 10
2115.784358
 20
1109.217566
 30
0.0
 40
1.0
100
AcDbArc
 50
180.0
 51
270.0
  0
ARC
  5
39C
330
6F
100
AcDbEntity
  8
2-0
  6
Continuous
 62
     7
100
AcDbCircle
 10
2115.784358
 20
1122.217566
 30
0.0
 40
1.0
100
AcDbArc
 50
90.0
 51
180.0
  0
LINE
  5
39D
330
6F
100
AcDbEntity
  8
2-0
  6
Continuous
 62
     7
100
AcDbLine
 10
2115.784358
 20
1108.217566
 30
0.0
 11
2122.784358
 21
1108.217566
 31
0.0
  0
LINE
  5
39E
330
6F
100
AcDbEntity
  8
2-0
  6
Continuous
 62
     7
100
AcDbLine
 10
2125.784358
 20
1112.217566
 30
0.0
 11
2138.784358
 21
1112.217566
 31
0.0
  0
ARC
  5
39F
330
6F
100
AcDbEntity
  8
2-0
  6
Continuous
 62
     7
100
AcDbCircle
 10
2125.784358
 20
1110.217566
 30
0.0
 40
2.0
100
AcDbArc
 50
90.0
 51
180.0
  0
ARC
  5
3A0
330
6F
100
AcDbEntity
  8
2-0
  6
Continuous
 62
     7
100
AcDbCircle
 10
2138.784358
 20
1110.217566
 30
0.0
 40
2.0
100
AcDbArc
 50
0.0
 51
90.0
  0
LINE
  5
3A1
330
6F
100
AcDbEntity
  8
2-0
  6
Continuous
 62
     7
100
AcDbLine
 10
2141.784358
 20
1108.217566
 30
0.0
 11
2151.784358
 21
1108.217566
 31
0.0
  0
ARC
  5
3A2
330
6F
100
AcDbEntity
  8
2-0
  6
Continuous
 62
     7
100
AcDbCircle
 10
2141.784358
 20
1109.217566
 30
0.0
 40
1.0
100
AcDbArc
 50
180.0
 51
270.0
  0
ARC
  5
3A3
330
6F
100
AcDbEntity
  8
2-0
  6
Continuous
 62
     7
100
AcDbCircle
 10
2151.784358
 20
1109.217566
 30
0.0
 40
1.0
100
AcDbArc
 50
270.0
 51
0.0
  0
LINE
  5
3A4
330
6F
100
AcDbEntity
  8
2-0
  6
Continuous
 62
     7
100
AcDbLine
 10
2349.784358
 20
1110.717566
 30
0.0
 11
2152.784358
 21
1110.717566
 31
0.0
  0
LINE
  5
3A5
330
6F
100
AcDbEntity
  8
2-0
  6
Continuous
 62
     7
100
AcDbLine
 10
2351.784358
 20
1108.217566
 30
0.0
 11
2361.784358
 21
1108.217566
 31
0.0
  0
ARC
  5
3A6
330
6F
100
AcDbEntity
  8
2-0
  6
Continuous
 62
     7
100
AcDbCircle
 10
2351.784358
 20
1109.217566
 30
0.0
 40
1.0
100
AcDbArc
 50
180.0
 51
270.0
  0
LINE
  5
3A7
330
6F
100
AcDbEntity
  8
2-0
  6
Continuous
 62
     7
100
AcDbLine
 10
2350.784358
 20
1109.717566
 30
0.0
 11
2350.784358
 21
1109.217566
 31
0.0
  0
ARC
  5
3A8
330
6F
100
AcDbEntity
  8
2-0
  6
Continuous
 62
     7
100
AcDbCircle
 10
2349.784358
 20
1109.717566
 30
0.0
 40
1.0
100
AcDbArc
 50
0.0
 51
90.0
  0
LINE
  5
3A9
330
6F
100
AcDbEntity
  8
2-0
  6
Continuous
 62
     7
100
AcDbLine
 10
2362.784358
 20
1109.217566
 30
0.0
 11
2362.784358
 21
1110.217566
 31
0.0
  0
ARC
  5
3AA
330
6F
100
AcDbEntity
  8
2-0
  6
Continuous
 62
     7
100
AcDbCircle
 10
2361.784358
 20
1109.217566
 30
0.0
 40
1.0
100
AcDbArc
 50
270.0
 51
0.0
  0
LINE
  5
3AB
330
6F
100
AcDbEntity
  8
2-0
  6
Continuous
 62
     7
100
AcDbLine
 10
2364.784358
 20
1112.217566
 30
0.0
 11
2377.784358
 21
1112.217566
 31
0.0
  0
ARC
  5
3AC
330
6F
100
AcDbEntity
  8
2-0
  6
Continuous
 62
     7
100
AcDbCircle
 10
2364.784358
 20
1110.217566
 30
0.0
 40
2.0
100
AcDbArc
 50
90.0
 51
180.0
  0
LINE
  5
3AD
330
6F
100
AcDbEntity
  8
2-0
  6
Continuous
 62
     7
100
AcDbLine
 10
2379.784358
 20
1110.217566
 30
0.0
 11
2379.784358
 21
1109.217566
 31
0.0
  0
ARC
  5
3AE
330
6F
100
AcDbEntity
  8
2-0
  6
Continuous
 62
     7
100
AcDbCircle
 10
2377.784358
 20
1110.217566
 30
0.0
 40
2.0
100
AcDbArc
 50
0.0
 51
90.0
  0
LINE
  5
3AF
330
6F
100
AcDbEntity
  8
2-0
  6
Continuous
 62
     7
100
AcDbLine
 10
2380.784358
 20
1108.217566
 30
0.0
 11
2393.784358
 21
1108.217566
 31
0.0
  0
ARC
  5
3B0
330
6F
100
AcDbEntity
  8
2-0
  6
Continuous
 62
     7
100
AcDbCircle
 10
2380.784358
 20
1109.217566
 30
0.0
 40
1.0
100
AcDbArc
 50
180.0
 51
270.0
  0
ARC
  5
3B1
330
6F
100
AcDbEntity
  8
2-0
  6
Continuous
 62
     7
100
AcDbCircle
 10
2122.784358
 20
1109.217566
 30
0.0
 40
1.0
100
AcDbArc
 50
270.0
 51
0.0
  0
LINE
  5
3B2
330
6F
100
AcDbEntity
  8
8-0
  6
Continuous
 62
     4
100
AcDbLine
 10
2114.784358
 20
1089.217566
 30
0.0
 11
2114.784358
 21
1024.279193
 31
0.0
  0
LINE
  5
3B3
330
6F
100
AcDbEntity
  8
8-0
  6
Continuous
 62
     4
100
AcDbLine
 10
2399.784358
 20
1095.717566
 30
0.0
 11
2399.784358
 21
1024.279193
 31
0.0
  0
TEXT
  5
3B4
330
6F
100
AcDbEntity
  8
8-0
 62
     4
100
AcDbText
 10
2226.507
 20
1024.899
 30
0.0
 40
36.288
  1
285
100
AcDbText
  0
LINE
  5
3B5
330
6F
100
AcDbEntity
  8
8-0
  6
Continuous
 62
     4
100
AcDbLine
 10
2399.784357762476
 20
1024.279193157919
 30
0.0
 11
2114.784357762477
 21
1024.279193157919
 31
0.0
  0
CIRCLE
  5
3B6
330
6F
100
AcDbEntity
  8
8-0
  6
Continuous
 62
     4
100
AcDbCircle
 10
2399.784357762476
 20
1024.279193157919
 30
0.0
 40
0.25
  0
CIRCLE
  5
3B7
330
6F
100
AcDbEntity
  8
8-0
  6
Continuous
 62
     4
100
AcDbCircle
 10
2399.784357762476
 20
1024.279193157919
 30
0.0
 40
0.1875
  0
CIRCLE
  5
3B8
330
6F
100
AcDbEntity
  8
8-0
  6
Continuous
 62
     4
100
AcDbCircle
 10
2399.784357762476
 20
1024.279193157919
 30
0.0
 40
0.125
  0
CIRCLE
  5
3B9
330
6F
100
AcDbEntity
  8
8-0
  6
Continuous
 62
     4
100
AcDbCircle
 10
2399.784357762476
 20
1024.279193157919
 30
0.0
 40
0.0625
  0
CIRCLE
  5
3BA
330
6F
100
AcDbEntity
  8
8-0
  6
Continuous
 62
     4
100
AcDbCircle
 10
2114.784357762477
 20
1024.279193157919
 30
0.0
 40
0.25
  0
CIRCLE
  5
3BB
330
6F
100
AcDbEntity
  8
8-0
  6
Continuous
 62
     4
100
AcDbCircle
 10
2114.784357762477
 20
1024.279193157919
 30
0.0
 40
0.1875
  0
CIRCLE
  5
3BC
330
6F
100
AcDbEntity
  8
8-0
  6
Continuous
 62
     4
100
AcDbCircle
 10
2114.784357762477
 20
1024.279193157919
 30
0.0
 40
0.125
  0
CIRCLE
  5
3BD
330
6F
100
AcDbEntity
  8
8-0
  6
Continuous
 62
     4
100
AcDbCircle
 10
2114.784357762477
 20
1024.279193157919
 30
0.0
 40
0.0625
  0
LINE
  5
3BE
330
6F
100
AcDbEntity
  8
2-0
  6
Continuous
 62
     7
100
AcDbLine
 10
2140.784358
 20
1110.217566
 30
0.0
 11
2140.784358
 21
1109.217566
 31
0.0
  0
LINE
  5
3BF
330
6F
100
AcDbEntity
  8
2-0
  6
Continuous
 62
     7
100
AcDbLine
 10
2123.784358
 20
1110.217566
 30
0.0
 11
2123.784358
 21
1109.217566
 31
0.0
  0
LINE
  5
3C0
330
6F
100
AcDbEntity
  8
8-0
  6
Continuous
 62
     4
100
AcDbLine
 10
2437.084358
 20
767.365135
 30
0.0
 11
2437.084358
 21
675.815211
 31
0.0
  0
LINE
  5
3C1
330
6F
100
AcDbEntity
  8
8-0
  6
Continuous
 62
     4
100
AcDbLine
 10
2092.084358
 20
765.898688
 30
0.0
 11
2092.084358
 21
675.815211
 31
0.0
  0
TEXT
  5
3C2
330
6F
100
AcDbEntity
  8
8-0
 62
     4
100
AcDbText
 10
2233.807
 20
676.4349999999999
 30
0.0
 40
36.288
  1
345
100
AcDbText
  0
LINE
  5
3C3
330
6F
100
AcDbEntity
  8
8-0
  6
Continuous
 62
     4
100
AcDbLine
 10
2092.084357762477
 20
675.815210895425
 30
0.0
 11
2437.084357762478
 21
675.815210895425
 31
0.0
  0
CIRCLE
  5
3C4
330
6F
100
AcDbEntity
  8
8-0
  6
Continuous
 62
     4
100
AcDbCircle
 10
2092.084357762477
 20
675.815210895425
 30
0.0
 40
0.25
  0
CIRCLE
  5
3C5
330
6F
100
AcDbEntity
  8
8-0
  6
Continuous
 62
     4
100
AcDbCircle
 10
2092.084357762477
 20
675.815210895425
 30
0.0
 40
0.1875
  0
CIRCLE
  5
3C6
330
6F
100
AcDbEntity
  8
8-0
  6
Continuous
 62
     4
100
AcDbCircle
 10
2092.084357762477
 20
675.815210895425
 30
0.0
 40
0.125
  0
CIRCLE
  5
3C7
330
6F
100
AcDbEntity
  8
8-0
  6
Continuous
 62
     4
100
AcDbCircle
 10
2092.084357762477
 20
675.815210895425
 30
0.0
 40
0.0625
  0
CIRCLE
  5
3C8
330
6F
100
AcDbEntity
  8
8-0
  6
Continuous
 62
     4
100
AcDbCircle
 10
2437.084357762478
 20
675.815210895425
 30
0.0
 40
0.25
  0
CIRCLE
  5
3C9
330
6F
100
AcDbEntity
  8
8-0
  6
Continuous
 62
     4
100
AcDbCircle
 10
2437.084357762478
 20
675.815210895425
 30
0.0
 40
0.1875
  0
CIRCLE
  5
3CA
330
6F
100
AcDbEntity
  8
8-0
  6
Continuous
 62
     4
100
AcDbCircle
 10
2437.084357762478
 20
675.815210895425
 30
0.0
 40
0.125
  0
CIRCLE
  5
3CB
330
6F
100
AcDbEntity
  8
8-0
  6
Continuous
 62
     4
100
AcDbCircle
 10
2437.084357762478
 20
675.815210895425
 30
0.0
 40
0.0625
  0
LINE
  5
3CC
330
6F
100
AcDbEntity
  8
8-0
  6
Continuous
 62
     4
100
AcDbLine
 10
2437.084358
 20
767.365135
 30
0.0
 11
2437.084358
 21
675.815211
 31
0.0
  0
LINE
  5
3CD
330
6F
100
AcDbEntity
  8
8-0
  6
Continuous
 62
     4
100
AcDbLine
 10
2439.084358000001
 20
767.3566339999999
 30
0.0
 11
2439.084358000001
 21
675.815211
 31
0.0
  0
LINE
  5
3CE
330
6F
100
AcDbEntity
  8
8-0
  6
Continuous
 62
     4
100
AcDbLine
 10
2427.084358
 20
675.815211
 30
0.0
 11
2417.084358
 21
675.815211
 31
0.0
  0
LINE
  5
3CF
330
6F
100
AcDbEntity
  8
8-0
  6
Continuous
 62
     4
100
AcDbLine
 10
2449.084358
 20
675.815211
 30
0.0
 11
2459.084358
 21
675.815211
 31
0.0
  0
LINE
  5
3D0
330
6F
100
AcDbEntity
  8
8-0
  6
Continuous
 62
     4
100
AcDbLine
 10
2438.084358
 20
675.815211
 30
0.0
 11
2411.897177
 21
621.515211
 31
0.0
  0
LINE
  5
3D1
330
6F
100
AcDbEntity
  8
8-0
  6
Continuous
 62
     4
100
AcDbLine
 10
2411.897177
 20
621.515211
 30
0.0
 11
2373.77535
 21
621.515211
 31
0.0
  0
TEXT
  5
3D2
330
6F
100
AcDbEntity
  8
8-0
 62
     4
100
AcDbText
 10
2384.459
 20
622.135
 30
0.0
 40
36.288
  1
2
100
AcDbText
  0
LINE
  5
3D3
330
6F
100
AcDbEntity
  8
8-0
  6
Continuous
 62
     4
100
AcDbLine
 10
2437.084358
 20
675.815211
 30
0.0
 11
2439.084358000001
 21
675.815211
 31
0.0
  0
LINE
  5
3D4
330
6F
100
AcDbEntity
  8
8-0
  6
Continuous
 62
     4
100
AcDbLine
 10
2437.084358
 20
675.815211
 30
0.0
 11
2439.084358000001
 21
675.815211
 31
0.0
  0
CIRCLE
  5
3D5
330
6F
100
AcDbEntity
  8
8-0
  6
Continuous
 62
     4
100
AcDbCircle
 10
2437.084357762478
 20
675.815210895425
 30
0.0
 40
0.25
  0
CIRCLE
  5
3D6
330
6F
100
AcDbEntity
  8
8-0
  6
Continuous
 62
     4
100
AcDbCircle
 10
2437.084357762478
 20
675.815210895425
 30
0.0
 40
0.1875
  0
CIRCLE
  5
3D7
330
6F
100
AcDbEntity
  8
8-0
  6
Continuous
 62
     4
100
AcDbCircle
 10
2437.084357762478
 20
675.815210895425
 30
0.0
 40
0.125
  0
CIRCLE
  5
3D8
330
6F
100
AcDbEntity
  8
8-0
  6
Continuous
 62
     4
100
AcDbCircle
 10
2437.084357762478
 20
675.815210895425
 30
0.0
 40
0.0625
  0
ARC
  5
3D9
330
6F
100
AcDbEntity
  8
8-0
 62
     4
100
AcDbCircle
 10
2437.084357762478
 20
675.820210895425
 30
0.0
 40
2.5
100
AcDbArc
 50
0.1145914065300158
 51
180.114591405945
  0
LINE
  5
3DA
330
6F
100
AcDbEntity
  8
8-0
 62
     4
100
AcDbLine
 10
2432.084357762477
 20
675.815210895425
 30
0.0
 11
2427.084357762478
 21
675.815210895425
 31
0.0
  0
CIRCLE
  5
3DB
330
6F
100
AcDbEntity
  8
8-0
  6
Continuous
 62
     4
100
AcDbCircle
 10
2439.084357762478
 20
675.815210895425
 30
0.0
 40
0.25
  0
CIRCLE
  5
3DC
330
6F
100
AcDbEntity
  8
8-0
  6
Continuous
 62
     4
100
AcDbCircle
 10
2439.084357762478
 20
675.815210895425
 30
0.0
 40
0.1875
  0
CIRCLE
  5
3DD
330
6F
100
AcDbEntity
  8
8-0
  6
Continuous
 62
     4
100
AcDbCircle
 10
2439.084357762478
 20
675.815210895425
 30
0.0
 40
0.125
  0
CIRCLE
  5
3DE
330
6F
100
AcDbEntity
  8
8-0
  6
Continuous
 62
     4
100
AcDbCircle
 10
2439.084357762478
 20
675.815210895425
 30
0.0
 40
0.0625
  0
ARC
  5
3DF
330
6F
100
AcDbEntity
  8
8-0
 62
     4
100
AcDbCircle
 10
2439.084357762478
 20
675.810210895425
 30
0.0
 40
2.5
100
AcDbArc
 50
180.1145914065301
 51
0.1145914059449637
  0
LINE
  5
3E0
330
6F
100
AcDbEntity
  8
8-0
 62
     4
100
AcDbLine
 10
2444.084357762478
 20
675.8152108954759
 30
0.0
 11
2449.084357762477
 21
675.815210895527
 31
0.0
  0
LINE
  5
3E1
330
6F
100
AcDbEntity
  8
8-0
  6
Continuous
 62
     4
100
AcDbLine
 10
2437.084358
 20
767.365135
 30
0.0
 11
2437.084358
 21
675.815211
 31
0.0
  0
LINE
  5
3E2
330
6F
100
AcDbEntity
  8
8-0
  6
Continuous
 62
     4
100
AcDbLine
 10
2439.084358000001
 20
767.3566339999999
 30
0.0
 11
2439.084358000001
 21
675.815211
 31
0.0
  0
LINE
  5
3E3
330
6F
100
AcDbEntity
  8
8-0
  6
Continuous
 62
     4
100
AcDbLine
 10
2427.084358
 20
675.815211
 30
0.0
 11
2417.084358
 21
675.815211
 31
0.0
  0
LINE
  5
3E4
330
6F
100
AcDbEntity
  8
8-0
  6
Continuous
 62
     4
100
AcDbLine
 10
2449.084358
 20
675.815211
 30
0.0
 11
2459.084358
 21
675.815211
 31
0.0
  0
LINE
  5
3E5
330
6F
100
AcDbEntity
  8
8-0
  6
Continuous
 62
     4
100
AcDbLine
 10
2438.084358
 20
675.815211
 30
0.0
 11
2411.897177
 21
621.515211
 31
0.0
  0
LINE
  5
3E6
330
6F
100
AcDbEntity
  8
8-0
  6
Continuous
 62
     4
100
AcDbLine
 10
2411.897177
 20
621.515211
 30
0.0
 11
2373.77535
 21
621.515211
 31
0.0
  0
TEXT
  5
3E7
330
6F
100
AcDbEntity
  8
8-0
 62
     4
100
AcDbText
 10
2384.459
 20
622.135
 30
0.0
 40
36.288
  1
2
100
AcDbText
  0
LINE
  5
3E8
330
6F
100
AcDbEntity
  8
8-0
  6
Continuous
 62
     4
100
AcDbLine
 10
2437.084358
 20
675.815211
 30
0.0
 11
2439.084358000001
 21
675.815211
 31
0.0
  0
LINE
  5
3E9
330
6F
100
AcDbEntity
  8
8-0
  6
Continuous
 62
     4
100
AcDbLine
 10
2437.084358
 20
675.815211
 30
0.0
 11
2439.084358000001
 21
675.815211
 31
0.0
  0
CIRCLE
  5
3EA
330
6F
100
AcDbEntity
  8
8-0
  6
Continuous
 62
     4
100
AcDbCircle
 10
2437.084357762478
 20
675.815210895425
 30
0.0
 40
0.25
  0
CIRCLE
  5
3EB
330
6F
100
AcDbEntity
  8
8-0
  6
Continuous
 62
     4
100
AcDbCircle
 10
2437.084357762478
 20
675.815210895425
 30
0.0
 40
0.1875
  0
CIRCLE
  5
3EC
330
6F
100
AcDbEntity
  8
8-0
  6
Continuous
 62
     4
100
AcDbCircle
 10
2437.084357762478
 20
675.815210895425
 30
0.0
 40
0.125
  0
CIRCLE
  5
3ED
330
6F
100
AcDbEntity
  8
8-0
  6
Continuous
 62
     4
100
AcDbCircle
 10
2437.084357762478
 20
675.815210895425
 30
0.0
 40
0.0625
  0
ARC
  5
3EE
330
6F
100
AcDbEntity
  8
8-0
 62
     4
100
AcDbCircle
 10
2437.084357762478
 20
675.820210895425
 30
0.0
 40
2.5
100
AcDbArc
 50
0.1145914065300158
 51
180.114591405945
  0
LINE
  5
3EF
330
6F
100
AcDbEntity
  8
8-0
 62
     4
100
AcDbLine
 10
2432.084357762477
 20
675.815210895425
 30
0.0
 11
2427.084357762478
 21
675.815210895425
 31
0.0
  0
CIRCLE
  5
3F0
330
6F
100
AcDbEntity
  8
8-0
  6
Continuous
 62
     4
100
AcDbCircle
 10
2439.084357762478
 20
675.815210895425
 30
0.0
 40
0.25
  0
CIRCLE
  5
3F1
330
6F
100
AcDbEntity
  8
8-0
  6
Continuous
 62
     4
100
AcDbCircle
 10
2439.084357762478
 20
675.815210895425
 30
0.0
 40
0.1875
  0
CIRCLE
  5
3F2
330
6F
100
AcDbEntity
  8
8-0
  6
Continuous
 62
     4
100
AcDbCircle
 10
2439.084357762478
 20
675.815210895425
 30
0.0
 40
0.125
  0
CIRCLE
  5
3F3
330
6F
100
AcDbEntity
  8
8-0
  6
Continuous
 62
     4
100
AcDbCircle
 10
2439.084357762478
 20
675.815210895425
 30
0.0
 40
0.0625
  0
ARC
  5
3F4
330
6F
100
AcDbEntity
  8
8-0
 62
     4
100
AcDbCircle
 10
2439.084357762478
 20
675.810210895425
 30
0.0
 40
2.5
100
AcDbArc
 50
180.1145914065301
 51
0.1145914059449637
  0
LINE
  5
3F5
330
6F
100
AcDbEntity
  8
8-0
 62
     4
100
AcDbLine
 10
2444.084357762478
 20
675.8152108954759
 30
0.0
 11
2449.084357762477
 21
675.815210895527
 31
0.0
  0
LINE
  5
3F6
330
6F
100
AcDbEntity
  8
2-0
  6
Continuous
 62
     7
100
AcDbLine
 10
2436.584358
 20
788.716886
 30
0.0
 11
2436.584358
 21
807.716886
 31
0.0
  0
LINE
  5
3F7
330
6F
100
AcDbEntity
  8
1-0
  6
Continuous
 62
     7
100
AcDbLine
 10
2439.084358000001
 20
788.716886
 30
0.0
 11
2436.584358
 21
788.716886
 31
0.0
  0
LINE
  5
3F8
330
6F
100
AcDbEntity
  8
1-0
  6
Continuous
 62
     7
100
AcDbLine
 10
2439.084358000001
 20
807.716886
 30
0.0
 11
2436.584358
 21
807.716886
 31
0.0
  0
LINE
  5
3F9
330
6F
100
AcDbEntity
  8
1-0
  6
Continuous
 62
     7
100
AcDbLine
 10
2436.584358
 20
807.716886
 30
0.0
 11
2431.084358
 21
807.716886
 31
0.0
  0
LINE
  5
3FA
330
6F
100
AcDbEntity
  8
1-0
  6
Continuous
 62
     7
100
AcDbLine
 10
2430.584358
 20
807.2168860000001
 30
0.0
 11
2430.584358
 21
799.716886
 31
0.0
  0
LINE
  5
3FB
330
6F
100
AcDbEntity
  8
1-0
  6
Continuous
 62
     7
100
AcDbLine
 10
2433.584358
 20
796.7168860000001
 30
0.0
 11
2436.584358
 21
796.7168860000001
 31
0.0
  0
ARC
  5
3FC
330
6F
100
AcDbEntity
  8
1-0
  6
Continuous
 62
     7
100
AcDbCircle
 10
2433.584358
 20
799.716886
 30
0.0
 40
3.0
100
AcDbArc
 50
180.0
 51
270.0
  0
LINE
  5
3FD
330
6F
100
AcDbEntity
  8
1-0
  6
Continuous
 62
     7
100
AcDbLine
 10
2430.584358
 20
807.2168860000001
 30
0.0
 11
2430.584358
 21
799.716886
 31
0.0
  0
ARC
  5
3FE
330
6F
100
AcDbEntity
  8
1-0
  6
Continuous
 62
     7
100
AcDbCircle
 10
2431.084358
 20
807.2168860000001
 30
0.0
 40
0.5
100
AcDbArc
 50
90.0
 51
180.0
  0
LINE
  5
3FF
330
6F
100
AcDbEntity
  8
1-0
  6
Continuous
 62
     7
100
AcDbLine
 10
2436.584358
 20
798.216886
 30
0.0
 11
2436.584358
 21
807.716886
 31
0.0
  0
ARC
  5
400
330
6F
100
AcDbEntity
  8
1-0
  6
Continuous
 62
     7
100
AcDbCircle
 10
2439.846858
 20
802.9668860000001
 30
0.0
 40
5.7625
100
AcDbArc
 50
124.483
 51
235.517
  0
ARC
  5
401
330
6F
100
AcDbEntity
  8
1-0
  6
Continuous
 62
     7
100
AcDbCircle
 10
2433.832344
 20
799.837065
 30
0.0
 40
1.451915
100
AcDbArc
 50
68.435
 51
346.548
  0
LINE
  5
402
330
6F
100
AcDbEntity
  8
1-0
  6
Continuous
 62
     7
100
AcDbLine
 10
2409.447806
 20
808.283589
 30
0.0
 11
2424.805257
 21
808.283589
 31
0.0
  0
LINE
  5
403
330
6F
100
AcDbEntity
  8
1-0
  6
Continuous
 62
     7
100
AcDbLine
 10
2425.447806
 20
798.783589
 30
0.0
 11
2426.299096000001
 21
808.1477859999999
 31
0.0
  0
ARC
  5
404
330
6F
100
AcDbEntity
  8
1-0
  6
Continuous
 62
     7
100
AcDbCircle
 10
2424.805257
 20
808.283589
 30
0.0
 40
1.5
100
AcDbArc
 50
354.806
 51
90.0
  0
LINE
  5
405
330
6F
100
AcDbEntity
  8
1-0
  6
Continuous
 62
     7
100
AcDbLine
 10
2423.953966
 20
798.9193929999999
 30
0.0
 11
2424.805257
 21
808.283589
 31
0.0
  0
LINE
  5
406
330
6F
100
AcDbEntity
  8
1-0
  6
Continuous
 62
     7
100
AcDbLine
 10
2409.447806
 20
809.783589
 30
0.0
 11
2409.447806
 21
808.283589
 31
0.0
  0
LINE
  5
407
330
6F
100
AcDbEntity
  8
1-0
  6
Continuous
 62
     7
100
AcDbLine
 10
2423.953966
 20
798.9193929999999
 30
0.0
 11
2425.447806
 21
798.783589
 31
0.0
  0
ARC
  5
408
330
6F
100
AcDbEntity
  8
1-0
  6
Continuous
 62
     7
100
AcDbCircle
 10
2415.552486
 20
811.465191
 30
0.0
 40
5.7625
100
AcDbArc
 50
214.483
 51
325.517
  0
LINE
  5
409
330
6F
100
AcDbEntity
  8
1-0
  6
Continuous
 62
     7
100
AcDbLine
 10
2427.291909
 20
794.523039
 30
0.0
 11
2416.083396
 21
792.6343209999999
 31
0.0
  0
ARC
  5
40A
330
6F
100
AcDbEntity
  8
1-0
  6
Continuous
 62
     7
100
AcDbCircle
 10
2416.000313
 20
793.12737
 30
0.0
 40
0.5
100
AcDbArc
 50
189.565
 51
279.565
  0
LINE
  5
40B
330
6F
100
AcDbEntity
  8
1-0
  6
Continuous
 62
     7
100
AcDbLine
 10
2415.507264
 20
793.0442880000001
 30
0.0
 11
2414.759522
 21
797.4817289999999
 31
0.0
  0
LINE
  5
40C
330
6F
100
AcDbEntity
  8
1-0
  6
Continuous
 62
     7
100
AcDbLine
 10
2414.759522
 20
797.4817289999999
 30
0.0
 11
2420.994505
 21
806.236788
 31
0.0
  0
LINE
  5
40D
330
6F
100
AcDbEntity
  8
1-0
  6
Continuous
 62
     7
100
AcDbLine
 10
2421.897977
 20
806.008309
 30
0.0
 11
2422.847007
 21
798.3595279999999
 31
0.0
  0
ARC
  5
40E
330
6F
100
AcDbEntity
  8
1-0
  6
Continuous
 62
     7
100
AcDbCircle
 10
2421.401781
 20
805.9467429999999
 30
0.0
 40
0.5
100
AcDbArc
 50
7.073
 51
144.543
  0
LINE
  5
40F
330
6F
100
AcDbEntity
  8
1-0
  6
Continuous
 62
     7
100
AcDbLine
 10
2423.426285
 20
797.928045
 30
0.0
 11
2430.703255
 21
799.154269
 31
0.0
  0
ARC
  5
410
330
6F
100
AcDbEntity
  8
1-0
  6
Continuous
 62
     7
100
AcDbCircle
 10
2423.343202
 20
798.421094
 30
0.0
 40
0.5
100
AcDbArc
 50
187.073
 51
279.565
  0
CIRCLE
  5
411
330
6F
100
AcDbEntity
  8
1-0
  6
Continuous
 62
     7
100
AcDbCircle
 10
2419.274186
 20
797.125629
 30
0.0
 40
1.451915
  0
LINE
  5
412
330
6F
100
AcDbEntity
  8
1-0
  6
Continuous
 62
     7
100
AcDbLine
 10
2430.980406
 20
798.306854
 30
0.0
 11
2422.970242
 21
786.868354
 31
0.0
  0
LINE
  5
413
330
6F
100
AcDbEntity
  8
1-0
  6
Continuous
 62
     7
100
AcDbLine
 10
2433.259331
 20
796.679849
 30
0.0
 11
2425.263789000001
 21
785.262227
 31
0.0
  0
ARC
  5
414
330
6F
100
AcDbEntity
  8
1-0
  6
Continuous
 62
     7
100
AcDbCircle
 10
2424.444665
 20
785.8358439999999
 30
0.0
 40
1.0
100
AcDbArc
 50
234.997
 51
324.997
  0
LINE
  5
415
330
6F
100
AcDbEntity
  8
1-0
  6
Continuous
 62
     7
100
AcDbLine
 10
2423.21575
 20
785.475614
 30
0.0
 11
2423.871049
 21
785.0167199999999
 31
0.0
  0
ARC
  5
416
330
6F
100
AcDbEntity
  8
1-0
  6
Continuous
 62
     7
100
AcDbCircle
 10
2423.789366
 20
786.294737
 30
0.0
 40
1.0
100
AcDbArc
 50
144.997
 51
234.997
  0
LINE
  5
417
330
6F
100
AcDbEntity
  8
1-0
  6
Continuous
 62
     7
100
AcDbLine
 10
2427.784553
 20
793.743182
 30
0.0
 11
2422.970242
 21
786.868354
 31
0.0
  0
ARC
  5
418
330
6F
100
AcDbEntity
  8
1-0
  6
Continuous
 62
     7
100
AcDbCircle
 10
2427.374991000001
 20
794.02999
 30
0.0
 40
0.5
100
AcDbArc
 50
324.997
 51
99.56500000000001
  0
CIRCLE
  5
419
330
6F
100
AcDbEntity
  8
2-0
  6
Continuous
 62
     7
100
AcDbCircle
 10
2132.284358
 20
1139.717566
 30
0.0
 40
2.5
  0
CIRCLE
  5
41A
330
6F
100
AcDbEntity
  8
2-0
  6
Continuous
 62
     7
100
AcDbCircle
 10
2371.284358
 20
1139.717566
 30
0.0
 40
2.5
  0
CIRCLE
  5
41B
330
6F
100
AcDbEntity
  8
2-0
  6
Continuous
 62
     7
100
AcDbCircle
 10
2132.284358
 20
1079.717566
 30
0.0
 40
2.5
  0
CIRCLE
  5
41C
330
6F
100
AcDbEntity
  8
2-0
  6
Continuous
 62
     7
100
AcDbCircle
 10
2371.284358
 20
1079.717566
 30
0.0
 40
2.5
  0
LINE
  5
41D
330
6F
100
AcDbEntity
  8
9-0
  6
CENTER
 62
     6
100
AcDbLine
 10
1942.14784
 20
1139.817566
 30
0.0
 11
2092.084358
 21
1139.817566
 31
0.0
  0
LINE
  5
41E
330
6F
100
AcDbEntity
  8
9-0
  6
CENTER
 62
     6
100
AcDbLine
 10
1942.14784
 20
1079.817566
 30
0.0
 11
2092.084358
 21
1079.817566
 31
0.0
  0
LINE
  5
41F
330
6F
100
AcDbEntity
  8
8-0
  6
Continuous
 62
     4
100
AcDbLine
 10
1940.818515
 20
1139.817566
 30
0.0
 11
1940.664947
 21
1139.817566
 31
0.0
  0
LINE
  5
420
330
6F
100
AcDbEntity
  8
8-0
  6
Continuous
 62
     4
100
AcDbLine
 10
1940.818515
 20
1109.817566
 30
0.0
 11
1940.664947
 21
1109.817566
 31
0.0
  0
TEXT
  5
421
330
6F
100
AcDbEntity
  8
8-0
 62
     4
100
AcDbText
 10
1907.545
 20
1143.043
 30
0.0
 40
36.288
  1
30
 50
90.0
100
AcDbText
  0
LINE
  5
422
330
6F
100
AcDbEntity
  8
8-0
  6
Continuous
 62
     4
100
AcDbLine
 10
1940.664946966028
 20
1109.817565842226
 30
0.0
 11
1940.664946966028
 21
1139.817565842225
 31
0.0
  0
CIRCLE
  5
423
330
6F
100
AcDbEntity
  8
8-0
  6
Continuous
 62
     4
100
AcDbCircle
 10
1940.664946966028
 20
1109.817565842226
 30
0.0
 40
0.25
  0
CIRCLE
  5
424
330
6F
100
AcDbEntity
  8
8-0
  6
Continuous
 62
     4
100
AcDbCircle
 10
1940.664946966028
 20
1109.817565842226
 30
0.0
 40
0.1875
  0
CIRCLE
  5
425
330
6F
100
AcDbEntity
  8
8-0
  6
Continuous
 62
     4
100
AcDbCircle
 10
1940.664946966028
 20
1109.817565842226
 30
0.0
 40
0.125
  0
CIRCLE
  5
426
330
6F
100
AcDbEntity
  8
8-0
  6
Continuous
 62
     4
100
AcDbCircle
 10
1940.664946966028
 20
1109.817565842226
 30
0.0
 40
0.0625
  0
CIRCLE
  5
427
330
6F
100
AcDbEntity
  8
8-0
  6
Continuous
 62
     4
100
AcDbCircle
 10
1940.664946966028
 20
1139.817565842225
 30
0.0
 40
0.25
  0
CIRCLE
  5
428
330
6F
100
AcDbEntity
  8
8-0
  6
Continuous
 62
     4
100
AcDbCircle
 10
1940.664946966028
 20
1139.817565842225
 30
0.0
 40
0.1875
  0
CIRCLE
  5
429
330
6F
100
AcDbEntity
  8
8-0
  6
Continuous
 62
     4
100
AcDbCircle
 10
1940.664946966028
 20
1139.817565842225
 30
0.0
 40
0.125
  0
CIRCLE
  5
42A
330
6F
100
AcDbEntity
  8
8-0
  6
Continuous
 62
     4
100
AcDbCircle
 10
1940.664946966028
 20
1139.817565842225
 30
0.0
 40
0.0625
  0
LINE
  5
42B
330
6F
100
AcDbEntity
  8
8-0
  6
Continuous
 62
     4
100
AcDbLine
 10
1950.533886
 20
1109.817566
 30
0.0
 11
1940.664947
 21
1109.817566
 31
0.0
  0
LINE
  5
42C
330
6F
100
AcDbEntity
  8
8-0
  6
Continuous
 62
     4
100
AcDbLine
 10
1950.533886
 20
1079.817566
 30
0.0
 11
1940.664947
 21
1079.817566
 31
0.0
  0
LINE
  5
42D
330
6F
100
AcDbEntity
  8
8-0
  6
Continuous
 62
     4
100
AcDbLine
 10
1940.664947
 20
1119.817566
 30
0.0
 11
1940.664947
 21
1129.817566
 31
0.0
  0
LINE
  5
42E
330
6F
100
AcDbEntity
  8
8-0
  6
Continuous
 62
     4
100
AcDbLine
 10
1940.664947
 20
1069.817566
 30
0.0
 11
1940.664947
 21
1059.817566
 31
0.0
  0
LINE
  5
42F
330
6F
100
AcDbEntity
  8
8-0
  6
Continuous
 62
     4
100
AcDbLine
 10
1940.664947
 20
1094.817566
 30
0.0
 11
1909.442765
 21
1084.395239
 31
0.0
  0
LINE
  5
430
330
6F
100
AcDbEntity
  8
8-0
  6
Continuous
 62
     4
100
AcDbLine
 10
1909.442765
 20
1084.395239
 30
0.0
 11
1909.442765
 21
1022.64397
 31
0.0
  0
TEXT
  5
431
330
6F
100
AcDbEntity
  8
8-0
 62
     4
100
AcDbText
 10
1908.823
 20
1031.12
 30
0.0
 40
36.288
  1
30
 50
90.0
100
AcDbText
  0
LINE
  5
432
330
6F
100
AcDbEntity
  8
8-0
  6
Continuous
 62
     4
100
AcDbLine
 10
1940.664947
 20
1109.817566
 30
0.0
 11
1940.664947
 21
1079.817566
 31
0.0
  0
LINE
  5
433
330
6F
100
AcDbEntity
  8
8-0
  6
Continuous
 62
     4
100
AcDbLine
 10
1940.664947
 20
1109.817566
 30
0.0
 11
1940.664947
 21
1079.817566
 31
0.0
  0
CIRCLE
  5
434
330
6F
100
AcDbEntity
  8
8-0
  6
Continuous
 62
     4
100
AcDbCircle
 10
1940.664946966028
 20
1109.817565842226
 30
0.0
 40
0.25
  0
CIRCLE
  5
435
330
6F
100
AcDbEntity
  8
8-0
  6
Continuous
 62
     4
100
AcDbCircle
 10
1940.664946966028
 20
1109.817565842226
 30
0.0
 40
0.1875
  0
CIRCLE
  5
436
330
6F
100
AcDbEntity
  8
8-0
  6
Continuous
 62
     4
100
AcDbCircle
 10
1940.664946966028
 20
1109.817565842226
 30
0.0
 40
0.125
  0
CIRCLE
  5
437
330
6F
100
AcDbEntity
  8
8-0
  6
Continuous
 62
     4
100
AcDbCircle
 10
1940.664946966028
 20
1109.817565842226
 30
0.0
 40
0.0625
  0
ARC
  5
438
330
6F
100
AcDbEntity
  8
8-0
 62
     4
100
AcDbCircle
 10
1940.669946966028
 20
1109.817565842226
 30
0.0
 40
2.5
100
AcDbArc
 50
270.1145914065301
 51
90.11459140594496
  0
LINE
  5
439
330
6F
100
AcDbEntity
  8
8-0
 62
     4
100
AcDbLine
 10
1940.664946965952
 20
1114.817565842226
 30
0.0
 11
1940.664946965875
 21
1119.817565842226
 31
0.0
  0
CIRCLE
  5
43A
330
6F
100
AcDbEntity
  8
8-0
  6
Continuous
 62
     4
100
AcDbCircle
 10
1940.664946966028
 20
1079.817565842225
 30
0.0
 40
0.25
  0
CIRCLE
  5
43B
330
6F
100
AcDbEntity
  8
8-0
  6
Continuous
 62
     4
100
AcDbCircle
 10
1940.664946966028
 20
1079.817565842225
 30
0.0
 40
0.1875
  0
CIRCLE
  5
43C
330
6F
100
AcDbEntity
  8
8-0
  6
Continuous
 62
     4
100
AcDbCircle
 10
1940.664946966028
 20
1079.817565842225
 30
0.0
 40
0.125
  0
CIRCLE
  5
43D
330
6F
100
AcDbEntity
  8
8-0
  6
Continuous
 62
     4
100
AcDbCircle
 10
1940.664946966028
 20
1079.817565842225
 30
0.0
 40
0.0625
  0
ARC
  5
43E
330
6F
100
AcDbEntity
  8
8-0
 62
     4
100
AcDbCircle
 10
1940.659946966028
 20
1079.817565842225
 30
0.0
 40
2.5
100
AcDbArc
 50
90.11459140653
 51
270.114591405945
  0
LINE
  5
43F
330
6F
100
AcDbEntity
  8
8-0
 62
     4
100
AcDbLine
 10
1940.664946966054
 20
1074.817565842225
 30
0.0
 11
1940.664946966079
 21
1069.817565842225
 31
0.0
  0
TEXT
  5
440
330
6F
100
AcDbEntity
  8
D-0
 62
     5
100
AcDbText
 10
3968.266
 20
48.607
 30
0.0
 40
31.104
  1
2023.12
100
AcDbText
  0
TEXT
  5
441
330
6F
100
AcDbEntity
  8
D-0
 62
     5
100
AcDbText
 10
3217.254
 20
2449.248
 30
0.0
 40
25.92
  1
火山性ガラス質複層板
100
AcDbText
  0
TEXT
  5
442
330
6F
100
AcDbEntity
  8
D-0
 62
     5
100
AcDbText
 10
3217.254
 20
2499.248
 30
0.0
 40
25.92
  1
火山性ガラス質複層板
100
AcDbText
  0
LINE
  5
443
330
6F
100
AcDbEntity
  8
D-0
  6
Continuous
 62
     5
100
AcDbLine
 10
2843.242584
 20
2536.802021
 30
0.0
 11
3867.476977
 21
2536.802021
 31
0.0
  0
TEXT
  5
444
330
6F
100
AcDbEntity
  8
D-0
 62
     5
100
AcDbText
 10
3217.254
 20
2199.248
 30
0.0
 40
25.92
  1
耐震レハ゛ーラッチ付
100
AcDbText
  0
LINE
  5
445
330
6F
100
AcDbEntity
  8
D-0
  6
Continuous
 62
     5
100
AcDbLine
 10
2843.242584
 20
2186.802021
 30
0.0
 11
3867.476977
 21
2186.802021
 31
0.0
  0
LINE
  5
446
330
6F
100
AcDbEntity
  8
D-0
  6
Continuous
 62
     5
100
AcDbLine
 10
2843.242584
 20
2136.802021
 30
0.0
 11
3867.476977
 21
2136.802021
 31
0.0
  0
LINE
  5
447
330
6F
100
AcDbEntity
  8
D-0
  6
Continuous
 62
     5
100
AcDbLine
 10
2843.242584
 20
2436.802021
 30
0.0
 11
3867.476977
 21
2436.802021
 31
0.0
  0
TEXT
  5
448
330
6F
100
AcDbEntity
  8
D-0
 62
     5
100
AcDbText
 10
3217.254
 20
2399.248
 30
0.0
 40
25.92
  1
プレコート（PB）
100
AcDbText
  0
TEXT
  5
449
330
6F
100
AcDbEntity
  8
D-0
 62
     5
100
AcDbText
 10
3217.254
 20
2249.248
 30
0.0
 40
25.92
  1
木口テープ仕上
100
AcDbText
  0
TEXT
  5
44A
330
6F
100
AcDbEntity
  8
D-0
 62
     5
100
AcDbText
 10
3217.254
 20
2299.248
 30
0.0
 40
25.92
  1
ウレタンコート化粧ボード（PB)
100
AcDbText
  0
TEXT
  5
44B
330
6F
100
AcDbEntity
  8
D-0
 62
     5
100
AcDbText
 10
3217.254
 20
2599.248
 30
0.0
 40
25.92
  1
ウレタンコート化粧ボード（PB)
100
AcDbText
  0
LINE
  5
44C
330
6F
100
AcDbEntity
  8
D-0
  6
Continuous
 62
     5
100
AcDbLine
 10
2843.242584
 20
2636.802021
 30
0.0
 11
3867.476977
 21
2636.802021
 31
0.0
  0
LINE
  5
44D
330
6F
100
AcDbEntity
  8
D-0
  6
Continuous
 62
     5
100
AcDbLine
 10
3035.653536
 20
2636.802021
 30
0.0
 11
3035.653536
 21
2186.802021
 31
0.0
  0
LINE
  5
44E
330
6F
100
AcDbEntity
  8
D-0
  6
Continuous
 62
     5
100
AcDbLine
 10
3187.125963
 20
2636.802021
 30
0.0
 11
3187.125963
 21
2136.802021
 31
0.0
  0
LINE
  5
44F
330
6F
100
AcDbEntity
  8
D-0
  6
Continuous
 62
     5
100
AcDbLine
 10
2843.242584
 20
2636.802021
 30
0.0
 11
2843.242584
 21
2136.802021
 31
0.0
  0
TEXT
  5
450
330
6F
100
AcDbEntity
  8
D-0
 62
     5
100
AcDbText
 10
2882.834000000001
 20
2149.248
 30
0.0
 40
25.92
  1
丁番
100
AcDbText
  0
TEXT
  5
451
330
6F
100
AcDbEntity
  8
D-0
 62
     5
100
AcDbText
 10
2882.834000000001
 20
2399.248
 30
0.0
 40
25.92
  1
扉
100
AcDbText
  0
TEXT
  5
452
330
6F
100
AcDbEntity
  8
D-0
 62
     5
100
AcDbText
 10
3055.592
 20
2299.248
 30
0.0
 40
25.92
  1
裏
100
AcDbText
  0
TEXT
  5
453
330
6F
100
AcDbEntity
  8
D-0
 62
     5
100
AcDbText
 10
3055.592
 20
2199.248
 30
0.0
 40
25.92
  1
ラッチ
100
AcDbText
  0
TEXT
  5
454
330
6F
100
AcDbEntity
  8
D-0
 62
     5
100
AcDbText
 10
3055.592
 20
2249.248
 30
0.0
 40
25.92
  1
木口
100
AcDbText
  0
TEXT
  5
455
330
6F
100
AcDbEntity
  8
D-0
 62
     5
100
AcDbText
 10
3055.592
 20
2449.248
 30
0.0
 40
25.92
  1
地板
100
AcDbText
  0
TEXT
  5
456
330
6F
100
AcDbEntity
  8
D-0
 62
     5
100
AcDbText
 10
3055.592
 20
2399.248
 30
0.0
 40
25.92
  1
表
100
AcDbText
  0
TEXT
  5
457
330
6F
100
AcDbEntity
  8
D-0
 62
     5
100
AcDbText
 10
2882.834000000001
 20
2499.248
 30
0.0
 40
25.92
  1
不燃部
100
AcDbText
  0
TEXT
  5
458
330
6F
100
AcDbEntity
  8
D-0
 62
     5
100
AcDbText
 10
2882.834000000001
 20
2599.248
 30
0.0
 40
25.92
  1
木部本体
100
AcDbText
  0
TEXT
  5
459
330
6F
100
AcDbEntity
  8
D-0
 62
     5
100
AcDbText
 10
3055.592
 20
2599.248
 30
0.0
 40
25.92
  1
側板
100
AcDbText
  0
TEXT
  5
45A
330
6F
100
AcDbEntity
  8
D-0
 62
     5
100
AcDbText
 10
3217.254
 20
2549.248
 30
0.0
 40
25.92
  1
クリーンイーゴスMDF
100
AcDbText
  0
TEXT
  5
45B
330
6F
100
AcDbEntity
  8
D-0
 62
     5
100
AcDbText
 10
3055.592
 20
2499.248
 30
0.0
 40
25.92
  1
側板
100
AcDbText
  0
TEXT
  5
45C
330
6F
100
AcDbEntity
  8
D-0
 62
     5
100
AcDbText
 10
3055.592
 20
2549.248
 30
0.0
 40
25.92
  1
背板
100
AcDbText
  0
LINE
  5
45D
330
6F
100
AcDbEntity
  8
D-0
  6
Continuous
 62
     5
100
AcDbLine
 10
3867.476977
 20
2636.802021
 30
0.0
 11
3867.476977
 21
2136.802021
 31
0.0
  0
TEXT
  5
45E
330
6F
100
AcDbEntity
  8
D-0
 62
     5
100
AcDbText
 10
3217.254
 20
2349.248
 30
0.0
 40
25.92
  1
（SW）は鏡面仕上げ
100
AcDbText
  0
TEXT
  5
45F
330
6F
100
AcDbEntity
  8
D-0
 62
     5
100
AcDbText
 10
2842.762
 20
2063.797
 30
0.0
 40
25.92
  1
※　弊社製品はすべてF☆☆☆☆に対応しております。
100
AcDbText
  0
TEXT
  5
460
330
6F
100
AcDbEntity
  8
D-0
 62
     5
100
AcDbText
 10
3218.861
 20
2148.5
 30
0.0
 40
25.92
  1
スライドヒンジ
100
AcDbText
  0
ENDSEC
  0
SECTION
  2
OBJECTS
  0
DICTIONARY
  5
C
330
0
100
AcDbDictionary
281
     1
  3
ACAD_CIP_PREVIOUS_PRODUCT_INFO
350
462
  3
ACAD_COLOR
350
62
  3
ACAD_DETAILVIEWSTYLE
350
69
  3
ACAD_GROUP
350
D
  3
ACAD_LAYOUT
350
61
  3
ACAD_MATERIAL
350
10
  3
ACAD_MLEADERSTYLE
350
65
  3
ACAD_MLINESTYLE
350
5E
  3
ACAD_PLOTSETTINGS
350
60
  3
ACAD_PLOTSTYLENAME
350
E
  3
ACAD_SCALELIST
350
42
  3
ACAD_SECTIONVIEWSTYLE
350
67
  3
ACAD_TABLESTYLE
350
63
  3
ACAD_VISUALSTYLE
350
29
  3
ACDB_RECOMPOSE_DATA
350
487
  3
AcDbVariableDictionary
350
479
  0
DICTIONARY
  5
463
330
54
100
AcDbDictionary
280
     1
281
     1
  3
ADSK_XREC_LAYER_RECONCILED
360
464
  0
DICTIONARY
  5
465
330
7F
100
AcDbDictionary
280
     1
281
     1
  3
ADSK_XREC_LAYER_RECONCILED
360
466
  0
DICTIONARY
  5
467
330
80
100
AcDbDictionary
280
     1
281
     1
  3
ADSK_XREC_LAYER_RECONCILED
360
468
  0
DICTIONARY
  5
469
330
81
100
AcDbDictionary
280
     1
281
     1
  3
ADSK_XREC_LAYER_RECONCILED
360
46A
  0
DICTIONARY
  5
46B
330
82
100
AcDbDictionary
280
     1
281
     1
  3
ADSK_XREC_LAYER_RECONCILED
360
46C
  0
DICTIONARY
  5
46D
330
83
100
AcDbDictionary
280
     1
281
     1
  3
ADSK_XREC_LAYER_RECONCILED
360
46E
  0
DICTIONARY
  5
46F
330
84
100
AcDbDictionary
280
     1
281
     1
  3
ADSK_XREC_LAYER_RECONCILED
360
470
  0
DICTIONARY
  5
471
330
85
100
AcDbDictionary
280
     1
281
     1
  3
ADSK_XREC_LAYER_RECONCILED
360
472
  0
DICTIONARY
  5
473
330
86
100
AcDbDictionary
280
     1
281
     1
  3
ADSK_XREC_LAYER_RECONCILED
360
474
  0
DICTIONARY
  5
475
330
87
100
AcDbDictionary
280
     1
281
     1
  3
ADSK_XREC_LAYER_RECONCILED
360
476
  0
DICTIONARY
  5
477
330
8D
100
AcDbDictionary
280
     1
281
     1
  3
ADSK_XREC_LAYER_RECONCILED
360
478
  0
XRECORD
  5
462
102
{ACAD_REACTORS
330
C
102
}
330
C
100
AcDbXrecord
280
     1
300
ACDLT
300
2020
300

  0
DICTIONARY
  5
62
102
{ACAD_REACTORS
330
C
102
}
330
C
100
AcDbDictionary
281
     1
  0
DICTIONARY
  5
69
102
{ACAD_REACTORS
330
C
102
}
330
C
100
AcDbDictionary
281
     1
  3
Imperial24
350
6A
  0
DICTIONARY
  5
D
102
{ACAD_REACTORS
330
C
102
}
330
C
100
AcDbDictionary
281
     1
  0
DICTIONARY
  5
61
102
{ACAD_REACTORS
330
C
102
}
330
C
100
AcDbDictionary
281
     1
  3
Model
350
72
  3
レイアウト1
350
6E
  0
DICTIONARY
  5
10
102
{ACAD_REACTORS
330
C
102
}
330
C
100
AcDbDictionary
281
     1
  3
ByBlock
350
19
  3
ByLayer
350
11
  3
Global
350
21
  0
DICTIONARY
  5
65
102
{ACAD_REACTORS
330
C
102
}
330
C
100
AcDbDictionary
281
     1
  3
Standard
350
66
  0
DICTIONARY
  5
5E
102
{ACAD_REACTORS
330
C
102
}
330
C
100
AcDbDictionary
281
     1
  3
Standard
350
5F
  0
DICTIONARY
  5
60
102
{ACAD_REACTORS
330
C
102
}
330
C
100
AcDbDictionary
281
     1
  0
ACDBDICTIONARYWDFLT
  5
E
102
{ACAD_REACTORS
330
C
102
}
330
C
100
AcDbDictionary
281
     1
  3
Normal
350
F
100
AcDbDictionaryWithDefault
340
F
  0
DICTIONARY
  5
42
102
{ACAD_REACTORS
330
C
102
}
330
C
100
AcDbDictionary
281
     1
  3
A0
350
43
  3
A1
350
44
  3
A2
350
45
  3
A3
350
46
  3
A4
350
47
  3
A5
350
48
  3
A6
350
49
  3
A7
350
4A
  3
A8
350
4B
  3
A9
350
4C
  3
B0
350
4D
  3
B1
350
4E
  3
B2
350
4F
  3
B3
350
50
  3
B4
350
51
  3
B5
350
52
  3
B6
350
53
  0
DICTIONARY
  5
67
102
{ACAD_REACTORS
330
C
102
}
330
C
100
AcDbDictionary
281
     1
  3
Imperial24
350
68
  0
DICTIONARY
  5
63
102
{ACAD_REACTORS
330
C
102
}
330
C
100
AcDbDictionary
281
     1
  3
Standard
350
64
  0
DICTIONARY
  5
29
102
{ACAD_REACTORS
330
C
102
}
330
C
100
AcDbDictionary
281
     1
  3
2dWireframe
350
2F
  3
Basic
350
2E
  3
Brighten
350
35
  3
ColorChange
350
39
  3
Conceptual
350
32
  3
Dim
350
34
  3
EdgeColorOff
350
41
  3
Facepattern
350
38
  3
Flat
350
2A
  3
FlatWithEdges
350
2B
  3
Gouraud
350
2C
  3
GouraudWithEdges
350
2D
  3
Hidden
350
31
  3
JitterOff
350
3F
  3
Linepattern
350
37
  3
OverhangOff
350
40
  3
Realistic
350
33
  3
Shaded
350
3E
  3
Shaded with edges
350
3D
  3
Shades of Gray
350
3A
  3
Sketchy
350
3B
  3
Thicken
350
36
  3
Wireframe
350
30
  3
X-Ray
350
3C
  0
XRECORD
  5
487
102
{ACAD_REACTORS
330
C
102
}
330
C
100
AcDbXrecord
280
     1
 90
        1
330
64
  0
DICTIONARY
  5
479
102
{ACAD_REACTORS
330
C
102
}
330
C
100
AcDbDictionary
281
     1
  3
CANNOSCALE
350
47F
  3
CMLEADERSTYLE
350
47B
  3
CTABLESTYLE
350
47A
  3
CVIEWDETAILSTYLE
350
47C
  3
CVIEWSECTIONSTYLE
350
47D
  3
LAYEREVAL
350
481
  3
LAYERNOTIFY
350
482
  3
LIGHTINGUNITS
350
480
  3
MSLTSCALE
350
47E
  3
XCLIPFRAME
350
483
  0
XRECORD
  5
464
102
{ACAD_REACTORS
330
463
102
}
330
463
100
AcDbXrecord
280
     1
290
     1
  0
XRECORD
  5
466
102
{ACAD_REACTORS
330
465
102
}
330
465
100
AcDbXrecord
280
     1
290
     1
  0
XRECORD
  5
468
102
{ACAD_REACTORS
330
467
102
}
330
467
100
AcDbXrecord
280
     1
290
     1
  0
XRECORD
  5
46A
102
{ACAD_REACTORS
330
469
102
}
330
469
100
AcDbXrecord
280
     1
290
     1
  0
XRECORD
  5
46C
102
{ACAD_REACTORS
330
46B
102
}
330
46B
100
AcDbXrecord
280
     1
290
     1
  0
XRECORD
  5
46E
102
{ACAD_REACTORS
330
46D
102
}
330
46D
100
AcDbXrecord
280
     1
290
     1
  0
XRECORD
  5
470
102
{ACAD_REACTORS
330
46F
102
}
330
46F
100
AcDbXrecord
280
     1
290
     1
  0
XRECORD
  5
472
102
{ACAD_REACTORS
330
471
102
}
330
471
100
AcDbXrecord
280
     1
290
     1
  0
XRECORD
  5
474
102
{ACAD_REACTORS
330
473
102
}
330
473
100
AcDbXrecord
280
     1
290
     1
  0
XRECORD
  5
476
102
{ACAD_REACTORS
330
475
102
}
330
475
100
AcDbXrecord
280
     1
290
     1
  0
XRECORD
  5
478
102
{ACAD_REACTORS
330
477
102
}
330
477
100
AcDbXrecord
280
     1
290
     1
  0
ACDBDETAILVIEWSTYLE
  5
6A
102
{ACAD_XDICTIONARY
360
4BB
102
}
102
{ACAD_REACTORS
330
69
102
}
330
69
100
AcDbModelDocViewStyle
 70
     0
  3
Imperial24
290
     0
100
AcDbDetailViewStyle
 70
     0
 71
     0
 90
        3
 71
     1
340
55
 62
   256
 40
0.24
340
0
 62
   256
 40
0.24
300

 40
0.36
280
     3
 71
     2
340
5C
 90
       25
 62
   256
 71
     3
340
55
 62
   256
 40
0.24
 90
        1
 40
0.75
 90
        1
300
%<\AcVar ViewType \f "%tc1">% %<\AcVar ViewDetailId>%\PSCALE %<\AcVar ViewScale \f "%sn">%
 71
     4
340
5C
 90
       25
 62
   256
340
5C
 90
       25
 62
   256
280
     0
  0
LAYOUT
  5
72
102
{ACAD_REACTORS
330
61
102
}
330
61
100
AcDbPlotSettings
  1

  2
DocuCentre-V 4070
  4

  6

 40
0.0
 41
0.0
 42
0.0
 43
0.0
 44
0.0
 45
0.0
 46
0.0
 47
0.0
 48
0.0
 49
0.0
140
0.0
141
0.0
142
1.0
143
1.0
 70
  1712
 72
     0
 73
     0
 74
     0
  7

 75
     0
147
1.0
 76
     0
 77
     2
 78
   300
148
0.0
149
0.0
100
AcDbLayout
  1
Model
 70
     1
 71
     0
 10
0.0
 20
0.0
 11
12.0
 21
9.0
 12
0.0
 22
0.0
 32
0.0
 14
0.0
 24
0.0
 34
0.0
 15
0.0
 25
0.0
 35
0.0
146
0.0
 13
0.0
 23
0.0
 33
0.0
 16
1.0
 26
0.0
 36
0.0
 17
0.0
 27
1.0
 37
0.0
 76
     0
330
6F
331
8C
  0
LAYOUT
  5
6E
102
{ACAD_REACTORS
330
61
102
}
330
61
100
AcDbPlotSettings
  1

  2
DocuCentre-V 4070
  4

  6

 40
0.0
 41
0.0
 42
0.0
 43
0.0
 44
0.0
 45
0.0
 46
0.0
 47
0.0
 48
0.0
 49
0.0
140
0.0
141
0.0
142
1.0
143
1.0
 70
   688
 72
     0
 73
     0
 74
     5
  7

 75
    16
147
1.0
 76
     0
 77
     2
 78
   300
148
0.0
149
0.0
100
AcDbLayout
  1
レイアウト1
 70
     1
 71
     1
 10
0.0
 20
0.0
 11
12.0
 21
9.0
 12
0.0
 22
0.0
 32
0.0
 14
1.000000000000000E+20
 24
1.000000000000000E+20
 34
1.000000000000000E+20
 15
-1.000000000000000E+20
 25
-1.000000000000000E+20
 35
-1.000000000000000E+20
146
0.0
 13
0.0
 23
0.0
 33
0.0
 16
1.0
 26
0.0
 36
0.0
 17
0.0
 27
1.0
 37
0.0
 76
     0
330
6B
  0
MATERIAL
  5
19
102
{ACAD_XDICTIONARY
360
1A
102
}
102
{ACAD_REACTORS
330
10
102
}
330
10
100
AcDbMaterial
  1
ByBlock
 72
     0
 43
0.0208333333333333
 43
0.0
 43
0.0
 43
0.0
 43
0.0
 43
0.0208333333333333
 43
0.0
 43
0.0
 43
0.0
 43
0.0
 43
1.0
 43
0.0
 43
0.0
 43
0.0
 43
0.0
 43
1.0
 77
     0
 47
0.0208333333333333
 47
0.0
 47
0.0
 47
0.0
 47
0.0
 47
0.0208333333333333
 47
0.0
 47
0.0
 47
0.0
 47
0.0
 47
1.0
 47
0.0
 47
0.0
 47
0.0
 47
0.0
 47
1.0
171
     0
 49
0.0208333333333333
 49
0.0
 49
0.0
 49
0.0
 49
0.0
 49
0.0208333333333333
 49
0.0
 49
0.0
 49
0.0
 49
0.0
 49
1.0
 49
0.0
 49
0.0
 49
0.0
 49
0.0
 49
1.0
175
     0
142
0.0208333333333333
142
0.0
142
0.0
142
0.0
142
0.0
142
0.0208333333333333
142
0.0
142
0.0
142
0.0
142
0.0
142
1.0
142
0.0
142
0.0
142
0.0
142
0.0
142
1.0
179
     0
144
0.0208333333333333
144
0.0
144
0.0
144
0.0
144
0.0
144
0.0208333333333333
144
0.0
144
0.0
144
0.0
144
0.0
144
1.0
144
0.0
144
0.0
144
0.0
144
0.0
144
1.0
147
0.0208333333333333
147
0.0
147
0.0
147
0.0
147
0.0
147
0.0208333333333333
147
0.0
147
0.0
147
0.0
147
0.0
147
1.0
147
0.0
147
0.0
147
0.0
147
0.0
147
1.0
  0
MATERIAL
  5
11
102
{ACAD_XDICTIONARY
360
12
102
}
102
{ACAD_REACTORS
330
10
102
}
330
10
100
AcDbMaterial
  1
ByLayer
 72
     0
 43
0.0208333333333333
 43
0.0
 43
0.0
 43
0.0
 43
0.0
 43
0.0208333333333333
 43
0.0
 43
0.0
 43
0.0
 43
0.0
 43
1.0
 43
0.0
 43
0.0
 43
0.0
 43
0.0
 43
1.0
 77
     0
 47
0.0208333333333333
 47
0.0
 47
0.0
 47
0.0
 47
0.0
 47
0.0208333333333333
 47
0.0
 47
0.0
 47
0.0
 47
0.0
 47
1.0
 47
0.0
 47
0.0
 47
0.0
 47
0.0
 47
1.0
171
     0
 49
0.0208333333333333
 49
0.0
 49
0.0
 49
0.0
 49
0.0
 49
0.0208333333333333
 49
0.0
 49
0.0
 49
0.0
 49
0.0
 49
1.0
 49
0.0
 49
0.0
 49
0.0
 49
0.0
 49
1.0
175
     0
142
0.0208333333333333
142
0.0
142
0.0
142
0.0
142
0.0
142
0.0208333333333333
142
0.0
142
0.0
142
0.0
142
0.0
142
1.0
142
0.0
142
0.0
142
0.0
142
0.0
142
1.0
179
     0
144
0.0208333333333333
144
0.0
144
0.0
144
0.0
144
0.0
144
0.0208333333333333
144
0.0
144
0.0
144
0.0
144
0.0
144
1.0
144
0.0
144
0.0
144
0.0
144
0.0
144
1.0
147
0.0208333333333333
147
0.0
147
0.0
147
0.0
147
0.0
147
0.0208333333333333
147
0.0
147
0.0
147
0.0
147
0.0
147
1.0
147
0.0
147
0.0
147
0.0
147
0.0
147
1.0
  0
MATERIAL
  5
21
102
{ACAD_XDICTIONARY
360
22
102
}
102
{ACAD_REACTORS
330
10
102
}
330
10
100
AcDbMaterial
  1
Global
 72
     0
 43
0.0208333333333333
 43
0.0
 43
0.0
 43
0.0
 43
0.0
 43
0.0208333333333333
 43
0.0
 43
0.0
 43
0.0
 43
0.0
 43
1.0
 43
0.0
 43
0.0
 43
0.0
 43
0.0
 43
1.0
 77
     0
 47
0.0208333333333333
 47
0.0
 47
0.0
 47
0.0
 47
0.0
 47
0.0208333333333333
 47
0.0
 47
0.0
 47
0.0
 47
0.0
 47
1.0
 47
0.0
 47
0.0
 47
0.0
 47
0.0
 47
1.0
171
     0
 49
0.0208333333333333
 49
0.0
 49
0.0
 49
0.0
 49
0.0
 49
0.0208333333333333
 49
0.0
 49
0.0
 49
0.0
 49
0.0
 49
1.0
 49
0.0
 49
0.0
 49
0.0
 49
0.0
 49
1.0
175
     0
142
0.0208333333333333
142
0.0
142
0.0
142
0.0
142
0.0
142
0.0208333333333333
142
0.0
142
0.0
142
0.0
142
0.0
142
1.0
142
0.0
142
0.0
142
0.0
142
0.0
142
1.0
179
     0
144
0.0208333333333333
144
0.0
144
0.0
144
0.0
144
0.0
144
0.0208333333333333
144
0.0
144
0.0
144
0.0
144
0.0
144
1.0
144
0.0
144
0.0
144
0.0
144
0.0
144
1.0
147
0.0208333333333333
147
0.0
147
0.0
147
0.0
147
0.0
147
0.0208333333333333
147
0.0
147
0.0
147
0.0
147
0.0
147
1.0
147
0.0
147
0.0
147
0.0
147
0.0
147
1.0
  0
MLEADERSTYLE
  5
66
102
{ACAD_REACTORS
330
65
102
}
330
65
100
AcDbMLeaderStyle
170
     2
171
     1
172
     0
 90
        2
 40
0.0
 41
0.0
173
     1
 91
-1056964608
340
5A
 92
       -2
290
     1
 42
0.09
291
     1
 43
0.36
  3
Standard
 44
0.18
300

342
55
174
     1
178
     6
175
     1
176
     0
 93
-1056964608
 45
0.18
292
     0
297
     0
 46
0.18
 94
-1056964608
 47
1.0
 49
1.0
140
1.0
293
     1
141
0.0
294
     1
177
     0
142
1.0
295
     0
296
     0
143
0.125
1001
ACAD_MLEADERVER
1070
     2
  0
MLINESTYLE
  5
5F
102
{ACAD_REACTORS
330
5E
102
}
330
5E
100
AcDbMlineStyle
  2
STANDARD
 70
     0
  3

 62
   256
 51
90.0
 52
90.0
 71
     2
 49
0.5
 62
   256
  6
BYLAYER
 49
-0.5
 62
   256
  6
BYLAYER
  0
ACDBPLACEHOLDER
  5
F
102
{ACAD_REACTORS
330
E
102
}
330
E
  0
SCALE
  5
43
102
{ACAD_REACTORS
330
42
102
}
330
42
100
AcDbScale
 70
     0
300
1:1
140
1.0
141
1.0
290
     1
  0
SCALE
  5
44
102
{ACAD_REACTORS
330
42
102
}
330
42
100
AcDbScale
 70
     0
300
1/128" = 1'-0"
140
0.0078125
141
12.0
290
     0
  0
SCALE
  5
45
102
{ACAD_REACTORS
330
42
102
}
330
42
100
AcDbScale
 70
     0
300
1/64" = 1'-0"
140
0.015625
141
12.0
290
     0
  0
SCALE
  5
46
102
{ACAD_REACTORS
330
42
102
}
330
42
100
AcDbScale
 70
     0
300
1/32" = 1'-0"
140
0.03125
141
12.0
290
     0
  0
SCALE
  5
47
102
{ACAD_REACTORS
330
42
102
}
330
42
100
AcDbScale
 70
     0
300
1/16" = 1'-0"
140
0.0625
141
12.0
290
     0
  0
SCALE
  5
48
102
{ACAD_REACTORS
330
42
102
}
330
42
100
AcDbScale
 70
     0
300
3/32" = 1'-0"
140
0.09375
141
12.0
290
     0
  0
SCALE
  5
49
102
{ACAD_REACTORS
330
42
102
}
330
42
100
AcDbScale
 70
     0
300
1/8" = 1'-0"
140
0.125
141
12.0
290
     0
  0
SCALE
  5
4A
102
{ACAD_REACTORS
330
42
102
}
330
42
100
AcDbScale
 70
     0
300
3/16" = 1'-0"
140
0.1875
141
12.0
290
     0
  0
SCALE
  5
4B
102
{ACAD_REACTORS
330
42
102
}
330
42
100
AcDbScale
 70
     0
300
1/4" = 1'-0"
140
0.25
141
12.0
290
     0
  0
SCALE
  5
4C
102
{ACAD_REACTORS
330
42
102
}
330
42
100
AcDbScale
 70
     0
300
3/8" = 1'-0"
140
0.375
141
12.0
290
     0
  0
SCALE
  5
4D
102
{ACAD_REACTORS
330
42
102
}
330
42
100
AcDbScale
 70
     0
300
1/2" = 1'-0"
140
0.5
141
12.0
290
     0
  0
SCALE
  5
4E
102
{ACAD_REACTORS
330
42
102
}
330
42
100
AcDbScale
 70
     0
300
3/4" = 1'-0"
140
0.75
141
12.0
290
     0
  0
SCALE
  5
4F
102
{ACAD_REACTORS
330
42
102
}
330
42
100
AcDbScale
 70
     0
300
1" = 1'-0"
140
1.0
141
12.0
290
     0
  0
SCALE
  5
50
102
{ACAD_REACTORS
330
42
102
}
330
42
100
AcDbScale
 70
     0
300
1-1/2" = 1'-0"
140
1.5
141
12.0
290
     0
  0
SCALE
  5
51
102
{ACAD_REACTORS
330
42
102
}
330
42
100
AcDbScale
 70
     0
300
3" = 1'-0"
140
3.0
141
12.0
290
     0
  0
SCALE
  5
52
102
{ACAD_REACTORS
330
42
102
}
330
42
100
AcDbScale
 70
     0
300
6" = 1'-0"
140
6.0
141
12.0
290
     0
  0
SCALE
  5
53
102
{ACAD_REACTORS
330
42
102
}
330
42
100
AcDbScale
 70
     0
300
1'-0" = 1'-0"
140
12.0
141
12.0
290
     0
  0
ACDBSECTIONVIEWSTYLE
  5
68
102
{ACAD_XDICTIONARY
360
4B9
102
}
102
{ACAD_REACTORS
330
67
102
}
330
67
100
AcDbModelDocViewStyle
 70
     0
  3
Imperial24
290
     0
100
AcDbSectionViewStyle
 70
     0
 71
     0
 90
       78
 71
     1
340
55
 62
   256
 40
0.24
340
0
340
0
 62
   256
 40
0.24
300
I, O, Q, S, X, Z
 40
0.48
 90
        3
 40
0.18
 90
        1
 71
     2
340
5C
 90
       25
 62
   256
340
5C
 90
       50
 62
   256
 40
0.24
 40
0.0
 40
0.24
 71
     3
340
55
 62
   256
 40
0.24
 90
        1
 40
0.75
 90
        1
300
%<\AcVar ViewType \f "%tc1">% %<\AcVar ViewSectionStartId>%-%<\AcVar ViewSectionEndId>%\PSCALE %<\AcVar ViewScale \f "%sn">%
 71
     4
 62
   256
 62
   257
300
ANSI31
 40
1.0
 90
        0
290
     0
290
     0
 90
        6
 40
0.0
 40
1.570796326794896
 40
0.2617993877991494
 40
1.308996938995747
 40
-0.2617993877991494
 40
1.832595714594046
  0
TABLESTYLE
  5
64
102
{ACAD_XDICTIONARY
360
485
102
}
102
{ACAD_REACTORS
330
63
102
}
330
63
100
AcDbTableStyle
  3
Standard
 70
     0
 71
     0
 40
0.06
 41
0.06
280
     0
281
     0
  7
STANDARD
140
0.18
170
     2
 62
     0
 63
     7
283
     0
 90
      512
 91
        0
  1

274
    -2
284
     1
 64
     0
275
    -2
285
     1
 65
     0
276
    -2
286
     1
 66
     0
277
    -2
287
     1
 67
     0
278
    -2
288
     1
 68
     0
279
    -2
289
     1
 69
     0
  7
STANDARD
140
0.25
170
     5
 62
     0
 63
     7
283
     0
 90
      512
 91
        0
  1

274
    -2
284
     1
 64
     0
275
    -2
285
     1
 65
     0
276
    -2
286
     1
 66
     0
277
    -2
287
     1
 67
     0
278
    -2
288
     1
 68
     0
279
    -2
289
     1
 69
     0
  7
STANDARD
140
0.18
170
     5
 62
     0
 63
     7
283
     0
 90
      512
 91
        0
  1

274
    -2
284
     1
 64
     0
275
    -2
285
     1
 65
     0
276
    -2
286
     1
 66
     0
277
    -2
287
     1
 67
     0
278
    -2
288
     1
 68
     0
279
    -2
289
     1
 69
     0
  0
VISUALSTYLE
  5
2F
102
{ACAD_XDICTIONARY
360
492
102
}
102
{ACAD_REACTORS
330
29
102
}
330
29
100
AcDbVisualStyle
  2
2dWireframe
 70
     4
 71
     0
 72
     2
 73
     0
 90
        0
 40
-0.6
 41
-30.0
 62
     5
 63
     7
421
 16777215
 74
     1
 91
        4
 64
     7
 65
   257
 75
     1
175
     1
 42
1.0
 92
        0
 66
   257
 43
1.0
 76
     1
 77
     6
 78
     2
 67
     7
 79
     5
170
     0
171
     0
290
     0
174
     0
 93
        1
 44
0.0
173
     0
291
     0
 45
0.0
1001
ACAD
1000
AcDbSavedByObjectVersion
1070
     0
  0
VISUALSTYLE
  5
2E
102
{ACAD_XDICTIONARY
360
490
102
}
102
{ACAD_REACTORS
330
29
102
}
330
29
100
AcDbVisualStyle
  2
Basic
 70
     7
 71
     1
 72
     0
 73
     1
 90
        0
 40
-0.6
 41
-30.0
 62
     5
 63
     7
421
 16777215
 74
     0
 91
        4
 64
     7
 65
   257
 75
     1
175
     1
 42
1.0
 92
        8
 66
     7
 43
1.0
 76
     1
 77
     6
 78
     2
 67
     7
 79
     5
170
     0
171
     0
290
     0
174
     0
 93
        1
 44
0.0
173
     0
291
     1
 45
0.0
1001
ACAD
1000
AcDbSavedByObjectVersion
1070
     0
  0
VISUALSTYLE
  5
35
102
{ACAD_XDICTIONARY
360
49E
102
}
102
{ACAD_REACTORS
330
29
102
}
330
29
100
AcDbVisualStyle
  2
Brighten
 70
    12
 71
     2
 72
     2
 73
     0
 90
        0
 40
-0.6
 41
-30.0
 62
     5
 63
     7
421
 16777215
 74
     1
 91
        4
 64
     7
 65
   257
 75
     1
175
     1
 42
1.0
 92
        8
 66
     7
 43
1.0
 76
     1
 77
     6
 78
     2
 67
     7
 79
     5
170
     0
171
     0
290
     0
174
     0
 93
        1
 44
50.0
173
     0
291
     1
 45
0.0
1001
ACAD
1000
AcDbSavedByObjectVersion
1070
     0
  0
VISUALSTYLE
  5
39
102
{ACAD_XDICTIONARY
360
4A6
102
}
102
{ACAD_REACTORS
330
29
102
}
330
29
100
AcDbVisualStyle
  2
ColorChange
 70
    16
 71
     2
 72
     2
 73
     3
 90
        0
 40
-0.6
 41
-30.0
 62
     5
 63
     8
421
  8421504
 74
     1
 91
        4
 64
     7
 65
   257
 75
     1
175
     1
 42
1.0
 92
        8
 66
     8
424
  8421504
 43
1.0
 76
     1
 77
     6
 78
     2
 67
     7
 79
     5
170
     0
171
     0
290
     0
174
     0
 93
        1
 44
0.0
173
     0
291
     1
 45
0.0
1001
ACAD
1000
AcDbSavedByObjectVersion
1070
     0
  0
VISUALSTYLE
  5
32
102
{ACAD_XDICTIONARY
360
498
102
}
102
{ACAD_REACTORS
330
29
102
}
330
29
100
AcDbVisualStyle
  2
Conceptual
 70
     9
 71
     3
 72
     2
 73
     0
 90
        0
 40
-0.6
 41
-30.0
 62
     5
 63
     7
421
 16777215
 74
     2
 91
        2
 64
     7
 65
   257
 75
     1
175
     1
 42
179.0
 92
        8
 66
     7
 43
1.0
 76
     1
 77
     6
 78
     2
 67
     7
 79
     3
170
     0
171
     0
290
     0
174
     0
 93
        1
 44
0.0
173
     0
291
     0
 45
0.0
1001
ACAD
1000
AcDbSavedByObjectVersion
1070
     0
  0
VISUALSTYLE
  5
34
102
{ACAD_XDICTIONARY
360
49C
102
}
102
{ACAD_REACTORS
330
29
102
}
330
29
100
AcDbVisualStyle
  2
Dim
 70
    11
 71
     2
 72
     2
 73
     0
 90
        0
 40
-0.6
 41
-30.0
 62
     5
 63
     7
421
 16777215
 74
     1
 91
        4
 64
     7
 65
   257
 75
     1
175
     1
 42
1.0
 92
        8
 66
     7
 43
1.0
 76
     1
 77
     6
 78
     2
 67
     7
 79
     5
170
     0
171
     0
290
     0
174
     0
 93
        1
 44
-50.0
173
     0
291
     1
 45
0.0
1001
ACAD
1000
AcDbSavedByObjectVersion
1070
     0
  0
VISUALSTYLE
  5
41
102
{ACAD_XDICTIONARY
360
4B6
102
}
102
{ACAD_REACTORS
330
29
102
}
330
29
100
AcDbVisualStyle
  2
EdgeColorOff
 70
    22
 71
     2
 72
     2
 73
     0
 90
        0
 40
-0.6
 41
-30.0
 62
     5
 63
     7
421
 16777215
 74
     1
 91
        4
 64
     7
 65
   257
 75
     1
175
     1
 42
1.0
 92
        8
 66
     7
 43
1.0
 76
     1
 77
     6
 78
     2
 67
     7
 79
     5
170
     0
171
     0
290
     0
174
     0
 93
        1
 44
0.0
173
     0
291
     1
 45
0.0
1001
ACAD
1000
AcDbSavedByObjectVersion
1070
     0
  0
VISUALSTYLE
  5
38
102
{ACAD_XDICTIONARY
360
4A4
102
}
102
{ACAD_REACTORS
330
29
102
}
330
29
100
AcDbVisualStyle
  2
Facepattern
 70
    15
 71
     2
 72
     2
 73
     0
 90
        0
 40
-0.6
 41
-30.0
 62
     5
 63
     7
421
 16777215
 74
     1
 91
        4
 64
     7
 65
   257
 75
     1
175
     1
 42
1.0
 92
        8
 66
     7
 43
1.0
 76
     1
 77
     6
 78
     2
 67
     7
 79
     5
170
     0
171
     0
290
     0
174
     0
 93
        1
 44
0.0
173
     0
291
     1
 45
0.0
1001
ACAD
1000
AcDbSavedByObjectVersion
1070
     0
  0
VISUALSTYLE
  5
2A
102
{ACAD_XDICTIONARY
360
488
102
}
102
{ACAD_REACTORS
330
29
102
}
330
29
100
AcDbVisualStyle
  2
Flat
 70
     0
 71
     2
 72
     1
 73
     1
 90
        2
 40
-0.6
 41
30.0
 62
     5
 63
     7
421
 16777215
 74
     0
 91
        0
 64
     7
 65
   257
 75
     1
175
     1
 42
1.0
 92
        8
 66
     7
 43
1.0
 76
     1
 77
     6
 78
     2
 67
     7
 79
     5
170
     0
171
     0
290
     0
174
     0
 93
       13
 44
0.0
173
     0
291
     1
 45
0.0
1001
ACAD
1000
AcDbSavedByObjectVersion
1070
     0
  0
VISUALSTYLE
  5
2B
102
{ACAD_XDICTIONARY
360
48A
102
}
102
{ACAD_REACTORS
330
29
102
}
330
29
100
AcDbVisualStyle
  2
FlatWithEdges
 70
     1
 71
     2
 72
     1
 73
     1
 90
        2
 40
-0.6
 41
30.0
 62
     5
 63
     7
421
 16777215
 74
     1
 91
        0
 64
     7
 65
   257
 75
     1
175
     1
 42
1.0
 92
        0
 66
   257
 43
1.0
 76
     1
 77
     6
 78
     2
 67
     7
 79
     5
170
     0
171
     0
290
     0
174
     0
 93
       13
 44
0.0
173
     0
291
     1
 45
0.0
1001
ACAD
1000
AcDbSavedByObjectVersion
1070
     0
  0
VISUALSTYLE
  5
2C
102
{ACAD_XDICTIONARY
360
48C
102
}
102
{ACAD_REACTORS
330
29
102
}
330
29
100
AcDbVisualStyle
  2
Gouraud
 70
     2
 71
     2
 72
     2
 73
     1
 90
        2
 40
-0.6
 41
30.0
 62
     5
 63
     7
421
 16777215
 74
     0
 91
        0
 64
     7
 65
   257
 75
     1
175
     1
 42
1.0
 92
        0
 66
     7
 43
1.0
 76
     1
 77
     6
 78
     2
 67
     7
 79
     5
170
     0
171
     0
290
     0
174
     0
 93
       13
 44
0.0
173
     0
291
     1
 45
0.0
1001
ACAD
1000
AcDbSavedByObjectVersion
1070
     0
  0
VISUALSTYLE
  5
2D
102
{ACAD_XDICTIONARY
360
48E
102
}
102
{ACAD_REACTORS
330
29
102
}
330
29
100
AcDbVisualStyle
  2
GouraudWithEdges
 70
     3
 71
     2
 72
     2
 73
     1
 90
        2
 40
-0.6
 41
30.0
 62
     5
 63
     7
421
 16777215
 74
     1
 91
        0
 64
     7
 65
   257
 75
     1
175
     1
 42
1.0
 92
        0
 66
   257
 43
1.0
 76
     1
 77
     6
 78
     2
 67
     7
 79
     5
170
     0
171
     0
290
     0
174
     0
 93
       13
 44
0.0
173
     0
291
     1
 45
0.0
1001
ACAD
1000
AcDbSavedByObjectVersion
1070
     0
  0
VISUALSTYLE
  5
31
102
{ACAD_XDICTIONARY
360
496
102
}
102
{ACAD_REACTORS
330
29
102
}
330
29
100
AcDbVisualStyle
  2
Hidden
 70
     6
 71
     1
 72
     2
 73
     2
 90
        0
 40
-0.6
 41
-30.0
 62
     5
 63
     7
421
 16777215
 74
     2
 91
        2
 64
     7
 65
   257
 75
     2
175
     1
 42
40.0
 92
        0
 66
   257
 43
1.0
 76
     1
 77
     6
 78
     2
 67
     7
 79
     3
170
     0
171
     0
290
     0
174
     0
 93
        1
 44
0.0
173
     0
291
     0
 45
0.0
1001
ACAD
1000
AcDbSavedByObjectVersion
1070
     0
  0
VISUALSTYLE
  5
3F
102
{ACAD_XDICTIONARY
360
4B2
102
}
102
{ACAD_REACTORS
330
29
102
}
330
29
100
AcDbVisualStyle
  2
JitterOff
 70
    20
 71
     2
 72
     2
 73
     0
 90
        0
 40
-0.6
 41
-30.0
 62
     5
 63
     7
421
 16777215
 74
     1
 91
        4
 64
     7
 65
   257
 75
     1
175
     1
 42
1.0
 92
       10
 66
     7
 43
1.0
 76
     1
 77
     6
 78
     2
 67
     7
 79
     5
170
     0
171
     0
290
     0
174
     0
 93
        1
 44
0.0
173
     0
291
     1
 45
0.0
1001
ACAD
1000
AcDbSavedByObjectVersion
1070
     0
  0
VISUALSTYLE
  5
37
102
{ACAD_XDICTIONARY
360
4A2
102
}
102
{ACAD_REACTORS
330
29
102
}
330
29
100
AcDbVisualStyle
  2
Linepattern
 70
    14
 71
     2
 72
     2
 73
     0
 90
        0
 40
-0.6
 41
-30.0
 62
     5
 63
     7
421
 16777215
 74
     1
 91
        4
 64
     7
 65
   257
 75
     7
175
     7
 42
1.0
 92
        8
 66
     7
 43
1.0
 76
     1
 77
     6
 78
     2
 67
     7
 79
     5
170
     0
171
     0
290
     0
174
     0
 93
        1
 44
0.0
173
     0
291
     1
 45
0.0
1001
ACAD
1000
AcDbSavedByObjectVersion
1070
     0
  0
VISUALSTYLE
  5
40
102
{ACAD_XDICTIONARY
360
4B4
102
}
102
{ACAD_REACTORS
330
29
102
}
330
29
100
AcDbVisualStyle
  2
OverhangOff
 70
    21
 71
     2
 72
     2
 73
     0
 90
        0
 40
-0.6
 41
-30.0
 62
     5
 63
     7
421
 16777215
 74
     1
 91
        4
 64
     7
 65
   257
 75
     1
175
     1
 42
1.0
 92
        9
 66
     7
 43
1.0
 76
     1
 77
     6
 78
     2
 67
     7
 79
     5
170
     0
171
     0
290
     0
174
     0
 93
        1
 44
0.0
173
     0
291
     1
 45
0.0
1001
ACAD
1000
AcDbSavedByObjectVersion
1070
     0
  0
VISUALSTYLE
  5
33
102
{ACAD_XDICTIONARY
360
49A
102
}
102
{ACAD_REACTORS
330
29
102
}
330
29
100
AcDbVisualStyle
  2
Realistic
 70
     8
 71
     2
 72
     3
 73
     0
 90
        2
 40
-0.6
 41
30.0
 62
     5
 63
     7
421
 16777215
 74
     0
 91
        0
 64
     7
 65
   257
 75
     1
175
     1
 42
1.0
 92
        8
 66
   257
 43
1.0
 76
     1
 77
     6
 78
     2
 67
     7
 79
     3
170
     0
171
     0
290
     0
174
     0
 93
       13
 44
0.0
173
     0
291
     0
 45
0.0
1001
ACAD
1000
AcDbSavedByObjectVersion
1070
     0
  0
VISUALSTYLE
  5
3E
102
{ACAD_XDICTIONARY
360
4B0
102
}
102
{ACAD_REACTORS
330
29
102
}
330
29
100
AcDbVisualStyle
  2
Shaded
 70
    27
 71
     2
 72
     2
 73
     1
 90
        2
 40
-0.6
 41
30.0
 62
     5
 63
     7
421
 16777215
 74
     0
 91
        4
 64
     7
 65
   257
 75
     1
175
     1
 42
1.0
 92
        8
 66
   257
 43
1.0
 76
     1
 77
     6
 78
     2
 67
     8
425
  7895160
 79
     3
170
     0
171
     0
290
     0
174
     0
 93
        5
 44
0.0
173
     0
291
     0
 45
0.0
1001
ACAD
1000
AcDbSavedByObjectVersion
1070
     0
  0
VISUALSTYLE
  5
3D
102
{ACAD_XDICTIONARY
360
4AE
102
}
102
{ACAD_REACTORS
330
29
102
}
330
29
100
AcDbVisualStyle
  2
Shaded with edges
 70
    26
 71
     2
 72
     2
 73
     1
 90
        2
 40
-0.6
 41
30.0
 62
     5
 63
     7
421
 16777215
 74
     1
 91
        2
 64
     7
 65
   257
 75
     2
175
     1
 42
1.0
 92
        8
 66
   257
 43
1.0
 76
     1
 77
     6
 78
     2
 67
     7
 79
     3
170
     0
171
     0
290
     0
174
     0
 93
        5
 44
0.0
173
     0
291
     0
 45
0.0
1001
ACAD
1000
AcDbSavedByObjectVersion
1070
     0
  0
VISUALSTYLE
  5
3A
102
{ACAD_XDICTIONARY
360
4A8
102
}
102
{ACAD_REACTORS
330
29
102
}
330
29
100
AcDbVisualStyle
  2
Shades of Gray
 70
    23
 71
     2
 72
     2
 73
     3
 90
        0
 40
-0.6
 41
-30.0
 62
     5
 63
     7
421
 16777215
 74
     2
 91
        2
 64
     7
 65
     7
 75
     1
175
     1
 42
40.0
 92
        8
 66
     7
 43
1.0
 76
     1
 77
     6
 78
     2
 67
     7
 79
     3
170
     0
171
     0
290
     0
174
     0
 93
        1
 44
0.0
173
     0
291
     0
 45
0.0
1001
ACAD
1000
AcDbSavedByObjectVersion
1070
     0
  0
VISUALSTYLE
  5
3B
102
{ACAD_XDICTIONARY
360
4AA
102
}
102
{ACAD_REACTORS
330
29
102
}
330
29
100
AcDbVisualStyle
  2
Sketchy
 70
    24
 71
     1
 72
     2
 73
     2
 90
        0
 40
-0.6
 41
-30.0
 62
     5
 63
     7
421
 16777215
 74
     2
 91
        2
 64
     7
 65
     7
 75
     1
175
     1
 42
40.0
 92
       11
 66
     7
 43
1.0
 76
     1
 77
     6
 78
     2
 67
     7
 79
     6
170
     0
171
     0
290
     0
174
     0
 93
        1
 44
0.0
173
     0
291
     0
 45
0.0
1001
ACAD
1000
AcDbSavedByObjectVersion
1070
     0
  0
VISUALSTYLE
  5
36
102
{ACAD_XDICTIONARY
360
4A0
102
}
102
{ACAD_REACTORS
330
29
102
}
330
29
100
AcDbVisualStyle
  2
Thicken
 70
    13
 71
     2
 72
     2
 73
     0
 90
        0
 40
-0.6
 41
-30.0
 62
     5
 63
     7
421
 16777215
 74
     1
 91
        4
 64
     7
 65
   257
 75
     1
175
     1
 42
1.0
 92
       12
 66
     7
 43
1.0
 76
     1
 77
     6
 78
     2
 67
     7
 79
     5
170
     0
171
     0
290
     0
174
     0
 93
        1
 44
0.0
173
     0
291
     1
 45
0.0
1001
ACAD
1000
AcDbSavedByObjectVersion
1070
     0
  0
VISUALSTYLE
  5
30
102
{ACAD_XDICTIONARY
360
494
102
}
102
{ACAD_REACTORS
330
29
102
}
330
29
100
AcDbVisualStyle
  2
Wireframe
 70
     5
 71
     0
 72
     2
 73
     0
 90
        0
 40
-0.6
 41
-30.0
 62
     5
 63
     7
421
 16777215
 74
     1
 91
        4
 64
     7
 65
   257
 75
     1
175
     1
 42
1.0
 92
        0
 66
   257
 43
1.0
 76
     1
 77
     6
 78
     2
 67
     7
 79
     3
170
     0
171
     0
290
     0
174
     0
 93
        1
 44
0.0
173
     0
291
     0
 45
0.0
1001
ACAD
1000
AcDbSavedByObjectVersion
1070
     0
  0
VISUALSTYLE
  5
3C
102
{ACAD_XDICTIONARY
360
4AC
102
}
102
{ACAD_REACTORS
330
29
102
}
330
29
100
AcDbVisualStyle
  2
X-Ray
 70
    25
 71
     2
 72
     2
 73
     1
 90
        1
 40
0.5
 41
-30.0
 62
     5
 63
     7
421
 16777215
 74
     1
 91
        0
 64
     7
 65
   257
 75
     1
175
     1
 42
1.0
 92
        8
 66
     7
 43
1.0
 76
     1
 77
     6
 78
     2
 67
     7
 79
     3
170
     0
171
     0
290
     0
174
     0
 93
       13
 44
0.0
173
     0
291
     0
 45
0.0
1001
ACAD
1000
AcDbSavedByObjectVersion
1070
     0
  0
DICTIONARYVAR
  5
47F
102
{ACAD_REACTORS
330
479
102
}
330
479
100
DictionaryVariables
280
     0
  1
1:1
  0
DICTIONARYVAR
  5
47B
102
{ACAD_REACTORS
330
479
102
}
330
479
100
DictionaryVariables
280
     0
  1
STANDARD
  0
DICTIONARYVAR
  5
47A
102
{ACAD_REACTORS
330
479
102
}
330
479
100
DictionaryVariables
280
     0
  1
STANDARD
  0
DICTIONARYVAR
  5
47C
102
{ACAD_REACTORS
330
479
102
}
330
479
100
DictionaryVariables
280
     0
  1
Imperial24
  0
DICTIONARYVAR
  5
47D
102
{ACAD_REACTORS
330
479
102
}
330
479
100
DictionaryVariables
280
     0
  1
Imperial24
  0
DICTIONARYVAR
  5
481
102
{ACAD_REACTORS
330
479
102
}
330
479
100
DictionaryVariables
280
     0
  1
1
  0
DICTIONARYVAR
  5
482
102
{ACAD_REACTORS
330
479
102
}
330
479
100
DictionaryVariables
280
     0
  1
15
  0
DICTIONARYVAR
  5
480
102
{ACAD_REACTORS
330
479
102
}
330
479
100
DictionaryVariables
280
     0
  1
0
  0
DICTIONARYVAR
  5
47E
102
{ACAD_REACTORS
330
479
102
}
330
479
100
DictionaryVariables
280
     0
  1
0
  0
DICTIONARYVAR
  5
483
102
{ACAD_REACTORS
330
479
102
}
330
479
100
DictionaryVariables
280
     0
  1
2
  0
DICTIONARY
  5
4BB
330
6A
100
AcDbDictionary
280
     1
281
     1
  3
ACAD_XREC_ROUNDTRIP
360
4BC
  0
DICTIONARY
  5
1A
330
19
100
AcDbDictionary
280
     1
281
     1
  3
BUMPTILE
360
1C
  3
DIFFUSETILE
360
1B
  3
OPACITYTILE
360
1F
  3
REFLECTIONTILE
360
1E
  3
REFRACTIONTILE
360
20
  3
SPECULARTILE
360
1D
  0
DICTIONARY
  5
12
330
11
100
AcDbDictionary
280
     1
281
     1
  3
BUMPTILE
360
14
  3
DIFFUSETILE
360
13
  3
OPACITYTILE
360
17
  3
REFLECTIONTILE
360
16
  3
REFRACTIONTILE
360
18
  3
SPECULARTILE
360
15
  0
DICTIONARY
  5
22
330
21
100
AcDbDictionary
280
     1
281
     1
  3
BUMPTILE
360
24
  3
DIFFUSETILE
360
23
  3
OPACITYTILE
360
27
  3
REFLECTIONTILE
360
26
  3
REFRACTIONTILE
360
28
  3
SPECULARTILE
360
25
  0
DICTIONARY
  5
4B9
330
68
100
AcDbDictionary
280
     1
281
     1
  3
ACAD_XREC_ROUNDTRIP
360
4BA
  0
DICTIONARY
  5
485
330
64
100
AcDbDictionary
280
     1
281
     1
  3
ACAD_ROUNDTRIP_2008_TABLESTYLE_CELLSTYLEMAP
360
486
  0
DICTIONARY
  5
492
330
2F
100
AcDbDictionary
280
     1
281
     1
  3
ACAD_XREC_ROUNDTRIP
360
493
  0
DICTIONARY
  5
490
330
2E
100
AcDbDictionary
280
     1
281
     1
  3
ACAD_XREC_ROUNDTRIP
360
491
  0
DICTIONARY
  5
49E
330
35
100
AcDbDictionary
280
     1
281
     1
  3
ACAD_XREC_ROUNDTRIP
360
49F
  0
DICTIONARY
  5
4A6
330
39
100
AcDbDictionary
280
     1
281
     1
  3
ACAD_XREC_ROUNDTRIP
360
4A7
  0
DICTIONARY
  5
498
330
32
100
AcDbDictionary
280
     1
281
     1
  3
ACAD_XREC_ROUNDTRIP
360
499
  0
DICTIONARY
  5
49C
330
34
100
AcDbDictionary
280
     1
281
     1
  3
ACAD_XREC_ROUNDTRIP
360
49D
  0
DICTIONARY
  5
4B6
330
41
100
AcDbDictionary
280
     1
281
     1
  3
ACAD_XREC_ROUNDTRIP
360
4B7
  0
DICTIONARY
  5
4A4
330
38
100
AcDbDictionary
280
     1
281
     1
  3
ACAD_XREC_ROUNDTRIP
360
4A5
  0
DICTIONARY
  5
488
330
2A
100
AcDbDictionary
280
     1
281
     1
  3
ACAD_XREC_ROUNDTRIP
360
489
  0
DICTIONARY
  5
48A
330
2B
100
AcDbDictionary
280
     1
281
     1
  3
ACAD_XREC_ROUNDTRIP
360
48B
  0
DICTIONARY
  5
48C
330
2C
100
AcDbDictionary
280
     1
281
     1
  3
ACAD_XREC_ROUNDTRIP
360
48D
  0
DICTIONARY
  5
48E
330
2D
100
AcDbDictionary
280
     1
281
     1
  3
ACAD_XREC_ROUNDTRIP
360
48F
  0
DICTIONARY
  5
496
330
31
100
AcDbDictionary
280
     1
281
     1
  3
ACAD_XREC_ROUNDTRIP
360
497
  0
DICTIONARY
  5
4B2
330
3F
100
AcDbDictionary
280
     1
281
     1
  3
ACAD_XREC_ROUNDTRIP
360
4B3
  0
DICTIONARY
  5
4A2
330
37
100
AcDbDictionary
280
     1
281
     1
  3
ACAD_XREC_ROUNDTRIP
360
4A3
  0
DICTIONARY
  5
4B4
330
40
100
AcDbDictionary
280
     1
281
     1
  3
ACAD_XREC_ROUNDTRIP
360
4B5
  0
DICTIONARY
  5
49A
330
33
100
AcDbDictionary
280
     1
281
     1
  3
ACAD_XREC_ROUNDTRIP
360
49B
  0
DICTIONARY
  5
4B0
330
3E
100
AcDbDictionary
280
     1
281
     1
  3
ACAD_XREC_ROUNDTRIP
360
4B1
  0
DICTIONARY
  5
4AE
330
3D
100
AcDbDictionary
280
     1
281
     1
  3
ACAD_XREC_ROUNDTRIP
360
4AF
  0
DICTIONARY
  5
4A8
330
3A
100
AcDbDictionary
280
     1
281
     1
  3
ACAD_XREC_ROUNDTRIP
360
4A9
  0
DICTIONARY
  5
4AA
330
3B
100
AcDbDictionary
280
     1
281
     1
  3
ACAD_XREC_ROUNDTRIP
360
4AB
  0
DICTIONARY
  5
4A0
330
36
100
AcDbDictionary
280
     1
281
     1
  3
ACAD_XREC_ROUNDTRIP
360
4A1
  0
DICTIONARY
  5
494
330
30
100
AcDbDictionary
280
     1
281
     1
  3
ACAD_XREC_ROUNDTRIP
360
495
  0
DICTIONARY
  5
4AC
330
3C
100
AcDbDictionary
280
     1
281
     1
  3
ACAD_XREC_ROUNDTRIP
360
4AD
  0
XRECORD
  5
4BC
102
{ACAD_REACTORS
330
4BB
102
}
330
4BB
100
AcDbXrecord
280
     1
102
DISPLAYNAME
  1
Imperial24
102
FLAGS
 90
        0
  0
XRECORD
  5
1C
102
{ACAD_REACTORS
330
1A
102
}
330
1A
100
AcDbXrecord
280
     1
270
     1
271
     1
  0
XRECORD
  5
1B
102
{ACAD_REACTORS
330
1A
102
}
330
1A
100
AcDbXrecord
280
     1
270
     1
271
     1
  0
XRECORD
  5
1F
102
{ACAD_REACTORS
330
1A
102
}
330
1A
100
AcDbXrecord
280
     1
270
     1
271
     1
  0
XRECORD
  5
1E
102
{ACAD_REACTORS
330
1A
102
}
330
1A
100
AcDbXrecord
280
     1
270
     1
271
     1
  0
XRECORD
  5
20
102
{ACAD_REACTORS
330
1A
102
}
330
1A
100
AcDbXrecord
280
     1
270
     1
271
     1
  0
XRECORD
  5
1D
102
{ACAD_REACTORS
330
1A
102
}
330
1A
100
AcDbXrecord
280
     1
270
     1
271
     1
  0
XRECORD
  5
14
102
{ACAD_REACTORS
330
12
102
}
330
12
100
AcDbXrecord
280
     1
270
     1
271
     1
  0
XRECORD
  5
13
102
{ACAD_REACTORS
330
12
102
}
330
12
100
AcDbXrecord
280
     1
270
     1
271
     1
  0
XRECORD
  5
17
102
{ACAD_REACTORS
330
12
102
}
330
12
100
AcDbXrecord
280
     1
270
     1
271
     1
  0
XRECORD
  5
16
102
{ACAD_REACTORS
330
12
102
}
330
12
100
AcDbXrecord
280
     1
270
     1
271
     1
  0
XRECORD
  5
18
102
{ACAD_REACTORS
330
12
102
}
330
12
100
AcDbXrecord
280
     1
270
     1
271
     1
  0
XRECORD
  5
15
102
{ACAD_REACTORS
330
12
102
}
330
12
100
AcDbXrecord
280
     1
270
     1
271
     1
  0
XRECORD
  5
24
102
{ACAD_REACTORS
330
22
102
}
330
22
100
AcDbXrecord
280
     1
270
     1
271
     1
  0
XRECORD
  5
23
102
{ACAD_REACTORS
330
22
102
}
330
22
100
AcDbXrecord
280
     1
270
     1
271
     1
  0
XRECORD
  5
27
102
{ACAD_REACTORS
330
22
102
}
330
22
100
AcDbXrecord
280
     1
270
     1
271
     1
  0
XRECORD
  5
26
102
{ACAD_REACTORS
330
22
102
}
330
22
100
AcDbXrecord
280
     1
270
     1
271
     1
  0
XRECORD
  5
28
102
{ACAD_REACTORS
330
22
102
}
330
22
100
AcDbXrecord
280
     1
270
     1
271
     1
  0
XRECORD
  5
25
102
{ACAD_REACTORS
330
22
102
}
330
22
100
AcDbXrecord
280
     1
270
     1
271
     1
  0
XRECORD
  5
4BA
102
{ACAD_REACTORS
330
4B9
102
}
330
4B9
100
AcDbXrecord
280
     1
102
DISPLAYNAME
  1
Imperial24
102
FLAGS
 90
        0
  0
CELLSTYLEMAP
  5
486
102
{ACAD_REACTORS
330
485
102
}
330
485
100
AcDbCellStyleMap
 90
        3
300
CELLSTYLE
  1
TABLEFORMAT_BEGIN
 90
        5
170
     1
 91
        0
 92
    32768
 62
   257
 93
        1
300
CONTENTFORMAT
  1
CONTENTFORMAT_BEGIN
 90
        0
 91
        0
 92
      512
 93
        0
300

 40
0.0
140
1.0
 94
        5
 62
     0
340
55
144
0.25
309
CONTENTFORMAT_END
171
     0
 94
        0
309
TABLEFORMAT_END
  1
CELLSTYLE_BEGIN
 90
        1
 91
        1
300
_TITLE
309
CELLSTYLE_END
300
CELLSTYLE
  1
TABLEFORMAT_BEGIN
 90
        5
170
     1
 91
        0
 92
        0
 62
   257
 93
        1
300
CONTENTFORMAT
  1
CONTENTFORMAT_BEGIN
 90
        0
 91
        0
 92
      512
 93
        0
300

 40
0.0
140
1.0
 94
        5
 62
     0
340
55
144
0.18
309
CONTENTFORMAT_END
171
     0
 94
        0
309
TABLEFORMAT_END
  1
CELLSTYLE_BEGIN
 90
        2
 91
        1
300
_HEADER
309
CELLSTYLE_END
300
CELLSTYLE
  1
TABLEFORMAT_BEGIN
 90
        5
170
     1
 91
        0
 92
        0
 62
   257
 93
        1
300
CONTENTFORMAT
  1
CONTENTFORMAT_BEGIN
 90
        0
 91
        0
 92
      512
 93
        0
300

 40
0.0
140
1.0
 94
        2
 62
     0
340
55
144
0.18
309
CONTENTFORMAT_END
171
     0
 94
        0
309
TABLEFORMAT_END
  1
CELLSTYLE_BEGIN
 90
        3
 91
        2
300
_DATA
309
CELLSTYLE_END
  0
XRECORD
  5
493
102
{ACAD_REACTORS
330
492
102
}
330
492
100
AcDbXrecord
280
     1
102
RTVSPost2010Prop28
280
     1
102
RTVSPost2010PropOp28
 70
     1
102
RTVSPost2010Prop29
280
     1
102
RTVSPost2010PropOp29
 70
     1
102
RTVSPost2010Prop30
280
     0
102
RTVSPost2010PropOp30
 70
     1
102
RTVSPost2010Prop31
280
     0
102
RTVSPost2010PropOp31
 70
     1
102
RTVSPost2010Prop32
280
     0
102
RTVSPost2010PropOp32
 70
     1
102
RTVSPost2010Prop33
280
     0
102
RTVSPost2010PropOp33
 70
     1
102
RTVSPost2010Prop34
280
     0
102
RTVSPost2010PropOp34
 70
     1
102
RTVSPost2010Prop35
280
     0
102
RTVSPost2010PropOp35
 70
     1
102
RTVSPost2010Prop36
280
     0
102
RTVSPost2010PropOp36
 70
     1
102
RTVSPost2010Prop37
 90
       50
102
RTVSPost2010PropOp37
 70
     1
102
RTVSPost2010Prop38
140
0.0
102
RTVSPost2010PropOp38
 70
     1
102
RTVSPost2010Prop39
140
1.0
102
RTVSPost2010PropOp39
 70
     1
102
RTVSPost2010Prop40
 90
        0
102
RTVSPost2010PropOp40
 70
     1
102
RTVSPost2010Prop41ColorIndex
 90
       18
102
RTVSPost2010Prop41ColorRGB
 90
        0
102
RTVSPost2010PropOp41
 70
     1
102
RTVSPost2010Prop42
 90
       50
102
RTVSPost2010PropOp42
 70
     1
102
RTVSPost2010Prop43
 90
        3
102
RTVSPost2010PropOp43
 70
     1
102
RTVSPost2010Prop44ColorIndex
 90
        5
102
RTVSPost2010Prop44ColorRGB
 90
      255
102
RTVSPost2010PropOp44
 70
     1
102
RTVSPost2010Prop45
280
     0
102
RTVSPost2010PropOp45
 70
     1
102
RTVSPost2010Prop46
 90
       50
102
RTVSPost2010PropOp46
 70
     1
102
RTVSPost2010Prop47
 90
       50
102
RTVSPost2010PropOp47
 70
     1
102
RTVSPost2010Prop48
 90
       50
102
RTVSPost2010PropOp48
 70
     1
102
RTVSPost2010Prop49
280
     0
102
RTVSPost2010PropOp49
 70
     1
102
RTVSPost2010Prop50
 90
       50
102
RTVSPost2010PropOp50
 70
     1
102
RTVSPost2010Prop51ColorIndex
 90
      256
102
RTVSPost2010Prop51ColorRGB
 90
-16777216
102
RTVSPost2010PropOp51
 70
     0
102
RTVSPost2010Prop52
140
1.0
102
RTVSPost2010PropOp52
 70
     0
102
RTVSPost2010Prop53
 90
        2
102
RTVSPost2010PropOp53
 70
     1
102
RTVSPost2010Prop54
  1
strokes_ogs.tif
102
RTVSPost2010PropOp54
 70
     1
102
RTVSPost2010Prop55
280
     0
102
RTVSPost2010PropOp55
 70
     1
102
RTVSPost2010Prop56
140
1.0
102
RTVSPost2010PropOp56
 70
     1
102
RTVSPost2010Prop57
140
1.0
102
RTVSPost2010PropOp57
 70
     1
102
RTVSPropertyOp0
 70
     1
102
RTVSPropertyOp1
 70
     1
102
RTVSPropertyOp2
 70
     1
102
RTVSPropertyOp3
 70
     1
102
RTVSPropertyOp4
 70
     1
102
RTVSPropertyOp5
 70
     1
102
RTVSPropertyOp6
 70
     1
102
RTVSPropertyOp7
 70
     1
102
RTVSPropertyOp8
 70
     1
102
RTVSPropertyOp9
 70
     1
102
RTVSPropertyOp10
 70
     1
102
RTVSPropertyOp11
 70
     1
102
RTVSPropertyOp12
 70
     1
102
RTVSPropertyOp13
 70
     1
102
RTVSPropertyOp14
 70
     1
102
RTVSPropertyOp15
 70
     1
102
RTVSPropertyOp16
 70
     1
102
RTVSPropertyOp17
 70
     1
102
RTVSPropertyOp18
 70
     1
102
RTVSPropertyOp19
 70
     1
102
RTVSPropertyOp20
 70
     1
102
RTVSPropertyOp21
 70
     1
102
RTVSPropertyOp22
 70
     1
102
RTVSPropertyOp23
 70
     1
102
RTVSPropertyOp24
 70
     1
102
RTVSPropertyOp25
 70
     1
102
RTVSPropertyOp26
 70
     1
102
RTVSPropertyOp27
 70
     1
102
RTVSPropertyOp28
 70
     1
102
RTVSPropertyOp29
 70
     1
102
RTVSPropertyOp30
 70
     1
102
RTVSPropertyOp31
 70
     1
102
RTVSPropertyOp32
 70
     1
102
RTVSPropertyOp33
 70
     1
102
RTVSPropertyOp34
 70
     1
102
RTVSPropertyOp35
 70
     1
102
RTVSPropertyOp36
 70
     1
102
RTVSPropertyOp37
 70
     1
102
RTVSPropertyOp38
 70
     1
102
RTVSPropertyOp39
 70
     1
102
RTVSPropertyOp40
 70
     1
102
RTVSPropertyOp41
 70
     1
102
RTVSPropertyOp42
 70
     1
102
RTVSPropertyOp43
 70
     1
102
RTVSPropertyOp44
 70
     1
102
RTVSPropertyOp45
 70
     1
102
RTVSPropertyOp46
 70
     1
102
RTVSPropertyOp47
 70
     1
102
RTVSPropertyOp48
 70
     1
102
RTVSPropertyOp49
 70
     1
102
RTVSPropertyOp50
 70
     1
102
RTVSPropertyOp51
 70
     0
102
RTVSPropertyOp52
 70
     0
102
RTVSPropertyOp53
 70
     1
102
RTVSPropertyOp54
 70
     1
102
RTVSPropertyOp55
 70
     1
102
RTVSPropertyOp56
 70
     1
102
RTVSPropertyOp57
 70
     1
102
RTVSPropertyOp58
 70
     1
102
RTVSPropertyOp59
 70
     1
102
RTVSPropertyOp60
 70
     1
102
RTVSPropertyOp61
 70
     1
102
RTVSPropertyOp62
 70
     1
  0
XRECORD
  5
491
102
{ACAD_REACTORS
330
490
102
}
330
490
100
AcDbXrecord
280
     1
102
RTVSPost2010Prop28
280
     0
102
RTVSPost2010PropOp28
 70
     1
102
RTVSPost2010Prop29
280
     1
102
RTVSPost2010PropOp29
 70
     1
102
RTVSPost2010Prop30
280
     1
102
RTVSPost2010PropOp30
 70
     1
102
RTVSPost2010Prop31
280
     0
102
RTVSPost2010PropOp31
 70
     1
102
RTVSPost2010Prop32
280
     0
102
RTVSPost2010PropOp32
 70
     1
102
RTVSPost2010Prop33
280
     0
102
RTVSPost2010PropOp33
 70
     1
102
RTVSPost2010Prop34
280
     0
102
RTVSPost2010PropOp34
 70
     1
102
RTVSPost2010Prop35
280
     0
102
RTVSPost2010PropOp35
 70
     1
102
RTVSPost2010Prop36
280
     0
102
RTVSPost2010PropOp36
 70
     1
102
RTVSPost2010Prop37
 90
       50
102
RTVSPost2010PropOp37
 70
     1
102
RTVSPost2010Prop38
140
0.0
102
RTVSPost2010PropOp38
 70
     1
102
RTVSPost2010Prop39
140
1.0
102
RTVSPost2010PropOp39
 70
     1
102
RTVSPost2010Prop40
 90
        0
102
RTVSPost2010PropOp40
 70
     1
102
RTVSPost2010Prop41ColorIndex
 90
       18
102
RTVSPost2010Prop41ColorRGB
 90
        0
102
RTVSPost2010PropOp41
 70
     1
102
RTVSPost2010Prop42
 90
       50
102
RTVSPost2010PropOp42
 70
     1
102
RTVSPost2010Prop43
 90
        3
102
RTVSPost2010PropOp43
 70
     1
102
RTVSPost2010Prop44ColorIndex
 90
        5
102
RTVSPost2010Prop44ColorRGB
 90
      255
102
RTVSPost2010PropOp44
 70
     1
102
RTVSPost2010Prop45
280
     0
102
RTVSPost2010PropOp45
 70
     1
102
RTVSPost2010Prop46
 90
       50
102
RTVSPost2010PropOp46
 70
     1
102
RTVSPost2010Prop47
 90
       50
102
RTVSPost2010PropOp47
 70
     1
102
RTVSPost2010Prop48
 90
       50
102
RTVSPost2010PropOp48
 70
     1
102
RTVSPost2010Prop49
280
     0
102
RTVSPost2010PropOp49
 70
     1
102
RTVSPost2010Prop50
 90
       50
102
RTVSPost2010PropOp50
 70
     1
102
RTVSPost2010Prop51ColorIndex
 90
      256
102
RTVSPost2010Prop51ColorRGB
 90
-16777216
102
RTVSPost2010PropOp51
 70
     0
102
RTVSPost2010Prop52
140
1.0
102
RTVSPost2010PropOp52
 70
     0
102
RTVSPost2010Prop53
 90
        2
102
RTVSPost2010PropOp53
 70
     1
102
RTVSPost2010Prop54
  1
strokes_ogs.tif
102
RTVSPost2010PropOp54
 70
     1
102
RTVSPost2010Prop55
280
     0
102
RTVSPost2010PropOp55
 70
     1
102
RTVSPost2010Prop56
140
1.0
102
RTVSPost2010PropOp56
 70
     1
102
RTVSPost2010Prop57
140
1.0
102
RTVSPost2010PropOp57
 70
     1
102
RTVSPropertyOp0
 70
     1
102
RTVSPropertyOp1
 70
     1
102
RTVSPropertyOp2
 70
     1
102
RTVSPropertyOp3
 70
     1
102
RTVSPropertyOp4
 70
     1
102
RTVSPropertyOp5
 70
     1
102
RTVSPropertyOp6
 70
     1
102
RTVSPropertyOp7
 70
     1
102
RTVSPropertyOp8
 70
     1
102
RTVSPropertyOp9
 70
     1
102
RTVSPropertyOp10
 70
     1
102
RTVSPropertyOp11
 70
     1
102
RTVSPropertyOp12
 70
     1
102
RTVSPropertyOp13
 70
     1
102
RTVSPropertyOp14
 70
     1
102
RTVSPropertyOp15
 70
     1
102
RTVSPropertyOp16
 70
     1
102
RTVSPropertyOp17
 70
     1
102
RTVSPropertyOp18
 70
     1
102
RTVSPropertyOp19
 70
     1
102
RTVSPropertyOp20
 70
     1
102
RTVSPropertyOp21
 70
     1
102
RTVSPropertyOp22
 70
     1
102
RTVSPropertyOp23
 70
     1
102
RTVSPropertyOp24
 70
     1
102
RTVSPropertyOp25
 70
     1
102
RTVSPropertyOp26
 70
     1
102
RTVSPropertyOp27
 70
     1
102
RTVSPropertyOp28
 70
     1
102
RTVSPropertyOp29
 70
     1
102
RTVSPropertyOp30
 70
     1
102
RTVSPropertyOp31
 70
     1
102
RTVSPropertyOp32
 70
     1
102
RTVSPropertyOp33
 70
     1
102
RTVSPropertyOp34
 70
     1
102
RTVSPropertyOp35
 70
     1
102
RTVSPropertyOp36
 70
     1
102
RTVSPropertyOp37
 70
     1
102
RTVSPropertyOp38
 70
     1
102
RTVSPropertyOp39
 70
     1
102
RTVSPropertyOp40
 70
     1
102
RTVSPropertyOp41
 70
     1
102
RTVSPropertyOp42
 70
     1
102
RTVSPropertyOp43
 70
     1
102
RTVSPropertyOp44
 70
     1
102
RTVSPropertyOp45
 70
     1
102
RTVSPropertyOp46
 70
     1
102
RTVSPropertyOp47
 70
     1
102
RTVSPropertyOp48
 70
     1
102
RTVSPropertyOp49
 70
     1
102
RTVSPropertyOp50
 70
     1
102
RTVSPropertyOp51
 70
     0
102
RTVSPropertyOp52
 70
     0
102
RTVSPropertyOp53
 70
     1
102
RTVSPropertyOp54
 70
     1
102
RTVSPropertyOp55
 70
     1
102
RTVSPropertyOp56
 70
     1
102
RTVSPropertyOp57
 70
     1
102
RTVSPropertyOp58
 70
     1
102
RTVSPropertyOp59
 70
     1
102
RTVSPropertyOp60
 70
     1
102
RTVSPropertyOp61
 70
     1
102
RTVSPropertyOp62
 70
     1
  0
XRECORD
  5
49F
102
{ACAD_REACTORS
330
49E
102
}
330
49E
100
AcDbXrecord
280
     1
102
RTVSPost2010Prop28
280
     0
102
RTVSPost2010PropOp28
 70
     1
102
RTVSPost2010Prop29
280
     1
102
RTVSPost2010PropOp29
 70
     1
102
RTVSPost2010Prop30
280
     1
102
RTVSPost2010PropOp30
 70
     1
102
RTVSPost2010Prop31
280
     0
102
RTVSPost2010PropOp31
 70
     1
102
RTVSPost2010Prop32
280
     0
102
RTVSPost2010PropOp32
 70
     1
102
RTVSPost2010Prop33
280
     0
102
RTVSPost2010PropOp33
 70
     1
102
RTVSPost2010Prop34
280
     0
102
RTVSPost2010PropOp34
 70
     1
102
RTVSPost2010Prop35
280
     0
102
RTVSPost2010PropOp35
 70
     1
102
RTVSPost2010Prop36
280
     0
102
RTVSPost2010PropOp36
 70
     1
102
RTVSPost2010Prop37
 90
       50
102
RTVSPost2010PropOp37
 70
     1
102
RTVSPost2010Prop38
140
0.0
102
RTVSPost2010PropOp38
 70
     1
102
RTVSPost2010Prop39
140
1.0
102
RTVSPost2010PropOp39
 70
     1
102
RTVSPost2010Prop40
 90
        0
102
RTVSPost2010PropOp40
 70
     1
102
RTVSPost2010Prop41ColorIndex
 90
       18
102
RTVSPost2010Prop41ColorRGB
 90
        0
102
RTVSPost2010PropOp41
 70
     1
102
RTVSPost2010Prop42
 90
       50
102
RTVSPost2010PropOp42
 70
     1
102
RTVSPost2010Prop43
 90
        3
102
RTVSPost2010PropOp43
 70
     1
102
RTVSPost2010Prop44ColorIndex
 90
        5
102
RTVSPost2010Prop44ColorRGB
 90
      255
102
RTVSPost2010PropOp44
 70
     1
102
RTVSPost2010Prop45
280
     0
102
RTVSPost2010PropOp45
 70
     1
102
RTVSPost2010Prop46
 90
       50
102
RTVSPost2010PropOp46
 70
     1
102
RTVSPost2010Prop47
 90
       50
102
RTVSPost2010PropOp47
 70
     1
102
RTVSPost2010Prop48
 90
       50
102
RTVSPost2010PropOp48
 70
     1
102
RTVSPost2010Prop49
280
     0
102
RTVSPost2010PropOp49
 70
     1
102
RTVSPost2010Prop50
 90
       50
102
RTVSPost2010PropOp50
 70
     1
102
RTVSPost2010Prop51ColorIndex
 90
      256
102
RTVSPost2010Prop51ColorRGB
 90
-16777216
102
RTVSPost2010PropOp51
 70
     0
102
RTVSPost2010Prop52
140
1.0
102
RTVSPost2010PropOp52
 70
     0
102
RTVSPost2010Prop53
 90
        2
102
RTVSPost2010PropOp53
 70
     1
102
RTVSPost2010Prop54
  1
strokes_ogs.tif
102
RTVSPost2010PropOp54
 70
     1
102
RTVSPost2010Prop55
280
     0
102
RTVSPost2010PropOp55
 70
     1
102
RTVSPost2010Prop56
140
1.0
102
RTVSPost2010PropOp56
 70
     1
102
RTVSPost2010Prop57
140
1.0
102
RTVSPost2010PropOp57
 70
     1
102
RTVSPropertyOp0
 70
     1
102
RTVSPropertyOp1
 70
     1
102
RTVSPropertyOp2
 70
     1
102
RTVSPropertyOp3
 70
     1
102
RTVSPropertyOp4
 70
     1
102
RTVSPropertyOp5
 70
     1
102
RTVSPropertyOp6
 70
     1
102
RTVSPropertyOp7
 70
     1
102
RTVSPropertyOp8
 70
     1
102
RTVSPropertyOp9
 70
     1
102
RTVSPropertyOp10
 70
     1
102
RTVSPropertyOp11
 70
     1
102
RTVSPropertyOp12
 70
     1
102
RTVSPropertyOp13
 70
     1
102
RTVSPropertyOp14
 70
     1
102
RTVSPropertyOp15
 70
     1
102
RTVSPropertyOp16
 70
     1
102
RTVSPropertyOp17
 70
     1
102
RTVSPropertyOp18
 70
     1
102
RTVSPropertyOp19
 70
     1
102
RTVSPropertyOp20
 70
     1
102
RTVSPropertyOp21
 70
     1
102
RTVSPropertyOp22
 70
     1
102
RTVSPropertyOp23
 70
     1
102
RTVSPropertyOp24
 70
     1
102
RTVSPropertyOp25
 70
     1
102
RTVSPropertyOp26
 70
     1
102
RTVSPropertyOp27
 70
     1
102
RTVSPropertyOp28
 70
     1
102
RTVSPropertyOp29
 70
     1
102
RTVSPropertyOp30
 70
     1
102
RTVSPropertyOp31
 70
     1
102
RTVSPropertyOp32
 70
     1
102
RTVSPropertyOp33
 70
     1
102
RTVSPropertyOp34
 70
     1
102
RTVSPropertyOp35
 70
     1
102
RTVSPropertyOp36
 70
     1
102
RTVSPropertyOp37
 70
     1
102
RTVSPropertyOp38
 70
     1
102
RTVSPropertyOp39
 70
     1
102
RTVSPropertyOp40
 70
     1
102
RTVSPropertyOp41
 70
     1
102
RTVSPropertyOp42
 70
     1
102
RTVSPropertyOp43
 70
     1
102
RTVSPropertyOp44
 70
     1
102
RTVSPropertyOp45
 70
     1
102
RTVSPropertyOp46
 70
     1
102
RTVSPropertyOp47
 70
     1
102
RTVSPropertyOp48
 70
     1
102
RTVSPropertyOp49
 70
     1
102
RTVSPropertyOp50
 70
     1
102
RTVSPropertyOp51
 70
     0
102
RTVSPropertyOp52
 70
     0
102
RTVSPropertyOp53
 70
     1
102
RTVSPropertyOp54
 70
     1
102
RTVSPropertyOp55
 70
     1
102
RTVSPropertyOp56
 70
     1
102
RTVSPropertyOp57
 70
     1
102
RTVSPropertyOp58
 70
     1
102
RTVSPropertyOp59
 70
     1
102
RTVSPropertyOp60
 70
     1
102
RTVSPropertyOp61
 70
     1
102
RTVSPropertyOp62
 70
     1
  0
XRECORD
  5
4A7
102
{ACAD_REACTORS
330
4A6
102
}
330
4A6
100
AcDbXrecord
280
     1
102
RTVSPost2010Prop28
280
     0
102
RTVSPost2010PropOp28
 70
     1
102
RTVSPost2010Prop29
280
     1
102
RTVSPost2010PropOp29
 70
     1
102
RTVSPost2010Prop30
280
     1
102
RTVSPost2010PropOp30
 70
     1
102
RTVSPost2010Prop31
280
     0
102
RTVSPost2010PropOp31
 70
     1
102
RTVSPost2010Prop32
280
     0
102
RTVSPost2010PropOp32
 70
     1
102
RTVSPost2010Prop33
280
     0
102
RTVSPost2010PropOp33
 70
     1
102
RTVSPost2010Prop34
280
     0
102
RTVSPost2010PropOp34
 70
     1
102
RTVSPost2010Prop35
280
     0
102
RTVSPost2010PropOp35
 70
     1
102
RTVSPost2010Prop36
280
     0
102
RTVSPost2010PropOp36
 70
     1
102
RTVSPost2010Prop37
 90
       50
102
RTVSPost2010PropOp37
 70
     1
102
RTVSPost2010Prop38
140
0.0
102
RTVSPost2010PropOp38
 70
     1
102
RTVSPost2010Prop39
140
1.0
102
RTVSPost2010PropOp39
 70
     1
102
RTVSPost2010Prop40
 90
        0
102
RTVSPost2010PropOp40
 70
     1
102
RTVSPost2010Prop41ColorIndex
 90
       18
102
RTVSPost2010Prop41ColorRGB
 90
        0
102
RTVSPost2010PropOp41
 70
     1
102
RTVSPost2010Prop42
 90
       50
102
RTVSPost2010PropOp42
 70
     1
102
RTVSPost2010Prop43
 90
        3
102
RTVSPost2010PropOp43
 70
     1
102
RTVSPost2010Prop44ColorIndex
 90
        5
102
RTVSPost2010Prop44ColorRGB
 90
      255
102
RTVSPost2010PropOp44
 70
     1
102
RTVSPost2010Prop45
280
     0
102
RTVSPost2010PropOp45
 70
     1
102
RTVSPost2010Prop46
 90
       50
102
RTVSPost2010PropOp46
 70
     1
102
RTVSPost2010Prop47
 90
       50
102
RTVSPost2010PropOp47
 70
     1
102
RTVSPost2010Prop48
 90
       50
102
RTVSPost2010PropOp48
 70
     1
102
RTVSPost2010Prop49
280
     0
102
RTVSPost2010PropOp49
 70
     1
102
RTVSPost2010Prop50
 90
       50
102
RTVSPost2010PropOp50
 70
     1
102
RTVSPost2010Prop51ColorIndex
 90
      256
102
RTVSPost2010Prop51ColorRGB
 90
-16777216
102
RTVSPost2010PropOp51
 70
     0
102
RTVSPost2010Prop52
140
1.0
102
RTVSPost2010PropOp52
 70
     0
102
RTVSPost2010Prop53
 90
        2
102
RTVSPost2010PropOp53
 70
     1
102
RTVSPost2010Prop54
  1
strokes_ogs.tif
102
RTVSPost2010PropOp54
 70
     1
102
RTVSPost2010Prop55
280
     0
102
RTVSPost2010PropOp55
 70
     1
102
RTVSPost2010Prop56
140
1.0
102
RTVSPost2010PropOp56
 70
     1
102
RTVSPost2010Prop57
140
1.0
102
RTVSPost2010PropOp57
 70
     1
102
RTVSPropertyOp0
 70
     1
102
RTVSPropertyOp1
 70
     1
102
RTVSPropertyOp2
 70
     1
102
RTVSPropertyOp3
 70
     1
102
RTVSPropertyOp4
 70
     1
102
RTVSPropertyOp5
 70
     1
102
RTVSPropertyOp6
 70
     1
102
RTVSPropertyOp7
 70
     1
102
RTVSPropertyOp8
 70
     1
102
RTVSPropertyOp9
 70
     1
102
RTVSPropertyOp10
 70
     1
102
RTVSPropertyOp11
 70
     1
102
RTVSPropertyOp12
 70
     1
102
RTVSPropertyOp13
 70
     1
102
RTVSPropertyOp14
 70
     1
102
RTVSPropertyOp15
 70
     1
102
RTVSPropertyOp16
 70
     1
102
RTVSPropertyOp17
 70
     1
102
RTVSPropertyOp18
 70
     1
102
RTVSPropertyOp19
 70
     1
102
RTVSPropertyOp20
 70
     1
102
RTVSPropertyOp21
 70
     1
102
RTVSPropertyOp22
 70
     1
102
RTVSPropertyOp23
 70
     1
102
RTVSPropertyOp24
 70
     1
102
RTVSPropertyOp25
 70
     1
102
RTVSPropertyOp26
 70
     1
102
RTVSPropertyOp27
 70
     1
102
RTVSPropertyOp28
 70
     1
102
RTVSPropertyOp29
 70
     1
102
RTVSPropertyOp30
 70
     1
102
RTVSPropertyOp31
 70
     1
102
RTVSPropertyOp32
 70
     1
102
RTVSPropertyOp33
 70
     1
102
RTVSPropertyOp34
 70
     1
102
RTVSPropertyOp35
 70
     1
102
RTVSPropertyOp36
 70
     1
102
RTVSPropertyOp37
 70
     1
102
RTVSPropertyOp38
 70
     1
102
RTVSPropertyOp39
 70
     1
102
RTVSPropertyOp40
 70
     1
102
RTVSPropertyOp41
 70
     1
102
RTVSPropertyOp42
 70
     1
102
RTVSPropertyOp43
 70
     1
102
RTVSPropertyOp44
 70
     1
102
RTVSPropertyOp45
 70
     1
102
RTVSPropertyOp46
 70
     1
102
RTVSPropertyOp47
 70
     1
102
RTVSPropertyOp48
 70
     1
102
RTVSPropertyOp49
 70
     1
102
RTVSPropertyOp50
 70
     1
102
RTVSPropertyOp51
 70
     0
102
RTVSPropertyOp52
 70
     0
102
RTVSPropertyOp53
 70
     1
102
RTVSPropertyOp54
 70
     1
102
RTVSPropertyOp55
 70
     1
102
RTVSPropertyOp56
 70
     1
102
RTVSPropertyOp57
 70
     1
102
RTVSPropertyOp58
 70
     1
102
RTVSPropertyOp59
 70
     1
102
RTVSPropertyOp60
 70
     1
102
RTVSPropertyOp61
 70
     1
102
RTVSPropertyOp62
 70
     1
  0
XRECORD
  5
499
102
{ACAD_REACTORS
330
498
102
}
330
498
100
AcDbXrecord
280
     1
102
RTVSPost2010Prop28
280
     0
102
RTVSPost2010PropOp28
 70
     1
102
RTVSPost2010Prop29
280
     1
102
RTVSPost2010PropOp29
 70
     1
102
RTVSPost2010Prop30
280
     1
102
RTVSPost2010PropOp30
 70
     1
102
RTVSPost2010Prop31
280
     0
102
RTVSPost2010PropOp31
 70
     1
102
RTVSPost2010Prop32
280
     0
102
RTVSPost2010PropOp32
 70
     1
102
RTVSPost2010Prop33
280
     0
102
RTVSPost2010PropOp33
 70
     1
102
RTVSPost2010Prop34
280
     0
102
RTVSPost2010PropOp34
 70
     1
102
RTVSPost2010Prop35
280
     0
102
RTVSPost2010PropOp35
 70
     1
102
RTVSPost2010Prop36
280
     0
102
RTVSPost2010PropOp36
 70
     1
102
RTVSPost2010Prop37
 90
       50
102
RTVSPost2010PropOp37
 70
     1
102
RTVSPost2010Prop38
140
0.0
102
RTVSPost2010PropOp38
 70
     1
102
RTVSPost2010Prop39
140
1.0
102
RTVSPost2010PropOp39
 70
     1
102
RTVSPost2010Prop40
 90
        0
102
RTVSPost2010PropOp40
 70
     1
102
RTVSPost2010Prop41ColorIndex
 90
       18
102
RTVSPost2010Prop41ColorRGB
 90
        0
102
RTVSPost2010PropOp41
 70
     1
102
RTVSPost2010Prop42
 90
       50
102
RTVSPost2010PropOp42
 70
     1
102
RTVSPost2010Prop43
 90
        3
102
RTVSPost2010PropOp43
 70
     1
102
RTVSPost2010Prop44ColorIndex
 90
        5
102
RTVSPost2010Prop44ColorRGB
 90
      255
102
RTVSPost2010PropOp44
 70
     1
102
RTVSPost2010Prop45
280
     0
102
RTVSPost2010PropOp45
 70
     1
102
RTVSPost2010Prop46
 90
       50
102
RTVSPost2010PropOp46
 70
     1
102
RTVSPost2010Prop47
 90
       50
102
RTVSPost2010PropOp47
 70
     1
102
RTVSPost2010Prop48
 90
       50
102
RTVSPost2010PropOp48
 70
     1
102
RTVSPost2010Prop49
280
     0
102
RTVSPost2010PropOp49
 70
     1
102
RTVSPost2010Prop50
 90
       50
102
RTVSPost2010PropOp50
 70
     1
102
RTVSPost2010Prop51ColorIndex
 90
      256
102
RTVSPost2010Prop51ColorRGB
 90
-16777216
102
RTVSPost2010PropOp51
 70
     0
102
RTVSPost2010Prop52
140
1.0
102
RTVSPost2010PropOp52
 70
     0
102
RTVSPost2010Prop53
 90
        2
102
RTVSPost2010PropOp53
 70
     1
102
RTVSPost2010Prop54
  1
strokes_ogs.tif
102
RTVSPost2010PropOp54
 70
     1
102
RTVSPost2010Prop55
280
     0
102
RTVSPost2010PropOp55
 70
     1
102
RTVSPost2010Prop56
140
1.0
102
RTVSPost2010PropOp56
 70
     1
102
RTVSPost2010Prop57
140
1.0
102
RTVSPost2010PropOp57
 70
     1
102
RTVSPropertyOp0
 70
     1
102
RTVSPropertyOp1
 70
     1
102
RTVSPropertyOp2
 70
     1
102
RTVSPropertyOp3
 70
     1
102
RTVSPropertyOp4
 70
     1
102
RTVSPropertyOp5
 70
     1
102
RTVSPropertyOp6
 70
     1
102
RTVSPropertyOp7
 70
     1
102
RTVSPropertyOp8
 70
     1
102
RTVSPropertyOp9
 70
     1
102
RTVSPropertyOp10
 70
     1
102
RTVSPropertyOp11
 70
     1
102
RTVSPropertyOp12
 70
     1
102
RTVSPropertyOp13
 70
     1
102
RTVSPropertyOp14
 70
     1
102
RTVSPropertyOp15
 70
     1
102
RTVSPropertyOp16
 70
     1
102
RTVSPropertyOp17
 70
     1
102
RTVSPropertyOp18
 70
     1
102
RTVSPropertyOp19
 70
     1
102
RTVSPropertyOp20
 70
     1
102
RTVSPropertyOp21
 70
     1
102
RTVSPropertyOp22
 70
     1
102
RTVSPropertyOp23
 70
     1
102
RTVSPropertyOp24
 70
     1
102
RTVSPropertyOp25
 70
     1
102
RTVSPropertyOp26
 70
     1
102
RTVSPropertyOp27
 70
     1
102
RTVSPropertyOp28
 70
     1
102
RTVSPropertyOp29
 70
     1
102
RTVSPropertyOp30
 70
     1
102
RTVSPropertyOp31
 70
     1
102
RTVSPropertyOp32
 70
     1
102
RTVSPropertyOp33
 70
     1
102
RTVSPropertyOp34
 70
     1
102
RTVSPropertyOp35
 70
     1
102
RTVSPropertyOp36
 70
     1
102
RTVSPropertyOp37
 70
     1
102
RTVSPropertyOp38
 70
     1
102
RTVSPropertyOp39
 70
     1
102
RTVSPropertyOp40
 70
     1
102
RTVSPropertyOp41
 70
     1
102
RTVSPropertyOp42
 70
     1
102
RTVSPropertyOp43
 70
     1
102
RTVSPropertyOp44
 70
     1
102
RTVSPropertyOp45
 70
     1
102
RTVSPropertyOp46
 70
     1
102
RTVSPropertyOp47
 70
     1
102
RTVSPropertyOp48
 70
     1
102
RTVSPropertyOp49
 70
     1
102
RTVSPropertyOp50
 70
     1
102
RTVSPropertyOp51
 70
     0
102
RTVSPropertyOp52
 70
     0
102
RTVSPropertyOp53
 70
     1
102
RTVSPropertyOp54
 70
     1
102
RTVSPropertyOp55
 70
     1
102
RTVSPropertyOp56
 70
     1
102
RTVSPropertyOp57
 70
     1
102
RTVSPropertyOp58
 70
     1
102
RTVSPropertyOp59
 70
     1
102
RTVSPropertyOp60
 70
     1
102
RTVSPropertyOp61
 70
     1
102
RTVSPropertyOp62
 70
     1
  0
XRECORD
  5
49D
102
{ACAD_REACTORS
330
49C
102
}
330
49C
100
AcDbXrecord
280
     1
102
RTVSPost2010Prop28
280
     0
102
RTVSPost2010PropOp28
 70
     1
102
RTVSPost2010Prop29
280
     1
102
RTVSPost2010PropOp29
 70
     1
102
RTVSPost2010Prop30
280
     1
102
RTVSPost2010PropOp30
 70
     1
102
RTVSPost2010Prop31
280
     0
102
RTVSPost2010PropOp31
 70
     1
102
RTVSPost2010Prop32
280
     0
102
RTVSPost2010PropOp32
 70
     1
102
RTVSPost2010Prop33
280
     0
102
RTVSPost2010PropOp33
 70
     1
102
RTVSPost2010Prop34
280
     0
102
RTVSPost2010PropOp34
 70
     1
102
RTVSPost2010Prop35
280
     0
102
RTVSPost2010PropOp35
 70
     1
102
RTVSPost2010Prop36
280
     0
102
RTVSPost2010PropOp36
 70
     1
102
RTVSPost2010Prop37
 90
       50
102
RTVSPost2010PropOp37
 70
     1
102
RTVSPost2010Prop38
140
0.0
102
RTVSPost2010PropOp38
 70
     1
102
RTVSPost2010Prop39
140
1.0
102
RTVSPost2010PropOp39
 70
     1
102
RTVSPost2010Prop40
 90
        0
102
RTVSPost2010PropOp40
 70
     1
102
RTVSPost2010Prop41ColorIndex
 90
       18
102
RTVSPost2010Prop41ColorRGB
 90
        0
102
RTVSPost2010PropOp41
 70
     1
102
RTVSPost2010Prop42
 90
       50
102
RTVSPost2010PropOp42
 70
     1
102
RTVSPost2010Prop43
 90
        3
102
RTVSPost2010PropOp43
 70
     1
102
RTVSPost2010Prop44ColorIndex
 90
        5
102
RTVSPost2010Prop44ColorRGB
 90
      255
102
RTVSPost2010PropOp44
 70
     1
102
RTVSPost2010Prop45
280
     0
102
RTVSPost2010PropOp45
 70
     1
102
RTVSPost2010Prop46
 90
       50
102
RTVSPost2010PropOp46
 70
     1
102
RTVSPost2010Prop47
 90
       50
102
RTVSPost2010PropOp47
 70
     1
102
RTVSPost2010Prop48
 90
       50
102
RTVSPost2010PropOp48
 70
     1
102
RTVSPost2010Prop49
280
     0
102
RTVSPost2010PropOp49
 70
     1
102
RTVSPost2010Prop50
 90
       50
102
RTVSPost2010PropOp50
 70
     1
102
RTVSPost2010Prop51ColorIndex
 90
      256
102
RTVSPost2010Prop51ColorRGB
 90
-16777216
102
RTVSPost2010PropOp51
 70
     0
102
RTVSPost2010Prop52
140
1.0
102
RTVSPost2010PropOp52
 70
     0
102
RTVSPost2010Prop53
 90
        2
102
RTVSPost2010PropOp53
 70
     1
102
RTVSPost2010Prop54
  1
strokes_ogs.tif
102
RTVSPost2010PropOp54
 70
     1
102
RTVSPost2010Prop55
280
     0
102
RTVSPost2010PropOp55
 70
     1
102
RTVSPost2010Prop56
140
1.0
102
RTVSPost2010PropOp56
 70
     1
102
RTVSPost2010Prop57
140
1.0
102
RTVSPost2010PropOp57
 70
     1
102
RTVSPropertyOp0
 70
     1
102
RTVSPropertyOp1
 70
     1
102
RTVSPropertyOp2
 70
     1
102
RTVSPropertyOp3
 70
     1
102
RTVSPropertyOp4
 70
     1
102
RTVSPropertyOp5
 70
     1
102
RTVSPropertyOp6
 70
     1
102
RTVSPropertyOp7
 70
     1
102
RTVSPropertyOp8
 70
     1
102
RTVSPropertyOp9
 70
     1
102
RTVSPropertyOp10
 70
     1
102
RTVSPropertyOp11
 70
     1
102
RTVSPropertyOp12
 70
     1
102
RTVSPropertyOp13
 70
     1
102
RTVSPropertyOp14
 70
     1
102
RTVSPropertyOp15
 70
     1
102
RTVSPropertyOp16
 70
     1
102
RTVSPropertyOp17
 70
     1
102
RTVSPropertyOp18
 70
     1
102
RTVSPropertyOp19
 70
     1
102
RTVSPropertyOp20
 70
     1
102
RTVSPropertyOp21
 70
     1
102
RTVSPropertyOp22
 70
     1
102
RTVSPropertyOp23
 70
     1
102
RTVSPropertyOp24
 70
     1
102
RTVSPropertyOp25
 70
     1
102
RTVSPropertyOp26
 70
     1
102
RTVSPropertyOp27
 70
     1
102
RTVSPropertyOp28
 70
     1
102
RTVSPropertyOp29
 70
     1
102
RTVSPropertyOp30
 70
     1
102
RTVSPropertyOp31
 70
     1
102
RTVSPropertyOp32
 70
     1
102
RTVSPropertyOp33
 70
     1
102
RTVSPropertyOp34
 70
     1
102
RTVSPropertyOp35
 70
     1
102
RTVSPropertyOp36
 70
     1
102
RTVSPropertyOp37
 70
     1
102
RTVSPropertyOp38
 70
     1
102
RTVSPropertyOp39
 70
     1
102
RTVSPropertyOp40
 70
     1
102
RTVSPropertyOp41
 70
     1
102
RTVSPropertyOp42
 70
     1
102
RTVSPropertyOp43
 70
     1
102
RTVSPropertyOp44
 70
     1
102
RTVSPropertyOp45
 70
     1
102
RTVSPropertyOp46
 70
     1
102
RTVSPropertyOp47
 70
     1
102
RTVSPropertyOp48
 70
     1
102
RTVSPropertyOp49
 70
     1
102
RTVSPropertyOp50
 70
     1
102
RTVSPropertyOp51
 70
     0
102
RTVSPropertyOp52
 70
     0
102
RTVSPropertyOp53
 70
     1
102
RTVSPropertyOp54
 70
     1
102
RTVSPropertyOp55
 70
     1
102
RTVSPropertyOp56
 70
     1
102
RTVSPropertyOp57
 70
     1
102
RTVSPropertyOp58
 70
     1
102
RTVSPropertyOp59
 70
     1
102
RTVSPropertyOp60
 70
     1
102
RTVSPropertyOp61
 70
     1
102
RTVSPropertyOp62
 70
     1
  0
XRECORD
  5
4B7
102
{ACAD_REACTORS
330
4B6
102
}
330
4B6
100
AcDbXrecord
280
     1
102
RTVSPost2010Prop28
280
     0
102
RTVSPost2010PropOp28
 70
     1
102
RTVSPost2010Prop29
280
     1
102
RTVSPost2010PropOp29
 70
     1
102
RTVSPost2010Prop30
280
     1
102
RTVSPost2010PropOp30
 70
     1
102
RTVSPost2010Prop31
280
     0
102
RTVSPost2010PropOp31
 70
     1
102
RTVSPost2010Prop32
280
     0
102
RTVSPost2010PropOp32
 70
     1
102
RTVSPost2010Prop33
280
     0
102
RTVSPost2010PropOp33
 70
     1
102
RTVSPost2010Prop34
280
     0
102
RTVSPost2010PropOp34
 70
     1
102
RTVSPost2010Prop35
280
     0
102
RTVSPost2010PropOp35
 70
     1
102
RTVSPost2010Prop36
280
     0
102
RTVSPost2010PropOp36
 70
     1
102
RTVSPost2010Prop37
 90
       50
102
RTVSPost2010PropOp37
 70
     0
102
RTVSPost2010Prop38
140
0.0
102
RTVSPost2010PropOp38
 70
     0
102
RTVSPost2010Prop39
140
1.0
102
RTVSPost2010PropOp39
 70
     0
102
RTVSPost2010Prop40
 90
        0
102
RTVSPost2010PropOp40
 70
     0
102
RTVSPost2010Prop41ColorIndex
 90
       18
102
RTVSPost2010Prop41ColorRGB
 90
        0
102
RTVSPost2010PropOp41
 70
     0
102
RTVSPost2010Prop42
 90
       50
102
RTVSPost2010PropOp42
 70
     0
102
RTVSPost2010Prop43
 90
        3
102
RTVSPost2010PropOp43
 70
     0
102
RTVSPost2010Prop44ColorIndex
 90
        5
102
RTVSPost2010Prop44ColorRGB
 90
      255
102
RTVSPost2010PropOp44
 70
     0
102
RTVSPost2010Prop45
280
     0
102
RTVSPost2010PropOp45
 70
     1
102
RTVSPost2010Prop46
 90
       50
102
RTVSPost2010PropOp46
 70
     0
102
RTVSPost2010Prop47
 90
       50
102
RTVSPost2010PropOp47
 70
     0
102
RTVSPost2010Prop48
 90
       50
102
RTVSPost2010PropOp48
 70
     0
102
RTVSPost2010Prop49
280
     0
102
RTVSPost2010PropOp49
 70
     1
102
RTVSPost2010Prop50
 90
       50
102
RTVSPost2010PropOp50
 70
     0
102
RTVSPost2010Prop51ColorIndex
 90
      256
102
RTVSPost2010Prop51ColorRGB
 90
-16777216
102
RTVSPost2010PropOp51
 70
     0
102
RTVSPost2010Prop52
140
1.0
102
RTVSPost2010PropOp52
 70
     0
102
RTVSPost2010Prop53
 90
        2
102
RTVSPost2010PropOp53
 70
     0
102
RTVSPost2010Prop54
  1
strokes_ogs.tif
102
RTVSPost2010PropOp54
 70
     0
102
RTVSPost2010Prop55
280
     0
102
RTVSPost2010PropOp55
 70
     1
102
RTVSPost2010Prop56
140
1.0
102
RTVSPost2010PropOp56
 70
     0
102
RTVSPost2010Prop57
140
1.0
102
RTVSPost2010PropOp57
 70
     0
102
RTVSPropertyOp0
 70
     0
102
RTVSPropertyOp1
 70
     0
102
RTVSPropertyOp2
 70
     0
102
RTVSPropertyOp3
 70
     0
102
RTVSPropertyOp4
 70
     0
102
RTVSPropertyOp5
 70
     0
102
RTVSPropertyOp6
 70
     0
102
RTVSPropertyOp7
 70
     0
102
RTVSPropertyOp8
 70
     0
102
RTVSPropertyOp9
 70
     0
102
RTVSPropertyOp10
 70
     0
102
RTVSPropertyOp11
 70
     0
102
RTVSPropertyOp12
 70
     0
102
RTVSPropertyOp13
 70
     0
102
RTVSPropertyOp14
 70
     2
102
RTVSPropertyOp15
 70
     0
102
RTVSPropertyOp16
 70
     0
102
RTVSPropertyOp17
 70
     0
102
RTVSPropertyOp18
 70
     0
102
RTVSPropertyOp19
 70
     0
102
RTVSPropertyOp20
 70
     0
102
RTVSPropertyOp21
 70
     0
102
RTVSPropertyOp22
 70
     0
102
RTVSPropertyOp23
 70
     0
102
RTVSPropertyOp24
 70
     0
102
RTVSPropertyOp25
 70
     0
102
RTVSPropertyOp26
 70
     0
102
RTVSPropertyOp27
 70
     0
102
RTVSPropertyOp28
 70
     1
102
RTVSPropertyOp29
 70
     1
102
RTVSPropertyOp30
 70
     1
102
RTVSPropertyOp31
 70
     1
102
RTVSPropertyOp32
 70
     1
102
RTVSPropertyOp33
 70
     1
102
RTVSPropertyOp34
 70
     1
102
RTVSPropertyOp35
 70
     1
102
RTVSPropertyOp36
 70
     1
102
RTVSPropertyOp37
 70
     0
102
RTVSPropertyOp38
 70
     0
102
RTVSPropertyOp39
 70
     0
102
RTVSPropertyOp40
 70
     0
102
RTVSPropertyOp41
 70
     0
102
RTVSPropertyOp42
 70
     0
102
RTVSPropertyOp43
 70
     0
102
RTVSPropertyOp44
 70
     0
102
RTVSPropertyOp45
 70
     1
102
RTVSPropertyOp46
 70
     0
102
RTVSPropertyOp47
 70
     0
102
RTVSPropertyOp48
 70
     0
102
RTVSPropertyOp49
 70
     1
102
RTVSPropertyOp50
 70
     0
102
RTVSPropertyOp51
 70
     0
102
RTVSPropertyOp52
 70
     0
102
RTVSPropertyOp53
 70
     0
102
RTVSPropertyOp54
 70
     0
102
RTVSPropertyOp55
 70
     1
102
RTVSPropertyOp56
 70
     0
102
RTVSPropertyOp57
 70
     0
102
RTVSPropertyOp58
 70
     0
102
RTVSPropertyOp59
 70
     0
102
RTVSPropertyOp60
 70
     0
102
RTVSPropertyOp61
 70
     0
102
RTVSPropertyOp62
 70
     0
  0
XRECORD
  5
4A5
102
{ACAD_REACTORS
330
4A4
102
}
330
4A4
100
AcDbXrecord
280
     1
102
RTVSPost2010Prop28
280
     0
102
RTVSPost2010PropOp28
 70
     1
102
RTVSPost2010Prop29
280
     1
102
RTVSPost2010PropOp29
 70
     1
102
RTVSPost2010Prop30
280
     1
102
RTVSPost2010PropOp30
 70
     1
102
RTVSPost2010Prop31
280
     0
102
RTVSPost2010PropOp31
 70
     1
102
RTVSPost2010Prop32
280
     0
102
RTVSPost2010PropOp32
 70
     1
102
RTVSPost2010Prop33
280
     0
102
RTVSPost2010PropOp33
 70
     1
102
RTVSPost2010Prop34
280
     0
102
RTVSPost2010PropOp34
 70
     1
102
RTVSPost2010Prop35
280
     0
102
RTVSPost2010PropOp35
 70
     1
102
RTVSPost2010Prop36
280
     0
102
RTVSPost2010PropOp36
 70
     1
102
RTVSPost2010Prop37
 90
       50
102
RTVSPost2010PropOp37
 70
     1
102
RTVSPost2010Prop38
140
0.0
102
RTVSPost2010PropOp38
 70
     1
102
RTVSPost2010Prop39
140
1.0
102
RTVSPost2010PropOp39
 70
     1
102
RTVSPost2010Prop40
 90
        0
102
RTVSPost2010PropOp40
 70
     1
102
RTVSPost2010Prop41ColorIndex
 90
       18
102
RTVSPost2010Prop41ColorRGB
 90
        0
102
RTVSPost2010PropOp41
 70
     1
102
RTVSPost2010Prop42
 90
       50
102
RTVSPost2010PropOp42
 70
     1
102
RTVSPost2010Prop43
 90
        3
102
RTVSPost2010PropOp43
 70
     1
102
RTVSPost2010Prop44ColorIndex
 90
        5
102
RTVSPost2010Prop44ColorRGB
 90
      255
102
RTVSPost2010PropOp44
 70
     1
102
RTVSPost2010Prop45
280
     0
102
RTVSPost2010PropOp45
 70
     1
102
RTVSPost2010Prop46
 90
       50
102
RTVSPost2010PropOp46
 70
     1
102
RTVSPost2010Prop47
 90
       50
102
RTVSPost2010PropOp47
 70
     1
102
RTVSPost2010Prop48
 90
       50
102
RTVSPost2010PropOp48
 70
     1
102
RTVSPost2010Prop49
280
     0
102
RTVSPost2010PropOp49
 70
     1
102
RTVSPost2010Prop50
 90
       50
102
RTVSPost2010PropOp50
 70
     1
102
RTVSPost2010Prop51ColorIndex
 90
      256
102
RTVSPost2010Prop51ColorRGB
 90
-16777216
102
RTVSPost2010PropOp51
 70
     0
102
RTVSPost2010Prop52
140
1.0
102
RTVSPost2010PropOp52
 70
     0
102
RTVSPost2010Prop53
 90
        2
102
RTVSPost2010PropOp53
 70
     1
102
RTVSPost2010Prop54
  1
strokes_ogs.tif
102
RTVSPost2010PropOp54
 70
     1
102
RTVSPost2010Prop55
280
     0
102
RTVSPost2010PropOp55
 70
     1
102
RTVSPost2010Prop56
140
1.0
102
RTVSPost2010PropOp56
 70
     1
102
RTVSPost2010Prop57
140
1.0
102
RTVSPost2010PropOp57
 70
     1
102
RTVSPropertyOp0
 70
     1
102
RTVSPropertyOp1
 70
     1
102
RTVSPropertyOp2
 70
     1
102
RTVSPropertyOp3
 70
     1
102
RTVSPropertyOp4
 70
     1
102
RTVSPropertyOp5
 70
     1
102
RTVSPropertyOp6
 70
     1
102
RTVSPropertyOp7
 70
     1
102
RTVSPropertyOp8
 70
     1
102
RTVSPropertyOp9
 70
     1
102
RTVSPropertyOp10
 70
     1
102
RTVSPropertyOp11
 70
     1
102
RTVSPropertyOp12
 70
     1
102
RTVSPropertyOp13
 70
     1
102
RTVSPropertyOp14
 70
     1
102
RTVSPropertyOp15
 70
     1
102
RTVSPropertyOp16
 70
     1
102
RTVSPropertyOp17
 70
     1
102
RTVSPropertyOp18
 70
     1
102
RTVSPropertyOp19
 70
     1
102
RTVSPropertyOp20
 70
     1
102
RTVSPropertyOp21
 70
     1
102
RTVSPropertyOp22
 70
     1
102
RTVSPropertyOp23
 70
     1
102
RTVSPropertyOp24
 70
     1
102
RTVSPropertyOp25
 70
     1
102
RTVSPropertyOp26
 70
     1
102
RTVSPropertyOp27
 70
     1
102
RTVSPropertyOp28
 70
     1
102
RTVSPropertyOp29
 70
     1
102
RTVSPropertyOp30
 70
     1
102
RTVSPropertyOp31
 70
     1
102
RTVSPropertyOp32
 70
     1
102
RTVSPropertyOp33
 70
     1
102
RTVSPropertyOp34
 70
     1
102
RTVSPropertyOp35
 70
     1
102
RTVSPropertyOp36
 70
     1
102
RTVSPropertyOp37
 70
     1
102
RTVSPropertyOp38
 70
     1
102
RTVSPropertyOp39
 70
     1
102
RTVSPropertyOp40
 70
     1
102
RTVSPropertyOp41
 70
     1
102
RTVSPropertyOp42
 70
     1
102
RTVSPropertyOp43
 70
     1
102
RTVSPropertyOp44
 70
     1
102
RTVSPropertyOp45
 70
     1
102
RTVSPropertyOp46
 70
     1
102
RTVSPropertyOp47
 70
     1
102
RTVSPropertyOp48
 70
     1
102
RTVSPropertyOp49
 70
     1
102
RTVSPropertyOp50
 70
     1
102
RTVSPropertyOp51
 70
     0
102
RTVSPropertyOp52
 70
     0
102
RTVSPropertyOp53
 70
     1
102
RTVSPropertyOp54
 70
     1
102
RTVSPropertyOp55
 70
     1
102
RTVSPropertyOp56
 70
     1
102
RTVSPropertyOp57
 70
     1
102
RTVSPropertyOp58
 70
     1
102
RTVSPropertyOp59
 70
     1
102
RTVSPropertyOp60
 70
     1
102
RTVSPropertyOp61
 70
     1
102
RTVSPropertyOp62
 70
     1
  0
XRECORD
  5
489
102
{ACAD_REACTORS
330
488
102
}
330
488
100
AcDbXrecord
280
     1
102
RTVSPost2010Prop28
280
     0
102
RTVSPost2010PropOp28
 70
     1
102
RTVSPost2010Prop29
280
     1
102
RTVSPost2010PropOp29
 70
     1
102
RTVSPost2010Prop30
280
     1
102
RTVSPost2010PropOp30
 70
     1
102
RTVSPost2010Prop31
280
     0
102
RTVSPost2010PropOp31
 70
     1
102
RTVSPost2010Prop32
280
     0
102
RTVSPost2010PropOp32
 70
     1
102
RTVSPost2010Prop33
280
     0
102
RTVSPost2010PropOp33
 70
     1
102
RTVSPost2010Prop34
280
     0
102
RTVSPost2010PropOp34
 70
     1
102
RTVSPost2010Prop35
280
     0
102
RTVSPost2010PropOp35
 70
     1
102
RTVSPost2010Prop36
280
     0
102
RTVSPost2010PropOp36
 70
     1
102
RTVSPost2010Prop37
 90
       50
102
RTVSPost2010PropOp37
 70
     1
102
RTVSPost2010Prop38
140
0.0
102
RTVSPost2010PropOp38
 70
     1
102
RTVSPost2010Prop39
140
1.0
102
RTVSPost2010PropOp39
 70
     1
102
RTVSPost2010Prop40
 90
        0
102
RTVSPost2010PropOp40
 70
     1
102
RTVSPost2010Prop41ColorIndex
 90
       18
102
RTVSPost2010Prop41ColorRGB
 90
        0
102
RTVSPost2010PropOp41
 70
     1
102
RTVSPost2010Prop42
 90
       50
102
RTVSPost2010PropOp42
 70
     1
102
RTVSPost2010Prop43
 90
        3
102
RTVSPost2010PropOp43
 70
     1
102
RTVSPost2010Prop44ColorIndex
 90
        5
102
RTVSPost2010Prop44ColorRGB
 90
      255
102
RTVSPost2010PropOp44
 70
     1
102
RTVSPost2010Prop45
280
     0
102
RTVSPost2010PropOp45
 70
     1
102
RTVSPost2010Prop46
 90
       50
102
RTVSPost2010PropOp46
 70
     1
102
RTVSPost2010Prop47
 90
       50
102
RTVSPost2010PropOp47
 70
     1
102
RTVSPost2010Prop48
 90
       50
102
RTVSPost2010PropOp48
 70
     1
102
RTVSPost2010Prop49
280
     0
102
RTVSPost2010PropOp49
 70
     1
102
RTVSPost2010Prop50
 90
       50
102
RTVSPost2010PropOp50
 70
     1
102
RTVSPost2010Prop51ColorIndex
 90
      256
102
RTVSPost2010Prop51ColorRGB
 90
-16777216
102
RTVSPost2010PropOp51
 70
     0
102
RTVSPost2010Prop52
140
1.0
102
RTVSPost2010PropOp52
 70
     0
102
RTVSPost2010Prop53
 90
        2
102
RTVSPost2010PropOp53
 70
     1
102
RTVSPost2010Prop54
  1
strokes_ogs.tif
102
RTVSPost2010PropOp54
 70
     1
102
RTVSPost2010Prop55
280
     0
102
RTVSPost2010PropOp55
 70
     1
102
RTVSPost2010Prop56
140
1.0
102
RTVSPost2010PropOp56
 70
     1
102
RTVSPost2010Prop57
140
1.0
102
RTVSPost2010PropOp57
 70
     1
102
RTVSPropertyOp0
 70
     1
102
RTVSPropertyOp1
 70
     1
102
RTVSPropertyOp2
 70
     1
102
RTVSPropertyOp3
 70
     1
102
RTVSPropertyOp4
 70
     1
102
RTVSPropertyOp5
 70
     1
102
RTVSPropertyOp6
 70
     1
102
RTVSPropertyOp7
 70
     1
102
RTVSPropertyOp8
 70
     1
102
RTVSPropertyOp9
 70
     1
102
RTVSPropertyOp10
 70
     1
102
RTVSPropertyOp11
 70
     1
102
RTVSPropertyOp12
 70
     1
102
RTVSPropertyOp13
 70
     1
102
RTVSPropertyOp14
 70
     1
102
RTVSPropertyOp15
 70
     1
102
RTVSPropertyOp16
 70
     1
102
RTVSPropertyOp17
 70
     1
102
RTVSPropertyOp18
 70
     1
102
RTVSPropertyOp19
 70
     1
102
RTVSPropertyOp20
 70
     1
102
RTVSPropertyOp21
 70
     1
102
RTVSPropertyOp22
 70
     1
102
RTVSPropertyOp23
 70
     1
102
RTVSPropertyOp24
 70
     1
102
RTVSPropertyOp25
 70
     1
102
RTVSPropertyOp26
 70
     1
102
RTVSPropertyOp27
 70
     1
102
RTVSPropertyOp28
 70
     1
102
RTVSPropertyOp29
 70
     1
102
RTVSPropertyOp30
 70
     1
102
RTVSPropertyOp31
 70
     1
102
RTVSPropertyOp32
 70
     1
102
RTVSPropertyOp33
 70
     1
102
RTVSPropertyOp34
 70
     1
102
RTVSPropertyOp35
 70
     1
102
RTVSPropertyOp36
 70
     1
102
RTVSPropertyOp37
 70
     1
102
RTVSPropertyOp38
 70
     1
102
RTVSPropertyOp39
 70
     1
102
RTVSPropertyOp40
 70
     1
102
RTVSPropertyOp41
 70
     1
102
RTVSPropertyOp42
 70
     1
102
RTVSPropertyOp43
 70
     1
102
RTVSPropertyOp44
 70
     1
102
RTVSPropertyOp45
 70
     1
102
RTVSPropertyOp46
 70
     1
102
RTVSPropertyOp47
 70
     1
102
RTVSPropertyOp48
 70
     1
102
RTVSPropertyOp49
 70
     1
102
RTVSPropertyOp50
 70
     1
102
RTVSPropertyOp51
 70
     0
102
RTVSPropertyOp52
 70
     0
102
RTVSPropertyOp53
 70
     1
102
RTVSPropertyOp54
 70
     1
102
RTVSPropertyOp55
 70
     1
102
RTVSPropertyOp56
 70
     1
102
RTVSPropertyOp57
 70
     1
102
RTVSPropertyOp58
 70
     1
102
RTVSPropertyOp59
 70
     1
102
RTVSPropertyOp60
 70
     1
102
RTVSPropertyOp61
 70
     1
102
RTVSPropertyOp62
 70
     1
  0
XRECORD
  5
48B
102
{ACAD_REACTORS
330
48A
102
}
330
48A
100
AcDbXrecord
280
     1
102
RTVSPost2010Prop28
280
     0
102
RTVSPost2010PropOp28
 70
     1
102
RTVSPost2010Prop29
280
     1
102
RTVSPost2010PropOp29
 70
     1
102
RTVSPost2010Prop30
280
     1
102
RTVSPost2010PropOp30
 70
     1
102
RTVSPost2010Prop31
280
     0
102
RTVSPost2010PropOp31
 70
     1
102
RTVSPost2010Prop32
280
     0
102
RTVSPost2010PropOp32
 70
     1
102
RTVSPost2010Prop33
280
     0
102
RTVSPost2010PropOp33
 70
     1
102
RTVSPost2010Prop34
280
     0
102
RTVSPost2010PropOp34
 70
     1
102
RTVSPost2010Prop35
280
     0
102
RTVSPost2010PropOp35
 70
     1
102
RTVSPost2010Prop36
280
     0
102
RTVSPost2010PropOp36
 70
     1
102
RTVSPost2010Prop37
 90
       50
102
RTVSPost2010PropOp37
 70
     1
102
RTVSPost2010Prop38
140
0.0
102
RTVSPost2010PropOp38
 70
     1
102
RTVSPost2010Prop39
140
1.0
102
RTVSPost2010PropOp39
 70
     1
102
RTVSPost2010Prop40
 90
        0
102
RTVSPost2010PropOp40
 70
     1
102
RTVSPost2010Prop41ColorIndex
 90
       18
102
RTVSPost2010Prop41ColorRGB
 90
        0
102
RTVSPost2010PropOp41
 70
     1
102
RTVSPost2010Prop42
 90
       50
102
RTVSPost2010PropOp42
 70
     1
102
RTVSPost2010Prop43
 90
        3
102
RTVSPost2010PropOp43
 70
     1
102
RTVSPost2010Prop44ColorIndex
 90
        5
102
RTVSPost2010Prop44ColorRGB
 90
      255
102
RTVSPost2010PropOp44
 70
     1
102
RTVSPost2010Prop45
280
     0
102
RTVSPost2010PropOp45
 70
     1
102
RTVSPost2010Prop46
 90
       50
102
RTVSPost2010PropOp46
 70
     1
102
RTVSPost2010Prop47
 90
       50
102
RTVSPost2010PropOp47
 70
     1
102
RTVSPost2010Prop48
 90
       50
102
RTVSPost2010PropOp48
 70
     1
102
RTVSPost2010Prop49
280
     0
102
RTVSPost2010PropOp49
 70
     1
102
RTVSPost2010Prop50
 90
       50
102
RTVSPost2010PropOp50
 70
     1
102
RTVSPost2010Prop51ColorIndex
 90
      256
102
RTVSPost2010Prop51ColorRGB
 90
-16777216
102
RTVSPost2010PropOp51
 70
     0
102
RTVSPost2010Prop52
140
1.0
102
RTVSPost2010PropOp52
 70
     0
102
RTVSPost2010Prop53
 90
        2
102
RTVSPost2010PropOp53
 70
     1
102
RTVSPost2010Prop54
  1
strokes_ogs.tif
102
RTVSPost2010PropOp54
 70
     1
102
RTVSPost2010Prop55
280
     0
102
RTVSPost2010PropOp55
 70
     1
102
RTVSPost2010Prop56
140
1.0
102
RTVSPost2010PropOp56
 70
     1
102
RTVSPost2010Prop57
140
1.0
102
RTVSPost2010PropOp57
 70
     1
102
RTVSPropertyOp0
 70
     1
102
RTVSPropertyOp1
 70
     1
102
RTVSPropertyOp2
 70
     1
102
RTVSPropertyOp3
 70
     1
102
RTVSPropertyOp4
 70
     1
102
RTVSPropertyOp5
 70
     1
102
RTVSPropertyOp6
 70
     1
102
RTVSPropertyOp7
 70
     1
102
RTVSPropertyOp8
 70
     1
102
RTVSPropertyOp9
 70
     1
102
RTVSPropertyOp10
 70
     1
102
RTVSPropertyOp11
 70
     1
102
RTVSPropertyOp12
 70
     1
102
RTVSPropertyOp13
 70
     1
102
RTVSPropertyOp14
 70
     1
102
RTVSPropertyOp15
 70
     1
102
RTVSPropertyOp16
 70
     1
102
RTVSPropertyOp17
 70
     1
102
RTVSPropertyOp18
 70
     1
102
RTVSPropertyOp19
 70
     1
102
RTVSPropertyOp20
 70
     1
102
RTVSPropertyOp21
 70
     1
102
RTVSPropertyOp22
 70
     1
102
RTVSPropertyOp23
 70
     1
102
RTVSPropertyOp24
 70
     1
102
RTVSPropertyOp25
 70
     1
102
RTVSPropertyOp26
 70
     1
102
RTVSPropertyOp27
 70
     1
102
RTVSPropertyOp28
 70
     1
102
RTVSPropertyOp29
 70
     1
102
RTVSPropertyOp30
 70
     1
102
RTVSPropertyOp31
 70
     1
102
RTVSPropertyOp32
 70
     1
102
RTVSPropertyOp33
 70
     1
102
RTVSPropertyOp34
 70
     1
102
RTVSPropertyOp35
 70
     1
102
RTVSPropertyOp36
 70
     1
102
RTVSPropertyOp37
 70
     1
102
RTVSPropertyOp38
 70
     1
102
RTVSPropertyOp39
 70
     1
102
RTVSPropertyOp40
 70
     1
102
RTVSPropertyOp41
 70
     1
102
RTVSPropertyOp42
 70
     1
102
RTVSPropertyOp43
 70
     1
102
RTVSPropertyOp44
 70
     1
102
RTVSPropertyOp45
 70
     1
102
RTVSPropertyOp46
 70
     1
102
RTVSPropertyOp47
 70
     1
102
RTVSPropertyOp48
 70
     1
102
RTVSPropertyOp49
 70
     1
102
RTVSPropertyOp50
 70
     1
102
RTVSPropertyOp51
 70
     0
102
RTVSPropertyOp52
 70
     0
102
RTVSPropertyOp53
 70
     1
102
RTVSPropertyOp54
 70
     1
102
RTVSPropertyOp55
 70
     1
102
RTVSPropertyOp56
 70
     1
102
RTVSPropertyOp57
 70
     1
102
RTVSPropertyOp58
 70
     1
102
RTVSPropertyOp59
 70
     1
102
RTVSPropertyOp60
 70
     1
102
RTVSPropertyOp61
 70
     1
102
RTVSPropertyOp62
 70
     1
  0
XRECORD
  5
48D
102
{ACAD_REACTORS
330
48C
102
}
330
48C
100
AcDbXrecord
280
     1
102
RTVSPost2010Prop28
280
     0
102
RTVSPost2010PropOp28
 70
     1
102
RTVSPost2010Prop29
280
     1
102
RTVSPost2010PropOp29
 70
     1
102
RTVSPost2010Prop30
280
     1
102
RTVSPost2010PropOp30
 70
     1
102
RTVSPost2010Prop31
280
     0
102
RTVSPost2010PropOp31
 70
     1
102
RTVSPost2010Prop32
280
     0
102
RTVSPost2010PropOp32
 70
     1
102
RTVSPost2010Prop33
280
     0
102
RTVSPost2010PropOp33
 70
     1
102
RTVSPost2010Prop34
280
     0
102
RTVSPost2010PropOp34
 70
     1
102
RTVSPost2010Prop35
280
     0
102
RTVSPost2010PropOp35
 70
     1
102
RTVSPost2010Prop36
280
     0
102
RTVSPost2010PropOp36
 70
     1
102
RTVSPost2010Prop37
 90
       50
102
RTVSPost2010PropOp37
 70
     1
102
RTVSPost2010Prop38
140
0.0
102
RTVSPost2010PropOp38
 70
     1
102
RTVSPost2010Prop39
140
1.0
102
RTVSPost2010PropOp39
 70
     1
102
RTVSPost2010Prop40
 90
        0
102
RTVSPost2010PropOp40
 70
     1
102
RTVSPost2010Prop41ColorIndex
 90
       18
102
RTVSPost2010Prop41ColorRGB
 90
        0
102
RTVSPost2010PropOp41
 70
     1
102
RTVSPost2010Prop42
 90
       50
102
RTVSPost2010PropOp42
 70
     1
102
RTVSPost2010Prop43
 90
        3
102
RTVSPost2010PropOp43
 70
     1
102
RTVSPost2010Prop44ColorIndex
 90
        5
102
RTVSPost2010Prop44ColorRGB
 90
      255
102
RTVSPost2010PropOp44
 70
     1
102
RTVSPost2010Prop45
280
     0
102
RTVSPost2010PropOp45
 70
     1
102
RTVSPost2010Prop46
 90
       50
102
RTVSPost2010PropOp46
 70
     1
102
RTVSPost2010Prop47
 90
       50
102
RTVSPost2010PropOp47
 70
     1
102
RTVSPost2010Prop48
 90
       50
102
RTVSPost2010PropOp48
 70
     1
102
RTVSPost2010Prop49
280
     0
102
RTVSPost2010PropOp49
 70
     1
102
RTVSPost2010Prop50
 90
       50
102
RTVSPost2010PropOp50
 70
     1
102
RTVSPost2010Prop51ColorIndex
 90
      256
102
RTVSPost2010Prop51ColorRGB
 90
-16777216
102
RTVSPost2010PropOp51
 70
     0
102
RTVSPost2010Prop52
140
1.0
102
RTVSPost2010PropOp52
 70
     0
102
RTVSPost2010Prop53
 90
        2
102
RTVSPost2010PropOp53
 70
     1
102
RTVSPost2010Prop54
  1
strokes_ogs.tif
102
RTVSPost2010PropOp54
 70
     1
102
RTVSPost2010Prop55
280
     0
102
RTVSPost2010PropOp55
 70
     1
102
RTVSPost2010Prop56
140
1.0
102
RTVSPost2010PropOp56
 70
     1
102
RTVSPost2010Prop57
140
1.0
102
RTVSPost2010PropOp57
 70
     1
102
RTVSPropertyOp0
 70
     1
102
RTVSPropertyOp1
 70
     1
102
RTVSPropertyOp2
 70
     1
102
RTVSPropertyOp3
 70
     1
102
RTVSPropertyOp4
 70
     1
102
RTVSPropertyOp5
 70
     1
102
RTVSPropertyOp6
 70
     1
102
RTVSPropertyOp7
 70
     1
102
RTVSPropertyOp8
 70
     1
102
RTVSPropertyOp9
 70
     1
102
RTVSPropertyOp10
 70
     1
102
RTVSPropertyOp11
 70
     1
102
RTVSPropertyOp12
 70
     1
102
RTVSPropertyOp13
 70
     1
102
RTVSPropertyOp14
 70
     1
102
RTVSPropertyOp15
 70
     1
102
RTVSPropertyOp16
 70
     1
102
RTVSPropertyOp17
 70
     1
102
RTVSPropertyOp18
 70
     1
102
RTVSPropertyOp19
 70
     1
102
RTVSPropertyOp20
 70
     1
102
RTVSPropertyOp21
 70
     1
102
RTVSPropertyOp22
 70
     1
102
RTVSPropertyOp23
 70
     1
102
RTVSPropertyOp24
 70
     1
102
RTVSPropertyOp25
 70
     1
102
RTVSPropertyOp26
 70
     1
102
RTVSPropertyOp27
 70
     1
102
RTVSPropertyOp28
 70
     1
102
RTVSPropertyOp29
 70
     1
102
RTVSPropertyOp30
 70
     1
102
RTVSPropertyOp31
 70
     1
102
RTVSPropertyOp32
 70
     1
102
RTVSPropertyOp33
 70
     1
102
RTVSPropertyOp34
 70
     1
102
RTVSPropertyOp35
 70
     1
102
RTVSPropertyOp36
 70
     1
102
RTVSPropertyOp37
 70
     1
102
RTVSPropertyOp38
 70
     1
102
RTVSPropertyOp39
 70
     1
102
RTVSPropertyOp40
 70
     1
102
RTVSPropertyOp41
 70
     1
102
RTVSPropertyOp42
 70
     1
102
RTVSPropertyOp43
 70
     1
102
RTVSPropertyOp44
 70
     1
102
RTVSPropertyOp45
 70
     1
102
RTVSPropertyOp46
 70
     1
102
RTVSPropertyOp47
 70
     1
102
RTVSPropertyOp48
 70
     1
102
RTVSPropertyOp49
 70
     1
102
RTVSPropertyOp50
 70
     1
102
RTVSPropertyOp51
 70
     0
102
RTVSPropertyOp52
 70
     0
102
RTVSPropertyOp53
 70
     1
102
RTVSPropertyOp54
 70
     1
102
RTVSPropertyOp55
 70
     1
102
RTVSPropertyOp56
 70
     1
102
RTVSPropertyOp57
 70
     1
102
RTVSPropertyOp58
 70
     1
102
RTVSPropertyOp59
 70
     1
102
RTVSPropertyOp60
 70
     1
102
RTVSPropertyOp61
 70
     1
102
RTVSPropertyOp62
 70
     1
  0
XRECORD
  5
48F
102
{ACAD_REACTORS
330
48E
102
}
330
48E
100
AcDbXrecord
280
     1
102
RTVSPost2010Prop28
280
     0
102
RTVSPost2010PropOp28
 70
     1
102
RTVSPost2010Prop29
280
     1
102
RTVSPost2010PropOp29
 70
     1
102
RTVSPost2010Prop30
280
     1
102
RTVSPost2010PropOp30
 70
     1
102
RTVSPost2010Prop31
280
     0
102
RTVSPost2010PropOp31
 70
     1
102
RTVSPost2010Prop32
280
     0
102
RTVSPost2010PropOp32
 70
     1
102
RTVSPost2010Prop33
280
     0
102
RTVSPost2010PropOp33
 70
     1
102
RTVSPost2010Prop34
280
     0
102
RTVSPost2010PropOp34
 70
     1
102
RTVSPost2010Prop35
280
     0
102
RTVSPost2010PropOp35
 70
     1
102
RTVSPost2010Prop36
280
     0
102
RTVSPost2010PropOp36
 70
     1
102
RTVSPost2010Prop37
 90
       50
102
RTVSPost2010PropOp37
 70
     1
102
RTVSPost2010Prop38
140
0.0
102
RTVSPost2010PropOp38
 70
     1
102
RTVSPost2010Prop39
140
1.0
102
RTVSPost2010PropOp39
 70
     1
102
RTVSPost2010Prop40
 90
        0
102
RTVSPost2010PropOp40
 70
     1
102
RTVSPost2010Prop41ColorIndex
 90
       18
102
RTVSPost2010Prop41ColorRGB
 90
        0
102
RTVSPost2010PropOp41
 70
     1
102
RTVSPost2010Prop42
 90
       50
102
RTVSPost2010PropOp42
 70
     1
102
RTVSPost2010Prop43
 90
        3
102
RTVSPost2010PropOp43
 70
     1
102
RTVSPost2010Prop44ColorIndex
 90
        5
102
RTVSPost2010Prop44ColorRGB
 90
      255
102
RTVSPost2010PropOp44
 70
     1
102
RTVSPost2010Prop45
280
     0
102
RTVSPost2010PropOp45
 70
     1
102
RTVSPost2010Prop46
 90
       50
102
RTVSPost2010PropOp46
 70
     1
102
RTVSPost2010Prop47
 90
       50
102
RTVSPost2010PropOp47
 70
     1
102
RTVSPost2010Prop48
 90
       50
102
RTVSPost2010PropOp48
 70
     1
102
RTVSPost2010Prop49
280
     0
102
RTVSPost2010PropOp49
 70
     1
102
RTVSPost2010Prop50
 90
       50
102
RTVSPost2010PropOp50
 70
     1
102
RTVSPost2010Prop51ColorIndex
 90
      256
102
RTVSPost2010Prop51ColorRGB
 90
-16777216
102
RTVSPost2010PropOp51
 70
     0
102
RTVSPost2010Prop52
140
1.0
102
RTVSPost2010PropOp52
 70
     0
102
RTVSPost2010Prop53
 90
        2
102
RTVSPost2010PropOp53
 70
     1
102
RTVSPost2010Prop54
  1
strokes_ogs.tif
102
RTVSPost2010PropOp54
 70
     1
102
RTVSPost2010Prop55
280
     0
102
RTVSPost2010PropOp55
 70
     1
102
RTVSPost2010Prop56
140
1.0
102
RTVSPost2010PropOp56
 70
     1
102
RTVSPost2010Prop57
140
1.0
102
RTVSPost2010PropOp57
 70
     1
102
RTVSPropertyOp0
 70
     1
102
RTVSPropertyOp1
 70
     1
102
RTVSPropertyOp2
 70
     1
102
RTVSPropertyOp3
 70
     1
102
RTVSPropertyOp4
 70
     1
102
RTVSPropertyOp5
 70
     1
102
RTVSPropertyOp6
 70
     1
102
RTVSPropertyOp7
 70
     1
102
RTVSPropertyOp8
 70
     1
102
RTVSPropertyOp9
 70
     1
102
RTVSPropertyOp10
 70
     1
102
RTVSPropertyOp11
 70
     1
102
RTVSPropertyOp12
 70
     1
102
RTVSPropertyOp13
 70
     1
102
RTVSPropertyOp14
 70
     1
102
RTVSPropertyOp15
 70
     1
102
RTVSPropertyOp16
 70
     1
102
RTVSPropertyOp17
 70
     1
102
RTVSPropertyOp18
 70
     1
102
RTVSPropertyOp19
 70
     1
102
RTVSPropertyOp20
 70
     1
102
RTVSPropertyOp21
 70
     1
102
RTVSPropertyOp22
 70
     1
102
RTVSPropertyOp23
 70
     1
102
RTVSPropertyOp24
 70
     1
102
RTVSPropertyOp25
 70
     1
102
RTVSPropertyOp26
 70
     1
102
RTVSPropertyOp27
 70
     1
102
RTVSPropertyOp28
 70
     1
102
RTVSPropertyOp29
 70
     1
102
RTVSPropertyOp30
 70
     1
102
RTVSPropertyOp31
 70
     1
102
RTVSPropertyOp32
 70
     1
102
RTVSPropertyOp33
 70
     1
102
RTVSPropertyOp34
 70
     1
102
RTVSPropertyOp35
 70
     1
102
RTVSPropertyOp36
 70
     1
102
RTVSPropertyOp37
 70
     1
102
RTVSPropertyOp38
 70
     1
102
RTVSPropertyOp39
 70
     1
102
RTVSPropertyOp40
 70
     1
102
RTVSPropertyOp41
 70
     1
102
RTVSPropertyOp42
 70
     1
102
RTVSPropertyOp43
 70
     1
102
RTVSPropertyOp44
 70
     1
102
RTVSPropertyOp45
 70
     1
102
RTVSPropertyOp46
 70
     1
102
RTVSPropertyOp47
 70
     1
102
RTVSPropertyOp48
 70
     1
102
RTVSPropertyOp49
 70
     1
102
RTVSPropertyOp50
 70
     1
102
RTVSPropertyOp51
 70
     0
102
RTVSPropertyOp52
 70
     0
102
RTVSPropertyOp53
 70
     1
102
RTVSPropertyOp54
 70
     1
102
RTVSPropertyOp55
 70
     1
102
RTVSPropertyOp56
 70
     1
102
RTVSPropertyOp57
 70
     1
102
RTVSPropertyOp58
 70
     1
102
RTVSPropertyOp59
 70
     1
102
RTVSPropertyOp60
 70
     1
102
RTVSPropertyOp61
 70
     1
102
RTVSPropertyOp62
 70
     1
  0
XRECORD
  5
497
102
{ACAD_REACTORS
330
496
102
}
330
496
100
AcDbXrecord
280
     1
102
RTVSPost2010Prop28
280
     0
102
RTVSPost2010PropOp28
 70
     1
102
RTVSPost2010Prop29
280
     1
102
RTVSPost2010PropOp29
 70
     1
102
RTVSPost2010Prop30
280
     1
102
RTVSPost2010PropOp30
 70
     1
102
RTVSPost2010Prop31
280
     0
102
RTVSPost2010PropOp31
 70
     1
102
RTVSPost2010Prop32
280
     0
102
RTVSPost2010PropOp32
 70
     1
102
RTVSPost2010Prop33
280
     0
102
RTVSPost2010PropOp33
 70
     1
102
RTVSPost2010Prop34
280
     0
102
RTVSPost2010PropOp34
 70
     1
102
RTVSPost2010Prop35
280
     0
102
RTVSPost2010PropOp35
 70
     1
102
RTVSPost2010Prop36
280
     0
102
RTVSPost2010PropOp36
 70
     1
102
RTVSPost2010Prop37
 90
       50
102
RTVSPost2010PropOp37
 70
     1
102
RTVSPost2010Prop38
140
0.0
102
RTVSPost2010PropOp38
 70
     1
102
RTVSPost2010Prop39
140
1.0
102
RTVSPost2010PropOp39
 70
     1
102
RTVSPost2010Prop40
 90
        0
102
RTVSPost2010PropOp40
 70
     1
102
RTVSPost2010Prop41ColorIndex
 90
       18
102
RTVSPost2010Prop41ColorRGB
 90
        0
102
RTVSPost2010PropOp41
 70
     1
102
RTVSPost2010Prop42
 90
       50
102
RTVSPost2010PropOp42
 70
     1
102
RTVSPost2010Prop43
 90
        3
102
RTVSPost2010PropOp43
 70
     1
102
RTVSPost2010Prop44ColorIndex
 90
        5
102
RTVSPost2010Prop44ColorRGB
 90
      255
102
RTVSPost2010PropOp44
 70
     1
102
RTVSPost2010Prop45
280
     0
102
RTVSPost2010PropOp45
 70
     1
102
RTVSPost2010Prop46
 90
       50
102
RTVSPost2010PropOp46
 70
     1
102
RTVSPost2010Prop47
 90
       50
102
RTVSPost2010PropOp47
 70
     1
102
RTVSPost2010Prop48
 90
       50
102
RTVSPost2010PropOp48
 70
     1
102
RTVSPost2010Prop49
280
     0
102
RTVSPost2010PropOp49
 70
     1
102
RTVSPost2010Prop50
 90
       50
102
RTVSPost2010PropOp50
 70
     1
102
RTVSPost2010Prop51ColorIndex
 90
      256
102
RTVSPost2010Prop51ColorRGB
 90
-16777216
102
RTVSPost2010PropOp51
 70
     0
102
RTVSPost2010Prop52
140
1.0
102
RTVSPost2010PropOp52
 70
     0
102
RTVSPost2010Prop53
 90
        2
102
RTVSPost2010PropOp53
 70
     1
102
RTVSPost2010Prop54
  1
strokes_ogs.tif
102
RTVSPost2010PropOp54
 70
     1
102
RTVSPost2010Prop55
280
     0
102
RTVSPost2010PropOp55
 70
     1
102
RTVSPost2010Prop56
140
1.0
102
RTVSPost2010PropOp56
 70
     1
102
RTVSPost2010Prop57
140
1.0
102
RTVSPost2010PropOp57
 70
     1
102
RTVSPropertyOp0
 70
     1
102
RTVSPropertyOp1
 70
     1
102
RTVSPropertyOp2
 70
     1
102
RTVSPropertyOp3
 70
     1
102
RTVSPropertyOp4
 70
     1
102
RTVSPropertyOp5
 70
     1
102
RTVSPropertyOp6
 70
     1
102
RTVSPropertyOp7
 70
     1
102
RTVSPropertyOp8
 70
     1
102
RTVSPropertyOp9
 70
     1
102
RTVSPropertyOp10
 70
     1
102
RTVSPropertyOp11
 70
     1
102
RTVSPropertyOp12
 70
     1
102
RTVSPropertyOp13
 70
     1
102
RTVSPropertyOp14
 70
     1
102
RTVSPropertyOp15
 70
     1
102
RTVSPropertyOp16
 70
     1
102
RTVSPropertyOp17
 70
     1
102
RTVSPropertyOp18
 70
     1
102
RTVSPropertyOp19
 70
     1
102
RTVSPropertyOp20
 70
     1
102
RTVSPropertyOp21
 70
     1
102
RTVSPropertyOp22
 70
     1
102
RTVSPropertyOp23
 70
     1
102
RTVSPropertyOp24
 70
     1
102
RTVSPropertyOp25
 70
     1
102
RTVSPropertyOp26
 70
     1
102
RTVSPropertyOp27
 70
     1
102
RTVSPropertyOp28
 70
     1
102
RTVSPropertyOp29
 70
     1
102
RTVSPropertyOp30
 70
     1
102
RTVSPropertyOp31
 70
     1
102
RTVSPropertyOp32
 70
     1
102
RTVSPropertyOp33
 70
     1
102
RTVSPropertyOp34
 70
     1
102
RTVSPropertyOp35
 70
     1
102
RTVSPropertyOp36
 70
     1
102
RTVSPropertyOp37
 70
     1
102
RTVSPropertyOp38
 70
     1
102
RTVSPropertyOp39
 70
     1
102
RTVSPropertyOp40
 70
     1
102
RTVSPropertyOp41
 70
     1
102
RTVSPropertyOp42
 70
     1
102
RTVSPropertyOp43
 70
     1
102
RTVSPropertyOp44
 70
     1
102
RTVSPropertyOp45
 70
     1
102
RTVSPropertyOp46
 70
     1
102
RTVSPropertyOp47
 70
     1
102
RTVSPropertyOp48
 70
     1
102
RTVSPropertyOp49
 70
     1
102
RTVSPropertyOp50
 70
     1
102
RTVSPropertyOp51
 70
     0
102
RTVSPropertyOp52
 70
     0
102
RTVSPropertyOp53
 70
     1
102
RTVSPropertyOp54
 70
     1
102
RTVSPropertyOp55
 70
     1
102
RTVSPropertyOp56
 70
     1
102
RTVSPropertyOp57
 70
     1
102
RTVSPropertyOp58
 70
     1
102
RTVSPropertyOp59
 70
     1
102
RTVSPropertyOp60
 70
     1
102
RTVSPropertyOp61
 70
     1
102
RTVSPropertyOp62
 70
     1
  0
XRECORD
  5
4B3
102
{ACAD_REACTORS
330
4B2
102
}
330
4B2
100
AcDbXrecord
280
     1
102
RTVSPost2010Prop28
280
     0
102
RTVSPost2010PropOp28
 70
     1
102
RTVSPost2010Prop29
280
     1
102
RTVSPost2010PropOp29
 70
     1
102
RTVSPost2010Prop30
280
     1
102
RTVSPost2010PropOp30
 70
     1
102
RTVSPost2010Prop31
280
     0
102
RTVSPost2010PropOp31
 70
     1
102
RTVSPost2010Prop32
280
     0
102
RTVSPost2010PropOp32
 70
     1
102
RTVSPost2010Prop33
280
     0
102
RTVSPost2010PropOp33
 70
     1
102
RTVSPost2010Prop34
280
     0
102
RTVSPost2010PropOp34
 70
     1
102
RTVSPost2010Prop35
280
     0
102
RTVSPost2010PropOp35
 70
     1
102
RTVSPost2010Prop36
280
     0
102
RTVSPost2010PropOp36
 70
     1
102
RTVSPost2010Prop37
 90
       50
102
RTVSPost2010PropOp37
 70
     0
102
RTVSPost2010Prop38
140
0.0
102
RTVSPost2010PropOp38
 70
     0
102
RTVSPost2010Prop39
140
1.0
102
RTVSPost2010PropOp39
 70
     0
102
RTVSPost2010Prop40
 90
        0
102
RTVSPost2010PropOp40
 70
     0
102
RTVSPost2010Prop41ColorIndex
 90
       18
102
RTVSPost2010Prop41ColorRGB
 90
        0
102
RTVSPost2010PropOp41
 70
     0
102
RTVSPost2010Prop42
 90
       50
102
RTVSPost2010PropOp42
 70
     0
102
RTVSPost2010Prop43
 90
        3
102
RTVSPost2010PropOp43
 70
     0
102
RTVSPost2010Prop44ColorIndex
 90
        5
102
RTVSPost2010Prop44ColorRGB
 90
      255
102
RTVSPost2010PropOp44
 70
     0
102
RTVSPost2010Prop45
280
     0
102
RTVSPost2010PropOp45
 70
     1
102
RTVSPost2010Prop46
 90
       50
102
RTVSPost2010PropOp46
 70
     0
102
RTVSPost2010Prop47
 90
       50
102
RTVSPost2010PropOp47
 70
     0
102
RTVSPost2010Prop48
 90
       50
102
RTVSPost2010PropOp48
 70
     0
102
RTVSPost2010Prop49
280
     0
102
RTVSPost2010PropOp49
 70
     1
102
RTVSPost2010Prop50
 90
       50
102
RTVSPost2010PropOp50
 70
     0
102
RTVSPost2010Prop51ColorIndex
 90
      256
102
RTVSPost2010Prop51ColorRGB
 90
-16777216
102
RTVSPost2010PropOp51
 70
     0
102
RTVSPost2010Prop52
140
1.0
102
RTVSPost2010PropOp52
 70
     0
102
RTVSPost2010Prop53
 90
        2
102
RTVSPost2010PropOp53
 70
     0
102
RTVSPost2010Prop54
  1
strokes_ogs.tif
102
RTVSPost2010PropOp54
 70
     0
102
RTVSPost2010Prop55
280
     0
102
RTVSPost2010PropOp55
 70
     1
102
RTVSPost2010Prop56
140
1.0
102
RTVSPost2010PropOp56
 70
     0
102
RTVSPost2010Prop57
140
1.0
102
RTVSPost2010PropOp57
 70
     0
102
RTVSPropertyOp0
 70
     0
102
RTVSPropertyOp1
 70
     0
102
RTVSPropertyOp2
 70
     0
102
RTVSPropertyOp3
 70
     0
102
RTVSPropertyOp4
 70
     0
102
RTVSPropertyOp5
 70
     0
102
RTVSPropertyOp6
 70
     0
102
RTVSPropertyOp7
 70
     0
102
RTVSPropertyOp8
 70
     0
102
RTVSPropertyOp9
 70
     0
102
RTVSPropertyOp10
 70
     0
102
RTVSPropertyOp11
 70
     0
102
RTVSPropertyOp12
 70
     0
102
RTVSPropertyOp13
 70
     0
102
RTVSPropertyOp14
 70
     2
102
RTVSPropertyOp15
 70
     0
102
RTVSPropertyOp16
 70
     0
102
RTVSPropertyOp17
 70
     0
102
RTVSPropertyOp18
 70
     0
102
RTVSPropertyOp19
 70
     0
102
RTVSPropertyOp20
 70
     0
102
RTVSPropertyOp21
 70
     0
102
RTVSPropertyOp22
 70
     0
102
RTVSPropertyOp23
 70
     0
102
RTVSPropertyOp24
 70
     0
102
RTVSPropertyOp25
 70
     0
102
RTVSPropertyOp26
 70
     0
102
RTVSPropertyOp27
 70
     0
102
RTVSPropertyOp28
 70
     1
102
RTVSPropertyOp29
 70
     1
102
RTVSPropertyOp30
 70
     1
102
RTVSPropertyOp31
 70
     1
102
RTVSPropertyOp32
 70
     1
102
RTVSPropertyOp33
 70
     1
102
RTVSPropertyOp34
 70
     1
102
RTVSPropertyOp35
 70
     1
102
RTVSPropertyOp36
 70
     1
102
RTVSPropertyOp37
 70
     0
102
RTVSPropertyOp38
 70
     0
102
RTVSPropertyOp39
 70
     0
102
RTVSPropertyOp40
 70
     0
102
RTVSPropertyOp41
 70
     0
102
RTVSPropertyOp42
 70
     0
102
RTVSPropertyOp43
 70
     0
102
RTVSPropertyOp44
 70
     0
102
RTVSPropertyOp45
 70
     1
102
RTVSPropertyOp46
 70
     0
102
RTVSPropertyOp47
 70
     0
102
RTVSPropertyOp48
 70
     0
102
RTVSPropertyOp49
 70
     1
102
RTVSPropertyOp50
 70
     0
102
RTVSPropertyOp51
 70
     0
102
RTVSPropertyOp52
 70
     0
102
RTVSPropertyOp53
 70
     0
102
RTVSPropertyOp54
 70
     0
102
RTVSPropertyOp55
 70
     1
102
RTVSPropertyOp56
 70
     0
102
RTVSPropertyOp57
 70
     0
102
RTVSPropertyOp58
 70
     0
102
RTVSPropertyOp59
 70
     0
102
RTVSPropertyOp60
 70
     0
102
RTVSPropertyOp61
 70
     0
102
RTVSPropertyOp62
 70
     0
  0
XRECORD
  5
4A3
102
{ACAD_REACTORS
330
4A2
102
}
330
4A2
100
AcDbXrecord
280
     1
102
RTVSPost2010Prop28
280
     0
102
RTVSPost2010PropOp28
 70
     1
102
RTVSPost2010Prop29
280
     1
102
RTVSPost2010PropOp29
 70
     1
102
RTVSPost2010Prop30
280
     1
102
RTVSPost2010PropOp30
 70
     1
102
RTVSPost2010Prop31
280
     0
102
RTVSPost2010PropOp31
 70
     1
102
RTVSPost2010Prop32
280
     0
102
RTVSPost2010PropOp32
 70
     1
102
RTVSPost2010Prop33
280
     0
102
RTVSPost2010PropOp33
 70
     1
102
RTVSPost2010Prop34
280
     0
102
RTVSPost2010PropOp34
 70
     1
102
RTVSPost2010Prop35
280
     0
102
RTVSPost2010PropOp35
 70
     1
102
RTVSPost2010Prop36
280
     0
102
RTVSPost2010PropOp36
 70
     1
102
RTVSPost2010Prop37
 90
       50
102
RTVSPost2010PropOp37
 70
     1
102
RTVSPost2010Prop38
140
0.0
102
RTVSPost2010PropOp38
 70
     1
102
RTVSPost2010Prop39
140
1.0
102
RTVSPost2010PropOp39
 70
     1
102
RTVSPost2010Prop40
 90
        0
102
RTVSPost2010PropOp40
 70
     1
102
RTVSPost2010Prop41ColorIndex
 90
       18
102
RTVSPost2010Prop41ColorRGB
 90
        0
102
RTVSPost2010PropOp41
 70
     1
102
RTVSPost2010Prop42
 90
       50
102
RTVSPost2010PropOp42
 70
     1
102
RTVSPost2010Prop43
 90
        3
102
RTVSPost2010PropOp43
 70
     1
102
RTVSPost2010Prop44ColorIndex
 90
        5
102
RTVSPost2010Prop44ColorRGB
 90
      255
102
RTVSPost2010PropOp44
 70
     1
102
RTVSPost2010Prop45
280
     0
102
RTVSPost2010PropOp45
 70
     1
102
RTVSPost2010Prop46
 90
       50
102
RTVSPost2010PropOp46
 70
     1
102
RTVSPost2010Prop47
 90
       50
102
RTVSPost2010PropOp47
 70
     1
102
RTVSPost2010Prop48
 90
       50
102
RTVSPost2010PropOp48
 70
     1
102
RTVSPost2010Prop49
280
     0
102
RTVSPost2010PropOp49
 70
     1
102
RTVSPost2010Prop50
 90
       50
102
RTVSPost2010PropOp50
 70
     1
102
RTVSPost2010Prop51ColorIndex
 90
      256
102
RTVSPost2010Prop51ColorRGB
 90
-16777216
102
RTVSPost2010PropOp51
 70
     0
102
RTVSPost2010Prop52
140
1.0
102
RTVSPost2010PropOp52
 70
     0
102
RTVSPost2010Prop53
 90
        2
102
RTVSPost2010PropOp53
 70
     1
102
RTVSPost2010Prop54
  1
strokes_ogs.tif
102
RTVSPost2010PropOp54
 70
     1
102
RTVSPost2010Prop55
280
     0
102
RTVSPost2010PropOp55
 70
     1
102
RTVSPost2010Prop56
140
1.0
102
RTVSPost2010PropOp56
 70
     1
102
RTVSPost2010Prop57
140
1.0
102
RTVSPost2010PropOp57
 70
     1
102
RTVSPropertyOp0
 70
     1
102
RTVSPropertyOp1
 70
     1
102
RTVSPropertyOp2
 70
     1
102
RTVSPropertyOp3
 70
     1
102
RTVSPropertyOp4
 70
     1
102
RTVSPropertyOp5
 70
     1
102
RTVSPropertyOp6
 70
     1
102
RTVSPropertyOp7
 70
     1
102
RTVSPropertyOp8
 70
     1
102
RTVSPropertyOp9
 70
     1
102
RTVSPropertyOp10
 70
     1
102
RTVSPropertyOp11
 70
     1
102
RTVSPropertyOp12
 70
     1
102
RTVSPropertyOp13
 70
     1
102
RTVSPropertyOp14
 70
     1
102
RTVSPropertyOp15
 70
     1
102
RTVSPropertyOp16
 70
     1
102
RTVSPropertyOp17
 70
     1
102
RTVSPropertyOp18
 70
     1
102
RTVSPropertyOp19
 70
     1
102
RTVSPropertyOp20
 70
     1
102
RTVSPropertyOp21
 70
     1
102
RTVSPropertyOp22
 70
     1
102
RTVSPropertyOp23
 70
     1
102
RTVSPropertyOp24
 70
     1
102
RTVSPropertyOp25
 70
     1
102
RTVSPropertyOp26
 70
     1
102
RTVSPropertyOp27
 70
     1
102
RTVSPropertyOp28
 70
     1
102
RTVSPropertyOp29
 70
     1
102
RTVSPropertyOp30
 70
     1
102
RTVSPropertyOp31
 70
     1
102
RTVSPropertyOp32
 70
     1
102
RTVSPropertyOp33
 70
     1
102
RTVSPropertyOp34
 70
     1
102
RTVSPropertyOp35
 70
     1
102
RTVSPropertyOp36
 70
     1
102
RTVSPropertyOp37
 70
     1
102
RTVSPropertyOp38
 70
     1
102
RTVSPropertyOp39
 70
     1
102
RTVSPropertyOp40
 70
     1
102
RTVSPropertyOp41
 70
     1
102
RTVSPropertyOp42
 70
     1
102
RTVSPropertyOp43
 70
     1
102
RTVSPropertyOp44
 70
     1
102
RTVSPropertyOp45
 70
     1
102
RTVSPropertyOp46
 70
     1
102
RTVSPropertyOp47
 70
     1
102
RTVSPropertyOp48
 70
     1
102
RTVSPropertyOp49
 70
     1
102
RTVSPropertyOp50
 70
     1
102
RTVSPropertyOp51
 70
     0
102
RTVSPropertyOp52
 70
     0
102
RTVSPropertyOp53
 70
     1
102
RTVSPropertyOp54
 70
     1
102
RTVSPropertyOp55
 70
     1
102
RTVSPropertyOp56
 70
     1
102
RTVSPropertyOp57
 70
     1
102
RTVSPropertyOp58
 70
     1
102
RTVSPropertyOp59
 70
     1
102
RTVSPropertyOp60
 70
     1
102
RTVSPropertyOp61
 70
     1
102
RTVSPropertyOp62
 70
     1
  0
XRECORD
  5
4B5
102
{ACAD_REACTORS
330
4B4
102
}
330
4B4
100
AcDbXrecord
280
     1
102
RTVSPost2010Prop28
280
     0
102
RTVSPost2010PropOp28
 70
     1
102
RTVSPost2010Prop29
280
     1
102
RTVSPost2010PropOp29
 70
     1
102
RTVSPost2010Prop30
280
     1
102
RTVSPost2010PropOp30
 70
     1
102
RTVSPost2010Prop31
280
     0
102
RTVSPost2010PropOp31
 70
     1
102
RTVSPost2010Prop32
280
     0
102
RTVSPost2010PropOp32
 70
     1
102
RTVSPost2010Prop33
280
     0
102
RTVSPost2010PropOp33
 70
     1
102
RTVSPost2010Prop34
280
     0
102
RTVSPost2010PropOp34
 70
     1
102
RTVSPost2010Prop35
280
     0
102
RTVSPost2010PropOp35
 70
     1
102
RTVSPost2010Prop36
280
     0
102
RTVSPost2010PropOp36
 70
     1
102
RTVSPost2010Prop37
 90
       50
102
RTVSPost2010PropOp37
 70
     0
102
RTVSPost2010Prop38
140
0.0
102
RTVSPost2010PropOp38
 70
     0
102
RTVSPost2010Prop39
140
1.0
102
RTVSPost2010PropOp39
 70
     0
102
RTVSPost2010Prop40
 90
        0
102
RTVSPost2010PropOp40
 70
     0
102
RTVSPost2010Prop41ColorIndex
 90
       18
102
RTVSPost2010Prop41ColorRGB
 90
        0
102
RTVSPost2010PropOp41
 70
     0
102
RTVSPost2010Prop42
 90
       50
102
RTVSPost2010PropOp42
 70
     0
102
RTVSPost2010Prop43
 90
        3
102
RTVSPost2010PropOp43
 70
     0
102
RTVSPost2010Prop44ColorIndex
 90
        5
102
RTVSPost2010Prop44ColorRGB
 90
      255
102
RTVSPost2010PropOp44
 70
     0
102
RTVSPost2010Prop45
280
     0
102
RTVSPost2010PropOp45
 70
     1
102
RTVSPost2010Prop46
 90
       50
102
RTVSPost2010PropOp46
 70
     0
102
RTVSPost2010Prop47
 90
       50
102
RTVSPost2010PropOp47
 70
     0
102
RTVSPost2010Prop48
 90
       50
102
RTVSPost2010PropOp48
 70
     0
102
RTVSPost2010Prop49
280
     0
102
RTVSPost2010PropOp49
 70
     1
102
RTVSPost2010Prop50
 90
       50
102
RTVSPost2010PropOp50
 70
     0
102
RTVSPost2010Prop51ColorIndex
 90
      256
102
RTVSPost2010Prop51ColorRGB
 90
-16777216
102
RTVSPost2010PropOp51
 70
     0
102
RTVSPost2010Prop52
140
1.0
102
RTVSPost2010PropOp52
 70
     0
102
RTVSPost2010Prop53
 90
        2
102
RTVSPost2010PropOp53
 70
     0
102
RTVSPost2010Prop54
  1
strokes_ogs.tif
102
RTVSPost2010PropOp54
 70
     0
102
RTVSPost2010Prop55
280
     0
102
RTVSPost2010PropOp55
 70
     1
102
RTVSPost2010Prop56
140
1.0
102
RTVSPost2010PropOp56
 70
     0
102
RTVSPost2010Prop57
140
1.0
102
RTVSPost2010PropOp57
 70
     0
102
RTVSPropertyOp0
 70
     0
102
RTVSPropertyOp1
 70
     0
102
RTVSPropertyOp2
 70
     0
102
RTVSPropertyOp3
 70
     0
102
RTVSPropertyOp4
 70
     0
102
RTVSPropertyOp5
 70
     0
102
RTVSPropertyOp6
 70
     0
102
RTVSPropertyOp7
 70
     0
102
RTVSPropertyOp8
 70
     0
102
RTVSPropertyOp9
 70
     0
102
RTVSPropertyOp10
 70
     0
102
RTVSPropertyOp11
 70
     0
102
RTVSPropertyOp12
 70
     0
102
RTVSPropertyOp13
 70
     0
102
RTVSPropertyOp14
 70
     2
102
RTVSPropertyOp15
 70
     0
102
RTVSPropertyOp16
 70
     0
102
RTVSPropertyOp17
 70
     0
102
RTVSPropertyOp18
 70
     0
102
RTVSPropertyOp19
 70
     0
102
RTVSPropertyOp20
 70
     0
102
RTVSPropertyOp21
 70
     0
102
RTVSPropertyOp22
 70
     0
102
RTVSPropertyOp23
 70
     0
102
RTVSPropertyOp24
 70
     0
102
RTVSPropertyOp25
 70
     0
102
RTVSPropertyOp26
 70
     0
102
RTVSPropertyOp27
 70
     0
102
RTVSPropertyOp28
 70
     1
102
RTVSPropertyOp29
 70
     1
102
RTVSPropertyOp30
 70
     1
102
RTVSPropertyOp31
 70
     1
102
RTVSPropertyOp32
 70
     1
102
RTVSPropertyOp33
 70
     1
102
RTVSPropertyOp34
 70
     1
102
RTVSPropertyOp35
 70
     1
102
RTVSPropertyOp36
 70
     1
102
RTVSPropertyOp37
 70
     0
102
RTVSPropertyOp38
 70
     0
102
RTVSPropertyOp39
 70
     0
102
RTVSPropertyOp40
 70
     0
102
RTVSPropertyOp41
 70
     0
102
RTVSPropertyOp42
 70
     0
102
RTVSPropertyOp43
 70
     0
102
RTVSPropertyOp44
 70
     0
102
RTVSPropertyOp45
 70
     1
102
RTVSPropertyOp46
 70
     0
102
RTVSPropertyOp47
 70
     0
102
RTVSPropertyOp48
 70
     0
102
RTVSPropertyOp49
 70
     1
102
RTVSPropertyOp50
 70
     0
102
RTVSPropertyOp51
 70
     0
102
RTVSPropertyOp52
 70
     0
102
RTVSPropertyOp53
 70
     0
102
RTVSPropertyOp54
 70
     0
102
RTVSPropertyOp55
 70
     1
102
RTVSPropertyOp56
 70
     0
102
RTVSPropertyOp57
 70
     0
102
RTVSPropertyOp58
 70
     0
102
RTVSPropertyOp59
 70
     0
102
RTVSPropertyOp60
 70
     0
102
RTVSPropertyOp61
 70
     0
102
RTVSPropertyOp62
 70
     0
  0
XRECORD
  5
49B
102
{ACAD_REACTORS
330
49A
102
}
330
49A
100
AcDbXrecord
280
     1
102
RTVSPost2010Prop28
280
     0
102
RTVSPost2010PropOp28
 70
     1
102
RTVSPost2010Prop29
280
     1
102
RTVSPost2010PropOp29
 70
     1
102
RTVSPost2010Prop30
280
     1
102
RTVSPost2010PropOp30
 70
     1
102
RTVSPost2010Prop31
280
     0
102
RTVSPost2010PropOp31
 70
     1
102
RTVSPost2010Prop32
280
     0
102
RTVSPost2010PropOp32
 70
     1
102
RTVSPost2010Prop33
280
     0
102
RTVSPost2010PropOp33
 70
     1
102
RTVSPost2010Prop34
280
     0
102
RTVSPost2010PropOp34
 70
     1
102
RTVSPost2010Prop35
280
     0
102
RTVSPost2010PropOp35
 70
     1
102
RTVSPost2010Prop36
280
     0
102
RTVSPost2010PropOp36
 70
     1
102
RTVSPost2010Prop37
 90
       50
102
RTVSPost2010PropOp37
 70
     1
102
RTVSPost2010Prop38
140
0.0
102
RTVSPost2010PropOp38
 70
     1
102
RTVSPost2010Prop39
140
1.0
102
RTVSPost2010PropOp39
 70
     1
102
RTVSPost2010Prop40
 90
        0
102
RTVSPost2010PropOp40
 70
     1
102
RTVSPost2010Prop41ColorIndex
 90
       18
102
RTVSPost2010Prop41ColorRGB
 90
        0
102
RTVSPost2010PropOp41
 70
     1
102
RTVSPost2010Prop42
 90
       50
102
RTVSPost2010PropOp42
 70
     1
102
RTVSPost2010Prop43
 90
        3
102
RTVSPost2010PropOp43
 70
     1
102
RTVSPost2010Prop44ColorIndex
 90
        5
102
RTVSPost2010Prop44ColorRGB
 90
      255
102
RTVSPost2010PropOp44
 70
     1
102
RTVSPost2010Prop45
280
     0
102
RTVSPost2010PropOp45
 70
     1
102
RTVSPost2010Prop46
 90
       50
102
RTVSPost2010PropOp46
 70
     1
102
RTVSPost2010Prop47
 90
       50
102
RTVSPost2010PropOp47
 70
     1
102
RTVSPost2010Prop48
 90
       50
102
RTVSPost2010PropOp48
 70
     1
102
RTVSPost2010Prop49
280
     0
102
RTVSPost2010PropOp49
 70
     1
102
RTVSPost2010Prop50
 90
       50
102
RTVSPost2010PropOp50
 70
     1
102
RTVSPost2010Prop51ColorIndex
 90
      256
102
RTVSPost2010Prop51ColorRGB
 90
-16777216
102
RTVSPost2010PropOp51
 70
     0
102
RTVSPost2010Prop52
140
1.0
102
RTVSPost2010PropOp52
 70
     0
102
RTVSPost2010Prop53
 90
        2
102
RTVSPost2010PropOp53
 70
     1
102
RTVSPost2010Prop54
  1
strokes_ogs.tif
102
RTVSPost2010PropOp54
 70
     1
102
RTVSPost2010Prop55
280
     0
102
RTVSPost2010PropOp55
 70
     1
102
RTVSPost2010Prop56
140
1.0
102
RTVSPost2010PropOp56
 70
     1
102
RTVSPost2010Prop57
140
1.0
102
RTVSPost2010PropOp57
 70
     1
102
RTVSPropertyOp0
 70
     1
102
RTVSPropertyOp1
 70
     1
102
RTVSPropertyOp2
 70
     1
102
RTVSPropertyOp3
 70
     1
102
RTVSPropertyOp4
 70
     1
102
RTVSPropertyOp5
 70
     1
102
RTVSPropertyOp6
 70
     1
102
RTVSPropertyOp7
 70
     1
102
RTVSPropertyOp8
 70
     1
102
RTVSPropertyOp9
 70
     1
102
RTVSPropertyOp10
 70
     1
102
RTVSPropertyOp11
 70
     1
102
RTVSPropertyOp12
 70
     1
102
RTVSPropertyOp13
 70
     1
102
RTVSPropertyOp14
 70
     1
102
RTVSPropertyOp15
 70
     1
102
RTVSPropertyOp16
 70
     1
102
RTVSPropertyOp17
 70
     1
102
RTVSPropertyOp18
 70
     1
102
RTVSPropertyOp19
 70
     1
102
RTVSPropertyOp20
 70
     1
102
RTVSPropertyOp21
 70
     1
102
RTVSPropertyOp22
 70
     1
102
RTVSPropertyOp23
 70
     1
102
RTVSPropertyOp24
 70
     1
102
RTVSPropertyOp25
 70
     1
102
RTVSPropertyOp26
 70
     1
102
RTVSPropertyOp27
 70
     1
102
RTVSPropertyOp28
 70
     1
102
RTVSPropertyOp29
 70
     1
102
RTVSPropertyOp30
 70
     1
102
RTVSPropertyOp31
 70
     1
102
RTVSPropertyOp32
 70
     1
102
RTVSPropertyOp33
 70
     1
102
RTVSPropertyOp34
 70
     1
102
RTVSPropertyOp35
 70
     1
102
RTVSPropertyOp36
 70
     1
102
RTVSPropertyOp37
 70
     1
102
RTVSPropertyOp38
 70
     1
102
RTVSPropertyOp39
 70
     1
102
RTVSPropertyOp40
 70
     1
102
RTVSPropertyOp41
 70
     1
102
RTVSPropertyOp42
 70
     1
102
RTVSPropertyOp43
 70
     1
102
RTVSPropertyOp44
 70
     1
102
RTVSPropertyOp45
 70
     1
102
RTVSPropertyOp46
 70
     1
102
RTVSPropertyOp47
 70
     1
102
RTVSPropertyOp48
 70
     1
102
RTVSPropertyOp49
 70
     1
102
RTVSPropertyOp50
 70
     1
102
RTVSPropertyOp51
 70
     0
102
RTVSPropertyOp52
 70
     0
102
RTVSPropertyOp53
 70
     1
102
RTVSPropertyOp54
 70
     1
102
RTVSPropertyOp55
 70
     1
102
RTVSPropertyOp56
 70
     1
102
RTVSPropertyOp57
 70
     1
102
RTVSPropertyOp58
 70
     1
102
RTVSPropertyOp59
 70
     1
102
RTVSPropertyOp60
 70
     1
102
RTVSPropertyOp61
 70
     1
102
RTVSPropertyOp62
 70
     1
  0
XRECORD
  5
4B1
102
{ACAD_REACTORS
330
4B0
102
}
330
4B0
100
AcDbXrecord
280
     1
102
RTVSPost2010Prop28
280
     0
102
RTVSPost2010PropOp28
 70
     1
102
RTVSPost2010Prop29
280
     1
102
RTVSPost2010PropOp29
 70
     1
102
RTVSPost2010Prop30
280
     1
102
RTVSPost2010PropOp30
 70
     1
102
RTVSPost2010Prop31
280
     0
102
RTVSPost2010PropOp31
 70
     1
102
RTVSPost2010Prop32
280
     0
102
RTVSPost2010PropOp32
 70
     1
102
RTVSPost2010Prop33
280
     0
102
RTVSPost2010PropOp33
 70
     1
102
RTVSPost2010Prop34
280
     0
102
RTVSPost2010PropOp34
 70
     1
102
RTVSPost2010Prop35
280
     0
102
RTVSPost2010PropOp35
 70
     1
102
RTVSPost2010Prop36
280
     0
102
RTVSPost2010PropOp36
 70
     1
102
RTVSPost2010Prop37
 90
       50
102
RTVSPost2010PropOp37
 70
     1
102
RTVSPost2010Prop38
140
0.0
102
RTVSPost2010PropOp38
 70
     1
102
RTVSPost2010Prop39
140
1.0
102
RTVSPost2010PropOp39
 70
     1
102
RTVSPost2010Prop40
 90
        0
102
RTVSPost2010PropOp40
 70
     1
102
RTVSPost2010Prop41ColorIndex
 90
       18
102
RTVSPost2010Prop41ColorRGB
 90
        0
102
RTVSPost2010PropOp41
 70
     1
102
RTVSPost2010Prop42
 90
       50
102
RTVSPost2010PropOp42
 70
     1
102
RTVSPost2010Prop43
 90
        3
102
RTVSPost2010PropOp43
 70
     1
102
RTVSPost2010Prop44ColorIndex
 90
        5
102
RTVSPost2010Prop44ColorRGB
 90
      255
102
RTVSPost2010PropOp44
 70
     1
102
RTVSPost2010Prop45
280
     0
102
RTVSPost2010PropOp45
 70
     1
102
RTVSPost2010Prop46
 90
       50
102
RTVSPost2010PropOp46
 70
     1
102
RTVSPost2010Prop47
 90
       50
102
RTVSPost2010PropOp47
 70
     1
102
RTVSPost2010Prop48
 90
       50
102
RTVSPost2010PropOp48
 70
     1
102
RTVSPost2010Prop49
280
     0
102
RTVSPost2010PropOp49
 70
     1
102
RTVSPost2010Prop50
 90
       50
102
RTVSPost2010PropOp50
 70
     1
102
RTVSPost2010Prop51ColorIndex
 90
      256
102
RTVSPost2010Prop51ColorRGB
 90
-16777216
102
RTVSPost2010PropOp51
 70
     0
102
RTVSPost2010Prop52
140
1.0
102
RTVSPost2010PropOp52
 70
     0
102
RTVSPost2010Prop53
 90
        2
102
RTVSPost2010PropOp53
 70
     1
102
RTVSPost2010Prop54
  1
strokes_ogs.tif
102
RTVSPost2010PropOp54
 70
     1
102
RTVSPost2010Prop55
280
     0
102
RTVSPost2010PropOp55
 70
     1
102
RTVSPost2010Prop56
140
1.0
102
RTVSPost2010PropOp56
 70
     1
102
RTVSPost2010Prop57
140
1.0
102
RTVSPost2010PropOp57
 70
     1
102
RTVSPropertyOp0
 70
     1
102
RTVSPropertyOp1
 70
     1
102
RTVSPropertyOp2
 70
     1
102
RTVSPropertyOp3
 70
     1
102
RTVSPropertyOp4
 70
     1
102
RTVSPropertyOp5
 70
     1
102
RTVSPropertyOp6
 70
     1
102
RTVSPropertyOp7
 70
     1
102
RTVSPropertyOp8
 70
     1
102
RTVSPropertyOp9
 70
     1
102
RTVSPropertyOp10
 70
     1
102
RTVSPropertyOp11
 70
     1
102
RTVSPropertyOp12
 70
     1
102
RTVSPropertyOp13
 70
     1
102
RTVSPropertyOp14
 70
     1
102
RTVSPropertyOp15
 70
     1
102
RTVSPropertyOp16
 70
     1
102
RTVSPropertyOp17
 70
     1
102
RTVSPropertyOp18
 70
     1
102
RTVSPropertyOp19
 70
     1
102
RTVSPropertyOp20
 70
     1
102
RTVSPropertyOp21
 70
     1
102
RTVSPropertyOp22
 70
     1
102
RTVSPropertyOp23
 70
     1
102
RTVSPropertyOp24
 70
     1
102
RTVSPropertyOp25
 70
     1
102
RTVSPropertyOp26
 70
     1
102
RTVSPropertyOp27
 70
     1
102
RTVSPropertyOp28
 70
     1
102
RTVSPropertyOp29
 70
     1
102
RTVSPropertyOp30
 70
     1
102
RTVSPropertyOp31
 70
     1
102
RTVSPropertyOp32
 70
     1
102
RTVSPropertyOp33
 70
     1
102
RTVSPropertyOp34
 70
     1
102
RTVSPropertyOp35
 70
     1
102
RTVSPropertyOp36
 70
     1
102
RTVSPropertyOp37
 70
     1
102
RTVSPropertyOp38
 70
     1
102
RTVSPropertyOp39
 70
     1
102
RTVSPropertyOp40
 70
     1
102
RTVSPropertyOp41
 70
     1
102
RTVSPropertyOp42
 70
     1
102
RTVSPropertyOp43
 70
     1
102
RTVSPropertyOp44
 70
     1
102
RTVSPropertyOp45
 70
     1
102
RTVSPropertyOp46
 70
     1
102
RTVSPropertyOp47
 70
     1
102
RTVSPropertyOp48
 70
     1
102
RTVSPropertyOp49
 70
     1
102
RTVSPropertyOp50
 70
     1
102
RTVSPropertyOp51
 70
     0
102
RTVSPropertyOp52
 70
     0
102
RTVSPropertyOp53
 70
     1
102
RTVSPropertyOp54
 70
     1
102
RTVSPropertyOp55
 70
     1
102
RTVSPropertyOp56
 70
     1
102
RTVSPropertyOp57
 70
     1
102
RTVSPropertyOp58
 70
     1
102
RTVSPropertyOp59
 70
     1
102
RTVSPropertyOp60
 70
     1
102
RTVSPropertyOp61
 70
     1
102
RTVSPropertyOp62
 70
     1
  0
XRECORD
  5
4AF
102
{ACAD_REACTORS
330
4AE
102
}
330
4AE
100
AcDbXrecord
280
     1
102
RTVSPost2010Prop28
280
     0
102
RTVSPost2010PropOp28
 70
     1
102
RTVSPost2010Prop29
280
     1
102
RTVSPost2010PropOp29
 70
     1
102
RTVSPost2010Prop30
280
     1
102
RTVSPost2010PropOp30
 70
     1
102
RTVSPost2010Prop31
280
     0
102
RTVSPost2010PropOp31
 70
     1
102
RTVSPost2010Prop32
280
     0
102
RTVSPost2010PropOp32
 70
     1
102
RTVSPost2010Prop33
280
     0
102
RTVSPost2010PropOp33
 70
     1
102
RTVSPost2010Prop34
280
     0
102
RTVSPost2010PropOp34
 70
     1
102
RTVSPost2010Prop35
280
     0
102
RTVSPost2010PropOp35
 70
     1
102
RTVSPost2010Prop36
280
     0
102
RTVSPost2010PropOp36
 70
     1
102
RTVSPost2010Prop37
 90
       50
102
RTVSPost2010PropOp37
 70
     1
102
RTVSPost2010Prop38
140
0.0
102
RTVSPost2010PropOp38
 70
     1
102
RTVSPost2010Prop39
140
1.0
102
RTVSPost2010PropOp39
 70
     1
102
RTVSPost2010Prop40
 90
        0
102
RTVSPost2010PropOp40
 70
     1
102
RTVSPost2010Prop41ColorIndex
 90
       18
102
RTVSPost2010Prop41ColorRGB
 90
        0
102
RTVSPost2010PropOp41
 70
     1
102
RTVSPost2010Prop42
 90
       50
102
RTVSPost2010PropOp42
 70
     1
102
RTVSPost2010Prop43
 90
        3
102
RTVSPost2010PropOp43
 70
     1
102
RTVSPost2010Prop44ColorIndex
 90
        5
102
RTVSPost2010Prop44ColorRGB
 90
      255
102
RTVSPost2010PropOp44
 70
     1
102
RTVSPost2010Prop45
280
     0
102
RTVSPost2010PropOp45
 70
     1
102
RTVSPost2010Prop46
 90
       50
102
RTVSPost2010PropOp46
 70
     1
102
RTVSPost2010Prop47
 90
       50
102
RTVSPost2010PropOp47
 70
     1
102
RTVSPost2010Prop48
 90
       50
102
RTVSPost2010PropOp48
 70
     1
102
RTVSPost2010Prop49
280
     0
102
RTVSPost2010PropOp49
 70
     1
102
RTVSPost2010Prop50
 90
       50
102
RTVSPost2010PropOp50
 70
     1
102
RTVSPost2010Prop51ColorIndex
 90
      256
102
RTVSPost2010Prop51ColorRGB
 90
-16777216
102
RTVSPost2010PropOp51
 70
     0
102
RTVSPost2010Prop52
140
1.0
102
RTVSPost2010PropOp52
 70
     0
102
RTVSPost2010Prop53
 90
        2
102
RTVSPost2010PropOp53
 70
     1
102
RTVSPost2010Prop54
  1
strokes_ogs.tif
102
RTVSPost2010PropOp54
 70
     1
102
RTVSPost2010Prop55
280
     0
102
RTVSPost2010PropOp55
 70
     1
102
RTVSPost2010Prop56
140
1.0
102
RTVSPost2010PropOp56
 70
     1
102
RTVSPost2010Prop57
140
1.0
102
RTVSPost2010PropOp57
 70
     1
102
RTVSPropertyOp0
 70
     1
102
RTVSPropertyOp1
 70
     1
102
RTVSPropertyOp2
 70
     1
102
RTVSPropertyOp3
 70
     1
102
RTVSPropertyOp4
 70
     1
102
RTVSPropertyOp5
 70
     1
102
RTVSPropertyOp6
 70
     1
102
RTVSPropertyOp7
 70
     1
102
RTVSPropertyOp8
 70
     1
102
RTVSPropertyOp9
 70
     1
102
RTVSPropertyOp10
 70
     1
102
RTVSPropertyOp11
 70
     1
102
RTVSPropertyOp12
 70
     1
102
RTVSPropertyOp13
 70
     1
102
RTVSPropertyOp14
 70
     1
102
RTVSPropertyOp15
 70
     1
102
RTVSPropertyOp16
 70
     1
102
RTVSPropertyOp17
 70
     1
102
RTVSPropertyOp18
 70
     1
102
RTVSPropertyOp19
 70
     1
102
RTVSPropertyOp20
 70
     1
102
RTVSPropertyOp21
 70
     1
102
RTVSPropertyOp22
 70
     1
102
RTVSPropertyOp23
 70
     1
102
RTVSPropertyOp24
 70
     1
102
RTVSPropertyOp25
 70
     1
102
RTVSPropertyOp26
 70
     1
102
RTVSPropertyOp27
 70
     1
102
RTVSPropertyOp28
 70
     1
102
RTVSPropertyOp29
 70
     1
102
RTVSPropertyOp30
 70
     1
102
RTVSPropertyOp31
 70
     1
102
RTVSPropertyOp32
 70
     1
102
RTVSPropertyOp33
 70
     1
102
RTVSPropertyOp34
 70
     1
102
RTVSPropertyOp35
 70
     1
102
RTVSPropertyOp36
 70
     1
102
RTVSPropertyOp37
 70
     1
102
RTVSPropertyOp38
 70
     1
102
RTVSPropertyOp39
 70
     1
102
RTVSPropertyOp40
 70
     1
102
RTVSPropertyOp41
 70
     1
102
RTVSPropertyOp42
 70
     1
102
RTVSPropertyOp43
 70
     1
102
RTVSPropertyOp44
 70
     1
102
RTVSPropertyOp45
 70
     1
102
RTVSPropertyOp46
 70
     1
102
RTVSPropertyOp47
 70
     1
102
RTVSPropertyOp48
 70
     1
102
RTVSPropertyOp49
 70
     1
102
RTVSPropertyOp50
 70
     1
102
RTVSPropertyOp51
 70
     0
102
RTVSPropertyOp52
 70
     0
102
RTVSPropertyOp53
 70
     1
102
RTVSPropertyOp54
 70
     1
102
RTVSPropertyOp55
 70
     1
102
RTVSPropertyOp56
 70
     1
102
RTVSPropertyOp57
 70
     1
102
RTVSPropertyOp58
 70
     1
102
RTVSPropertyOp59
 70
     1
102
RTVSPropertyOp60
 70
     1
102
RTVSPropertyOp61
 70
     1
102
RTVSPropertyOp62
 70
     1
  0
XRECORD
  5
4A9
102
{ACAD_REACTORS
330
4A8
102
}
330
4A8
100
AcDbXrecord
280
     1
102
RTVSPost2010Prop28
280
     0
102
RTVSPost2010PropOp28
 70
     1
102
RTVSPost2010Prop29
280
     1
102
RTVSPost2010PropOp29
 70
     1
102
RTVSPost2010Prop30
280
     1
102
RTVSPost2010PropOp30
 70
     1
102
RTVSPost2010Prop31
280
     0
102
RTVSPost2010PropOp31
 70
     1
102
RTVSPost2010Prop32
280
     0
102
RTVSPost2010PropOp32
 70
     1
102
RTVSPost2010Prop33
280
     0
102
RTVSPost2010PropOp33
 70
     1
102
RTVSPost2010Prop34
280
     0
102
RTVSPost2010PropOp34
 70
     1
102
RTVSPost2010Prop35
280
     0
102
RTVSPost2010PropOp35
 70
     1
102
RTVSPost2010Prop36
280
     0
102
RTVSPost2010PropOp36
 70
     1
102
RTVSPost2010Prop37
 90
       50
102
RTVSPost2010PropOp37
 70
     1
102
RTVSPost2010Prop38
140
0.0
102
RTVSPost2010PropOp38
 70
     1
102
RTVSPost2010Prop39
140
1.0
102
RTVSPost2010PropOp39
 70
     1
102
RTVSPost2010Prop40
 90
        0
102
RTVSPost2010PropOp40
 70
     1
102
RTVSPost2010Prop41ColorIndex
 90
       18
102
RTVSPost2010Prop41ColorRGB
 90
        0
102
RTVSPost2010PropOp41
 70
     1
102
RTVSPost2010Prop42
 90
       50
102
RTVSPost2010PropOp42
 70
     1
102
RTVSPost2010Prop43
 90
        3
102
RTVSPost2010PropOp43
 70
     1
102
RTVSPost2010Prop44ColorIndex
 90
        5
102
RTVSPost2010Prop44ColorRGB
 90
      255
102
RTVSPost2010PropOp44
 70
     1
102
RTVSPost2010Prop45
280
     0
102
RTVSPost2010PropOp45
 70
     1
102
RTVSPost2010Prop46
 90
       50
102
RTVSPost2010PropOp46
 70
     1
102
RTVSPost2010Prop47
 90
       50
102
RTVSPost2010PropOp47
 70
     1
102
RTVSPost2010Prop48
 90
       50
102
RTVSPost2010PropOp48
 70
     1
102
RTVSPost2010Prop49
280
     0
102
RTVSPost2010PropOp49
 70
     1
102
RTVSPost2010Prop50
 90
       50
102
RTVSPost2010PropOp50
 70
     1
102
RTVSPost2010Prop51ColorIndex
 90
      256
102
RTVSPost2010Prop51ColorRGB
 90
-16777216
102
RTVSPost2010PropOp51
 70
     0
102
RTVSPost2010Prop52
140
1.0
102
RTVSPost2010PropOp52
 70
     0
102
RTVSPost2010Prop53
 90
        2
102
RTVSPost2010PropOp53
 70
     1
102
RTVSPost2010Prop54
  1
strokes_ogs.tif
102
RTVSPost2010PropOp54
 70
     1
102
RTVSPost2010Prop55
280
     0
102
RTVSPost2010PropOp55
 70
     1
102
RTVSPost2010Prop56
140
1.0
102
RTVSPost2010PropOp56
 70
     1
102
RTVSPost2010Prop57
140
1.0
102
RTVSPost2010PropOp57
 70
     1
102
RTVSPropertyOp0
 70
     1
102
RTVSPropertyOp1
 70
     1
102
RTVSPropertyOp2
 70
     1
102
RTVSPropertyOp3
 70
     1
102
RTVSPropertyOp4
 70
     1
102
RTVSPropertyOp5
 70
     1
102
RTVSPropertyOp6
 70
     1
102
RTVSPropertyOp7
 70
     1
102
RTVSPropertyOp8
 70
     1
102
RTVSPropertyOp9
 70
     1
102
RTVSPropertyOp10
 70
     1
102
RTVSPropertyOp11
 70
     1
102
RTVSPropertyOp12
 70
     1
102
RTVSPropertyOp13
 70
     1
102
RTVSPropertyOp14
 70
     1
102
RTVSPropertyOp15
 70
     1
102
RTVSPropertyOp16
 70
     1
102
RTVSPropertyOp17
 70
     1
102
RTVSPropertyOp18
 70
     1
102
RTVSPropertyOp19
 70
     1
102
RTVSPropertyOp20
 70
     1
102
RTVSPropertyOp21
 70
     1
102
RTVSPropertyOp22
 70
     1
102
RTVSPropertyOp23
 70
     1
102
RTVSPropertyOp24
 70
     1
102
RTVSPropertyOp25
 70
     1
102
RTVSPropertyOp26
 70
     1
102
RTVSPropertyOp27
 70
     1
102
RTVSPropertyOp28
 70
     1
102
RTVSPropertyOp29
 70
     1
102
RTVSPropertyOp30
 70
     1
102
RTVSPropertyOp31
 70
     1
102
RTVSPropertyOp32
 70
     1
102
RTVSPropertyOp33
 70
     1
102
RTVSPropertyOp34
 70
     1
102
RTVSPropertyOp35
 70
     1
102
RTVSPropertyOp36
 70
     1
102
RTVSPropertyOp37
 70
     1
102
RTVSPropertyOp38
 70
     1
102
RTVSPropertyOp39
 70
     1
102
RTVSPropertyOp40
 70
     1
102
RTVSPropertyOp41
 70
     1
102
RTVSPropertyOp42
 70
     1
102
RTVSPropertyOp43
 70
     1
102
RTVSPropertyOp44
 70
     1
102
RTVSPropertyOp45
 70
     1
102
RTVSPropertyOp46
 70
     1
102
RTVSPropertyOp47
 70
     1
102
RTVSPropertyOp48
 70
     1
102
RTVSPropertyOp49
 70
     1
102
RTVSPropertyOp50
 70
     1
102
RTVSPropertyOp51
 70
     0
102
RTVSPropertyOp52
 70
     0
102
RTVSPropertyOp53
 70
     1
102
RTVSPropertyOp54
 70
     1
102
RTVSPropertyOp55
 70
     1
102
RTVSPropertyOp56
 70
     1
102
RTVSPropertyOp57
 70
     1
102
RTVSPropertyOp58
 70
     1
102
RTVSPropertyOp59
 70
     1
102
RTVSPropertyOp60
 70
     1
102
RTVSPropertyOp61
 70
     1
102
RTVSPropertyOp62
 70
     1
  0
XRECORD
  5
4AB
102
{ACAD_REACTORS
330
4AA
102
}
330
4AA
100
AcDbXrecord
280
     1
102
RTVSPost2010Prop28
280
     0
102
RTVSPost2010PropOp28
 70
     1
102
RTVSPost2010Prop29
280
     1
102
RTVSPost2010PropOp29
 70
     1
102
RTVSPost2010Prop30
280
     1
102
RTVSPost2010PropOp30
 70
     1
102
RTVSPost2010Prop31
280
     0
102
RTVSPost2010PropOp31
 70
     1
102
RTVSPost2010Prop32
280
     0
102
RTVSPost2010PropOp32
 70
     1
102
RTVSPost2010Prop33
280
     0
102
RTVSPost2010PropOp33
 70
     1
102
RTVSPost2010Prop34
280
     0
102
RTVSPost2010PropOp34
 70
     1
102
RTVSPost2010Prop35
280
     0
102
RTVSPost2010PropOp35
 70
     1
102
RTVSPost2010Prop36
280
     0
102
RTVSPost2010PropOp36
 70
     1
102
RTVSPost2010Prop37
 90
       50
102
RTVSPost2010PropOp37
 70
     1
102
RTVSPost2010Prop38
140
0.0
102
RTVSPost2010PropOp38
 70
     1
102
RTVSPost2010Prop39
140
1.0
102
RTVSPost2010PropOp39
 70
     1
102
RTVSPost2010Prop40
 90
        0
102
RTVSPost2010PropOp40
 70
     1
102
RTVSPost2010Prop41ColorIndex
 90
       18
102
RTVSPost2010Prop41ColorRGB
 90
        0
102
RTVSPost2010PropOp41
 70
     1
102
RTVSPost2010Prop42
 90
       50
102
RTVSPost2010PropOp42
 70
     1
102
RTVSPost2010Prop43
 90
        3
102
RTVSPost2010PropOp43
 70
     1
102
RTVSPost2010Prop44ColorIndex
 90
        5
102
RTVSPost2010Prop44ColorRGB
 90
      255
102
RTVSPost2010PropOp44
 70
     1
102
RTVSPost2010Prop45
280
     0
102
RTVSPost2010PropOp45
 70
     1
102
RTVSPost2010Prop46
 90
       50
102
RTVSPost2010PropOp46
 70
     1
102
RTVSPost2010Prop47
 90
       50
102
RTVSPost2010PropOp47
 70
     1
102
RTVSPost2010Prop48
 90
       50
102
RTVSPost2010PropOp48
 70
     1
102
RTVSPost2010Prop49
280
     0
102
RTVSPost2010PropOp49
 70
     1
102
RTVSPost2010Prop50
 90
       50
102
RTVSPost2010PropOp50
 70
     1
102
RTVSPost2010Prop51ColorIndex
 90
      256
102
RTVSPost2010Prop51ColorRGB
 90
-16777216
102
RTVSPost2010PropOp51
 70
     0
102
RTVSPost2010Prop52
140
1.0
102
RTVSPost2010PropOp52
 70
     0
102
RTVSPost2010Prop53
 90
        2
102
RTVSPost2010PropOp53
 70
     1
102
RTVSPost2010Prop54
  1
strokes_ogs.tif
102
RTVSPost2010PropOp54
 70
     1
102
RTVSPost2010Prop55
280
     0
102
RTVSPost2010PropOp55
 70
     1
102
RTVSPost2010Prop56
140
1.0
102
RTVSPost2010PropOp56
 70
     1
102
RTVSPost2010Prop57
140
1.0
102
RTVSPost2010PropOp57
 70
     1
102
RTVSPropertyOp0
 70
     1
102
RTVSPropertyOp1
 70
     1
102
RTVSPropertyOp2
 70
     1
102
RTVSPropertyOp3
 70
     1
102
RTVSPropertyOp4
 70
     1
102
RTVSPropertyOp5
 70
     1
102
RTVSPropertyOp6
 70
     1
102
RTVSPropertyOp7
 70
     1
102
RTVSPropertyOp8
 70
     1
102
RTVSPropertyOp9
 70
     1
102
RTVSPropertyOp10
 70
     1
102
RTVSPropertyOp11
 70
     1
102
RTVSPropertyOp12
 70
     1
102
RTVSPropertyOp13
 70
     1
102
RTVSPropertyOp14
 70
     1
102
RTVSPropertyOp15
 70
     1
102
RTVSPropertyOp16
 70
     1
102
RTVSPropertyOp17
 70
     1
102
RTVSPropertyOp18
 70
     1
102
RTVSPropertyOp19
 70
     1
102
RTVSPropertyOp20
 70
     1
102
RTVSPropertyOp21
 70
     1
102
RTVSPropertyOp22
 70
     1
102
RTVSPropertyOp23
 70
     1
102
RTVSPropertyOp24
 70
     1
102
RTVSPropertyOp25
 70
     1
102
RTVSPropertyOp26
 70
     1
102
RTVSPropertyOp27
 70
     1
102
RTVSPropertyOp28
 70
     1
102
RTVSPropertyOp29
 70
     1
102
RTVSPropertyOp30
 70
     1
102
RTVSPropertyOp31
 70
     1
102
RTVSPropertyOp32
 70
     1
102
RTVSPropertyOp33
 70
     1
102
RTVSPropertyOp34
 70
     1
102
RTVSPropertyOp35
 70
     1
102
RTVSPropertyOp36
 70
     1
102
RTVSPropertyOp37
 70
     1
102
RTVSPropertyOp38
 70
     1
102
RTVSPropertyOp39
 70
     1
102
RTVSPropertyOp40
 70
     1
102
RTVSPropertyOp41
 70
     1
102
RTVSPropertyOp42
 70
     1
102
RTVSPropertyOp43
 70
     1
102
RTVSPropertyOp44
 70
     1
102
RTVSPropertyOp45
 70
     1
102
RTVSPropertyOp46
 70
     1
102
RTVSPropertyOp47
 70
     1
102
RTVSPropertyOp48
 70
     1
102
RTVSPropertyOp49
 70
     1
102
RTVSPropertyOp50
 70
     1
102
RTVSPropertyOp51
 70
     0
102
RTVSPropertyOp52
 70
     0
102
RTVSPropertyOp53
 70
     1
102
RTVSPropertyOp54
 70
     1
102
RTVSPropertyOp55
 70
     1
102
RTVSPropertyOp56
 70
     1
102
RTVSPropertyOp57
 70
     1
102
RTVSPropertyOp58
 70
     1
102
RTVSPropertyOp59
 70
     1
102
RTVSPropertyOp60
 70
     1
102
RTVSPropertyOp61
 70
     1
102
RTVSPropertyOp62
 70
     1
  0
XRECORD
  5
4A1
102
{ACAD_REACTORS
330
4A0
102
}
330
4A0
100
AcDbXrecord
280
     1
102
RTVSPost2010Prop28
280
     0
102
RTVSPost2010PropOp28
 70
     1
102
RTVSPost2010Prop29
280
     1
102
RTVSPost2010PropOp29
 70
     1
102
RTVSPost2010Prop30
280
     1
102
RTVSPost2010PropOp30
 70
     1
102
RTVSPost2010Prop31
280
     0
102
RTVSPost2010PropOp31
 70
     1
102
RTVSPost2010Prop32
280
     0
102
RTVSPost2010PropOp32
 70
     1
102
RTVSPost2010Prop33
280
     0
102
RTVSPost2010PropOp33
 70
     1
102
RTVSPost2010Prop34
280
     0
102
RTVSPost2010PropOp34
 70
     1
102
RTVSPost2010Prop35
280
     0
102
RTVSPost2010PropOp35
 70
     1
102
RTVSPost2010Prop36
280
     0
102
RTVSPost2010PropOp36
 70
     1
102
RTVSPost2010Prop37
 90
       50
102
RTVSPost2010PropOp37
 70
     1
102
RTVSPost2010Prop38
140
0.0
102
RTVSPost2010PropOp38
 70
     1
102
RTVSPost2010Prop39
140
1.0
102
RTVSPost2010PropOp39
 70
     1
102
RTVSPost2010Prop40
 90
        0
102
RTVSPost2010PropOp40
 70
     1
102
RTVSPost2010Prop41ColorIndex
 90
       18
102
RTVSPost2010Prop41ColorRGB
 90
        0
102
RTVSPost2010PropOp41
 70
     1
102
RTVSPost2010Prop42
 90
       50
102
RTVSPost2010PropOp42
 70
     1
102
RTVSPost2010Prop43
 90
        3
102
RTVSPost2010PropOp43
 70
     1
102
RTVSPost2010Prop44ColorIndex
 90
        5
102
RTVSPost2010Prop44ColorRGB
 90
      255
102
RTVSPost2010PropOp44
 70
     1
102
RTVSPost2010Prop45
280
     0
102
RTVSPost2010PropOp45
 70
     1
102
RTVSPost2010Prop46
 90
       50
102
RTVSPost2010PropOp46
 70
     1
102
RTVSPost2010Prop47
 90
       50
102
RTVSPost2010PropOp47
 70
     1
102
RTVSPost2010Prop48
 90
       50
102
RTVSPost2010PropOp48
 70
     1
102
RTVSPost2010Prop49
280
     0
102
RTVSPost2010PropOp49
 70
     1
102
RTVSPost2010Prop50
 90
       50
102
RTVSPost2010PropOp50
 70
     1
102
RTVSPost2010Prop51ColorIndex
 90
      256
102
RTVSPost2010Prop51ColorRGB
 90
-16777216
102
RTVSPost2010PropOp51
 70
     0
102
RTVSPost2010Prop52
140
1.0
102
RTVSPost2010PropOp52
 70
     0
102
RTVSPost2010Prop53
 90
        2
102
RTVSPost2010PropOp53
 70
     1
102
RTVSPost2010Prop54
  1
strokes_ogs.tif
102
RTVSPost2010PropOp54
 70
     1
102
RTVSPost2010Prop55
280
     0
102
RTVSPost2010PropOp55
 70
     1
102
RTVSPost2010Prop56
140
1.0
102
RTVSPost2010PropOp56
 70
     1
102
RTVSPost2010Prop57
140
1.0
102
RTVSPost2010PropOp57
 70
     1
102
RTVSPropertyOp0
 70
     1
102
RTVSPropertyOp1
 70
     1
102
RTVSPropertyOp2
 70
     1
102
RTVSPropertyOp3
 70
     1
102
RTVSPropertyOp4
 70
     1
102
RTVSPropertyOp5
 70
     1
102
RTVSPropertyOp6
 70
     1
102
RTVSPropertyOp7
 70
     1
102
RTVSPropertyOp8
 70
     1
102
RTVSPropertyOp9
 70
     1
102
RTVSPropertyOp10
 70
     1
102
RTVSPropertyOp11
 70
     1
102
RTVSPropertyOp12
 70
     1
102
RTVSPropertyOp13
 70
     1
102
RTVSPropertyOp14
 70
     1
102
RTVSPropertyOp15
 70
     1
102
RTVSPropertyOp16
 70
     1
102
RTVSPropertyOp17
 70
     1
102
RTVSPropertyOp18
 70
     1
102
RTVSPropertyOp19
 70
     1
102
RTVSPropertyOp20
 70
     1
102
RTVSPropertyOp21
 70
     1
102
RTVSPropertyOp22
 70
     1
102
RTVSPropertyOp23
 70
     1
102
RTVSPropertyOp24
 70
     1
102
RTVSPropertyOp25
 70
     1
102
RTVSPropertyOp26
 70
     1
102
RTVSPropertyOp27
 70
     1
102
RTVSPropertyOp28
 70
     1
102
RTVSPropertyOp29
 70
     1
102
RTVSPropertyOp30
 70
     1
102
RTVSPropertyOp31
 70
     1
102
RTVSPropertyOp32
 70
     1
102
RTVSPropertyOp33
 70
     1
102
RTVSPropertyOp34
 70
     1
102
RTVSPropertyOp35
 70
     1
102
RTVSPropertyOp36
 70
     1
102
RTVSPropertyOp37
 70
     1
102
RTVSPropertyOp38
 70
     1
102
RTVSPropertyOp39
 70
     1
102
RTVSPropertyOp40
 70
     1
102
RTVSPropertyOp41
 70
     1
102
RTVSPropertyOp42
 70
     1
102
RTVSPropertyOp43
 70
     1
102
RTVSPropertyOp44
 70
     1
102
RTVSPropertyOp45
 70
     1
102
RTVSPropertyOp46
 70
     1
102
RTVSPropertyOp47
 70
     1
102
RTVSPropertyOp48
 70
     1
102
RTVSPropertyOp49
 70
     1
102
RTVSPropertyOp50
 70
     1
102
RTVSPropertyOp51
 70
     0
102
RTVSPropertyOp52
 70
     0
102
RTVSPropertyOp53
 70
     1
102
RTVSPropertyOp54
 70
     1
102
RTVSPropertyOp55
 70
     1
102
RTVSPropertyOp56
 70
     1
102
RTVSPropertyOp57
 70
     1
102
RTVSPropertyOp58
 70
     1
102
RTVSPropertyOp59
 70
     1
102
RTVSPropertyOp60
 70
     1
102
RTVSPropertyOp61
 70
     1
102
RTVSPropertyOp62
 70
     1
  0
XRECORD
  5
495
102
{ACAD_REACTORS
330
494
102
}
330
494
100
AcDbXrecord
280
     1
102
RTVSPost2010Prop28
280
     0
102
RTVSPost2010PropOp28
 70
     1
102
RTVSPost2010Prop29
280
     1
102
RTVSPost2010PropOp29
 70
     1
102
RTVSPost2010Prop30
280
     1
102
RTVSPost2010PropOp30
 70
     1
102
RTVSPost2010Prop31
280
     0
102
RTVSPost2010PropOp31
 70
     1
102
RTVSPost2010Prop32
280
     0
102
RTVSPost2010PropOp32
 70
     1
102
RTVSPost2010Prop33
280
     0
102
RTVSPost2010PropOp33
 70
     1
102
RTVSPost2010Prop34
280
     0
102
RTVSPost2010PropOp34
 70
     1
102
RTVSPost2010Prop35
280
     0
102
RTVSPost2010PropOp35
 70
     1
102
RTVSPost2010Prop36
280
     0
102
RTVSPost2010PropOp36
 70
     1
102
RTVSPost2010Prop37
 90
       50
102
RTVSPost2010PropOp37
 70
     1
102
RTVSPost2010Prop38
140
0.0
102
RTVSPost2010PropOp38
 70
     1
102
RTVSPost2010Prop39
140
1.0
102
RTVSPost2010PropOp39
 70
     1
102
RTVSPost2010Prop40
 90
        0
102
RTVSPost2010PropOp40
 70
     1
102
RTVSPost2010Prop41ColorIndex
 90
       18
102
RTVSPost2010Prop41ColorRGB
 90
        0
102
RTVSPost2010PropOp41
 70
     1
102
RTVSPost2010Prop42
 90
       50
102
RTVSPost2010PropOp42
 70
     1
102
RTVSPost2010Prop43
 90
        3
102
RTVSPost2010PropOp43
 70
     1
102
RTVSPost2010Prop44ColorIndex
 90
        5
102
RTVSPost2010Prop44ColorRGB
 90
      255
102
RTVSPost2010PropOp44
 70
     1
102
RTVSPost2010Prop45
280
     0
102
RTVSPost2010PropOp45
 70
     1
102
RTVSPost2010Prop46
 90
       50
102
RTVSPost2010PropOp46
 70
     1
102
RTVSPost2010Prop47
 90
       50
102
RTVSPost2010PropOp47
 70
     1
102
RTVSPost2010Prop48
 90
       50
102
RTVSPost2010PropOp48
 70
     1
102
RTVSPost2010Prop49
280
     0
102
RTVSPost2010PropOp49
 70
     1
102
RTVSPost2010Prop50
 90
       50
102
RTVSPost2010PropOp50
 70
     1
102
RTVSPost2010Prop51ColorIndex
 90
      256
102
RTVSPost2010Prop51ColorRGB
 90
-16777216
102
RTVSPost2010PropOp51
 70
     0
102
RTVSPost2010Prop52
140
1.0
102
RTVSPost2010PropOp52
 70
     0
102
RTVSPost2010Prop53
 90
        2
102
RTVSPost2010PropOp53
 70
     1
102
RTVSPost2010Prop54
  1
strokes_ogs.tif
102
RTVSPost2010PropOp54
 70
     1
102
RTVSPost2010Prop55
280
     0
102
RTVSPost2010PropOp55
 70
     1
102
RTVSPost2010Prop56
140
1.0
102
RTVSPost2010PropOp56
 70
     1
102
RTVSPost2010Prop57
140
1.0
102
RTVSPost2010PropOp57
 70
     1
102
RTVSPropertyOp0
 70
     1
102
RTVSPropertyOp1
 70
     1
102
RTVSPropertyOp2
 70
     1
102
RTVSPropertyOp3
 70
     1
102
RTVSPropertyOp4
 70
     1
102
RTVSPropertyOp5
 70
     1
102
RTVSPropertyOp6
 70
     1
102
RTVSPropertyOp7
 70
     1
102
RTVSPropertyOp8
 70
     1
102
RTVSPropertyOp9
 70
     1
102
RTVSPropertyOp10
 70
     1
102
RTVSPropertyOp11
 70
     1
102
RTVSPropertyOp12
 70
     1
102
RTVSPropertyOp13
 70
     1
102
RTVSPropertyOp14
 70
     1
102
RTVSPropertyOp15
 70
     1
102
RTVSPropertyOp16
 70
     1
102
RTVSPropertyOp17
 70
     1
102
RTVSPropertyOp18
 70
     1
102
RTVSPropertyOp19
 70
     1
102
RTVSPropertyOp20
 70
     1
102
RTVSPropertyOp21
 70
     1
102
RTVSPropertyOp22
 70
     1
102
RTVSPropertyOp23
 70
     1
102
RTVSPropertyOp24
 70
     1
102
RTVSPropertyOp25
 70
     1
102
RTVSPropertyOp26
 70
     1
102
RTVSPropertyOp27
 70
     1
102
RTVSPropertyOp28
 70
     1
102
RTVSPropertyOp29
 70
     1
102
RTVSPropertyOp30
 70
     1
102
RTVSPropertyOp31
 70
     1
102
RTVSPropertyOp32
 70
     1
102
RTVSPropertyOp33
 70
     1
102
RTVSPropertyOp34
 70
     1
102
RTVSPropertyOp35
 70
     1
102
RTVSPropertyOp36
 70
     1
102
RTVSPropertyOp37
 70
     1
102
RTVSPropertyOp38
 70
     1
102
RTVSPropertyOp39
 70
     1
102
RTVSPropertyOp40
 70
     1
102
RTVSPropertyOp41
 70
     1
102
RTVSPropertyOp42
 70
     1
102
RTVSPropertyOp43
 70
     1
102
RTVSPropertyOp44
 70
     1
102
RTVSPropertyOp45
 70
     1
102
RTVSPropertyOp46
 70
     1
102
RTVSPropertyOp47
 70
     1
102
RTVSPropertyOp48
 70
     1
102
RTVSPropertyOp49
 70
     1
102
RTVSPropertyOp50
 70
     1
102
RTVSPropertyOp51
 70
     0
102
RTVSPropertyOp52
 70
     0
102
RTVSPropertyOp53
 70
     1
102
RTVSPropertyOp54
 70
     1
102
RTVSPropertyOp55
 70
     1
102
RTVSPropertyOp56
 70
     1
102
RTVSPropertyOp57
 70
     1
102
RTVSPropertyOp58
 70
     1
102
RTVSPropertyOp59
 70
     1
102
RTVSPropertyOp60
 70
     1
102
RTVSPropertyOp61
 70
     1
102
RTVSPropertyOp62
 70
     1
  0
XRECORD
  5
4AD
102
{ACAD_REACTORS
330
4AC
102
}
330
4AC
100
AcDbXrecord
280
     1
102
RTVSPost2010Prop28
280
     0
102
RTVSPost2010PropOp28
 70
     1
102
RTVSPost2010Prop29
280
     1
102
RTVSPost2010PropOp29
 70
     1
102
RTVSPost2010Prop30
280
     1
102
RTVSPost2010PropOp30
 70
     1
102
RTVSPost2010Prop31
280
     0
102
RTVSPost2010PropOp31
 70
     1
102
RTVSPost2010Prop32
280
     0
102
RTVSPost2010PropOp32
 70
     1
102
RTVSPost2010Prop33
280
     0
102
RTVSPost2010PropOp33
 70
     1
102
RTVSPost2010Prop34
280
     0
102
RTVSPost2010PropOp34
 70
     1
102
RTVSPost2010Prop35
280
     0
102
RTVSPost2010PropOp35
 70
     1
102
RTVSPost2010Prop36
280
     0
102
RTVSPost2010PropOp36
 70
     1
102
RTVSPost2010Prop37
 90
       50
102
RTVSPost2010PropOp37
 70
     1
102
RTVSPost2010Prop38
140
0.0
102
RTVSPost2010PropOp38
 70
     1
102
RTVSPost2010Prop39
140
1.0
102
RTVSPost2010PropOp39
 70
     1
102
RTVSPost2010Prop40
 90
        0
102
RTVSPost2010PropOp40
 70
     1
102
RTVSPost2010Prop41ColorIndex
 90
       18
102
RTVSPost2010Prop41ColorRGB
 90
        0
102
RTVSPost2010PropOp41
 70
     1
102
RTVSPost2010Prop42
 90
       50
102
RTVSPost2010PropOp42
 70
     1
102
RTVSPost2010Prop43
 90
        3
102
RTVSPost2010PropOp43
 70
     1
102
RTVSPost2010Prop44ColorIndex
 90
        5
102
RTVSPost2010Prop44ColorRGB
 90
      255
102
RTVSPost2010PropOp44
 70
     1
102
RTVSPost2010Prop45
280
     0
102
RTVSPost2010PropOp45
 70
     1
102
RTVSPost2010Prop46
 90
       50
102
RTVSPost2010PropOp46
 70
     1
102
RTVSPost2010Prop47
 90
       50
102
RTVSPost2010PropOp47
 70
     1
102
RTVSPost2010Prop48
 90
       50
102
RTVSPost2010PropOp48
 70
     1
102
RTVSPost2010Prop49
280
     0
102
RTVSPost2010PropOp49
 70
     1
102
RTVSPost2010Prop50
 90
       50
102
RTVSPost2010PropOp50
 70
     1
102
RTVSPost2010Prop51ColorIndex
 90
      256
102
RTVSPost2010Prop51ColorRGB
 90
-16777216
102
RTVSPost2010PropOp51
 70
     0
102
RTVSPost2010Prop52
140
1.0
102
RTVSPost2010PropOp52
 70
     0
102
RTVSPost2010Prop53
 90
        2
102
RTVSPost2010PropOp53
 70
     1
102
RTVSPost2010Prop54
  1
strokes_ogs.tif
102
RTVSPost2010PropOp54
 70
     1
102
RTVSPost2010Prop55
280
     0
102
RTVSPost2010PropOp55
 70
     1
102
RTVSPost2010Prop56
140
1.0
102
RTVSPost2010PropOp56
 70
     1
102
RTVSPost2010Prop57
140
1.0
102
RTVSPost2010PropOp57
 70
     1
102
RTVSPropertyOp0
 70
     1
102
RTVSPropertyOp1
 70
     1
102
RTVSPropertyOp2
 70
     1
102
RTVSPropertyOp3
 70
     1
102
RTVSPropertyOp4
 70
     1
102
RTVSPropertyOp5
 70
     1
102
RTVSPropertyOp6
 70
     1
102
RTVSPropertyOp7
 70
     1
102
RTVSPropertyOp8
 70
     1
102
RTVSPropertyOp9
 70
     1
102
RTVSPropertyOp10
 70
     1
102
RTVSPropertyOp11
 70
     1
102
RTVSPropertyOp12
 70
     1
102
RTVSPropertyOp13
 70
     1
102
RTVSPropertyOp14
 70
     1
102
RTVSPropertyOp15
 70
     1
102
RTVSPropertyOp16
 70
     1
102
RTVSPropertyOp17
 70
     1
102
RTVSPropertyOp18
 70
     1
102
RTVSPropertyOp19
 70
     1
102
RTVSPropertyOp20
 70
     1
102
RTVSPropertyOp21
 70
     1
102
RTVSPropertyOp22
 70
     1
102
RTVSPropertyOp23
 70
     1
102
RTVSPropertyOp24
 70
     1
102
RTVSPropertyOp25
 70
     1
102
RTVSPropertyOp26
 70
     1
102
RTVSPropertyOp27
 70
     1
102
RTVSPropertyOp28
 70
     1
102
RTVSPropertyOp29
 70
     1
102
RTVSPropertyOp30
 70
     1
102
RTVSPropertyOp31
 70
     1
102
RTVSPropertyOp32
 70
     1
102
RTVSPropertyOp33
 70
     1
102
RTVSPropertyOp34
 70
     1
102
RTVSPropertyOp35
 70
     1
102
RTVSPropertyOp36
 70
     1
102
RTVSPropertyOp37
 70
     1
102
RTVSPropertyOp38
 70
     1
102
RTVSPropertyOp39
 70
     1
102
RTVSPropertyOp40
 70
     1
102
RTVSPropertyOp41
 70
     1
102
RTVSPropertyOp42
 70
     1
102
RTVSPropertyOp43
 70
     1
102
RTVSPropertyOp44
 70
     1
102
RTVSPropertyOp45
 70
     1
102
RTVSPropertyOp46
 70
     1
102
RTVSPropertyOp47
 70
     1
102
RTVSPropertyOp48
 70
     1
102
RTVSPropertyOp49
 70
     1
102
RTVSPropertyOp50
 70
     1
102
RTVSPropertyOp51
 70
     0
102
RTVSPropertyOp52
 70
     0
102
RTVSPropertyOp53
 70
     1
102
RTVSPropertyOp54
 70
     1
102
RTVSPropertyOp55
 70
     1
102
RTVSPropertyOp56
 70
     1
102
RTVSPropertyOp57
 70
     1
102
RTVSPropertyOp58
 70
     1
102
RTVSPropertyOp59
 70
     1
102
RTVSPropertyOp60
 70
     1
102
RTVSPropertyOp61
 70
     1
102
RTVSPropertyOp62
 70
     1
  0
ENDSEC
  0
EOF
