  0
SECTION
  2
HEADER
  9
$ACADVER
  1
AC1015
  9
$ACADMAINTVER
 70
    20
  9
$DWGCODEPAGE
  3
ANSI_932
  9
$INSBASE
 10
0.0
 20
0.0
 30
0.0
  9
$EXTMIN
 10
-0.1281640493871237
 20
-0.0906302920675444
 30
-0.0015258207003583
  9
$EXTMAX
 10
4200.128183607161
 20
2970.090644122207
 30
0.0000000349246037
  9
$LIMMIN
 10
0.0
 20
0.0
  9
$LIMMAX
 10
12.0
 20
9.0
  9
$ORTHOMODE
 70
     0
  9
$REGENMODE
 70
     1
  9
$FILLMODE
 70
     1
  9
$QTEXTMODE
 70
     0
  9
$MIRRTEXT
 70
     0
  9
$LTSCALE
 40
10.0
  9
$ATTMODE
 70
     1
  9
$TEXTSIZE
 40
0.0
  9
$TRACEWID
 40
0.05
  9
$TEXTSTYLE
  7
STANDARD
  9
$CLAYER
  8
0
  9
$CELTYPE
  6
CONTINUOUS
  9
$CECOLOR
 62
   256
  9
$CELTSCALE
 40
1.0
  9
$DISPSILH
 70
     0
  9
$DIMSCALE
 40
1.0
  9
$DIMASZ
 40
0.18
  9
$DIMEXO
 40
0.0625
  9
$DIMDLI
 40
0.38
  9
$DIMRND
 40
0.0
  9
$DIMDLE
 40
0.0
  9
$DIMEXE
 40
0.18
  9
$DIMTP
 40
0.0
  9
$DIMTM
 40
0.0
  9
$DIMTXT
 40
0.18
  9
$DIMCEN
 40
0.09
  9
$DIMTSZ
 40
0.0
  9
$DIMTOL
 70
     0
  9
$DIMLIM
 70
     0
  9
$DIMTIH
 70
     1
  9
$DIMTOH
 70
     1
  9
$DIMSE1
 70
     0
  9
$DIMSE2
 70
     0
  9
$DIMTAD
 70
     0
  9
$DIMZIN
 70
     0
  9
$DIMBLK
  1

  9
$DIMASO
 70
     1
  9
$DIMSHO
 70
     1
  9
$DIMPOST
  1

  9
$DIMAPOST
  1

  9
$DIMALT
 70
     0
  9
$DIMALTD
 70
     2
  9
$DIMALTF
 40
25.4
  9
$DIMLFAC
 40
1.0
  9
$DIMTOFL
 70
     0
  9
$DIMTVP
 40
0.0
  9
$DIMTIX
 70
     0
  9
$DIMSOXD
 70
     0
  9
$DIMSAH
 70
     0
  9
$DIMBLK1
  1

  9
$DIMBLK2
  1

  9
$DIMSTYLE
  2
Standard
  9
$DIMCLRD
 70
     0
  9
$DIMCLRE
 70
     0
  9
$DIMCLRT
 70
     0
  9
$DIMTFAC
 40
1.0
  9
$DIMGAP
 40
0.09
  9
$DIMJUST
 70
     0
  9
$DIMSD1
 70
     0
  9
$DIMSD2
 70
     0
  9
$DIMTOLJ
 70
     1
  9
$DIMTZIN
 70
     0
  9
$DIMALTZ
 70
     0
  9
$DIMALTTZ
 70
     0
  9
$DIMUPT
 70
     0
  9
$DIMDEC
 70
     4
  9
$DIMTDEC
 70
     4
  9
$DIMALTU
 70
     2
  9
$DIMALTTD
 70
     2
  9
$DIMTXSTY
  7
STANDARD
  9
$DIMAUNIT
 70
     0
  9
$DIMADEC
 70
     0
  9
$DIMALTRND
 40
0.0
  9
$DIMAZIN
 70
     0
  9
$DIMDSEP
 70
    46
  9
$DIMATFIT
 70
     3
  9
$DIMFRAC
 70
     0
  9
$DIMLDRBLK
  1

  9
$DIMLUNIT
 70
     2
  9
$DIMLWD
 70
    -2
  9
$DIMLWE
 70
    -2
  9
$DIMTMOVE
 70
     0
  9
$LUNITS
 70
     2
  9
$LUPREC
 70
     4
  9
$SKETCHINC
 40
0.1
  9
$FILLETRAD
 40
0.0
  9
$AUNITS
 70
     0
  9
$AUPREC
 70
     0
  9
$MENU
  1
.
  9
$ELEVATION
 40
0.0
  9
$PELEVATION
 40
0.0
  9
$THICKNESS
 40
0.0
  9
$LIMCHECK
 70
     0
  9
$CHAMFERA
 40
0.0
  9
$CHAMFERB
 40
0.0
  9
$CHAMFERC
 40
0.0
  9
$CHAMFERD
 40
0.0
  9
$SKPOLY
 70
     0
  9
$TDCREATE
 40
2459647.762187500
  9
$TDUCREATE
 40
2459647.387187500
  9
$TDUPDATE
 40
2459647.762418982
  9
$TDUUPDATE
 40
2459647.387418982
  9
$TDINDWG
 40
0.0002314815
  9
$TDUSRTIMER
 40
0.0002314815
  9
$USRTIMER
 70
     1
  9
$ANGBASE
 50
0.0
  9
$ANGDIR
 70
     0
  9
$PDMODE
 70
     0
  9
$PDSIZE
 40
5.0
  9
$PLINEWID
 40
0.0
  9
$SPLFRAME
 70
     0
  9
$SPLINETYPE
 70
     6
  9
$SPLINESEGS
 70
     8
  9
$HANDSEED
  5
54E
  9
$SURFTAB1
 70
     6
  9
$SURFTAB2
 70
     6
  9
$SURFTYPE
 70
     6
  9
$SURFU
 70
     6
  9
$SURFV
 70
     6
  9
$UCSBASE
  2

  9
$UCSNAME
  2

  9
$UCSORG
 10
0.0
 20
0.0
 30
0.0
  9
$UCSXDIR
 10
1.0
 20
0.0
 30
0.0
  9
$UCSYDIR
 10
0.0
 20
1.0
 30
0.0
  9
$UCSORTHOREF
  2

  9
$UCSORTHOVIEW
 70
     0
  9
$UCSORGTOP
 10
0.0
 20
0.0
 30
0.0
  9
$UCSORGBOTTOM
 10
0.0
 20
0.0
 30
0.0
  9
$UCSORGLEFT
 10
0.0
 20
0.0
 30
0.0
  9
$UCSORGRIGHT
 10
0.0
 20
0.0
 30
0.0
  9
$UCSORGFRONT
 10
0.0
 20
0.0
 30
0.0
  9
$UCSORGBACK
 10
0.0
 20
0.0
 30
0.0
  9
$PUCSBASE
  2

  9
$PUCSNAME
  2

  9
$PUCSORG
 10
0.0
 20
0.0
 30
0.0
  9
$PUCSXDIR
 10
1.0
 20
0.0
 30
0.0
  9
$PUCSYDIR
 10
0.0
 20
1.0
 30
0.0
  9
$PUCSORTHOREF
  2

  9
$PUCSORTHOVIEW
 70
     0
  9
$PUCSORGTOP
 10
0.0
 20
0.0
 30
0.0
  9
$PUCSORGBOTTOM
 10
0.0
 20
0.0
 30
0.0
  9
$PUCSORGLEFT
 10
0.0
 20
0.0
 30
0.0
  9
$PUCSORGRIGHT
 10
0.0
 20
0.0
 30
0.0
  9
$PUCSORGFRONT
 10
0.0
 20
0.0
 30
0.0
  9
$PUCSORGBACK
 10
0.0
 20
0.0
 30
0.0
  9
$USERI1
 70
     0
  9
$USERI2
 70
     0
  9
$USERI3
 70
     0
  9
$USERI4
 70
     0
  9
$USERI5
 70
     0
  9
$USERR1
 40
0.0
  9
$USERR2
 40
0.0
  9
$USERR3
 40
0.0
  9
$USERR4
 40
0.0
  9
$USERR5
 40
0.0
  9
$WORLDVIEW
 70
     1
  9
$SHADEDGE
 70
     3
  9
$SHADEDIF
 70
    70
  9
$TILEMODE
 70
     1
  9
$MAXACTVP
 70
    64
  9
$PINSBASE
 10
0.0
 20
0.0
 30
0.0
  9
$PLIMCHECK
 70
     0
  9
$PEXTMIN
 10
1.000000000000000E+20
 20
1.000000000000000E+20
 30
1.000000000000000E+20
  9
$PEXTMAX
 10
-1.000000000000000E+20
 20
-1.000000000000000E+20
 30
-1.000000000000000E+20
  9
$PLIMMIN
 10
0.0
 20
0.0
  9
$PLIMMAX
 10
12.0
 20
9.0
  9
$UNITMODE
 70
     0
  9
$VISRETAIN
 70
     1
  9
$PLINEGEN
 70
     0
  9
$PSLTSCALE
 70
     1
  9
$TREEDEPTH
 70
  3020
  9
$CMLSTYLE
  2
Standard
  9
$CMLJUST
 70
     0
  9
$CMLSCALE
 40
1.0
  9
$PROXYGRAPHICS
 70
     1
  9
$MEASUREMENT
 70
     0
  9
$CELWEIGHT
370
    -1
  9
$ENDCAPS
280
     0
  9
$JOINSTYLE
280
     0
  9
$LWDISPLAY
290
     0
  9
$INSUNITS
 70
     0
  9
$HYPERLINKBASE
  1

  9
$STYLESHEET
  1

  9
$XEDIT
290
     1
  9
$CEPSNTYPE
380
     0
  9
$PSTYLEMODE
290
     1
  9
$FINGERPRINTGUID
  2
{10981BD0-F2CA-3143-8FD6-E03DAD8ABA90}
  9
$VERSIONGUID
  2
{966030EF-93C5-A847-B4BA-CC4D6D9EC029}
  9
$EXTNAMES
290
     1
  9
$PSVPSCALE
 40
0.0
  9
$OLESTARTUP
290
     0
  0
ENDSEC
  0
SECTION
  2
CLASSES
  0
CLASS
  1
ACDBDICTIONARYWDFLT
  2
AcDbDictionaryWithDefault
  3
ObjectDBX Classes
 90
        0
280
     0
281
     0
  0
CLASS
  1
MATERIAL
  2
AcDbMaterial
  3
ObjectDBX Classes
 90
     1153
280
     0
281
     0
  0
CLASS
  1
VISUALSTYLE
  2
AcDbVisualStyle
  3
ObjectDBX Classes
 90
     4095
280
     0
281
     0
  0
CLASS
  1
SCALE
  2
AcDbScale
  3
ObjectDBX Classes
 90
     1153
280
     0
281
     0
  0
CLASS
  1
TABLESTYLE
  2
AcDbTableStyle
  3
ObjectDBX Classes
 90
     4095
280
     0
281
     0
  0
CLASS
  1
MLEADERSTYLE
  2
AcDbMLeaderStyle
  3
ACDB_MLEADERSTYLE_CLASS
 90
     4095
280
     0
281
     0
  0
CLASS
  1
ACDBSECTIONVIEWSTYLE
  2
AcDbSectionViewStyle
  3
ObjectDBX Classes
 90
     1025
280
     0
281
     0
  0
CLASS
  1
ACDBDETAILVIEWSTYLE
  2
AcDbDetailViewStyle
  3
ObjectDBX Classes
 90
     1025
280
     0
281
     0
  0
CLASS
  1
DICTIONARYVAR
  2
AcDbDictionaryVar
  3
ObjectDBX Classes
 90
        0
280
     0
281
     0
  0
CLASS
  1
CELLSTYLEMAP
  2
AcDbCellStyleMap
  3
ObjectDBX Classes
 90
     1152
280
     0
281
     0
  0
CLASS
  1
ACDBPLACEHOLDER
  2
AcDbPlaceHolder
  3
ObjectDBX Classes
 90
        0
280
     0
281
     0
  0
CLASS
  1
LAYOUT
  2
AcDbLayout
  3
ObjectDBX Classes
 90
        0
280
     0
281
     0
  0
ENDSEC
  0
SECTION
  2
TABLES
  0
TABLE
  2
VPORT
  5
8
330
0
100
AcDbSymbolTable
 70
     1
  0
VPORT
  5
8D
330
8
100
AcDbSymbolTableRecord
100
AcDbViewportTableRecord
  2
*Active
 70
     0
 10
0.0
 20
0.0
 11
1.0
 21
1.0
 12
2100.000009778887
 22
1485.00000691507
 13
0.0
 23
0.0
 14
1.0
 24
1.0
 15
0.0
 25
0.0
 16
0.0
 26
0.0
 36
1.0
 17
0.0
 27
0.0
 37
0.0
 40
2991.6524643498
 41
2.285886610373944
 42
50.0
 43
0.0
 44
0.0
 50
0.0
 51
0.0
 71
     0
 72
   100
 73
     1
 74
     0
 75
     1
 76
     0
 77
     0
 78
     0
281
     0
 65
     1
110
0.0
120
0.0
130
0.0
111
1.0
121
0.0
131
0.0
112
0.0
122
1.0
132
0.0
 79
     0
146
0.0
1001
ACAD_NAV_VCDISPLAY
1070
     3
  0
ENDTAB
  0
TABLE
  2
LTYPE
  5
5
330
0
100
AcDbSymbolTable
 70
     9
  0
LTYPE
  5
5A
330
5
100
AcDbSymbolTableRecord
100
AcDbLinetypeTableRecord
  2
ByBlock
 70
     0
  3

 72
    65
 73
     0
 40
0.0
  0
LTYPE
  5
5B
330
5
100
AcDbSymbolTableRecord
100
AcDbLinetypeTableRecord
  2
ByLayer
 70
     0
  3

 72
    65
 73
     0
 40
0.0
  0
LTYPE
  5
5C
330
5
100
AcDbSymbolTableRecord
100
AcDbLinetypeTableRecord
  2
CONTINUOUS
 70
     0
  3
SolidLine
 72
    65
 73
     0
 40
0.0
  0
LTYPE
  5
73
330
5
100
AcDbSymbolTableRecord
100
AcDbLinetypeTableRecord
  2
DOT
 70
     0
  3
--  --  --  --  --  --  --  --     
 72
    65
 73
     2
 40
3.0
 49
1.0
 74
     0
 49
-2.0
 74
     0
  0
LTYPE
  5
74
330
5
100
AcDbSymbolTableRecord
100
AcDbLinetypeTableRecord
  2
DASHED
 70
     0
  3
----    ----    ----    ----    
 72
    65
 73
     2
 40
5.0
 49
2.0
 74
     0
 49
-3.0
 74
     0
  0
LTYPE
  5
75
330
5
100
AcDbSymbolTableRecord
100
AcDbLinetypeTableRecord
  2
DASHED2
 70
     0
  3
------  ------  ------  ------ 
 72
    65
 73
     2
 40
10.0
 49
4.0
 74
     0
 49
-6.0
 74
     0
  0
LTYPE
  5
76
330
5
100
AcDbSymbolTableRecord
100
AcDbLinetypeTableRecord
  2
CENTER
 70
     0
  3
----- - ----- - ----- - ----- - 
 72
    65
 73
     4
 40
10.0
 49
6.0
 74
     0
 49
-3.0
 74
     0
 49
1.0
 74
     0
 49
-3.0
 74
     0
  0
LTYPE
  5
77
330
5
100
AcDbSymbolTableRecord
100
AcDbLinetypeTableRecord
  2
CENTER2
 70
     0
  3
----------  --  ----------  -- 
 72
    65
 73
     4
 40
17.0
 49
12.0
 74
     0
 49
-5.0
 74
     0
 49
2.0
 74
     0
 49
-5.0
 74
     0
  0
LTYPE
  5
78
330
5
100
AcDbSymbolTableRecord
100
AcDbLinetypeTableRecord
  2
PHANTOM
 70
     0
  3
--- - - --- - - --- - - --- - -
 72
    65
 73
     6
 40
13.0
 49
5.0
 74
     0
 49
-3.0
 74
     0
 49
1.0
 74
     0
 49
-3.0
 74
     0
 49
1.0
 74
     0
 49
-3.0
 74
     0
  0
LTYPE
  5
79
330
5
100
AcDbSymbolTableRecord
100
AcDbLinetypeTableRecord
  2
PHANTOM2
 70
     0
  3
--------  -  -  --------  -  -
 72
    65
 73
     6
 40
20.0
 49
6.0
 74
     0
 49
-5.0
 74
     0
 49
2.0
 74
     0
 49
-5.0
 74
     0
 49
2.0
 74
     0
 49
-5.0
 74
     0
  0
LTYPE
  5
7A
330
5
100
AcDbSymbolTableRecord
100
AcDbLinetypeTableRecord
  2
HIDDEN
 70
     0
  3
-   -   -   -   -   -   -   -   
 72
    65
 73
     2
 40
3.0
 49
0.5
 74
     0
 49
-2.5
 74
     0
  0
ENDTAB
  0
TABLE
  2
LAYER
  5
2
330
0
100
AcDbSymbolTable
 70
    12
  0
LAYER
  5
54
102
{ACAD_XDICTIONARY
360
4EA
102
}
330
2
100
AcDbSymbolTableRecord
100
AcDbLayerTableRecord
  2
0
 70
     0
 62
     7
  6
CONTINUOUS
370
    -3
390
F
  0
LAYER
  5
7F
102
{ACAD_XDICTIONARY
360
4EC
102
}
330
2
100
AcDbSymbolTableRecord
100
AcDbLayerTableRecord
  2
2-0
 70
     0
 62
     7
  6
CONTINUOUS
370
    -3
390
F
  0
LAYER
  5
80
102
{ACAD_XDICTIONARY
360
4EE
102
}
330
2
100
AcDbSymbolTableRecord
100
AcDbLayerTableRecord
  2
3-0
 70
     0
 62
     7
  6
CONTINUOUS
370
    -3
390
F
  0
LAYER
  5
81
102
{ACAD_XDICTIONARY
360
4F0
102
}
330
2
100
AcDbSymbolTableRecord
100
AcDbLayerTableRecord
  2
4-0
 70
     0
 62
     7
  6
CONTINUOUS
370
    -3
390
F
  0
LAYER
  5
82
102
{ACAD_XDICTIONARY
360
4F2
102
}
330
2
100
AcDbSymbolTableRecord
100
AcDbLayerTableRecord
  2
5-0
 70
     0
 62
    -7
  6
CONTINUOUS
370
    -3
390
F
  0
LAYER
  5
83
102
{ACAD_XDICTIONARY
360
4F4
102
}
330
2
100
AcDbSymbolTableRecord
100
AcDbLayerTableRecord
  2
6-0
 70
     0
 62
    -7
  6
CONTINUOUS
370
    -3
390
F
  0
LAYER
  5
84
102
{ACAD_XDICTIONARY
360
4F6
102
}
330
2
100
AcDbSymbolTableRecord
100
AcDbLayerTableRecord
  2
7-0
 70
     0
 62
     7
  6
CONTINUOUS
370
    -3
390
F
  0
LAYER
  5
85
102
{ACAD_XDICTIONARY
360
4F8
102
}
330
2
100
AcDbSymbolTableRecord
100
AcDbLayerTableRecord
  2
8-0
 70
     0
 62
     7
  6
CONTINUOUS
370
    -3
390
F
  0
LAYER
  5
86
102
{ACAD_XDICTIONARY
360
4FA
102
}
330
2
100
AcDbSymbolTableRecord
100
AcDbLayerTableRecord
  2
9-0
 70
     0
 62
     1
  6
CONTINUOUS
370
    -3
390
F
  0
LAYER
  5
87
102
{ACAD_XDICTIONARY
360
4FC
102
}
330
2
100
AcDbSymbolTableRecord
100
AcDbLayerTableRecord
  2
A-0
 70
     0
 62
     6
  6
CENTER
370
    -3
390
F
  0
LAYER
  5
88
102
{ACAD_XDICTIONARY
360
4FE
102
}
330
2
100
AcDbSymbolTableRecord
100
AcDbLayerTableRecord
  2
C-0
 70
     0
 62
     5
  6
CONTINUOUS
370
    -3
390
F
  0
LAYER
  5
8E
102
{ACAD_XDICTIONARY
360
500
102
}
330
2
100
AcDbSymbolTableRecord
100
AcDbLayerTableRecord
  2
1-0
 70
     0
 62
     7
  6
CONTINUOUS
370
    -3
390
F
  0
ENDTAB
  0
TABLE
  2
STYLE
  5
3
330
0
100
AcDbSymbolTable
 70
     6
  0
STYLE
  5
55
330
3
100
AcDbSymbolTableRecord
100
AcDbTextStyleTableRecord
  2
STANDARD
 70
     0
 40
0.0
 41
1.0
 50
0.0
 71
     0
 42
0.0
  3
txt.shx
  4
extfont.shx
  0
STYLE
  5
59
330
3
100
AcDbSymbolTableRecord
100
AcDbTextStyleTableRecord
  2
Annotative
 70
     0
 40
0.0
 41
1.0
 50
0.0
 71
     0
 42
0.2
  3
txt
  4

1001
AcadAnnotative
1000
AnnotativeData
1002
{
1070
     1
1070
     1
1002
}
  0
STYLE
  5
7B
330
3
100
AcDbSymbolTableRecord
100
AcDbTextStyleTableRecord
  2
TATEGAKI
 70
     4
 40
0.0
 41
1.0
 50
0.0
 71
     0
 42
0.0
  3
txt.shx
  4
extfont.shx
  0
STYLE
  5
7C
330
3
100
AcDbSymbolTableRecord
100
AcDbTextStyleTableRecord
  2
DIM
 70
     0
 40
0.0
 41
0.75
 50
0.0
 71
     0
 42
0.0
  3
txt.shx
  4
extfont.shx
  0
STYLE
  5
7D
330
3
100
AcDbSymbolTableRecord
100
AcDbTextStyleTableRecord
  2
_GOTHIC__
 70
     0
 40
0.0
 41
1.0
 50
0.0
 71
     0
 42
0.0
  3
MS Gothic
  4

  0
STYLE
  5
7E
330
3
100
AcDbSymbolTableRecord
100
AcDbTextStyleTableRecord
  2
_TATEGOTHIC_
 70
     4
 40
0.0
 41
1.0
 50
0.0
 71
     0
 42
0.0
  3
@MS Gothic
  4

  0
ENDTAB
  0
TABLE
  2
VIEW
  5
6
330
0
100
AcDbSymbolTable
 70
     0
  0
ENDTAB
  0
TABLE
  2
UCS
  5
7
330
0
100
AcDbSymbolTable
 70
     0
  0
ENDTAB
  0
TABLE
  2
APPID
  5
9
330
0
100
AcDbSymbolTable
 70
     4
  0
APPID
  5
56
330
9
100
AcDbSymbolTableRecord
100
AcDbRegAppTableRecord
  2
ACAD
 70
     0
  0
APPID
  5
5D
330
9
100
AcDbSymbolTableRecord
100
AcDbRegAppTableRecord
  2
AcadAnnotative
 70
     0
  0
APPID
  5
50C
330
9
100
AcDbSymbolTableRecord
100
AcDbRegAppTableRecord
  2
ACAD_NAV_VCDISPLAY
 70
     0
  0
APPID
  5
545
330
9
100
AcDbSymbolTableRecord
100
AcDbRegAppTableRecord
  2
ACAD_MLEADERVER
 70
     0
  0
ENDTAB
  0
TABLE
  2
DIMSTYLE
  5
A
330
0
100
AcDbSymbolTable
 70
     2
100
AcDbDimStyleTable
 71
     0
  0
DIMSTYLE
105
57
330
A
100
AcDbSymbolTableRecord
100
AcDbDimStyleTableRecord
  2
Standard
 70
     0
340
55
  0
DIMSTYLE
105
58
330
A
100
AcDbSymbolTableRecord
100
AcDbDimStyleTableRecord
  2
Annotative
 70
     0
340
55
1001
AcadAnnotative
1000
AnnotativeData
1002
{
1070
     1
1070
     1
1002
}
  0
ENDTAB
  0
TABLE
  2
BLOCK_RECORD
  5
1
330
0
100
AcDbSymbolTable
 70
     0
  0
BLOCK_RECORD
  5
6F
330
1
100
AcDbSymbolTableRecord
100
AcDbBlockTableRecord
  2
*Model_Space
340
72
  0
BLOCK_RECORD
  5
6B
330
1
100
AcDbSymbolTableRecord
100
AcDbBlockTableRecord
  2
*Paper_Space
340
6E
  0
ENDTAB
  0
ENDSEC
  0
SECTION
  2
BLOCKS
  0
BLOCK
  5
70
330
6F
100
AcDbEntity
  8
0
100
AcDbBlockBegin
  2
*Model_Space
 70
     0
 10
0.0
 20
0.0
 30
0.0
  3
*Model_Space
  1

  0
ENDBLK
  5
71
330
6F
100
AcDbEntity
  8
0
100
AcDbBlockEnd
  0
BLOCK
  5
6C
330
6B
100
AcDbEntity
 67
     1
  8
0
100
AcDbBlockBegin
  2
*Paper_Space
 70
     0
 10
0.0
 20
0.0
 30
0.0
  3
*Paper_Space
  1

  0
ENDBLK
  5
6D
330
6B
100
AcDbEntity
 67
     1
  8
0
100
AcDbBlockEnd
  0
ENDSEC
  0
SECTION
  2
ENTITIES
  0
LINE
  5
8F
330
6F
100
AcDbEntity
  8
1-0
  6
Continuous
 62
     7
100
AcDbLine
 10
0.128173828274
 20
0.090637207137
 30
0.0
 11
4200.128173828274
 21
0.090637207137
 31
0.0
  0
LINE
  5
90
330
6F
100
AcDbEntity
  8
1-0
  6
Continuous
 62
     7
100
AcDbLine
 10
4200.128173828274
 20
0.090637207137
 30
0.0
 11
4200.128173828274
 21
2970.090637207137
 31
0.0
  0
LINE
  5
91
330
6F
100
AcDbEntity
  8
1-0
  6
Continuous
 62
     7
100
AcDbLine
 10
4200.128173828274
 20
2970.090637207137
 30
0.0
 11
0.128173828274
 21
2970.090637207137
 31
0.0
  0
LINE
  5
92
330
6F
100
AcDbEntity
  8
1-0
  6
Continuous
 62
     7
100
AcDbLine
 10
0.128173828274
 20
2970.090637207137
 30
0.0
 11
0.128173828274
 21
0.090637207137
 31
0.0
  0
LINE
  5
93
330
6F
100
AcDbEntity
  8
8-0
  6
Continuous
 62
     7
100
AcDbLine
 10
100.128173778887
 20
100.09063691507
 30
0.0
 11
4100.128173778887
 21
100.09063691507
 31
0.0
  0
LINE
  5
94
330
6F
100
AcDbEntity
  8
8-0
  6
Continuous
 62
     7
100
AcDbLine
 10
2500.128173778887
 20
300.09063691507
 30
0.0
 11
4100.128173778887
 21
300.09063691507
 31
0.0
  0
LINE
  5
95
330
6F
100
AcDbEntity
  8
7-0
  6
Continuous
 62
     7
100
AcDbLine
 10
2500.128173778887
 20
240.09063691507
 30
0.0
 11
3150.128173778887
 21
240.09063691507
 31
0.0
  0
LINE
  5
96
330
6F
100
AcDbEntity
  8
8-0
  6
Continuous
 62
     7
100
AcDbLine
 10
4100.128173778887
 20
100.09063691507
 30
0.0
 11
4100.128173778887
 21
2870.090636915071
 31
0.0
  0
LINE
  5
97
330
6F
100
AcDbEntity
  8
8-0
  6
Continuous
 62
     7
100
AcDbLine
 10
4100.128173778887
 20
2870.090636915071
 30
0.0
 11
100.128173778887
 21
2870.090636915071
 31
0.0
  0
LINE
  5
98
330
6F
100
AcDbEntity
  8
8-0
  6
Continuous
 62
     7
100
AcDbLine
 10
100.128173778887
 20
2870.090636915071
 30
0.0
 11
100.128173778887
 21
100.09063691507
 31
0.0
  0
LINE
  5
99
330
6F
100
AcDbEntity
  8
7-0
  6
Continuous
 62
     7
100
AcDbLine
 10
3150.128173778887
 20
100.09063691507
 30
0.0
 11
3150.128173778887
 21
300.09063691507
 31
0.0
  0
LINE
  5
9A
330
6F
100
AcDbEntity
  8
8-0
  6
Continuous
 62
     7
100
AcDbLine
 10
2500.128173778887
 20
100.09063691507
 30
0.0
 11
2500.128173778887
 21
300.09063691507
 31
0.0
  0
TEXT
  5
9B
330
6F
100
AcDbEntity
  8
C-0
 62
     5
100
AcDbText
 10
2788.563
 20
252.621
 30
0.0
 40
31.104
  1
品番
100
AcDbText
  0
TEXT
  5
9C
330
6F
100
AcDbEntity
  8
C-0
 62
     5
100
AcDbText
 10
2565.48
 20
144.071
 30
0.0
 40
51.84000000000001
  1
LW-1200SG L
100
AcDbText
  0
TEXT
  5
9D
330
6F
100
AcDbEntity
  8
C-0
 62
     5
100
AcDbText
 10
3353.688
 20
192.4109999999999
 30
0.0
 40
62.208
  1
アイオ産業株式会社
100
AcDbText
  0
TEXT
  5
9E
330
6F
100
AcDbEntity
  8
C-0
 62
     5
100
AcDbText
 10
3428.069000000001
 20
124.604
 30
0.0
 40
31.104
  1
アイオシステムキッチン事業部
100
AcDbText
  0
ARC
  5
9F
330
6F
100
AcDbEntity
  8
2-0
  6
Continuous
 62
     7
100
AcDbCircle
 10
3255.78771200376
 20
200.294803481434
 30
0.0
 40
63.24278074506601
100
AcDbArc
 50
319.753
 51
220.247
  0
CIRCLE
  5
A0
330
6F
100
AcDbEntity
  8
2-0
  6
Continuous
 62
     7
100
AcDbCircle
 10
3255.78771200376
 20
200.294803481434
 30
0.0
 40
71.58304716886799
  0
CIRCLE
  5
A1
330
6F
100
AcDbEntity
  8
2-0
  6
Continuous
 62
     7
100
AcDbCircle
 10
3255.78771200376
 20
200.294803481434
 30
0.0
 40
72.000060490058
  0
CIRCLE
  5
A2
330
6F
100
AcDbEntity
  8
2-0
  6
Continuous
 62
     7
100
AcDbCircle
 10
3255.78771200376
 20
200.294803481434
 30
0.0
 40
72.417073811248
  0
CIRCLE
  5
A3
330
6F
100
AcDbEntity
  8
2-0
  6
Continuous
 62
     7
100
AcDbCircle
 10
3255.78771200376
 20
200.294803481434
 30
0.0
 40
72.834087132438
  0
CIRCLE
  5
A4
330
6F
100
AcDbEntity
  8
2-0
  6
Continuous
 62
     7
100
AcDbCircle
 10
3255.78771200376
 20
200.294803481434
 30
0.0
 40
73.251100453628
  0
CIRCLE
  5
A5
330
6F
100
AcDbEntity
  8
2-0
  6
Continuous
 62
     7
100
AcDbCircle
 10
3255.78771200376
 20
200.294803481434
 30
0.0
 40
73.459607114223
  0
CIRCLE
  5
A6
330
6F
100
AcDbEntity
  8
2-0
  6
Continuous
 62
     7
100
AcDbCircle
 10
3255.78771200376
 20
200.294803481434
 30
0.0
 40
73.04259379303299
  0
CIRCLE
  5
A7
330
6F
100
AcDbEntity
  8
2-0
  6
Continuous
 62
     7
100
AcDbCircle
 10
3255.78771200376
 20
200.294803481434
 30
0.0
 40
72.62558047184301
  0
CIRCLE
  5
A8
330
6F
100
AcDbEntity
  8
2-0
  6
Continuous
 62
     7
100
AcDbCircle
 10
3255.78771200376
 20
200.294803481434
 30
0.0
 40
72.20856715065299
  0
CIRCLE
  5
A9
330
6F
100
AcDbEntity
  8
2-0
  6
Continuous
 62
     7
100
AcDbCircle
 10
3255.78771200376
 20
200.294803481434
 30
0.0
 40
71.791553829463
  0
CIRCLE
  5
AA
330
6F
100
AcDbEntity
  8
2-0
  6
Continuous
 62
     7
100
AcDbCircle
 10
3255.78771200376
 20
200.294803481434
 30
0.0
 40
71.791553829463
  0
ARC
  5
AB
330
6F
100
AcDbEntity
  8
2-0
  6
Continuous
 62
     7
100
AcDbCircle
 10
3255.78771200376
 20
200.294803481434
 30
0.0
 40
63.45128740566099
100
AcDbArc
 50
319.753
 51
220.247
  0
CIRCLE
  5
AC
330
6F
100
AcDbEntity
  8
2-0
  6
Continuous
 62
     7
100
AcDbCircle
 10
3255.78771200376
 20
200.294803481434
 30
0.0
 40
71.374540508273
  0
ARC
  5
AD
330
6F
100
AcDbEntity
  8
2-0
  6
Continuous
 62
     7
100
AcDbCircle
 10
3255.78771200376
 20
200.294803481434
 30
0.0
 40
63.03427408447099
100
AcDbArc
 50
319.753
 51
220.247
  0
TEXT
  5
AE
330
6F
100
AcDbEntity
  8
2-0
 62
     7
100
AcDbText
 10
3216.583
 20
142.289
 30
0.0
 40
48.64
  1
A
100
AcDbText
  0
TEXT
  5
AF
330
6F
100
AcDbEntity
  8
2-0
 62
     7
100
AcDbText
 10
3259.074
 20
142.392
 30
0.0
 40
48.64
  1
I
100
AcDbText
  0
TEXT
  5
B0
330
6F
100
AcDbEntity
  8
2-0
 62
     7
100
AcDbText
 10
3269.472
 20
142.357
 30
0.0
 40
48.64
  1
O
100
AcDbText
  0
LINE
  5
B1
330
6F
100
AcDbEntity
  8
2-0
  6
Continuous
 62
     7
100
AcDbLine
 10
1752.945929778887
 20
2568.01603091507
 30
0.0
 11
552.945929778887
 21
2568.01603091507
 31
0.0
  0
LINE
  5
B2
330
6F
100
AcDbEntity
  8
2-0
  6
Continuous
 62
     7
100
AcDbLine
 10
1152.945929778887
 20
2116.01603091507
 30
0.0
 11
1752.945929778887
 21
2116.01603091507
 31
0.0
  0
LINE
  5
B3
330
6F
100
AcDbEntity
  8
9-0
  6
Continuous
 62
     4
100
AcDbLine
 10
1752.945929828274
 20
2088.016030207137
 30
0.0
 11
1752.945929828274
 21
1958.016030207137
 31
0.0
  0
LINE
  5
B4
330
6F
100
AcDbEntity
  8
9-0
  6
Continuous
 62
     4
100
AcDbLine
 10
1152.945929828274
 20
2088.016030207137
 30
0.0
 11
1152.945929828274
 21
1958.016030207137
 31
0.0
  0
TEXT
  5
B5
330
6F
100
AcDbEntity
  8
9-0
 62
     4
100
AcDbText
 10
1422.168
 20
1958.636
 30
0.0
 40
36.288
  1
600
100
AcDbText
  0
LINE
  5
B6
330
6F
100
AcDbEntity
  8
9-0
  6
Continuous
 62
     4
100
AcDbLine
 10
1152.945930107344
 20
1958.016030500991
 30
0.0
 11
1752.945930107344
 21
1958.016030500991
 31
0.0
  0
CIRCLE
  5
B7
330
6F
100
AcDbEntity
  8
9-0
  6
Continuous
 62
     4
100
AcDbCircle
 10
1152.945930107344
 20
1958.016030500991
 30
0.0
 40
0.25
  0
CIRCLE
  5
B8
330
6F
100
AcDbEntity
  8
9-0
  6
Continuous
 62
     4
100
AcDbCircle
 10
1152.945930107344
 20
1958.016030500991
 30
0.0
 40
0.1875
  0
CIRCLE
  5
B9
330
6F
100
AcDbEntity
  8
9-0
  6
Continuous
 62
     4
100
AcDbCircle
 10
1152.945930107344
 20
1958.016030500991
 30
0.0
 40
0.125
  0
CIRCLE
  5
BA
330
6F
100
AcDbEntity
  8
9-0
  6
Continuous
 62
     4
100
AcDbCircle
 10
1152.945930107344
 20
1958.016030500991
 30
0.0
 40
0.0625
  0
CIRCLE
  5
BB
330
6F
100
AcDbEntity
  8
9-0
  6
Continuous
 62
     4
100
AcDbCircle
 10
1752.945930107344
 20
1958.016030500991
 30
0.0
 40
0.25
  0
CIRCLE
  5
BC
330
6F
100
AcDbEntity
  8
9-0
  6
Continuous
 62
     4
100
AcDbCircle
 10
1752.945930107344
 20
1958.016030500991
 30
0.0
 40
0.1875
  0
CIRCLE
  5
BD
330
6F
100
AcDbEntity
  8
9-0
  6
Continuous
 62
     4
100
AcDbCircle
 10
1752.945930107344
 20
1958.016030500991
 30
0.0
 40
0.125
  0
CIRCLE
  5
BE
330
6F
100
AcDbEntity
  8
9-0
  6
Continuous
 62
     4
100
AcDbCircle
 10
1752.945930107344
 20
1958.016030500991
 30
0.0
 40
0.0625
  0
LINE
  5
BF
330
6F
100
AcDbEntity
  8
9-0
  6
Continuous
 62
     4
100
AcDbLine
 10
1752.945929828274
 20
1988.016030207137
 30
0.0
 11
1752.945929828274
 21
1858.016030207137
 31
0.0
  0
LINE
  5
C0
330
6F
100
AcDbEntity
  8
9-0
  6
Continuous
 62
     4
100
AcDbLine
 10
552.9459298282739
 20
1988.016030207137
 30
0.0
 11
552.9459298282739
 21
1858.016030207137
 31
0.0
  0
TEXT
  5
C1
330
6F
100
AcDbEntity
  8
9-0
 62
     4
100
AcDbText
 10
1110.968
 20
1858.636
 30
0.0
 40
36.288
  1
1200
100
AcDbText
  0
LINE
  5
C2
330
6F
100
AcDbEntity
  8
9-0
  6
Continuous
 62
     4
100
AcDbLine
 10
552.9459301073459
 20
1858.016030500991
 30
0.0
 11
1752.945930107344
 21
1858.016030500991
 31
0.0
  0
CIRCLE
  5
C3
330
6F
100
AcDbEntity
  8
9-0
  6
Continuous
 62
     4
100
AcDbCircle
 10
552.9459301073459
 20
1858.016030500991
 30
0.0
 40
0.25
  0
CIRCLE
  5
C4
330
6F
100
AcDbEntity
  8
9-0
  6
Continuous
 62
     4
100
AcDbCircle
 10
552.9459301073459
 20
1858.016030500991
 30
0.0
 40
0.1875
  0
CIRCLE
  5
C5
330
6F
100
AcDbEntity
  8
9-0
  6
Continuous
 62
     4
100
AcDbCircle
 10
552.9459301073459
 20
1858.016030500991
 30
0.0
 40
0.125
  0
CIRCLE
  5
C6
330
6F
100
AcDbEntity
  8
9-0
  6
Continuous
 62
     4
100
AcDbCircle
 10
552.9459301073459
 20
1858.016030500991
 30
0.0
 40
0.0625
  0
CIRCLE
  5
C7
330
6F
100
AcDbEntity
  8
9-0
  6
Continuous
 62
     4
100
AcDbCircle
 10
1752.945930107344
 20
1858.016030500991
 30
0.0
 40
0.25
  0
CIRCLE
  5
C8
330
6F
100
AcDbEntity
  8
9-0
  6
Continuous
 62
     4
100
AcDbCircle
 10
1752.945930107344
 20
1858.016030500991
 30
0.0
 40
0.1875
  0
CIRCLE
  5
C9
330
6F
100
AcDbEntity
  8
9-0
  6
Continuous
 62
     4
100
AcDbCircle
 10
1752.945930107344
 20
1858.016030500991
 30
0.0
 40
0.125
  0
CIRCLE
  5
CA
330
6F
100
AcDbEntity
  8
9-0
  6
Continuous
 62
     4
100
AcDbCircle
 10
1752.945930107344
 20
1858.016030500991
 30
0.0
 40
0.0625
  0
ARC
  5
CB
330
6F
100
AcDbEntity
  8
2-0
  6
Continuous
 62
     7
100
AcDbCircle
 10
1197.945929778887
 20
2523.01603091507
 30
0.0
 40
15.0
100
AcDbArc
 50
89.99999999999905
 51
179.9999999997089
  0
LINE
  5
CC
330
6F
100
AcDbEntity
  8
2-0
  6
Continuous
 62
     7
100
AcDbLine
 10
1182.945930107344
 20
2523.016030500999
 30
0.0
 11
1182.945930107342
 21
2161.016030500999
 31
0.0
  0
ARC
  5
CD
330
6F
100
AcDbEntity
  8
2-0
  6
Continuous
 62
     7
100
AcDbCircle
 10
1197.945929778887
 20
2161.01603091507
 30
0.0
 40
15.0
100
AcDbArc
 50
180.000000000292
 51
270.0
  0
LINE
  5
CE
330
6F
100
AcDbEntity
  8
2-0
  6
Continuous
 62
     7
100
AcDbLine
 10
1197.945930107342
 20
2146.016030500999
 30
0.0
 11
1707.945930107342
 21
2146.016030500999
 31
0.0
  0
ARC
  5
CF
330
6F
100
AcDbEntity
  8
2-0
  6
Continuous
 62
     7
100
AcDbCircle
 10
1707.945929778887
 20
2161.01603091507
 30
0.0
 40
15.0
100
AcDbArc
 50
270.0
 51
359.999999999708
  0
LINE
  5
D0
330
6F
100
AcDbEntity
  8
2-0
  6
Continuous
 62
     7
100
AcDbLine
 10
1722.945930107342
 20
2161.016030500999
 30
0.0
 11
1722.945930107346
 21
2523.016030500999
 31
0.0
  0
ARC
  5
D1
330
6F
100
AcDbEntity
  8
2-0
  6
Continuous
 62
     7
100
AcDbCircle
 10
1707.945929778887
 20
2523.01603091507
 30
0.0
 40
15.0
100
AcDbArc
 50
0.0000000002920064
 51
90.00000000000095
  0
LINE
  5
D2
330
6F
100
AcDbEntity
  8
2-0
  6
Continuous
 62
     7
100
AcDbLine
 10
1707.945930107346
 20
2538.016030500999
 30
0.0
 11
1197.945930107344
 21
2538.016030500999
 31
0.0
  0
ARC
  5
D3
330
6F
100
AcDbEntity
  8
2-0
  6
Continuous
 62
     7
100
AcDbCircle
 10
1197.945929778887
 20
2523.01603091507
 30
0.0
 40
20.0
100
AcDbArc
 50
90.0
 51
179.9999999997069
  0
LINE
  5
D4
330
6F
100
AcDbEntity
  8
2-0
  6
Continuous
 62
     7
100
AcDbLine
 10
1177.945930107344
 20
2523.016030500999
 30
0.0
 11
1177.945930107342
 21
2161.016030500999
 31
0.0
  0
ARC
  5
D5
330
6F
100
AcDbEntity
  8
2-0
  6
Continuous
 62
     7
100
AcDbCircle
 10
1197.945929778887
 20
2161.01603091507
 30
0.0
 40
20.0
100
AcDbArc
 50
180.000000000292
 51
270.0
  0
LINE
  5
D6
330
6F
100
AcDbEntity
  8
2-0
  6
Continuous
 62
     7
100
AcDbLine
 10
1197.945930107342
 20
2141.016030500999
 30
0.0
 11
1707.945930107342
 21
2141.016030500999
 31
0.0
  0
ARC
  5
D7
330
6F
100
AcDbEntity
  8
2-0
  6
Continuous
 62
     7
100
AcDbCircle
 10
1707.945929778887
 20
2161.01603091507
 30
0.0
 40
20.0
100
AcDbArc
 50
270.0
 51
359.999999999707
  0
LINE
  5
D8
330
6F
100
AcDbEntity
  8
2-0
  6
Continuous
 62
     7
100
AcDbLine
 10
1727.945930107342
 20
2161.016030500999
 30
0.0
 11
1727.945930107346
 21
2523.016030500999
 31
0.0
  0
ARC
  5
D9
330
6F
100
AcDbEntity
  8
2-0
  6
Continuous
 62
     7
100
AcDbCircle
 10
1707.945929778887
 20
2523.01603091507
 30
0.0
 40
20.0
100
AcDbArc
 50
0.0000000002920064
 51
90.0
  0
LINE
  5
DA
330
6F
100
AcDbEntity
  8
2-0
  6
Continuous
 62
     7
100
AcDbLine
 10
1707.945930107346
 20
2543.016030500999
 30
0.0
 11
1197.945930107344
 21
2543.016030500999
 31
0.0
  0
LINE
  5
DB
330
6F
100
AcDbEntity
  8
9-0
  6
Continuous
 62
     4
100
AcDbLine
 10
1752.945929828274
 20
1295.370127207137
 30
0.0
 11
1752.945929828274
 21
1676.829028207137
 31
0.0
  0
LINE
  5
DC
330
6F
100
AcDbEntity
  8
9-0
  6
Continuous
 62
     4
100
AcDbLine
 10
1152.945929828274
 20
1546.829028207137
 30
0.0
 11
1152.945929828274
 21
1676.829028207137
 31
0.0
  0
TEXT
  5
DD
330
6F
100
AcDbEntity
  8
9-0
 62
     4
100
AcDbText
 10
1422.168
 20
1677.449
 30
0.0
 40
36.288
  1
600
100
AcDbText
  0
LINE
  5
DE
330
6F
100
AcDbEntity
  8
9-0
  6
Continuous
 62
     4
100
AcDbLine
 10
1152.945930107344
 20
1676.829028364128
 30
0.0
 11
1752.945930107344
 21
1676.829028364128
 31
0.0
  0
CIRCLE
  5
DF
330
6F
100
AcDbEntity
  8
9-0
  6
Continuous
 62
     4
100
AcDbCircle
 10
1152.945930107344
 20
1676.829028364128
 30
0.0
 40
0.25
  0
CIRCLE
  5
E0
330
6F
100
AcDbEntity
  8
9-0
  6
Continuous
 62
     4
100
AcDbCircle
 10
1152.945930107344
 20
1676.829028364128
 30
0.0
 40
0.1875
  0
CIRCLE
  5
E1
330
6F
100
AcDbEntity
  8
9-0
  6
Continuous
 62
     4
100
AcDbCircle
 10
1152.945930107344
 20
1676.829028364128
 30
0.0
 40
0.125
  0
CIRCLE
  5
E2
330
6F
100
AcDbEntity
  8
9-0
  6
Continuous
 62
     4
100
AcDbCircle
 10
1152.945930107344
 20
1676.829028364128
 30
0.0
 40
0.0625
  0
CIRCLE
  5
E3
330
6F
100
AcDbEntity
  8
9-0
  6
Continuous
 62
     4
100
AcDbCircle
 10
1752.945930107344
 20
1676.829028364128
 30
0.0
 40
0.25
  0
CIRCLE
  5
E4
330
6F
100
AcDbEntity
  8
9-0
  6
Continuous
 62
     4
100
AcDbCircle
 10
1752.945930107344
 20
1676.829028364128
 30
0.0
 40
0.1875
  0
CIRCLE
  5
E5
330
6F
100
AcDbEntity
  8
9-0
  6
Continuous
 62
     4
100
AcDbCircle
 10
1752.945930107344
 20
1676.829028364128
 30
0.0
 40
0.125
  0
CIRCLE
  5
E6
330
6F
100
AcDbEntity
  8
9-0
  6
Continuous
 62
     4
100
AcDbCircle
 10
1752.945930107344
 20
1676.829028364128
 30
0.0
 40
0.0625
  0
LINE
  5
E7
330
6F
100
AcDbEntity
  8
2-0
  6
Continuous
 62
     7
100
AcDbLine
 10
1152.945929778887
 20
1209.76244091507
 30
0.0
 11
1752.945929778887
 21
1209.76244091507
 31
0.0
  0
LINE
  5
E8
330
6F
100
AcDbEntity
  8
2-0
  6
Continuous
 62
     7
100
AcDbLine
 10
1152.945929778887
 20
1229.76244091507
 30
0.0
 11
1752.945929778887
 21
1229.76244091507
 31
0.0
  0
LINE
  5
E9
330
6F
100
AcDbEntity
  8
2-0
  6
Continuous
 62
     7
100
AcDbLine
 10
555.445929778887
 20
609.7624409150699
 30
0.0
 11
1750.445929778887
 21
609.7624409150699
 31
0.0
  0
LINE
  5
EA
330
6F
100
AcDbEntity
  8
2-0
  6
Continuous
 62
     7
100
AcDbLine
 10
555.445929778887
 20
699.76244091507
 30
0.0
 11
1750.445929778887
 21
699.76244091507
 31
0.0
  0
LINE
  5
EB
330
6F
100
AcDbEntity
  8
2-0
  6
DASHED2
 62
     7
100
AcDbLine
 10
570.445929778887
 20
714.76244091507
 30
0.0
 11
1735.445929778887
 21
714.76244091507
 31
0.0
  0
LINE
  5
EC
330
6F
100
AcDbEntity
  8
9-0
  6
Continuous
 62
     4
100
AcDbLine
 10
535.445929828274
 20
1374.762441207137
 30
0.0
 11
405.445929828274
 21
1374.762441207137
 31
0.0
  0
LINE
  5
ED
330
6F
100
AcDbEntity
  8
9-0
  6
Continuous
 62
     4
100
AcDbLine
 10
535.445929828274
 20
699.762441207137
 30
0.0
 11
405.445929828274
 21
699.762441207137
 31
0.0
  0
TEXT
  5
EE
330
6F
100
AcDbEntity
  8
9-0
 62
     4
100
AcDbText
 10
404.8259999999999
 20
1003.662
 30
0.0
 40
36.288
  1
675
 50
90.0
100
AcDbText
  0
LINE
  5
EF
330
6F
100
AcDbEntity
  8
9-0
  6
Continuous
 62
     4
100
AcDbLine
 10
405.445930107344
 20
699.762441217695
 30
0.0
 11
405.445930107344
 21
1374.762441217695
 31
0.0
  0
CIRCLE
  5
F0
330
6F
100
AcDbEntity
  8
9-0
  6
Continuous
 62
     4
100
AcDbCircle
 10
405.445930107344
 20
699.762441217695
 30
0.0
 40
0.25
  0
CIRCLE
  5
F1
330
6F
100
AcDbEntity
  8
9-0
  6
Continuous
 62
     4
100
AcDbCircle
 10
405.445930107344
 20
699.762441217695
 30
0.0
 40
0.1875
  0
CIRCLE
  5
F2
330
6F
100
AcDbEntity
  8
9-0
  6
Continuous
 62
     4
100
AcDbCircle
 10
405.445930107344
 20
699.762441217695
 30
0.0
 40
0.125
  0
CIRCLE
  5
F3
330
6F
100
AcDbEntity
  8
9-0
  6
Continuous
 62
     4
100
AcDbCircle
 10
405.445930107344
 20
699.762441217695
 30
0.0
 40
0.0625
  0
CIRCLE
  5
F4
330
6F
100
AcDbEntity
  8
9-0
  6
Continuous
 62
     4
100
AcDbCircle
 10
405.445930107344
 20
1374.762441217695
 30
0.0
 40
0.25
  0
CIRCLE
  5
F5
330
6F
100
AcDbEntity
  8
9-0
  6
Continuous
 62
     4
100
AcDbCircle
 10
405.445930107344
 20
1374.762441217695
 30
0.0
 40
0.1875
  0
CIRCLE
  5
F6
330
6F
100
AcDbEntity
  8
9-0
  6
Continuous
 62
     4
100
AcDbCircle
 10
405.445930107344
 20
1374.762441217695
 30
0.0
 40
0.125
  0
CIRCLE
  5
F7
330
6F
100
AcDbEntity
  8
9-0
  6
Continuous
 62
     4
100
AcDbCircle
 10
405.445930107344
 20
1374.762441217695
 30
0.0
 40
0.0625
  0
LINE
  5
F8
330
6F
100
AcDbEntity
  8
9-0
  6
Continuous
 62
     4
100
AcDbLine
 10
435.445929828274
 20
1409.762441207137
 30
0.0
 11
305.445929828274
 21
1409.762441207137
 31
0.0
  0
LINE
  5
F9
330
6F
100
AcDbEntity
  8
9-0
  6
Continuous
 62
     4
100
AcDbLine
 10
435.445929828274
 20
609.762441207137
 30
0.0
 11
305.445929828274
 21
609.762441207137
 31
0.0
  0
TEXT
  5
FA
330
6F
100
AcDbEntity
  8
9-0
 62
     4
100
AcDbText
 10
304.8259999999999
 20
976.1619999999998
 30
0.0
 40
36.288
  1
800
 50
90.0
100
AcDbText
  0
LINE
  5
FB
330
6F
100
AcDbEntity
  8
9-0
  6
Continuous
 62
     4
100
AcDbLine
 10
305.445930107344
 20
609.762441217695
 30
0.0
 11
305.445930107344
 21
1409.762441217695
 31
0.0
  0
CIRCLE
  5
FC
330
6F
100
AcDbEntity
  8
9-0
  6
Continuous
 62
     4
100
AcDbCircle
 10
305.445930107344
 20
609.762441217695
 30
0.0
 40
0.25
  0
CIRCLE
  5
FD
330
6F
100
AcDbEntity
  8
9-0
  6
Continuous
 62
     4
100
AcDbCircle
 10
305.445930107344
 20
609.762441217695
 30
0.0
 40
0.1875
  0
CIRCLE
  5
FE
330
6F
100
AcDbEntity
  8
9-0
  6
Continuous
 62
     4
100
AcDbCircle
 10
305.445930107344
 20
609.762441217695
 30
0.0
 40
0.125
  0
CIRCLE
  5
FF
330
6F
100
AcDbEntity
  8
9-0
  6
Continuous
 62
     4
100
AcDbCircle
 10
305.445930107344
 20
609.762441217695
 30
0.0
 40
0.0625
  0
CIRCLE
  5
100
330
6F
100
AcDbEntity
  8
9-0
  6
Continuous
 62
     4
100
AcDbCircle
 10
305.445930107344
 20
1409.762441217695
 30
0.0
 40
0.25
  0
CIRCLE
  5
101
330
6F
100
AcDbEntity
  8
9-0
  6
Continuous
 62
     4
100
AcDbCircle
 10
305.445930107344
 20
1409.762441217695
 30
0.0
 40
0.1875
  0
CIRCLE
  5
102
330
6F
100
AcDbEntity
  8
9-0
  6
Continuous
 62
     4
100
AcDbCircle
 10
305.445930107344
 20
1409.762441217695
 30
0.0
 40
0.125
  0
CIRCLE
  5
103
330
6F
100
AcDbEntity
  8
9-0
  6
Continuous
 62
     4
100
AcDbCircle
 10
305.445930107344
 20
1409.762441217695
 30
0.0
 40
0.0625
  0
LINE
  5
104
330
6F
100
AcDbEntity
  8
2-0
  6
Continuous
 62
     7
100
AcDbLine
 10
555.445929778887
 20
1384.76244091507
 30
0.0
 11
555.445929778887
 21
609.7624409150699
 31
0.0
  0
LINE
  5
105
330
6F
100
AcDbEntity
  8
9-0
  6
Continuous
 62
     4
100
AcDbLine
 10
535.445929828274
 20
699.762441207137
 30
0.0
 11
405.445929828274
 21
699.762441207137
 31
0.0
  0
LINE
  5
106
330
6F
100
AcDbEntity
  8
9-0
  6
Continuous
 62
     4
100
AcDbLine
 10
535.445929828274
 20
609.762441207137
 30
0.0
 11
405.445929828274
 21
609.762441207137
 31
0.0
  0
TEXT
  5
107
330
6F
100
AcDbEntity
  8
9-0
 62
     4
100
AcDbText
 10
404.8259999999999
 20
632.362
 30
0.0
 40
36.288
  1
90
 50
90.0
100
AcDbText
  0
LINE
  5
108
330
6F
100
AcDbEntity
  8
9-0
  6
Continuous
 62
     4
100
AcDbLine
 10
405.445930107344
 20
609.762441217695
 30
0.0
 11
405.445930107344
 21
699.762441217695
 31
0.0
  0
CIRCLE
  5
109
330
6F
100
AcDbEntity
  8
9-0
  6
Continuous
 62
     4
100
AcDbCircle
 10
405.445930107344
 20
609.762441217695
 30
0.0
 40
0.25
  0
CIRCLE
  5
10A
330
6F
100
AcDbEntity
  8
9-0
  6
Continuous
 62
     4
100
AcDbCircle
 10
405.445930107344
 20
609.762441217695
 30
0.0
 40
0.1875
  0
CIRCLE
  5
10B
330
6F
100
AcDbEntity
  8
9-0
  6
Continuous
 62
     4
100
AcDbCircle
 10
405.445930107344
 20
609.762441217695
 30
0.0
 40
0.125
  0
CIRCLE
  5
10C
330
6F
100
AcDbEntity
  8
9-0
  6
Continuous
 62
     4
100
AcDbCircle
 10
405.445930107344
 20
609.762441217695
 30
0.0
 40
0.0625
  0
CIRCLE
  5
10D
330
6F
100
AcDbEntity
  8
9-0
  6
Continuous
 62
     4
100
AcDbCircle
 10
405.445930107344
 20
699.762441217695
 30
0.0
 40
0.25
  0
CIRCLE
  5
10E
330
6F
100
AcDbEntity
  8
9-0
  6
Continuous
 62
     4
100
AcDbCircle
 10
405.445930107344
 20
699.762441217695
 30
0.0
 40
0.1875
  0
CIRCLE
  5
10F
330
6F
100
AcDbEntity
  8
9-0
  6
Continuous
 62
     4
100
AcDbCircle
 10
405.445930107344
 20
699.762441217695
 30
0.0
 40
0.125
  0
CIRCLE
  5
110
330
6F
100
AcDbEntity
  8
9-0
  6
Continuous
 62
     4
100
AcDbCircle
 10
405.445930107344
 20
699.762441217695
 30
0.0
 40
0.0625
  0
LINE
  5
111
330
6F
100
AcDbEntity
  8
2-0
  6
DASHED2
 62
     7
100
AcDbLine
 10
570.445929778887
 20
714.76244091507
 30
0.0
 11
570.445929778887
 21
836.59430191507
 31
0.0
  0
LINE
  5
112
330
6F
100
AcDbEntity
  8
2-0
  6
DASHED2
 62
     7
100
AcDbLine
 10
1160.945929778887
 20
714.76244091507
 30
0.0
 11
1160.945929778887
 21
836.59430191507
 31
0.0
  0
LINE
  5
113
330
6F
100
AcDbEntity
  8
2-0
  6
DASHED2
 62
     7
100
AcDbLine
 10
1145.945929778887
 20
714.76244091507
 30
0.0
 11
1145.945929778887
 21
836.59430191507
 31
0.0
  0
LINE
  5
114
330
6F
100
AcDbEntity
  8
2-0
  6
Continuous
 62
     7
100
AcDbLine
 10
552.945929778887
 20
1409.76244091507
 30
0.0
 11
1152.945929778887
 21
1409.76244091507
 31
0.0
  0
LINE
  5
115
330
6F
100
AcDbEntity
  8
2-0
  6
Continuous
 62
     7
100
AcDbLine
 10
552.945929778887
 20
1384.76244091507
 30
0.0
 11
1152.945929778887
 21
1384.76244091507
 31
0.0
  0
LINE
  5
116
330
6F
100
AcDbEntity
  8
2-0
  6
Continuous
 62
     7
100
AcDbLine
 10
552.945929778887
 20
1499.76244091507
 30
0.0
 11
1152.945929778887
 21
1499.76244091507
 31
0.0
  0
LINE
  5
117
330
6F
100
AcDbEntity
  8
9-0
  6
Continuous
 62
     4
100
AcDbLine
 10
552.9459298282739
 20
1546.829028207137
 30
0.0
 11
552.9459298282739
 21
1676.829028207137
 31
0.0
  0
LINE
  5
118
330
6F
100
AcDbEntity
  8
9-0
  6
Continuous
 62
     4
100
AcDbLine
 10
1152.945929828274
 20
1546.829028207137
 30
0.0
 11
1152.945929828274
 21
1676.829028207137
 31
0.0
  0
TEXT
  5
119
330
6F
100
AcDbEntity
  8
9-0
 62
     4
100
AcDbText
 10
822.168
 20
1677.449
 30
0.0
 40
36.288
  1
600
100
AcDbText
  0
LINE
  5
11A
330
6F
100
AcDbEntity
  8
9-0
  6
Continuous
 62
     4
100
AcDbLine
 10
1152.945930107344
 20
1676.829028364128
 30
0.0
 11
552.945930107344
 21
1676.829028364128
 31
0.0
  0
CIRCLE
  5
11B
330
6F
100
AcDbEntity
  8
9-0
  6
Continuous
 62
     4
100
AcDbCircle
 10
1152.945930107344
 20
1676.829028364128
 30
0.0
 40
0.25
  0
CIRCLE
  5
11C
330
6F
100
AcDbEntity
  8
9-0
  6
Continuous
 62
     4
100
AcDbCircle
 10
1152.945930107344
 20
1676.829028364128
 30
0.0
 40
0.1875
  0
CIRCLE
  5
11D
330
6F
100
AcDbEntity
  8
9-0
  6
Continuous
 62
     4
100
AcDbCircle
 10
1152.945930107344
 20
1676.829028364128
 30
0.0
 40
0.125
  0
CIRCLE
  5
11E
330
6F
100
AcDbEntity
  8
9-0
  6
Continuous
 62
     4
100
AcDbCircle
 10
1152.945930107344
 20
1676.829028364128
 30
0.0
 40
0.0625
  0
CIRCLE
  5
11F
330
6F
100
AcDbEntity
  8
9-0
  6
Continuous
 62
     4
100
AcDbCircle
 10
552.945930107344
 20
1676.829028364128
 30
0.0
 40
0.25
  0
CIRCLE
  5
120
330
6F
100
AcDbEntity
  8
9-0
  6
Continuous
 62
     4
100
AcDbCircle
 10
552.945930107344
 20
1676.829028364128
 30
0.0
 40
0.1875
  0
CIRCLE
  5
121
330
6F
100
AcDbEntity
  8
9-0
  6
Continuous
 62
     4
100
AcDbCircle
 10
552.945930107344
 20
1676.829028364128
 30
0.0
 40
0.125
  0
CIRCLE
  5
122
330
6F
100
AcDbEntity
  8
9-0
  6
Continuous
 62
     4
100
AcDbCircle
 10
552.945930107344
 20
1676.829028364128
 30
0.0
 40
0.0625
  0
LINE
  5
123
330
6F
100
AcDbEntity
  8
9-0
  6
Continuous
 62
     4
100
AcDbLine
 10
552.9459298282739
 20
1380.125527207137
 30
0.0
 11
552.9459298282739
 21
1250.125527207137
 31
0.0
  0
LINE
  5
124
330
6F
100
AcDbEntity
  8
9-0
  6
Continuous
 62
     4
100
AcDbLine
 10
555.4459298282739
 20
1380.125527207137
 30
0.0
 11
555.4459298282739
 21
1250.125527207137
 31
0.0
  0
LINE
  5
125
330
6F
100
AcDbEntity
  8
9-0
  6
Continuous
 62
     4
100
AcDbLine
 10
542.9459298282739
 20
1250.125527207137
 30
0.0
 11
532.9459298282739
 21
1250.125527207137
 31
0.0
  0
LINE
  5
126
330
6F
100
AcDbEntity
  8
9-0
  6
Continuous
 62
     4
100
AcDbLine
 10
565.4459298282739
 20
1250.125527207137
 30
0.0
 11
575.4459298282739
 21
1250.125527207137
 31
0.0
  0
LINE
  5
127
330
6F
100
AcDbEntity
  8
9-0
  6
Continuous
 62
     4
100
AcDbLine
 10
554.195929828274
 20
1250.125527207137
 30
0.0
 11
528.336077828274
 21
1190.125527207137
 31
0.0
  0
LINE
  5
128
330
6F
100
AcDbEntity
  8
9-0
  6
Continuous
 62
     4
100
AcDbLine
 10
528.336077828274
 20
1190.125527207137
 30
0.0
 11
444.909681828274
 21
1190.125527207137
 31
0.0
  0
TEXT
  5
129
330
6F
100
AcDbEntity
  8
9-0
 62
     4
100
AcDbText
 10
455.845
 20
1190.746
 30
0.0
 40
36.288
  1
2.5
100
AcDbText
  0
LINE
  5
12A
330
6F
100
AcDbEntity
  8
9-0
  6
Continuous
 62
     4
100
AcDbLine
 10
552.9459298282739
 20
1250.125527207137
 30
0.0
 11
555.4459298282739
 21
1250.125527207137
 31
0.0
  0
LINE
  5
12B
330
6F
100
AcDbEntity
  8
9-0
  6
Continuous
 62
     4
100
AcDbLine
 10
552.9459298282739
 20
1250.125527207137
 30
0.0
 11
555.4459298282739
 21
1250.125527207137
 31
0.0
  0
CIRCLE
  5
12C
330
6F
100
AcDbEntity
  8
9-0
  6
Continuous
 62
     4
100
AcDbCircle
 10
552.945930107344
 20
1250.125527363635
 30
0.0
 40
0.25
  0
CIRCLE
  5
12D
330
6F
100
AcDbEntity
  8
9-0
  6
Continuous
 62
     4
100
AcDbCircle
 10
552.945930107344
 20
1250.125527363635
 30
0.0
 40
0.1875
  0
CIRCLE
  5
12E
330
6F
100
AcDbEntity
  8
9-0
  6
Continuous
 62
     4
100
AcDbCircle
 10
552.945930107344
 20
1250.125527363635
 30
0.0
 40
0.125
  0
CIRCLE
  5
12F
330
6F
100
AcDbEntity
  8
9-0
  6
Continuous
 62
     4
100
AcDbCircle
 10
552.945930107344
 20
1250.125527363635
 30
0.0
 40
0.0625
  0
ARC
  5
130
330
6F
100
AcDbEntity
  8
9-0
 62
     4
100
AcDbCircle
 10
552.945930107344
 20
1250.130527363635
 30
0.0
 40
2.5
100
AcDbArc
 50
0.1145914065300158
 51
180.114591405945
  0
LINE
  5
131
330
6F
100
AcDbEntity
  8
9-0
 62
     4
100
AcDbLine
 10
547.945930107344
 20
1250.125527363635
 30
0.0
 11
542.945930107344
 21
1250.125527363635
 31
0.0
  0
CIRCLE
  5
132
330
6F
100
AcDbEntity
  8
9-0
  6
Continuous
 62
     4
100
AcDbCircle
 10
555.445930107344
 20
1250.125527363635
 30
0.0
 40
0.25
  0
CIRCLE
  5
133
330
6F
100
AcDbEntity
  8
9-0
  6
Continuous
 62
     4
100
AcDbCircle
 10
555.445930107344
 20
1250.125527363635
 30
0.0
 40
0.1875
  0
CIRCLE
  5
134
330
6F
100
AcDbEntity
  8
9-0
  6
Continuous
 62
     4
100
AcDbCircle
 10
555.445930107344
 20
1250.125527363635
 30
0.0
 40
0.125
  0
CIRCLE
  5
135
330
6F
100
AcDbEntity
  8
9-0
  6
Continuous
 62
     4
100
AcDbCircle
 10
555.445930107344
 20
1250.125527363635
 30
0.0
 40
0.0625
  0
ARC
  5
136
330
6F
100
AcDbEntity
  8
9-0
 62
     4
100
AcDbCircle
 10
555.445930107344
 20
1250.120527363635
 30
0.0
 40
2.5
100
AcDbArc
 50
180.1145914065301
 51
0.1145914059449637
  0
LINE
  5
137
330
6F
100
AcDbEntity
  8
9-0
 62
     4
100
AcDbLine
 10
560.445930107344
 20
1250.125527363686
 30
0.0
 11
565.445930107344
 21
1250.125527363737
 31
0.0
  0
LINE
  5
138
330
6F
100
AcDbEntity
  8
9-0
  6
Continuous
 62
     4
100
AcDbLine
 10
535.445929828274
 20
1384.762441207137
 30
0.0
 11
405.445929828274
 21
1384.762441207137
 31
0.0
  0
LINE
  5
139
330
6F
100
AcDbEntity
  8
9-0
  6
Continuous
 62
     4
100
AcDbLine
 10
535.445929828274
 20
1374.762441207137
 30
0.0
 11
405.445929828274
 21
1374.762441207137
 31
0.0
  0
LINE
  5
13A
330
6F
100
AcDbEntity
  8
9-0
  6
Continuous
 62
     4
100
AcDbLine
 10
405.445929828274
 20
1394.762441207137
 30
0.0
 11
405.445929828274
 21
1404.762441207137
 31
0.0
  0
LINE
  5
13B
330
6F
100
AcDbEntity
  8
9-0
  6
Continuous
 62
     4
100
AcDbLine
 10
405.445929828274
 20
1364.762441207137
 30
0.0
 11
405.445929828274
 21
1354.762441207137
 31
0.0
  0
LINE
  5
13C
330
6F
100
AcDbEntity
  8
9-0
  6
Continuous
 62
     4
100
AcDbLine
 10
405.445929828274
 20
1379.762441207137
 30
0.0
 11
369.638328828274
 21
1352.480069207137
 31
0.0
  0
LINE
  5
13D
330
6F
100
AcDbEntity
  8
9-0
  6
Continuous
 62
     4
100
AcDbLine
 10
369.638328828274
 20
1352.480069207137
 30
0.0
 11
369.638328828274
 21
1293.216110207137
 31
0.0
  0
TEXT
  5
13E
330
6F
100
AcDbEntity
  8
9-0
 62
     4
100
AcDbText
 10
369.018
 20
1300.448
 30
0.0
 40
36.288
  1
10
 50
90.0
100
AcDbText
  0
LINE
  5
13F
330
6F
100
AcDbEntity
  8
9-0
  6
Continuous
 62
     4
100
AcDbLine
 10
405.445929828274
 20
1384.762441207137
 30
0.0
 11
405.445929828274
 21
1374.762441207137
 31
0.0
  0
LINE
  5
140
330
6F
100
AcDbEntity
  8
9-0
  6
Continuous
 62
     4
100
AcDbLine
 10
405.445929828274
 20
1384.762441207137
 30
0.0
 11
405.445929828274
 21
1374.762441207137
 31
0.0
  0
CIRCLE
  5
141
330
6F
100
AcDbEntity
  8
9-0
  6
Continuous
 62
     4
100
AcDbCircle
 10
405.445930107344
 20
1384.762441217695
 30
0.0
 40
0.25
  0
CIRCLE
  5
142
330
6F
100
AcDbEntity
  8
9-0
  6
Continuous
 62
     4
100
AcDbCircle
 10
405.445930107344
 20
1384.762441217695
 30
0.0
 40
0.1875
  0
CIRCLE
  5
143
330
6F
100
AcDbEntity
  8
9-0
  6
Continuous
 62
     4
100
AcDbCircle
 10
405.445930107344
 20
1384.762441217695
 30
0.0
 40
0.125
  0
CIRCLE
  5
144
330
6F
100
AcDbEntity
  8
9-0
  6
Continuous
 62
     4
100
AcDbCircle
 10
405.445930107344
 20
1384.762441217695
 30
0.0
 40
0.0625
  0
ARC
  5
145
330
6F
100
AcDbEntity
  8
9-0
 62
     4
100
AcDbCircle
 10
405.450930107344
 20
1384.762441217695
 30
0.0
 40
2.5
100
AcDbArc
 50
270.1145914065301
 51
90.11459140594496
  0
LINE
  5
146
330
6F
100
AcDbEntity
  8
9-0
 62
     4
100
AcDbLine
 10
405.445930107268
 20
1389.762441217695
 30
0.0
 11
405.445930107191
 21
1394.762441217695
 31
0.0
  0
CIRCLE
  5
147
330
6F
100
AcDbEntity
  8
9-0
  6
Continuous
 62
     4
100
AcDbCircle
 10
405.445930107344
 20
1374.762441217695
 30
0.0
 40
0.25
  0
CIRCLE
  5
148
330
6F
100
AcDbEntity
  8
9-0
  6
Continuous
 62
     4
100
AcDbCircle
 10
405.445930107344
 20
1374.762441217695
 30
0.0
 40
0.1875
  0
CIRCLE
  5
149
330
6F
100
AcDbEntity
  8
9-0
  6
Continuous
 62
     4
100
AcDbCircle
 10
405.445930107344
 20
1374.762441217695
 30
0.0
 40
0.125
  0
CIRCLE
  5
14A
330
6F
100
AcDbEntity
  8
9-0
  6
Continuous
 62
     4
100
AcDbCircle
 10
405.445930107344
 20
1374.762441217695
 30
0.0
 40
0.0625
  0
ARC
  5
14B
330
6F
100
AcDbEntity
  8
9-0
 62
     4
100
AcDbCircle
 10
405.4409301073439
 20
1374.762441217695
 30
0.0
 40
2.5
100
AcDbArc
 50
90.11459140653
 51
270.114591405945
  0
LINE
  5
14C
330
6F
100
AcDbEntity
  8
9-0
 62
     4
100
AcDbLine
 10
405.4459301073699
 20
1369.762441217695
 30
0.0
 11
405.445930107395
 21
1364.762441217695
 31
0.0
  0
LINE
  5
14D
330
6F
100
AcDbEntity
  8
9-0
  6
Continuous
 62
     4
100
AcDbLine
 10
535.445929828274
 20
1384.762441207137
 30
0.0
 11
405.445929828274
 21
1384.762441207137
 31
0.0
  0
LINE
  5
14E
330
6F
100
AcDbEntity
  8
9-0
  6
Continuous
 62
     4
100
AcDbLine
 10
535.445929828274
 20
1409.762441207137
 30
0.0
 11
405.445929828274
 21
1409.762441207137
 31
0.0
  0
LINE
  5
14F
330
6F
100
AcDbEntity
  8
9-0
  6
Continuous
 62
     4
100
AcDbLine
 10
405.445929828274
 20
1374.762441207137
 30
0.0
 11
405.445929828274
 21
1364.762441207137
 31
0.0
  0
LINE
  5
150
330
6F
100
AcDbEntity
  8
9-0
  6
Continuous
 62
     4
100
AcDbLine
 10
405.445929828274
 20
1419.762441207137
 30
0.0
 11
405.445929828274
 21
1429.762441207137
 31
0.0
  0
LINE
  5
151
330
6F
100
AcDbEntity
  8
9-0
  6
Continuous
 62
     4
100
AcDbLine
 10
405.445929828274
 20
1397.262441207137
 30
0.0
 11
472.359777828274
 21
1424.115710207137
 31
0.0
  0
LINE
  5
152
330
6F
100
AcDbEntity
  8
9-0
  6
Continuous
 62
     4
100
AcDbLine
 10
472.359777828274
 20
1424.115710207137
 30
0.0
 11
472.359777828274
 21
1484.800989207137
 31
0.0
  0
TEXT
  5
153
330
6F
100
AcDbEntity
  8
9-0
 62
     4
100
AcDbText
 10
471.74
 20
1432.058
 30
0.0
 40
36.288
  1
25
 50
90.0
100
AcDbText
  0
LINE
  5
154
330
6F
100
AcDbEntity
  8
9-0
  6
Continuous
 62
     4
100
AcDbLine
 10
405.445929828274
 20
1384.762441207137
 30
0.0
 11
405.445929828274
 21
1409.762441207137
 31
0.0
  0
LINE
  5
155
330
6F
100
AcDbEntity
  8
9-0
  6
Continuous
 62
     4
100
AcDbLine
 10
405.445929828274
 20
1384.762441207137
 30
0.0
 11
405.445929828274
 21
1409.762441207137
 31
0.0
  0
CIRCLE
  5
156
330
6F
100
AcDbEntity
  8
9-0
  6
Continuous
 62
     4
100
AcDbCircle
 10
405.445930107344
 20
1384.762441217695
 30
0.0
 40
0.25
  0
CIRCLE
  5
157
330
6F
100
AcDbEntity
  8
9-0
  6
Continuous
 62
     4
100
AcDbCircle
 10
405.445930107344
 20
1384.762441217695
 30
0.0
 40
0.1875
  0
CIRCLE
  5
158
330
6F
100
AcDbEntity
  8
9-0
  6
Continuous
 62
     4
100
AcDbCircle
 10
405.445930107344
 20
1384.762441217695
 30
0.0
 40
0.125
  0
CIRCLE
  5
159
330
6F
100
AcDbEntity
  8
9-0
  6
Continuous
 62
     4
100
AcDbCircle
 10
405.445930107344
 20
1384.762441217695
 30
0.0
 40
0.0625
  0
ARC
  5
15A
330
6F
100
AcDbEntity
  8
9-0
 62
     4
100
AcDbCircle
 10
405.4409301073439
 20
1384.762441217695
 30
0.0
 40
2.5
100
AcDbArc
 50
90.11459140653
 51
270.114591405945
  0
LINE
  5
15B
330
6F
100
AcDbEntity
  8
9-0
 62
     4
100
AcDbLine
 10
405.4459301073699
 20
1379.762441217695
 30
0.0
 11
405.445930107395
 21
1374.762441217695
 31
0.0
  0
CIRCLE
  5
15C
330
6F
100
AcDbEntity
  8
9-0
  6
Continuous
 62
     4
100
AcDbCircle
 10
405.445930107344
 20
1409.762441217695
 30
0.0
 40
0.25
  0
CIRCLE
  5
15D
330
6F
100
AcDbEntity
  8
9-0
  6
Continuous
 62
     4
100
AcDbCircle
 10
405.445930107344
 20
1409.762441217695
 30
0.0
 40
0.1875
  0
CIRCLE
  5
15E
330
6F
100
AcDbEntity
  8
9-0
  6
Continuous
 62
     4
100
AcDbCircle
 10
405.445930107344
 20
1409.762441217695
 30
0.0
 40
0.125
  0
CIRCLE
  5
15F
330
6F
100
AcDbEntity
  8
9-0
  6
Continuous
 62
     4
100
AcDbCircle
 10
405.445930107344
 20
1409.762441217695
 30
0.0
 40
0.0625
  0
ARC
  5
160
330
6F
100
AcDbEntity
  8
9-0
 62
     4
100
AcDbCircle
 10
405.450930107344
 20
1409.762441217695
 30
0.0
 40
2.5
100
AcDbArc
 50
270.1145914065301
 51
90.11459140594496
  0
LINE
  5
161
330
6F
100
AcDbEntity
  8
9-0
 62
     4
100
AcDbLine
 10
405.445930107268
 20
1414.762441217695
 30
0.0
 11
405.445930107191
 21
1419.762441217695
 31
0.0
  0
LINE
  5
162
330
6F
100
AcDbEntity
  8
9-0
  6
Continuous
 62
     4
100
AcDbLine
 10
435.445929828274
 20
1409.762441207137
 30
0.0
 11
305.445929828274
 21
1409.762441207137
 31
0.0
  0
LINE
  5
163
330
6F
100
AcDbEntity
  8
9-0
  6
Continuous
 62
     4
100
AcDbLine
 10
535.445929828274
 20
1499.762441207137
 30
0.0
 11
305.445929828274
 21
1499.762441207137
 31
0.0
  0
TEXT
  5
164
330
6F
100
AcDbEntity
  8
9-0
 62
     4
100
AcDbText
 10
304.8259999999999
 20
1432.362
 30
0.0
 40
36.288
  1
90
 50
90.0
100
AcDbText
  0
LINE
  5
165
330
6F
100
AcDbEntity
  8
9-0
  6
Continuous
 62
     4
100
AcDbLine
 10
305.445930107344
 20
1499.762441217695
 30
0.0
 11
305.445930107344
 21
1409.762441217695
 31
0.0
  0
CIRCLE
  5
166
330
6F
100
AcDbEntity
  8
9-0
  6
Continuous
 62
     4
100
AcDbCircle
 10
305.445930107344
 20
1499.762441217695
 30
0.0
 40
0.25
  0
CIRCLE
  5
167
330
6F
100
AcDbEntity
  8
9-0
  6
Continuous
 62
     4
100
AcDbCircle
 10
305.445930107344
 20
1499.762441217695
 30
0.0
 40
0.1875
  0
CIRCLE
  5
168
330
6F
100
AcDbEntity
  8
9-0
  6
Continuous
 62
     4
100
AcDbCircle
 10
305.445930107344
 20
1499.762441217695
 30
0.0
 40
0.125
  0
CIRCLE
  5
169
330
6F
100
AcDbEntity
  8
9-0
  6
Continuous
 62
     4
100
AcDbCircle
 10
305.445930107344
 20
1499.762441217695
 30
0.0
 40
0.0625
  0
CIRCLE
  5
16A
330
6F
100
AcDbEntity
  8
9-0
  6
Continuous
 62
     4
100
AcDbCircle
 10
305.445930107344
 20
1409.762441217695
 30
0.0
 40
0.25
  0
CIRCLE
  5
16B
330
6F
100
AcDbEntity
  8
9-0
  6
Continuous
 62
     4
100
AcDbCircle
 10
305.445930107344
 20
1409.762441217695
 30
0.0
 40
0.1875
  0
CIRCLE
  5
16C
330
6F
100
AcDbEntity
  8
9-0
  6
Continuous
 62
     4
100
AcDbCircle
 10
305.445930107344
 20
1409.762441217695
 30
0.0
 40
0.125
  0
CIRCLE
  5
16D
330
6F
100
AcDbEntity
  8
9-0
  6
Continuous
 62
     4
100
AcDbCircle
 10
305.445930107344
 20
1409.762441217695
 30
0.0
 40
0.0625
  0
LINE
  5
16E
330
6F
100
AcDbEntity
  8
2-0
  6
Continuous
 62
     7
100
AcDbLine
 10
552.945929778887
 20
1384.76244091507
 30
0.0
 11
552.945929778887
 21
1499.76244091507
 31
0.0
  0
LINE
  5
16F
330
6F
100
AcDbEntity
  8
2-0
  6
Continuous
 62
     7
100
AcDbLine
 10
1152.945929778887
 20
1499.76244091507
 30
0.0
 11
1152.945929778887
 21
1209.76244091507
 31
0.0
  0
LINE
  5
170
330
6F
100
AcDbEntity
  8
2-0
  6
Continuous
 62
     7
100
AcDbLine
 10
1152.945929778887
 20
2109.01603091507
 30
0.0
 11
1152.945929778887
 21
2568.01603091507
 31
0.0
  0
LINE
  5
171
330
6F
100
AcDbEntity
  8
9-0
  6
Continuous
 62
     4
100
AcDbLine
 10
1874.445929828274
 20
1229.762441207137
 30
0.0
 11
2004.445929828274
 21
1229.762441207137
 31
0.0
  0
LINE
  5
172
330
6F
100
AcDbEntity
  8
9-0
  6
Continuous
 62
     4
100
AcDbLine
 10
1874.445929828274
 20
609.762441207137
 30
0.0
 11
2004.445929828274
 21
609.762441207137
 31
0.0
  0
TEXT
  5
173
330
6F
100
AcDbEntity
  8
9-0
 62
     4
100
AcDbText
 10
2003.826
 20
886.162
 30
0.0
 40
36.288
  1
620
 50
90.0
100
AcDbText
  0
LINE
  5
174
330
6F
100
AcDbEntity
  8
9-0
  6
Continuous
 62
     4
100
AcDbLine
 10
2004.445930107344
 20
609.762441217695
 30
0.0
 11
2004.445930107344
 21
1229.762441217695
 31
0.0
  0
CIRCLE
  5
175
330
6F
100
AcDbEntity
  8
9-0
  6
Continuous
 62
     4
100
AcDbCircle
 10
2004.445930107344
 20
609.762441217695
 30
0.0
 40
0.25
  0
CIRCLE
  5
176
330
6F
100
AcDbEntity
  8
9-0
  6
Continuous
 62
     4
100
AcDbCircle
 10
2004.445930107344
 20
609.762441217695
 30
0.0
 40
0.1875
  0
CIRCLE
  5
177
330
6F
100
AcDbEntity
  8
9-0
  6
Continuous
 62
     4
100
AcDbCircle
 10
2004.445930107344
 20
609.762441217695
 30
0.0
 40
0.125
  0
CIRCLE
  5
178
330
6F
100
AcDbEntity
  8
9-0
  6
Continuous
 62
     4
100
AcDbCircle
 10
2004.445930107344
 20
609.762441217695
 30
0.0
 40
0.0625
  0
CIRCLE
  5
179
330
6F
100
AcDbEntity
  8
9-0
  6
Continuous
 62
     4
100
AcDbCircle
 10
2004.445930107344
 20
1229.762441217695
 30
0.0
 40
0.25
  0
CIRCLE
  5
17A
330
6F
100
AcDbEntity
  8
9-0
  6
Continuous
 62
     4
100
AcDbCircle
 10
2004.445930107344
 20
1229.762441217695
 30
0.0
 40
0.1875
  0
CIRCLE
  5
17B
330
6F
100
AcDbEntity
  8
9-0
  6
Continuous
 62
     4
100
AcDbCircle
 10
2004.445930107344
 20
1229.762441217695
 30
0.0
 40
0.125
  0
CIRCLE
  5
17C
330
6F
100
AcDbEntity
  8
9-0
  6
Continuous
 62
     4
100
AcDbCircle
 10
2004.445930107344
 20
1229.762441217695
 30
0.0
 40
0.0625
  0
LINE
  5
17D
330
6F
100
AcDbEntity
  8
2-0
  6
Continuous
 62
     7
100
AcDbLine
 10
1750.445929778887
 20
609.7624409150699
 30
0.0
 11
1750.445929778887
 21
1209.76244091507
 31
0.0
  0
LINE
  5
17E
330
6F
100
AcDbEntity
  8
9-0
  6
Continuous
 62
     4
100
AcDbLine
 10
1774.445929828274
 20
1204.762441207137
 30
0.0
 11
1904.445929828274
 21
1204.762441207137
 31
0.0
  0
LINE
  5
17F
330
6F
100
AcDbEntity
  8
9-0
  6
Continuous
 62
     4
100
AcDbLine
 10
1774.445929828274
 20
699.762441207137
 30
0.0
 11
1904.445929828274
 21
699.762441207137
 31
0.0
  0
TEXT
  5
180
330
6F
100
AcDbEntity
  8
9-0
 62
     4
100
AcDbText
 10
1903.826
 20
918.6619999999999
 30
0.0
 40
36.288
  1
505
 50
90.0
100
AcDbText
  0
LINE
  5
181
330
6F
100
AcDbEntity
  8
9-0
  6
Continuous
 62
     4
100
AcDbLine
 10
1904.445930107344
 20
699.762441217695
 30
0.0
 11
1904.445930107344
 21
1204.762441217695
 31
0.0
  0
CIRCLE
  5
182
330
6F
100
AcDbEntity
  8
9-0
  6
Continuous
 62
     4
100
AcDbCircle
 10
1904.445930107344
 20
699.762441217695
 30
0.0
 40
0.25
  0
CIRCLE
  5
183
330
6F
100
AcDbEntity
  8
9-0
  6
Continuous
 62
     4
100
AcDbCircle
 10
1904.445930107344
 20
699.762441217695
 30
0.0
 40
0.1875
  0
CIRCLE
  5
184
330
6F
100
AcDbEntity
  8
9-0
  6
Continuous
 62
     4
100
AcDbCircle
 10
1904.445930107344
 20
699.762441217695
 30
0.0
 40
0.125
  0
CIRCLE
  5
185
330
6F
100
AcDbEntity
  8
9-0
  6
Continuous
 62
     4
100
AcDbCircle
 10
1904.445930107344
 20
699.762441217695
 30
0.0
 40
0.0625
  0
CIRCLE
  5
186
330
6F
100
AcDbEntity
  8
9-0
  6
Continuous
 62
     4
100
AcDbCircle
 10
1904.445930107344
 20
1204.762441217695
 30
0.0
 40
0.25
  0
CIRCLE
  5
187
330
6F
100
AcDbEntity
  8
9-0
  6
Continuous
 62
     4
100
AcDbCircle
 10
1904.445930107344
 20
1204.762441217695
 30
0.0
 40
0.1875
  0
CIRCLE
  5
188
330
6F
100
AcDbEntity
  8
9-0
  6
Continuous
 62
     4
100
AcDbCircle
 10
1904.445930107344
 20
1204.762441217695
 30
0.0
 40
0.125
  0
CIRCLE
  5
189
330
6F
100
AcDbEntity
  8
9-0
  6
Continuous
 62
     4
100
AcDbCircle
 10
1904.445930107344
 20
1204.762441217695
 30
0.0
 40
0.0625
  0
LINE
  5
18A
330
6F
100
AcDbEntity
  8
9-0
  6
Continuous
 62
     4
100
AcDbLine
 10
1774.445929828274
 20
699.762441207137
 30
0.0
 11
1904.445929828274
 21
699.762441207137
 31
0.0
  0
LINE
  5
18B
330
6F
100
AcDbEntity
  8
9-0
  6
Continuous
 62
     4
100
AcDbLine
 10
1774.445929828274
 20
609.762441207137
 30
0.0
 11
1904.445929828274
 21
609.762441207137
 31
0.0
  0
TEXT
  5
18C
330
6F
100
AcDbEntity
  8
9-0
 62
     4
100
AcDbText
 10
1903.826
 20
632.362
 30
0.0
 40
36.288
  1
90
 50
90.0
100
AcDbText
  0
LINE
  5
18D
330
6F
100
AcDbEntity
  8
9-0
  6
Continuous
 62
     4
100
AcDbLine
 10
1904.445930107344
 20
609.762441217695
 30
0.0
 11
1904.445930107344
 21
699.762441217695
 31
0.0
  0
CIRCLE
  5
18E
330
6F
100
AcDbEntity
  8
9-0
  6
Continuous
 62
     4
100
AcDbCircle
 10
1904.445930107344
 20
609.762441217695
 30
0.0
 40
0.25
  0
CIRCLE
  5
18F
330
6F
100
AcDbEntity
  8
9-0
  6
Continuous
 62
     4
100
AcDbCircle
 10
1904.445930107344
 20
609.762441217695
 30
0.0
 40
0.1875
  0
CIRCLE
  5
190
330
6F
100
AcDbEntity
  8
9-0
  6
Continuous
 62
     4
100
AcDbCircle
 10
1904.445930107344
 20
609.762441217695
 30
0.0
 40
0.125
  0
CIRCLE
  5
191
330
6F
100
AcDbEntity
  8
9-0
  6
Continuous
 62
     4
100
AcDbCircle
 10
1904.445930107344
 20
609.762441217695
 30
0.0
 40
0.0625
  0
CIRCLE
  5
192
330
6F
100
AcDbEntity
  8
9-0
  6
Continuous
 62
     4
100
AcDbCircle
 10
1904.445930107344
 20
699.762441217695
 30
0.0
 40
0.25
  0
CIRCLE
  5
193
330
6F
100
AcDbEntity
  8
9-0
  6
Continuous
 62
     4
100
AcDbCircle
 10
1904.445930107344
 20
699.762441217695
 30
0.0
 40
0.1875
  0
CIRCLE
  5
194
330
6F
100
AcDbEntity
  8
9-0
  6
Continuous
 62
     4
100
AcDbCircle
 10
1904.445930107344
 20
699.762441217695
 30
0.0
 40
0.125
  0
CIRCLE
  5
195
330
6F
100
AcDbEntity
  8
9-0
  6
Continuous
 62
     4
100
AcDbCircle
 10
1904.445930107344
 20
699.762441217695
 30
0.0
 40
0.0625
  0
LINE
  5
196
330
6F
100
AcDbEntity
  8
2-0
  6
DASHED2
 62
     7
100
AcDbLine
 10
1735.445929778887
 20
714.76244091507
 30
0.0
 11
1735.445929778887
 21
836.59430191507
 31
0.0
  0
LINE
  5
197
330
6F
100
AcDbEntity
  8
9-0
  6
Continuous
 62
     4
100
AcDbLine
 10
1774.445929828274
 20
1229.762441207137
 30
0.0
 11
1904.445929828274
 21
1229.762441207137
 31
0.0
  0
LINE
  5
198
330
6F
100
AcDbEntity
  8
9-0
  6
Continuous
 62
     4
100
AcDbLine
 10
1774.445929828274
 20
1209.762441207137
 30
0.0
 11
1904.445929828274
 21
1209.762441207137
 31
0.0
  0
LINE
  5
199
330
6F
100
AcDbEntity
  8
9-0
  6
Continuous
 62
     4
100
AcDbLine
 10
1904.445929828274
 20
1239.762441207137
 30
0.0
 11
1904.445929828274
 21
1249.762441207137
 31
0.0
  0
LINE
  5
19A
330
6F
100
AcDbEntity
  8
9-0
  6
Continuous
 62
     4
100
AcDbLine
 10
1904.445929828274
 20
1199.762441207137
 30
0.0
 11
1904.445929828274
 21
1189.762441207137
 31
0.0
  0
LINE
  5
19B
330
6F
100
AcDbEntity
  8
9-0
  6
Continuous
 62
     4
100
AcDbLine
 10
1904.445929828274
 20
1219.762441207137
 30
0.0
 11
1974.445929828274
 21
1258.113635207137
 31
0.0
  0
LINE
  5
19C
330
6F
100
AcDbEntity
  8
9-0
  6
Continuous
 62
     4
100
AcDbLine
 10
1974.445929828274
 20
1258.113635207137
 30
0.0
 11
1974.445929828274
 21
1319.687239207137
 31
0.0
  0
TEXT
  5
19D
330
6F
100
AcDbEntity
  8
9-0
 62
     4
100
AcDbText
 10
1973.826
 20
1266.5
 30
0.0
 40
36.288
  1
20
 50
90.0
100
AcDbText
  0
LINE
  5
19E
330
6F
100
AcDbEntity
  8
9-0
  6
Continuous
 62
     4
100
AcDbLine
 10
1904.445929828274
 20
1229.762441207137
 30
0.0
 11
1904.445929828274
 21
1209.762441207137
 31
0.0
  0
LINE
  5
19F
330
6F
100
AcDbEntity
  8
9-0
  6
Continuous
 62
     4
100
AcDbLine
 10
1904.445929828274
 20
1229.762441207137
 30
0.0
 11
1904.445929828274
 21
1209.762441207137
 31
0.0
  0
CIRCLE
  5
1A0
330
6F
100
AcDbEntity
  8
9-0
  6
Continuous
 62
     4
100
AcDbCircle
 10
1904.445930107344
 20
1229.762441217695
 30
0.0
 40
0.25
  0
CIRCLE
  5
1A1
330
6F
100
AcDbEntity
  8
9-0
  6
Continuous
 62
     4
100
AcDbCircle
 10
1904.445930107344
 20
1229.762441217695
 30
0.0
 40
0.1875
  0
CIRCLE
  5
1A2
330
6F
100
AcDbEntity
  8
9-0
  6
Continuous
 62
     4
100
AcDbCircle
 10
1904.445930107344
 20
1229.762441217695
 30
0.0
 40
0.125
  0
CIRCLE
  5
1A3
330
6F
100
AcDbEntity
  8
9-0
  6
Continuous
 62
     4
100
AcDbCircle
 10
1904.445930107344
 20
1229.762441217695
 30
0.0
 40
0.0625
  0
ARC
  5
1A4
330
6F
100
AcDbEntity
  8
9-0
 62
     4
100
AcDbCircle
 10
1904.450930107344
 20
1229.762441217695
 30
0.0
 40
2.5
100
AcDbArc
 50
270.1145914065301
 51
90.11459140594496
  0
LINE
  5
1A5
330
6F
100
AcDbEntity
  8
9-0
 62
     4
100
AcDbLine
 10
1904.445930107268
 20
1234.762441217695
 30
0.0
 11
1904.445930107191
 21
1239.762441217695
 31
0.0
  0
CIRCLE
  5
1A6
330
6F
100
AcDbEntity
  8
9-0
  6
Continuous
 62
     4
100
AcDbCircle
 10
1904.445930107344
 20
1209.762441217695
 30
0.0
 40
0.25
  0
CIRCLE
  5
1A7
330
6F
100
AcDbEntity
  8
9-0
  6
Continuous
 62
     4
100
AcDbCircle
 10
1904.445930107344
 20
1209.762441217695
 30
0.0
 40
0.1875
  0
CIRCLE
  5
1A8
330
6F
100
AcDbEntity
  8
9-0
  6
Continuous
 62
     4
100
AcDbCircle
 10
1904.445930107344
 20
1209.762441217695
 30
0.0
 40
0.125
  0
CIRCLE
  5
1A9
330
6F
100
AcDbEntity
  8
9-0
  6
Continuous
 62
     4
100
AcDbCircle
 10
1904.445930107344
 20
1209.762441217695
 30
0.0
 40
0.0625
  0
ARC
  5
1AA
330
6F
100
AcDbEntity
  8
9-0
 62
     4
100
AcDbCircle
 10
1904.440930107344
 20
1209.762441217695
 30
0.0
 40
2.5
100
AcDbArc
 50
90.11459140653
 51
270.114591405945
  0
LINE
  5
1AB
330
6F
100
AcDbEntity
  8
9-0
 62
     4
100
AcDbLine
 10
1904.44593010737
 20
1204.762441217695
 30
0.0
 11
1904.445930107395
 21
1199.762441217695
 31
0.0
  0
LINE
  5
1AC
330
6F
100
AcDbEntity
  8
9-0
  6
Continuous
 62
     4
100
AcDbLine
 10
1774.445929828274
 20
1204.762441207137
 30
0.0
 11
1904.445929828274
 21
1204.762441207137
 31
0.0
  0
LINE
  5
1AD
330
6F
100
AcDbEntity
  8
9-0
  6
Continuous
 62
     4
100
AcDbLine
 10
1774.445929828274
 20
1209.762441207137
 30
0.0
 11
1904.445929828274
 21
1209.762441207137
 31
0.0
  0
LINE
  5
1AE
330
6F
100
AcDbEntity
  8
9-0
  6
Continuous
 62
     4
100
AcDbLine
 10
1904.445929828274
 20
1194.762441207137
 30
0.0
 11
1904.445929828274
 21
1184.762441207137
 31
0.0
  0
LINE
  5
1AF
330
6F
100
AcDbEntity
  8
9-0
  6
Continuous
 62
     4
100
AcDbLine
 10
1904.445929828274
 20
1219.762441207137
 30
0.0
 11
1904.445929828274
 21
1229.762441207137
 31
0.0
  0
LINE
  5
1B0
330
6F
100
AcDbEntity
  8
9-0
  6
Continuous
 62
     4
100
AcDbLine
 10
1904.445929828274
 20
1207.262441207137
 30
0.0
 11
1974.445929828274
 21
1176.192117207137
 31
0.0
  0
LINE
  5
1B1
330
6F
100
AcDbEntity
  8
9-0
  6
Continuous
 62
     4
100
AcDbLine
 10
1974.445929828274
 20
1176.192117207137
 30
0.0
 11
1974.445929828274
 21
1138.070290207137
 31
0.0
  0
TEXT
  5
1B2
330
6F
100
AcDbEntity
  8
9-0
 62
     4
100
AcDbText
 10
1973.826
 20
1145.931
 30
0.0
 40
36.288
  1
5
 50
90.0
100
AcDbText
  0
LINE
  5
1B3
330
6F
100
AcDbEntity
  8
9-0
  6
Continuous
 62
     4
100
AcDbLine
 10
1904.445929828274
 20
1204.762441207137
 30
0.0
 11
1904.445929828274
 21
1209.762441207137
 31
0.0
  0
LINE
  5
1B4
330
6F
100
AcDbEntity
  8
9-0
  6
Continuous
 62
     4
100
AcDbLine
 10
1904.445929828274
 20
1204.762441207137
 30
0.0
 11
1904.445929828274
 21
1209.762441207137
 31
0.0
  0
CIRCLE
  5
1B5
330
6F
100
AcDbEntity
  8
9-0
  6
Continuous
 62
     4
100
AcDbCircle
 10
1904.445930107344
 20
1204.762441217695
 30
0.0
 40
0.25
  0
CIRCLE
  5
1B6
330
6F
100
AcDbEntity
  8
9-0
  6
Continuous
 62
     4
100
AcDbCircle
 10
1904.445930107344
 20
1204.762441217695
 30
0.0
 40
0.1875
  0
CIRCLE
  5
1B7
330
6F
100
AcDbEntity
  8
9-0
  6
Continuous
 62
     4
100
AcDbCircle
 10
1904.445930107344
 20
1204.762441217695
 30
0.0
 40
0.125
  0
CIRCLE
  5
1B8
330
6F
100
AcDbEntity
  8
9-0
  6
Continuous
 62
     4
100
AcDbCircle
 10
1904.445930107344
 20
1204.762441217695
 30
0.0
 40
0.0625
  0
ARC
  5
1B9
330
6F
100
AcDbEntity
  8
9-0
 62
     4
100
AcDbCircle
 10
1904.440930107344
 20
1204.762441217695
 30
0.0
 40
2.5
100
AcDbArc
 50
90.11459140653
 51
270.114591405945
  0
LINE
  5
1BA
330
6F
100
AcDbEntity
  8
9-0
 62
     4
100
AcDbLine
 10
1904.44593010737
 20
1199.762441217695
 30
0.0
 11
1904.445930107395
 21
1194.762441217695
 31
0.0
  0
CIRCLE
  5
1BB
330
6F
100
AcDbEntity
  8
9-0
  6
Continuous
 62
     4
100
AcDbCircle
 10
1904.445930107344
 20
1209.762441217695
 30
0.0
 40
0.25
  0
CIRCLE
  5
1BC
330
6F
100
AcDbEntity
  8
9-0
  6
Continuous
 62
     4
100
AcDbCircle
 10
1904.445930107344
 20
1209.762441217695
 30
0.0
 40
0.1875
  0
CIRCLE
  5
1BD
330
6F
100
AcDbEntity
  8
9-0
  6
Continuous
 62
     4
100
AcDbCircle
 10
1904.445930107344
 20
1209.762441217695
 30
0.0
 40
0.125
  0
CIRCLE
  5
1BE
330
6F
100
AcDbEntity
  8
9-0
  6
Continuous
 62
     4
100
AcDbCircle
 10
1904.445930107344
 20
1209.762441217695
 30
0.0
 40
0.0625
  0
ARC
  5
1BF
330
6F
100
AcDbEntity
  8
9-0
 62
     4
100
AcDbCircle
 10
1904.450930107344
 20
1209.762441217695
 30
0.0
 40
2.5
100
AcDbArc
 50
270.1145914065301
 51
90.11459140594496
  0
LINE
  5
1C0
330
6F
100
AcDbEntity
  8
9-0
 62
     4
100
AcDbLine
 10
1904.445930107268
 20
1214.762441217695
 30
0.0
 11
1904.445930107191
 21
1219.762441217695
 31
0.0
  0
LINE
  5
1C1
330
6F
100
AcDbEntity
  8
9-0
  6
Continuous
 62
     4
100
AcDbLine
 10
1752.945929828274
 20
1189.762441207137
 30
0.0
 11
1752.945929828274
 21
1059.762441207137
 31
0.0
  0
LINE
  5
1C2
330
6F
100
AcDbEntity
  8
9-0
  6
Continuous
 62
     4
100
AcDbLine
 10
1750.445929828274
 20
1189.762441207137
 30
0.0
 11
1750.445929828274
 21
1059.762441207137
 31
0.0
  0
LINE
  5
1C3
330
6F
100
AcDbEntity
  8
9-0
  6
Continuous
 62
     4
100
AcDbLine
 10
1762.945929828274
 20
1059.762441207137
 30
0.0
 11
1772.945929828274
 21
1059.762441207137
 31
0.0
  0
LINE
  5
1C4
330
6F
100
AcDbEntity
  8
9-0
  6
Continuous
 62
     4
100
AcDbLine
 10
1740.445929828274
 20
1059.762441207137
 30
0.0
 11
1730.445929828274
 21
1059.762441207137
 31
0.0
  0
LINE
  5
1C5
330
6F
100
AcDbEntity
  8
9-0
  6
Continuous
 62
     4
100
AcDbLine
 10
1751.695929828274
 20
1059.762441207137
 30
0.0
 11
1777.555781828274
 21
999.762441207137
 31
0.0
  0
LINE
  5
1C6
330
6F
100
AcDbEntity
  8
9-0
  6
Continuous
 62
     4
100
AcDbLine
 10
1777.555781828274
 20
999.762441207137
 30
0.0
 11
1860.982177828274
 21
999.762441207137
 31
0.0
  0
TEXT
  5
1C7
330
6F
100
AcDbEntity
  8
9-0
 62
     4
100
AcDbText
 10
1788.491
 20
1000.382
 30
0.0
 40
36.288
  1
2.5
100
AcDbText
  0
LINE
  5
1C8
330
6F
100
AcDbEntity
  8
9-0
  6
Continuous
 62
     4
100
AcDbLine
 10
1752.945929828274
 20
1059.762441207137
 30
0.0
 11
1750.445929828274
 21
1059.762441207137
 31
0.0
  0
LINE
  5
1C9
330
6F
100
AcDbEntity
  8
9-0
  6
Continuous
 62
     4
100
AcDbLine
 10
1752.945929828274
 20
1059.762441207137
 30
0.0
 11
1750.445929828274
 21
1059.762441207137
 31
0.0
  0
CIRCLE
  5
1CA
330
6F
100
AcDbEntity
  8
9-0
  6
Continuous
 62
     4
100
AcDbCircle
 10
1752.945930107344
 20
1059.7624412177
 30
0.0
 40
0.25
  0
CIRCLE
  5
1CB
330
6F
100
AcDbEntity
  8
9-0
  6
Continuous
 62
     4
100
AcDbCircle
 10
1752.945930107344
 20
1059.7624412177
 30
0.0
 40
0.1875
  0
CIRCLE
  5
1CC
330
6F
100
AcDbEntity
  8
9-0
  6
Continuous
 62
     4
100
AcDbCircle
 10
1752.945930107344
 20
1059.7624412177
 30
0.0
 40
0.125
  0
CIRCLE
  5
1CD
330
6F
100
AcDbEntity
  8
9-0
  6
Continuous
 62
     4
100
AcDbCircle
 10
1752.945930107344
 20
1059.7624412177
 30
0.0
 40
0.0625
  0
ARC
  5
1CE
330
6F
100
AcDbEntity
  8
9-0
 62
     4
100
AcDbCircle
 10
1752.945930107344
 20
1059.7574412177
 30
0.0
 40
2.5
100
AcDbArc
 50
180.1145914065301
 51
0.1145914059449637
  0
LINE
  5
1CF
330
6F
100
AcDbEntity
  8
9-0
 62
     4
100
AcDbLine
 10
1757.945930107344
 20
1059.762441217751
 30
0.0
 11
1762.945930107344
 21
1059.762441217802
 31
0.0
  0
CIRCLE
  5
1D0
330
6F
100
AcDbEntity
  8
9-0
  6
Continuous
 62
     4
100
AcDbCircle
 10
1750.445930107344
 20
1059.7624412177
 30
0.0
 40
0.25
  0
CIRCLE
  5
1D1
330
6F
100
AcDbEntity
  8
9-0
  6
Continuous
 62
     4
100
AcDbCircle
 10
1750.445930107344
 20
1059.7624412177
 30
0.0
 40
0.1875
  0
CIRCLE
  5
1D2
330
6F
100
AcDbEntity
  8
9-0
  6
Continuous
 62
     4
100
AcDbCircle
 10
1750.445930107344
 20
1059.7624412177
 30
0.0
 40
0.125
  0
CIRCLE
  5
1D3
330
6F
100
AcDbEntity
  8
9-0
  6
Continuous
 62
     4
100
AcDbCircle
 10
1750.445930107344
 20
1059.7624412177
 30
0.0
 40
0.0625
  0
ARC
  5
1D4
330
6F
100
AcDbEntity
  8
9-0
 62
     4
100
AcDbCircle
 10
1750.445930107344
 20
1059.7674412177
 30
0.0
 40
2.5
100
AcDbArc
 50
0.1145914065300158
 51
180.114591405945
  0
LINE
  5
1D5
330
6F
100
AcDbEntity
  8
9-0
 62
     4
100
AcDbLine
 10
1745.445930107344
 20
1059.7624412177
 30
0.0
 11
1740.445930107344
 21
1059.7624412177
 31
0.0
  0
LINE
  5
1D6
330
6F
100
AcDbEntity
  8
2-0
  6
Continuous
 62
     7
100
AcDbLine
 10
1752.945929778887
 20
1209.76244091507
 30
0.0
 11
1752.945929778887
 21
1229.76244091507
 31
0.0
  0
LINE
  5
1D7
330
6F
100
AcDbEntity
  8
2-0
  6
Continuous
 62
     7
100
AcDbLine
 10
1752.945929778887
 20
2116.01603091507
 30
0.0
 11
1752.945929778887
 21
2568.01603091507
 31
0.0
  0
LINE
  5
1D8
330
6F
100
AcDbEntity
  8
9-0
  6
Continuous
 62
     4
100
AcDbLine
 10
1772.945929828274
 20
2568.016030207137
 30
0.0
 11
1907.966875828274
 21
2568.016030207137
 31
0.0
  0
LINE
  5
1D9
330
6F
100
AcDbEntity
  8
9-0
  6
Continuous
 62
     4
100
AcDbLine
 10
1775.445929828274
 20
2116.016030207137
 30
0.0
 11
1907.966875828274
 21
2116.016030207137
 31
0.0
  0
TEXT
  5
1DA
330
6F
100
AcDbEntity
  8
9-0
 62
     4
100
AcDbText
 10
1907.347
 20
2308.416
 30
0.0
 40
36.288
  1
452
 50
90.0
100
AcDbText
  0
LINE
  5
1DB
330
6F
100
AcDbEntity
  8
9-0
  6
Continuous
 62
     4
100
AcDbLine
 10
1907.966875373695
 20
2116.016030500999
 30
0.0
 11
1907.966875373695
 21
2568.016030500999
 31
0.0
  0
CIRCLE
  5
1DC
330
6F
100
AcDbEntity
  8
9-0
  6
Continuous
 62
     4
100
AcDbCircle
 10
1907.966875373695
 20
2116.016030500999
 30
0.0
 40
0.25
  0
CIRCLE
  5
1DD
330
6F
100
AcDbEntity
  8
9-0
  6
Continuous
 62
     4
100
AcDbCircle
 10
1907.966875373695
 20
2116.016030500999
 30
0.0
 40
0.1875
  0
CIRCLE
  5
1DE
330
6F
100
AcDbEntity
  8
9-0
  6
Continuous
 62
     4
100
AcDbCircle
 10
1907.966875373695
 20
2116.016030500999
 30
0.0
 40
0.125
  0
CIRCLE
  5
1DF
330
6F
100
AcDbEntity
  8
9-0
  6
Continuous
 62
     4
100
AcDbCircle
 10
1907.966875373695
 20
2116.016030500999
 30
0.0
 40
0.0625
  0
CIRCLE
  5
1E0
330
6F
100
AcDbEntity
  8
9-0
  6
Continuous
 62
     4
100
AcDbCircle
 10
1907.966875373695
 20
2568.016030500999
 30
0.0
 40
0.25
  0
CIRCLE
  5
1E1
330
6F
100
AcDbEntity
  8
9-0
  6
Continuous
 62
     4
100
AcDbCircle
 10
1907.966875373695
 20
2568.016030500999
 30
0.0
 40
0.1875
  0
CIRCLE
  5
1E2
330
6F
100
AcDbEntity
  8
9-0
  6
Continuous
 62
     4
100
AcDbCircle
 10
1907.966875373695
 20
2568.016030500999
 30
0.0
 40
0.125
  0
CIRCLE
  5
1E3
330
6F
100
AcDbEntity
  8
9-0
  6
Continuous
 62
     4
100
AcDbCircle
 10
1907.966875373695
 20
2568.016030500999
 30
0.0
 40
0.0625
  0
LINE
  5
1E4
330
6F
100
AcDbEntity
  8
9-0
  6
Continuous
 62
     4
100
AcDbLine
 10
1775.407298828274
 20
2108.016030207137
 30
0.0
 11
1907.966875828274
 21
2108.016030207137
 31
0.0
  0
LINE
  5
1E5
330
6F
100
AcDbEntity
  8
9-0
  6
Continuous
 62
     4
100
AcDbLine
 10
1775.445929828274
 20
2116.016030207137
 30
0.0
 11
1907.966875828274
 21
2116.016030207137
 31
0.0
  0
TEXT
  5
1E6
330
6F
100
AcDbEntity
  8
9-0
 62
     4
100
AcDbText
 10
1974.847
 20
2140.305
 30
0.0
 40
36.288
  1
8
 50
90.0
100
AcDbText
  0
LINE
  5
1E7
330
6F
100
AcDbEntity
  8
9-0
  6
Continuous
 62
     4
100
AcDbLine
 10
1907.966875373695
 20
2116.016030500999
 30
0.0
 11
1907.966875373695
 21
2108.016030500999
 31
0.0
  0
CIRCLE
  5
1E8
330
6F
100
AcDbEntity
  8
9-0
  6
Continuous
 62
     4
100
AcDbCircle
 10
1907.966875373695
 20
2116.016030500999
 30
0.0
 40
0.25
  0
CIRCLE
  5
1E9
330
6F
100
AcDbEntity
  8
9-0
  6
Continuous
 62
     4
100
AcDbCircle
 10
1907.966875373695
 20
2116.016030500999
 30
0.0
 40
0.1875
  0
CIRCLE
  5
1EA
330
6F
100
AcDbEntity
  8
9-0
  6
Continuous
 62
     4
100
AcDbCircle
 10
1907.966875373695
 20
2116.016030500999
 30
0.0
 40
0.125
  0
CIRCLE
  5
1EB
330
6F
100
AcDbEntity
  8
9-0
  6
Continuous
 62
     4
100
AcDbCircle
 10
1907.966875373695
 20
2116.016030500999
 30
0.0
 40
0.0625
  0
CIRCLE
  5
1EC
330
6F
100
AcDbEntity
  8
9-0
  6
Continuous
 62
     4
100
AcDbCircle
 10
1907.966875373695
 20
2108.016030500999
 30
0.0
 40
0.25
  0
CIRCLE
  5
1ED
330
6F
100
AcDbEntity
  8
9-0
  6
Continuous
 62
     4
100
AcDbCircle
 10
1907.966875373695
 20
2108.016030500999
 30
0.0
 40
0.1875
  0
CIRCLE
  5
1EE
330
6F
100
AcDbEntity
  8
9-0
  6
Continuous
 62
     4
100
AcDbCircle
 10
1907.966875373695
 20
2108.016030500999
 30
0.0
 40
0.125
  0
CIRCLE
  5
1EF
330
6F
100
AcDbEntity
  8
9-0
  6
Continuous
 62
     4
100
AcDbCircle
 10
1907.966875373695
 20
2108.016030500999
 30
0.0
 40
0.0625
  0
LINE
  5
1F0
330
6F
100
AcDbEntity
  8
C-0
  6
Continuous
 62
     5
100
AcDbLine
 10
2825.916047778887
 20
2720.08946291507
 30
0.0
 11
2825.916047778887
 21
2020.08946291507
 31
0.0
  0
LINE
  5
1F1
330
6F
100
AcDbEntity
  8
2-0
  6
Continuous
 62
     7
100
AcDbLine
 10
1230.189032778887
 20
1471.13352591507
 30
0.0
 11
1491.969640778887
 21
1471.13352591507
 31
0.0
  0
LINE
  5
1F2
330
6F
100
AcDbEntity
  8
2-0
  6
Continuous
 62
     7
100
AcDbLine
 10
1152.945929778887
 20
1334.18013991507
 30
0.0
 11
1158.875081778887
 21
1364.99603291507
 31
0.0
  0
LINE
  5
1F3
330
6F
100
AcDbEntity
  8
2-0
  6
Continuous
 62
     7
100
AcDbLine
 10
1230.189032778887
 20
1471.13352591507
 30
0.0
 11
1152.945929778887
 21
1334.18013991507
 31
0.0
  0
TEXT
  5
1F4
330
6F
100
AcDbEntity
  8
C-0
 62
     5
100
AcDbText
 10
1230.374
 20
1486.354
 30
0.0
 40
25.92
  1
側面ステンレス貼
100
AcDbText
  0
LINE
  5
1F5
330
6F
100
AcDbEntity
  8
C-0
  6
Continuous
 62
     5
100
AcDbLine
 10
2825.916047778887
 20
2670.08946291507
 30
0.0
 11
3920.950439778887
 21
2670.08946291507
 31
0.0
  0
LINE
  5
1F6
330
6F
100
AcDbEntity
  8
C-0
  6
Continuous
 62
     5
100
AcDbLine
 10
2825.916047778887
 20
2620.08946291507
 30
0.0
 11
3920.950439778887
 21
2620.08946291507
 31
0.0
  0
LINE
  5
1F7
330
6F
100
AcDbEntity
  8
C-0
  6
Continuous
 62
     5
100
AcDbLine
 10
2825.916047778887
 20
2470.08946291507
 30
0.0
 11
3920.950439778887
 21
2470.08946291507
 31
0.0
  0
LINE
  5
1F8
330
6F
100
AcDbEntity
  8
C-0
  6
Continuous
 62
     5
100
AcDbLine
 10
2825.916047778887
 20
2720.08946291507
 30
0.0
 11
3920.950439778887
 21
2720.08946291507
 31
0.0
  0
TEXT
  5
1F9
330
6F
100
AcDbEntity
  8
C-0
 62
     5
100
AcDbText
 10
2865.507
 20
1907.535
 30
0.0
 40
25.92
  1
※　弊社製品はすべてF☆☆☆☆に対応しております。
100
AcDbText
  0
LINE
  5
1FA
330
6F
100
AcDbEntity
  8
C-0
  6
Continuous
 62
     5
100
AcDbLine
 10
2825.916047778887
 20
2020.08946291507
 30
0.0
 11
3920.950439778887
 21
2020.08946291507
 31
0.0
  0
LINE
  5
1FB
330
6F
100
AcDbEntity
  8
C-0
  6
Continuous
 62
     5
100
AcDbLine
 10
2825.916047778887
 20
2070.08946291507
 30
0.0
 11
3920.950439778887
 21
2070.08946291507
 31
0.0
  0
LINE
  5
1FC
330
6F
100
AcDbEntity
  8
C-0
  6
Continuous
 62
     5
100
AcDbLine
 10
2825.916047778887
 20
2120.08946291507
 30
0.0
 11
3920.950439778887
 21
2120.08946291507
 31
0.0
  0
LINE
  5
1FD
330
6F
100
AcDbEntity
  8
C-0
  6
Continuous
 62
     5
100
AcDbLine
 10
2825.916047778887
 20
2170.08946291507
 30
0.0
 11
3920.950439778887
 21
2170.08946291507
 31
0.0
  0
LINE
  5
1FE
330
6F
100
AcDbEntity
  8
C-0
  6
Continuous
 62
     5
100
AcDbLine
 10
2825.916047778887
 20
2220.08946291507
 30
0.0
 11
3920.950439778887
 21
2220.08946291507
 31
0.0
  0
TEXT
  5
1FF
330
6F
100
AcDbEntity
  8
C-0
 62
     5
100
AcDbText
 10
2865.507
 20
2082.535
 30
0.0
 40
25.92
  1
ホース
100
AcDbText
  0
TEXT
  5
200
330
6F
100
AcDbEntity
  8
C-0
 62
     5
100
AcDbText
 10
2865.507
 20
2032.535
 30
0.0
 40
25.92
  1
包丁差し
100
AcDbText
  0
TEXT
  5
201
330
6F
100
AcDbEntity
  8
C-0
 62
     5
100
AcDbText
 10
2865.507
 20
2182.535
 30
0.0
 40
25.92
  1
丁番
100
AcDbText
  0
TEXT
  5
202
330
6F
100
AcDbEntity
  8
C-0
 62
     5
100
AcDbText
 10
2865.507
 20
2132.535
 30
0.0
 40
25.92
  1
排水金具
100
AcDbText
  0
TEXT
  5
203
330
6F
100
AcDbEntity
  8
C-0
 62
     5
100
AcDbText
 10
2865.507
 20
2432.535
 30
0.0
 40
25.92
  1
扉
100
AcDbText
  0
TEXT
  5
204
330
6F
100
AcDbEntity
  8
C-0
 62
     5
100
AcDbText
 10
2865.507
 20
2582.535
 30
0.0
 40
25.92
  1
木部本体
100
AcDbText
  0
TEXT
  5
205
330
6F
100
AcDbEntity
  8
C-0
 62
     5
100
AcDbText
 10
2865.507
 20
2632.535
 30
0.0
 40
25.92
  1
シンク
100
AcDbText
  0
TEXT
  5
206
330
6F
100
AcDbEntity
  8
C-0
 62
     5
100
AcDbText
 10
2865.507
 20
2682.535
 30
0.0
 40
25.92
  1
天板
100
AcDbText
  0
TEXT
  5
207
330
6F
100
AcDbEntity
  8
C-0
 62
     5
100
AcDbText
 10
3199.927000000001
 20
2082.535
 30
0.0
 40
25.92
  1
塩化ビニール蛇腹30Φｘ80ｃｍ（回転板付）
100
AcDbText
  0
LINE
  5
208
330
6F
100
AcDbEntity
  8
C-0
  6
Continuous
 62
     5
100
AcDbLine
 10
3920.950439778887
 20
2720.08946291507
 30
0.0
 11
3920.950439778887
 21
2020.08946291507
 31
0.0
  0
LINE
  5
209
330
6F
100
AcDbEntity
  8
C-0
  6
Continuous
 62
     5
100
AcDbLine
 10
3169.799425778887
 20
2720.08946291507
 30
0.0
 11
3169.799425778887
 21
2020.08946291507
 31
0.0
  0
TEXT
  5
20A
330
6F
100
AcDbEntity
  8
C-0
 62
     5
100
AcDbText
 10
3038.266
 20
2332.535
 30
0.0
 40
25.92
  1
裏
100
AcDbText
  0
TEXT
  5
20B
330
6F
100
AcDbEntity
  8
C-0
 62
     5
100
AcDbText
 10
3199.927000000001
 20
2332.535
 30
0.0
 40
25.92
  1
ウレタンコート化粧ボード（PB)
100
AcDbText
  0
LINE
  5
20C
330
6F
100
AcDbEntity
  8
C-0
  6
Continuous
 62
     5
100
AcDbLine
 10
3018.326999778887
 20
2620.08946291507
 30
0.0
 11
3018.326999778887
 21
2220.08946291507
 31
0.0
  0
TEXT
  5
20D
330
6F
100
AcDbEntity
  8
C-0
 62
     5
100
AcDbText
 10
3199.927000000001
 20
2282.535
 30
0.0
 40
25.92
  1
木口テープ巻
100
AcDbText
  0
TEXT
  5
20E
330
6F
100
AcDbEntity
  8
C-0
 62
     5
100
AcDbText
 10
3199.927000000001
 20
2182.535
 30
0.0
 40
25.92
  1
スライドヒンジ
100
AcDbText
  0
TEXT
  5
20F
330
6F
100
AcDbEntity
  8
C-0
 62
     5
100
AcDbText
 10
3038.266
 20
2282.535
 30
0.0
 40
25.92
  1
木口
100
AcDbText
  0
TEXT
  5
210
330
6F
100
AcDbEntity
  8
C-0
 62
     5
100
AcDbText
 10
3199.927000000001
 20
2532.535
 30
0.0
 40
25.92
  1
クリーンイーゴスMDF
100
AcDbText
  0
TEXT
  5
211
330
6F
100
AcDbEntity
  8
C-0
 62
     5
100
AcDbText
 10
3199.927000000001
 20
2482.535
 30
0.0
 40
25.92
  1
EBコート化粧板
100
AcDbText
  0
TEXT
  5
212
330
6F
100
AcDbEntity
  8
C-0
 62
     5
100
AcDbText
 10
3199.927000000001
 20
2432.535
 30
0.0
 40
25.92
  1
プレコート化粧ボード（PB)
100
AcDbText
  0
TEXT
  5
213
330
6F
100
AcDbEntity
  8
C-0
 62
     5
100
AcDbText
 10
3199.927000000001
 20
2582.535
 30
0.0
 40
25.92
  1
ウレタンコート化粧ボード（PB)
100
AcDbText
  0
TEXT
  5
214
330
6F
100
AcDbEntity
  8
C-0
 62
     5
100
AcDbText
 10
3038.266
 20
2482.535
 30
0.0
 40
25.92
  1
地板
100
AcDbText
  0
TEXT
  5
215
330
6F
100
AcDbEntity
  8
C-0
 62
     5
100
AcDbText
 10
3038.266
 20
2432.535
 30
0.0
 40
25.92
  1
表
100
AcDbText
  0
TEXT
  5
216
330
6F
100
AcDbEntity
  8
C-0
 62
     5
100
AcDbText
 10
3038.266
 20
2582.535
 30
0.0
 40
25.92
  1
側板
100
AcDbText
  0
TEXT
  5
217
330
6F
100
AcDbEntity
  8
C-0
 62
     5
100
AcDbText
 10
3038.266
 20
2532.535
 30
0.0
 40
25.92
  1
背板
100
AcDbText
  0
TEXT
  5
218
330
6F
100
AcDbEntity
  8
C-0
 62
     5
100
AcDbText
 10
3199.927000000001
 20
2682.535
 30
0.0
 40
25.92
  1
SUS-430 ステンレス0.5ｔ（エンボス仕上）
100
AcDbText
  0
TEXT
  5
219
330
6F
100
AcDbEntity
  8
C-0
 62
     5
100
AcDbText
 10
3199.927000000001
 20
2632.535
 30
0.0
 40
25.92
  1
SUS-430 ステンレス0.4ｔ　静音シンク
100
AcDbText
  0
TEXT
  5
21A
330
6F
100
AcDbEntity
  8
C-0
 62
     5
100
AcDbText
 10
3040.289
 20
2233.389
 30
0.0
 40
25.92
  1
取っ手
100
AcDbText
  0
LINE
  5
21B
330
6F
100
AcDbEntity
  8
9-0
  6
Continuous
 62
     4
100
AcDbLine
 10
532.9459298282739
 20
2140.016030207137
 30
0.0
 11
402.9459298282739
 21
2140.016030207137
 31
0.0
  0
LINE
  5
21C
330
6F
100
AcDbEntity
  8
9-0
  6
Continuous
 62
     4
100
AcDbLine
 10
530.4459298282739
 20
2108.016030207137
 30
0.0
 11
402.9459298282739
 21
2108.016030207137
 31
0.0
  0
TEXT
  5
21D
330
6F
100
AcDbEntity
  8
9-0
 62
     4
100
AcDbText
 10
369.826
 20
2141.886
 30
0.0
 40
36.288
  1
32
 50
90.0
100
AcDbText
  0
LINE
  5
21E
330
6F
100
AcDbEntity
  8
9-0
  6
Continuous
 62
     4
100
AcDbLine
 10
402.945930107344
 20
2108.016030500999
 30
0.0
 11
402.945930107344
 21
2140.016030501
 31
0.0
  0
CIRCLE
  5
21F
330
6F
100
AcDbEntity
  8
9-0
  6
Continuous
 62
     4
100
AcDbCircle
 10
402.945930107344
 20
2108.016030500999
 30
0.0
 40
0.25
  0
CIRCLE
  5
220
330
6F
100
AcDbEntity
  8
9-0
  6
Continuous
 62
     4
100
AcDbCircle
 10
402.945930107344
 20
2108.016030500999
 30
0.0
 40
0.1875
  0
CIRCLE
  5
221
330
6F
100
AcDbEntity
  8
9-0
  6
Continuous
 62
     4
100
AcDbCircle
 10
402.945930107344
 20
2108.016030500999
 30
0.0
 40
0.125
  0
CIRCLE
  5
222
330
6F
100
AcDbEntity
  8
9-0
  6
Continuous
 62
     4
100
AcDbCircle
 10
402.945930107344
 20
2108.016030500999
 30
0.0
 40
0.0625
  0
CIRCLE
  5
223
330
6F
100
AcDbEntity
  8
9-0
  6
Continuous
 62
     4
100
AcDbCircle
 10
402.945930107344
 20
2140.016030501
 30
0.0
 40
0.25
  0
CIRCLE
  5
224
330
6F
100
AcDbEntity
  8
9-0
  6
Continuous
 62
     4
100
AcDbCircle
 10
402.945930107344
 20
2140.016030501
 30
0.0
 40
0.1875
  0
CIRCLE
  5
225
330
6F
100
AcDbEntity
  8
9-0
  6
Continuous
 62
     4
100
AcDbCircle
 10
402.945930107344
 20
2140.016030501
 30
0.0
 40
0.125
  0
CIRCLE
  5
226
330
6F
100
AcDbEntity
  8
9-0
  6
Continuous
 62
     4
100
AcDbCircle
 10
402.945930107344
 20
2140.016030501
 30
0.0
 40
0.0625
  0
LINE
  5
227
330
6F
100
AcDbEntity
  8
2-0
  6
Continuous
 62
     7
100
AcDbLine
 10
552.945929778887
 20
2568.01603091507
 30
0.0
 11
552.945929778887
 21
2108.01603091507
 31
0.0
  0
LINE
  5
228
330
6F
100
AcDbEntity
  8
2-0
  6
Continuous
 62
     7
100
AcDbLine
 10
552.945929778887
 20
2108.01603091507
 30
0.0
 11
1152.945929778887
 21
2108.01603091507
 31
0.0
  0
LINE
  5
229
330
6F
100
AcDbEntity
  8
9-0
  6
Continuous
 62
     4
100
AcDbLine
 10
1120.445929828274
 20
2088.016030207137
 30
0.0
 11
1120.445929828274
 21
1958.016030207137
 31
0.0
  0
LINE
  5
22A
330
6F
100
AcDbEntity
  8
9-0
  6
Continuous
 62
     4
100
AcDbLine
 10
585.445929828274
 20
2088.016030207137
 30
0.0
 11
585.445929828274
 21
1958.016030207137
 31
0.0
  0
TEXT
  5
22B
330
6F
100
AcDbEntity
  8
9-0
 62
     4
100
AcDbText
 10
822.168
 20
1958.636
 30
0.0
 40
36.288
  1
535
100
AcDbText
  0
LINE
  5
22C
330
6F
100
AcDbEntity
  8
9-0
  6
Continuous
 62
     4
100
AcDbLine
 10
585.445930107341
 20
1958.016030500992
 30
0.0
 11
1120.445930107344
 21
1958.016030500992
 31
0.0
  0
CIRCLE
  5
22D
330
6F
100
AcDbEntity
  8
9-0
  6
Continuous
 62
     4
100
AcDbCircle
 10
585.445930107341
 20
1958.016030500992
 30
0.0
 40
0.25
  0
CIRCLE
  5
22E
330
6F
100
AcDbEntity
  8
9-0
  6
Continuous
 62
     4
100
AcDbCircle
 10
585.445930107341
 20
1958.016030500992
 30
0.0
 40
0.1875
  0
CIRCLE
  5
22F
330
6F
100
AcDbEntity
  8
9-0
  6
Continuous
 62
     4
100
AcDbCircle
 10
585.445930107341
 20
1958.016030500992
 30
0.0
 40
0.125
  0
CIRCLE
  5
230
330
6F
100
AcDbEntity
  8
9-0
  6
Continuous
 62
     4
100
AcDbCircle
 10
585.445930107341
 20
1958.016030500992
 30
0.0
 40
0.0625
  0
CIRCLE
  5
231
330
6F
100
AcDbEntity
  8
9-0
  6
Continuous
 62
     4
100
AcDbCircle
 10
1120.445930107344
 20
1958.016030500992
 30
0.0
 40
0.25
  0
CIRCLE
  5
232
330
6F
100
AcDbEntity
  8
9-0
  6
Continuous
 62
     4
100
AcDbCircle
 10
1120.445930107344
 20
1958.016030500992
 30
0.0
 40
0.1875
  0
CIRCLE
  5
233
330
6F
100
AcDbEntity
  8
9-0
  6
Continuous
 62
     4
100
AcDbCircle
 10
1120.445930107344
 20
1958.016030500992
 30
0.0
 40
0.125
  0
CIRCLE
  5
234
330
6F
100
AcDbEntity
  8
9-0
  6
Continuous
 62
     4
100
AcDbCircle
 10
1120.445930107344
 20
1958.016030500992
 30
0.0
 40
0.0625
  0
LINE
  5
235
330
6F
100
AcDbEntity
  8
9-0
  6
Continuous
 62
     4
100
AcDbLine
 10
552.9459298282739
 20
2088.016030207137
 30
0.0
 11
552.9459298282739
 21
1958.016030207137
 31
0.0
  0
LINE
  5
236
330
6F
100
AcDbEntity
  8
9-0
  6
Continuous
 62
     4
100
AcDbLine
 10
585.445929828274
 20
2088.016030207137
 30
0.0
 11
585.445929828274
 21
1958.016030207137
 31
0.0
  0
TEXT
  5
237
330
6F
100
AcDbEntity
  8
9-0
 62
     4
100
AcDbText
 10
600.6409999999999
 20
1891.136
 30
0.0
 40
36.288
  1
32.5
100
AcDbText
  0
LINE
  5
238
330
6F
100
AcDbEntity
  8
9-0
  6
Continuous
 62
     4
100
AcDbLine
 10
585.445930107341
 20
1958.016030500992
 30
0.0
 11
552.945930107344
 21
1958.016030500992
 31
0.0
  0
CIRCLE
  5
239
330
6F
100
AcDbEntity
  8
9-0
  6
Continuous
 62
     4
100
AcDbCircle
 10
585.445930107341
 20
1958.016030500992
 30
0.0
 40
0.25
  0
CIRCLE
  5
23A
330
6F
100
AcDbEntity
  8
9-0
  6
Continuous
 62
     4
100
AcDbCircle
 10
585.445930107341
 20
1958.016030500992
 30
0.0
 40
0.1875
  0
CIRCLE
  5
23B
330
6F
100
AcDbEntity
  8
9-0
  6
Continuous
 62
     4
100
AcDbCircle
 10
585.445930107341
 20
1958.016030500992
 30
0.0
 40
0.125
  0
CIRCLE
  5
23C
330
6F
100
AcDbEntity
  8
9-0
  6
Continuous
 62
     4
100
AcDbCircle
 10
585.445930107341
 20
1958.016030500992
 30
0.0
 40
0.0625
  0
CIRCLE
  5
23D
330
6F
100
AcDbEntity
  8
9-0
  6
Continuous
 62
     4
100
AcDbCircle
 10
552.945930107344
 20
1958.016030500992
 30
0.0
 40
0.25
  0
CIRCLE
  5
23E
330
6F
100
AcDbEntity
  8
9-0
  6
Continuous
 62
     4
100
AcDbCircle
 10
552.945930107344
 20
1958.016030500992
 30
0.0
 40
0.1875
  0
CIRCLE
  5
23F
330
6F
100
AcDbEntity
  8
9-0
  6
Continuous
 62
     4
100
AcDbCircle
 10
552.945930107344
 20
1958.016030500992
 30
0.0
 40
0.125
  0
CIRCLE
  5
240
330
6F
100
AcDbEntity
  8
9-0
  6
Continuous
 62
     4
100
AcDbCircle
 10
552.945930107344
 20
1958.016030500992
 30
0.0
 40
0.0625
  0
LINE
  5
241
330
6F
100
AcDbEntity
  8
9-0
  6
Continuous
 62
     4
100
AcDbLine
 10
1120.445929828274
 20
2088.016030207137
 30
0.0
 11
1120.445929828274
 21
1958.016030207137
 31
0.0
  0
LINE
  5
242
330
6F
100
AcDbEntity
  8
9-0
  6
Continuous
 62
     4
100
AcDbLine
 10
1152.945929828274
 20
2088.016030207137
 30
0.0
 11
1152.945929828274
 21
1958.016030207137
 31
0.0
  0
LINE
  5
243
330
6F
100
AcDbEntity
  8
9-0
  6
Continuous
 62
     4
100
AcDbLine
 10
1110.445929828274
 20
1958.016030207137
 30
0.0
 11
1100.445929828274
 21
1958.016030207137
 31
0.0
  0
LINE
  5
244
330
6F
100
AcDbEntity
  8
9-0
  6
Continuous
 62
     4
100
AcDbLine
 10
1162.945929828274
 20
1958.016030207137
 30
0.0
 11
1172.945929828274
 21
1958.016030207137
 31
0.0
  0
LINE
  5
245
330
6F
100
AcDbEntity
  8
9-0
  6
Continuous
 62
     4
100
AcDbLine
 10
1136.695929828274
 20
1958.016030207137
 30
0.0
 11
1098.068551828274
 21
1894.744171207137
 31
0.0
  0
LINE
  5
246
330
6F
100
AcDbEntity
  8
9-0
  6
Continuous
 62
     4
100
AcDbLine
 10
1098.068551828274
 20
1894.744171207137
 30
0.0
 11
991.7233748282738
 21
1894.744171207137
 31
0.0
  0
TEXT
  5
247
330
6F
100
AcDbEntity
  8
9-0
 62
     4
100
AcDbText
 10
1002.918
 20
1895.364
 30
0.0
 40
36.288
  1
32.5
100
AcDbText
  0
LINE
  5
248
330
6F
100
AcDbEntity
  8
9-0
  6
Continuous
 62
     4
100
AcDbLine
 10
1120.445929828274
 20
1958.016030207137
 30
0.0
 11
1152.945929828274
 21
1958.016030207137
 31
0.0
  0
LINE
  5
249
330
6F
100
AcDbEntity
  8
9-0
  6
Continuous
 62
     4
100
AcDbLine
 10
1120.445929828274
 20
1958.016030207137
 30
0.0
 11
1152.945929828274
 21
1958.016030207137
 31
0.0
  0
CIRCLE
  5
24A
330
6F
100
AcDbEntity
  8
9-0
  6
Continuous
 62
     4
100
AcDbCircle
 10
1120.445930107344
 20
1958.016030500992
 30
0.0
 40
0.25
  0
CIRCLE
  5
24B
330
6F
100
AcDbEntity
  8
9-0
  6
Continuous
 62
     4
100
AcDbCircle
 10
1120.445930107344
 20
1958.016030500992
 30
0.0
 40
0.1875
  0
CIRCLE
  5
24C
330
6F
100
AcDbEntity
  8
9-0
  6
Continuous
 62
     4
100
AcDbCircle
 10
1120.445930107344
 20
1958.016030500992
 30
0.0
 40
0.125
  0
CIRCLE
  5
24D
330
6F
100
AcDbEntity
  8
9-0
  6
Continuous
 62
     4
100
AcDbCircle
 10
1120.445930107344
 20
1958.016030500992
 30
0.0
 40
0.0625
  0
ARC
  5
24E
330
6F
100
AcDbEntity
  8
9-0
 62
     4
100
AcDbCircle
 10
1120.445930107344
 20
1958.021030500992
 30
0.0
 40
2.5
100
AcDbArc
 50
0.1145914065300158
 51
180.114591405945
  0
LINE
  5
24F
330
6F
100
AcDbEntity
  8
9-0
 62
     4
100
AcDbLine
 10
1115.445930107344
 20
1958.016030500992
 30
0.0
 11
1110.445930107344
 21
1958.016030500992
 31
0.0
  0
CIRCLE
  5
250
330
6F
100
AcDbEntity
  8
9-0
  6
Continuous
 62
     4
100
AcDbCircle
 10
1152.945930107344
 20
1958.016030500992
 30
0.0
 40
0.25
  0
CIRCLE
  5
251
330
6F
100
AcDbEntity
  8
9-0
  6
Continuous
 62
     4
100
AcDbCircle
 10
1152.945930107344
 20
1958.016030500992
 30
0.0
 40
0.1875
  0
CIRCLE
  5
252
330
6F
100
AcDbEntity
  8
9-0
  6
Continuous
 62
     4
100
AcDbCircle
 10
1152.945930107344
 20
1958.016030500992
 30
0.0
 40
0.125
  0
CIRCLE
  5
253
330
6F
100
AcDbEntity
  8
9-0
  6
Continuous
 62
     4
100
AcDbCircle
 10
1152.945930107344
 20
1958.016030500992
 30
0.0
 40
0.0625
  0
ARC
  5
254
330
6F
100
AcDbEntity
  8
9-0
 62
     4
100
AcDbCircle
 10
1152.945930107344
 20
1958.011030500992
 30
0.0
 40
2.5
100
AcDbArc
 50
180.1145914065301
 51
0.1145914059449637
  0
LINE
  5
255
330
6F
100
AcDbEntity
  8
9-0
 62
     4
100
AcDbLine
 10
1157.945930107344
 20
1958.016030501043
 30
0.0
 11
1162.945930107344
 21
1958.016030501094
 31
0.0
  0
LINE
  5
256
330
6F
100
AcDbEntity
  8
2-0
  6
Continuous
 62
     7
100
AcDbLine
 10
1152.945929778887
 20
2543.01603091507
 30
0.0
 11
552.945929778887
 21
2543.01603091507
 31
0.0
  0
ARC
  5
257
330
6F
100
AcDbEntity
  8
2-0
  6
Continuous
 62
     7
100
AcDbCircle
 10
595.960292778887
 20
2325.01328691507
 30
0.0
 40
524.533833
100
AcDbArc
 50
349.67090728159
 51
10.32970190774397
  0
ARC
  5
258
330
6F
100
AcDbEntity
  8
2-0
  6
Continuous
 62
     7
100
AcDbCircle
 10
1013.683261778887
 20
2400.75810191507
 30
0.0
 40
100.0
100
AcDbArc
 50
10.55068023964994
 51
83.40719648217897
  0
ARC
  5
259
330
6F
100
AcDbEntity
  8
2-0
  6
Continuous
 62
     7
100
AcDbCircle
 10
852.950255778887
 20
1010.01653091507
 30
0.0
 40
1500.0
100
AcDbArc
 50
83.40736282829395
 51
96.59296986393302
  0
ARC
  5
25A
330
6F
100
AcDbEntity
  8
2-0
  6
Continuous
 62
     7
100
AcDbCircle
 10
692.208598778887
 20
2400.75810191507
 30
0.0
 40
100.0
100
AcDbArc
 50
96.59280351781998
 51
169.4493197603489
  0
ARC
  5
25B
330
6F
100
AcDbEntity
  8
2-0
  6
Continuous
 62
     7
100
AcDbCircle
 10
1109.932567778887
 20
2325.01328691507
 30
0.0
 40
524.533833
100
AcDbArc
 50
169.6702980922559
 51
190.32909271841
  0
ARC
  5
25C
330
6F
100
AcDbEntity
  8
2-0
  6
Continuous
 62
     7
100
AcDbCircle
 10
692.208598778887
 20
2249.27395891507
 30
0.0
 40
100.0
100
AcDbArc
 50
190.5506802396519
 51
263.40719648218
  0
ARC
  5
25D
330
6F
100
AcDbEntity
  8
2-0
  6
Continuous
 62
     7
100
AcDbCircle
 10
852.945929778887
 20
3640.01603091507
 30
0.0
 40
1500.0
100
AcDbArc
 50
263.40719648218
 51
276.592803517819
  0
ARC
  5
25E
330
6F
100
AcDbEntity
  8
2-0
  6
Continuous
 62
     7
100
AcDbCircle
 10
1013.683261778887
 20
2249.27395891507
 30
0.0
 40
100.0
100
AcDbArc
 50
276.592803517822
 51
349.4493197603511
  0
LINE
  5
25F
330
6F
100
AcDbEntity
  8
9-0
  6
Continuous
 62
     4
100
AcDbLine
 10
532.9459298282739
 20
2543.016030207137
 30
0.0
 11
402.9459298282739
 21
2543.016030207137
 31
0.0
  0
LINE
  5
260
330
6F
100
AcDbEntity
  8
9-0
  6
Continuous
 62
     4
100
AcDbLine
 10
532.9459298282739
 20
2510.016030207137
 30
0.0
 11
402.9459298282739
 21
2510.016030207137
 31
0.0
  0
LINE
  5
261
330
6F
100
AcDbEntity
  8
9-0
  6
Continuous
 62
     4
100
AcDbLine
 10
402.9459298282739
 20
2553.016030207138
 30
0.0
 11
402.9459298282739
 21
2563.016030207137
 31
0.0
  0
LINE
  5
262
330
6F
100
AcDbEntity
  8
9-0
  6
Continuous
 62
     4
100
AcDbLine
 10
402.9459298282739
 20
2500.016030207137
 30
0.0
 11
402.9459298282739
 21
2490.016030207137
 31
0.0
  0
LINE
  5
263
330
6F
100
AcDbEntity
  8
9-0
  6
Continuous
 62
     4
100
AcDbLine
 10
402.9459298282739
 20
2526.516030207137
 30
0.0
 11
364.350393828274
 21
2509.919465207138
 31
0.0
  0
LINE
  5
264
330
6F
100
AcDbEntity
  8
9-0
  6
Continuous
 62
     4
100
AcDbLine
 10
364.350393828274
 20
2509.919465207138
 30
0.0
 11
364.350393828274
 21
2449.056521207137
 31
0.0
  0
TEXT
  5
265
330
6F
100
AcDbEntity
  8
9-0
 62
     4
100
AcDbText
 10
363.73
 20
2457.088
 30
0.0
 40
36.288
  1
33
 50
90.0
100
AcDbText
  0
LINE
  5
266
330
6F
100
AcDbEntity
  8
9-0
  6
Continuous
 62
     4
100
AcDbLine
 10
402.9459298282739
 20
2543.016030207137
 30
0.0
 11
402.9459298282739
 21
2510.016030207137
 31
0.0
  0
LINE
  5
267
330
6F
100
AcDbEntity
  8
9-0
  6
Continuous
 62
     4
100
AcDbLine
 10
402.9459298282739
 20
2543.016030207137
 30
0.0
 11
402.9459298282739
 21
2510.016030207137
 31
0.0
  0
CIRCLE
  5
268
330
6F
100
AcDbEntity
  8
9-0
  6
Continuous
 62
     4
100
AcDbCircle
 10
402.945930107344
 20
2543.016030500999
 30
0.0
 40
0.25
  0
CIRCLE
  5
269
330
6F
100
AcDbEntity
  8
9-0
  6
Continuous
 62
     4
100
AcDbCircle
 10
402.945930107344
 20
2543.016030500999
 30
0.0
 40
0.1875
  0
CIRCLE
  5
26A
330
6F
100
AcDbEntity
  8
9-0
  6
Continuous
 62
     4
100
AcDbCircle
 10
402.945930107344
 20
2543.016030500999
 30
0.0
 40
0.125
  0
CIRCLE
  5
26B
330
6F
100
AcDbEntity
  8
9-0
  6
Continuous
 62
     4
100
AcDbCircle
 10
402.945930107344
 20
2543.016030500999
 30
0.0
 40
0.0625
  0
ARC
  5
26C
330
6F
100
AcDbEntity
  8
9-0
 62
     4
100
AcDbCircle
 10
402.9509301073439
 20
2543.016030500999
 30
0.0
 40
2.5
100
AcDbArc
 50
270.1145914065301
 51
90.11459140594496
  0
LINE
  5
26D
330
6F
100
AcDbEntity
  8
9-0
 62
     4
100
AcDbLine
 10
402.9459301072679
 20
2548.016030501
 30
0.0
 11
402.945930107191
 21
2553.016030500999
 31
0.0
  0
CIRCLE
  5
26E
330
6F
100
AcDbEntity
  8
9-0
  6
Continuous
 62
     4
100
AcDbCircle
 10
402.945930107344
 20
2510.016030500999
 30
0.0
 40
0.25
  0
CIRCLE
  5
26F
330
6F
100
AcDbEntity
  8
9-0
  6
Continuous
 62
     4
100
AcDbCircle
 10
402.945930107344
 20
2510.016030500999
 30
0.0
 40
0.1875
  0
CIRCLE
  5
270
330
6F
100
AcDbEntity
  8
9-0
  6
Continuous
 62
     4
100
AcDbCircle
 10
402.945930107344
 20
2510.016030500999
 30
0.0
 40
0.125
  0
CIRCLE
  5
271
330
6F
100
AcDbEntity
  8
9-0
  6
Continuous
 62
     4
100
AcDbCircle
 10
402.945930107344
 20
2510.016030500999
 30
0.0
 40
0.0625
  0
ARC
  5
272
330
6F
100
AcDbEntity
  8
9-0
 62
     4
100
AcDbCircle
 10
402.940930107344
 20
2510.016030500999
 30
0.0
 40
2.5
100
AcDbArc
 50
90.11459140653
 51
270.114591405945
  0
LINE
  5
273
330
6F
100
AcDbEntity
  8
9-0
 62
     4
100
AcDbLine
 10
402.9459301073699
 20
2505.016030500999
 30
0.0
 11
402.945930107395
 21
2500.016030500999
 31
0.0
  0
LINE
  5
274
330
6F
100
AcDbEntity
  8
9-0
  6
Continuous
 62
     4
100
AcDbLine
 10
532.9459298282739
 20
2140.016030207137
 30
0.0
 11
402.9459298282739
 21
2140.016030207137
 31
0.0
  0
LINE
  5
275
330
6F
100
AcDbEntity
  8
9-0
  6
Continuous
 62
     4
100
AcDbLine
 10
532.9459298282739
 20
2510.016030207137
 30
0.0
 11
402.9459298282739
 21
2510.016030207137
 31
0.0
  0
TEXT
  5
276
330
6F
100
AcDbEntity
  8
9-0
 62
     4
100
AcDbText
 10
402.3259999999999
 20
2291.416
 30
0.0
 40
36.288
  1
370
 50
90.0
100
AcDbText
  0
LINE
  5
277
330
6F
100
AcDbEntity
  8
9-0
  6
Continuous
 62
     4
100
AcDbLine
 10
402.945930107344
 20
2510.016030500999
 30
0.0
 11
402.945930107344
 21
2140.016030501
 31
0.0
  0
CIRCLE
  5
278
330
6F
100
AcDbEntity
  8
9-0
  6
Continuous
 62
     4
100
AcDbCircle
 10
402.945930107344
 20
2510.016030500999
 30
0.0
 40
0.25
  0
CIRCLE
  5
279
330
6F
100
AcDbEntity
  8
9-0
  6
Continuous
 62
     4
100
AcDbCircle
 10
402.945930107344
 20
2510.016030500999
 30
0.0
 40
0.1875
  0
CIRCLE
  5
27A
330
6F
100
AcDbEntity
  8
9-0
  6
Continuous
 62
     4
100
AcDbCircle
 10
402.945930107344
 20
2510.016030500999
 30
0.0
 40
0.125
  0
CIRCLE
  5
27B
330
6F
100
AcDbEntity
  8
9-0
  6
Continuous
 62
     4
100
AcDbCircle
 10
402.945930107344
 20
2510.016030500999
 30
0.0
 40
0.0625
  0
CIRCLE
  5
27C
330
6F
100
AcDbEntity
  8
9-0
  6
Continuous
 62
     4
100
AcDbCircle
 10
402.945930107344
 20
2140.016030501
 30
0.0
 40
0.25
  0
CIRCLE
  5
27D
330
6F
100
AcDbEntity
  8
9-0
  6
Continuous
 62
     4
100
AcDbCircle
 10
402.945930107344
 20
2140.016030501
 30
0.0
 40
0.1875
  0
CIRCLE
  5
27E
330
6F
100
AcDbEntity
  8
9-0
  6
Continuous
 62
     4
100
AcDbCircle
 10
402.945930107344
 20
2140.016030501
 30
0.0
 40
0.125
  0
CIRCLE
  5
27F
330
6F
100
AcDbEntity
  8
9-0
  6
Continuous
 62
     4
100
AcDbCircle
 10
402.945930107344
 20
2140.016030501
 30
0.0
 40
0.0625
  0
LINE
  5
280
330
6F
100
AcDbEntity
  8
9-0
  6
Continuous
 62
     4
100
AcDbLine
 10
532.9459298282739
 20
2543.016030207137
 30
0.0
 11
402.9459298282739
 21
2543.016030207137
 31
0.0
  0
LINE
  5
281
330
6F
100
AcDbEntity
  8
9-0
  6
Continuous
 62
     4
100
AcDbLine
 10
530.4459298282739
 20
2568.016030207137
 30
0.0
 11
402.9459298282739
 21
2568.016030207137
 31
0.0
  0
LINE
  5
282
330
6F
100
AcDbEntity
  8
9-0
  6
Continuous
 62
     4
100
AcDbLine
 10
402.9459298282739
 20
2533.016030207138
 30
0.0
 11
402.9459298282739
 21
2523.016030207137
 31
0.0
  0
LINE
  5
283
330
6F
100
AcDbEntity
  8
9-0
  6
Continuous
 62
     4
100
AcDbLine
 10
402.9459298282739
 20
2578.016030207137
 30
0.0
 11
402.9459298282739
 21
2588.016030207138
 31
0.0
  0
LINE
  5
284
330
6F
100
AcDbEntity
  8
9-0
  6
Continuous
 62
     4
100
AcDbLine
 10
402.9459298282739
 20
2555.516030207137
 30
0.0
 11
358.888215828274
 21
2589.487009207138
 31
0.0
  0
LINE
  5
285
330
6F
100
AcDbEntity
  8
9-0
  6
Continuous
 62
     4
100
AcDbLine
 10
358.888215828274
 20
2589.487009207138
 30
0.0
 11
358.888215828274
 21
2650.172289207137
 31
0.0
  0
TEXT
  5
286
330
6F
100
AcDbEntity
  8
9-0
 62
     4
100
AcDbText
 10
358.268
 20
2597.43
 30
0.0
 40
36.288
  1
25
 50
90.0
100
AcDbText
  0
LINE
  5
287
330
6F
100
AcDbEntity
  8
9-0
  6
Continuous
 62
     4
100
AcDbLine
 10
402.9459298282739
 20
2543.016030207137
 30
0.0
 11
402.9459298282739
 21
2568.016030207137
 31
0.0
  0
LINE
  5
288
330
6F
100
AcDbEntity
  8
9-0
  6
Continuous
 62
     4
100
AcDbLine
 10
402.9459298282739
 20
2543.016030207137
 30
0.0
 11
402.9459298282739
 21
2568.016030207137
 31
0.0
  0
CIRCLE
  5
289
330
6F
100
AcDbEntity
  8
9-0
  6
Continuous
 62
     4
100
AcDbCircle
 10
402.945930107344
 20
2543.016030500999
 30
0.0
 40
0.25
  0
CIRCLE
  5
28A
330
6F
100
AcDbEntity
  8
9-0
  6
Continuous
 62
     4
100
AcDbCircle
 10
402.945930107344
 20
2543.016030500999
 30
0.0
 40
0.1875
  0
CIRCLE
  5
28B
330
6F
100
AcDbEntity
  8
9-0
  6
Continuous
 62
     4
100
AcDbCircle
 10
402.945930107344
 20
2543.016030500999
 30
0.0
 40
0.125
  0
CIRCLE
  5
28C
330
6F
100
AcDbEntity
  8
9-0
  6
Continuous
 62
     4
100
AcDbCircle
 10
402.945930107344
 20
2543.016030500999
 30
0.0
 40
0.0625
  0
ARC
  5
28D
330
6F
100
AcDbEntity
  8
9-0
 62
     4
100
AcDbCircle
 10
402.940930107344
 20
2543.016030500999
 30
0.0
 40
2.5
100
AcDbArc
 50
90.11459140653
 51
270.114591405945
  0
LINE
  5
28E
330
6F
100
AcDbEntity
  8
9-0
 62
     4
100
AcDbLine
 10
402.9459301073699
 20
2538.016030500999
 30
0.0
 11
402.945930107395
 21
2533.016030500999
 31
0.0
  0
CIRCLE
  5
28F
330
6F
100
AcDbEntity
  8
9-0
  6
Continuous
 62
     4
100
AcDbCircle
 10
402.945930107344
 20
2568.016030500999
 30
0.0
 40
0.25
  0
CIRCLE
  5
290
330
6F
100
AcDbEntity
  8
9-0
  6
Continuous
 62
     4
100
AcDbCircle
 10
402.945930107344
 20
2568.016030500999
 30
0.0
 40
0.1875
  0
CIRCLE
  5
291
330
6F
100
AcDbEntity
  8
9-0
  6
Continuous
 62
     4
100
AcDbCircle
 10
402.945930107344
 20
2568.016030500999
 30
0.0
 40
0.125
  0
CIRCLE
  5
292
330
6F
100
AcDbEntity
  8
9-0
  6
Continuous
 62
     4
100
AcDbCircle
 10
402.945930107344
 20
2568.016030500999
 30
0.0
 40
0.0625
  0
ARC
  5
293
330
6F
100
AcDbEntity
  8
9-0
 62
     4
100
AcDbCircle
 10
402.9509301073439
 20
2568.016030500999
 30
0.0
 40
2.5
100
AcDbArc
 50
270.1145914065301
 51
90.11459140594496
  0
LINE
  5
294
330
6F
100
AcDbEntity
  8
9-0
 62
     4
100
AcDbLine
 10
402.9459301072679
 20
2573.016030500999
 30
0.0
 11
402.945930107191
 21
2578.016030500999
 31
0.0
  0
LINE
  5
295
330
6F
100
AcDbEntity
  8
A-0
  6
CENTER
 62
     6
100
AcDbLine
 10
970.445929778887
 20
2245.01603091507
 30
0.0
 11
970.445929778887
 21
2645.01603091507
 31
0.0
  0
LINE
  5
296
330
6F
100
AcDbEntity
  8
9-0
  6
Continuous
 62
     4
100
AcDbLine
 10
552.9459298282739
 20
2588.016030207138
 30
0.0
 11
552.9459298282739
 21
2648.016030207137
 31
0.0
  0
LINE
  5
297
330
6F
100
AcDbEntity
  8
9-0
  6
Continuous
 62
     4
100
AcDbLine
 10
970.445929828274
 20
2647.777150207137
 30
0.0
 11
970.445929828274
 21
2648.016030207137
 31
0.0
  0
TEXT
  5
298
330
6F
100
AcDbEntity
  8
9-0
 62
     4
100
AcDbText
 10
708.518
 20
2648.636
 30
0.0
 40
36.288
  1
417.5
100
AcDbText
  0
LINE
  5
299
330
6F
100
AcDbEntity
  8
9-0
  6
Continuous
 62
     4
100
AcDbLine
 10
970.445930107342
 20
2648.016030500999
 30
0.0
 11
552.945930107344
 21
2648.016030500999
 31
0.0
  0
CIRCLE
  5
29A
330
6F
100
AcDbEntity
  8
9-0
  6
Continuous
 62
     4
100
AcDbCircle
 10
970.445930107342
 20
2648.016030500999
 30
0.0
 40
0.25
  0
CIRCLE
  5
29B
330
6F
100
AcDbEntity
  8
9-0
  6
Continuous
 62
     4
100
AcDbCircle
 10
970.445930107342
 20
2648.016030500999
 30
0.0
 40
0.1875
  0
CIRCLE
  5
29C
330
6F
100
AcDbEntity
  8
9-0
  6
Continuous
 62
     4
100
AcDbCircle
 10
970.445930107342
 20
2648.016030500999
 30
0.0
 40
0.125
  0
CIRCLE
  5
29D
330
6F
100
AcDbEntity
  8
9-0
  6
Continuous
 62
     4
100
AcDbCircle
 10
970.445930107342
 20
2648.016030500999
 30
0.0
 40
0.0625
  0
CIRCLE
  5
29E
330
6F
100
AcDbEntity
  8
9-0
  6
Continuous
 62
     4
100
AcDbCircle
 10
552.945930107344
 20
2648.016030500999
 30
0.0
 40
0.25
  0
CIRCLE
  5
29F
330
6F
100
AcDbEntity
  8
9-0
  6
Continuous
 62
     4
100
AcDbCircle
 10
552.945930107344
 20
2648.016030500999
 30
0.0
 40
0.1875
  0
CIRCLE
  5
2A0
330
6F
100
AcDbEntity
  8
9-0
  6
Continuous
 62
     4
100
AcDbCircle
 10
552.945930107344
 20
2648.016030500999
 30
0.0
 40
0.125
  0
CIRCLE
  5
2A1
330
6F
100
AcDbEntity
  8
9-0
  6
Continuous
 62
     4
100
AcDbCircle
 10
552.945930107344
 20
2648.016030500999
 30
0.0
 40
0.0625
  0
LINE
  5
2A2
330
6F
100
AcDbEntity
  8
A-0
  6
CENTER
 62
     6
100
AcDbLine
 10
1120.493625778887
 20
2325.01603091507
 30
0.0
 11
890.445929778887
 21
2325.01603091507
 31
0.0
  0
LINE
  5
2A3
330
6F
100
AcDbEntity
  8
2-0
  6
Continuous
 62
     7
100
AcDbLine
 10
877.8793889480791
 20
2166.790346720109
 30
0.0
 11
970.4459301073411
 21
2325.016030500998
 31
0.0
  0
LINE
  5
2A4
330
6F
100
AcDbEntity
  8
2-0
  6
Continuous
 62
     7
100
AcDbLine
 10
970.4459301073411
 20
2325.016030500998
 30
0.0
 11
944.6579588948981
 21
2305.215577544847
 31
0.0
  0
CIRCLE
  5
2A5
330
6F
100
AcDbEntity
  8
2-0
  6
Continuous
 62
     7
100
AcDbCircle
 10
970.445929778887
 20
2325.01603091507
 30
0.0
 40
90.0
  0
CIRCLE
  5
2A6
330
6F
100
AcDbEntity
  8
2-0
  6
Continuous
 62
     7
100
AcDbCircle
 10
970.445929778887
 20
2325.01603091507
 30
0.0
 40
80.0
  0
TEXT
  5
2A7
330
6F
100
AcDbEntity
  8
C-0
 62
     5
100
AcDbText
 10
916.6809999999999
 20
2178.112
 30
0.0
 40
25.92
  1
床板排水芯
100
AcDbText
  0
LINE
  5
2A8
330
6F
100
AcDbEntity
  8
2-0
  6
Continuous
 62
     7
100
AcDbLine
 10
877.879388778887
 20
2166.79034691507
 30
0.0
 11
1099.138137778887
 21
2166.79034691507
 31
0.0
  0
LINE
  5
2A9
330
6F
100
AcDbEntity
  8
9-0
  6
Continuous
 62
     4
100
AcDbLine
 10
826.772528828274
 20
2568.016030207137
 30
0.0
 11
802.8209038282739
 21
2568.016030207137
 31
0.0
  0
LINE
  5
2AA
330
6F
100
AcDbEntity
  8
9-0
  6
Continuous
 62
     4
100
AcDbLine
 10
855.431663828274
 20
2325.016030207137
 30
0.0
 11
802.8209038282739
 21
2325.016030207137
 31
0.0
  0
TEXT
  5
2AB
330
6F
100
AcDbEntity
  8
9-0
 62
     4
100
AcDbText
 10
802.2009999999999
 20
2412.916
 30
0.0
 40
36.288
  1
243
 50
90.0
100
AcDbText
  0
LINE
  5
2AC
330
6F
100
AcDbEntity
  8
9-0
  6
Continuous
 62
     4
100
AcDbLine
 10
802.8209042500149
 20
2325.016030500999
 30
0.0
 11
802.8209042500149
 21
2568.016030500999
 31
0.0
  0
CIRCLE
  5
2AD
330
6F
100
AcDbEntity
  8
9-0
  6
Continuous
 62
     4
100
AcDbCircle
 10
802.8209042500149
 20
2325.016030500999
 30
0.0
 40
0.25
  0
CIRCLE
  5
2AE
330
6F
100
AcDbEntity
  8
9-0
  6
Continuous
 62
     4
100
AcDbCircle
 10
802.8209042500149
 20
2325.016030500999
 30
0.0
 40
0.1875
  0
CIRCLE
  5
2AF
330
6F
100
AcDbEntity
  8
9-0
  6
Continuous
 62
     4
100
AcDbCircle
 10
802.8209042500149
 20
2325.016030500999
 30
0.0
 40
0.125
  0
CIRCLE
  5
2B0
330
6F
100
AcDbEntity
  8
9-0
  6
Continuous
 62
     4
100
AcDbCircle
 10
802.8209042500149
 20
2325.016030500999
 30
0.0
 40
0.0625
  0
CIRCLE
  5
2B1
330
6F
100
AcDbEntity
  8
9-0
  6
Continuous
 62
     4
100
AcDbCircle
 10
802.8209042500149
 20
2568.016030500999
 30
0.0
 40
0.25
  0
CIRCLE
  5
2B2
330
6F
100
AcDbEntity
  8
9-0
  6
Continuous
 62
     4
100
AcDbCircle
 10
802.8209042500149
 20
2568.016030500999
 30
0.0
 40
0.1875
  0
CIRCLE
  5
2B3
330
6F
100
AcDbEntity
  8
9-0
  6
Continuous
 62
     4
100
AcDbCircle
 10
802.8209042500149
 20
2568.016030500999
 30
0.0
 40
0.125
  0
CIRCLE
  5
2B4
330
6F
100
AcDbEntity
  8
9-0
  6
Continuous
 62
     4
100
AcDbCircle
 10
802.8209042500149
 20
2568.016030500999
 30
0.0
 40
0.0625
  0
LINE
  5
2B5
330
6F
100
AcDbEntity
  8
A-0
  6
CENTER
 62
     6
100
AcDbLine
 10
852.945929778887
 20
1601.79982891507
 30
0.0
 11
852.945929778887
 21
996.13636091507
 31
0.0
  0
LINE
  5
2B6
330
6F
100
AcDbEntity
  8
9-0
  6
Continuous
 62
     4
100
AcDbLine
 10
1750.445929828274
 20
489.762441207137
 30
0.0
 11
1750.445929828274
 21
339.762441207137
 31
0.0
  0
LINE
  5
2B7
330
6F
100
AcDbEntity
  8
9-0
  6
Continuous
 62
     4
100
AcDbLine
 10
555.4459298282739
 20
489.762441207137
 30
0.0
 11
555.4459298282739
 21
339.762441207137
 31
0.0
  0
TEXT
  5
2B8
330
6F
100
AcDbEntity
  8
9-0
 62
     4
100
AcDbText
 10
1110.968
 20
340.382
 30
0.0
 40
36.288
  1
1195
100
AcDbText
  0
LINE
  5
2B9
330
6F
100
AcDbEntity
  8
9-0
  6
Continuous
 62
     4
100
AcDbLine
 10
555.445930107344
 20
339.762441217695
 30
0.0
 11
1750.445930107342
 21
339.762441217695
 31
0.0
  0
CIRCLE
  5
2BA
330
6F
100
AcDbEntity
  8
9-0
  6
Continuous
 62
     4
100
AcDbCircle
 10
555.445930107344
 20
339.762441217695
 30
0.0
 40
0.25
  0
CIRCLE
  5
2BB
330
6F
100
AcDbEntity
  8
9-0
  6
Continuous
 62
     4
100
AcDbCircle
 10
555.445930107344
 20
339.762441217695
 30
0.0
 40
0.1875
  0
CIRCLE
  5
2BC
330
6F
100
AcDbEntity
  8
9-0
  6
Continuous
 62
     4
100
AcDbCircle
 10
555.445930107344
 20
339.762441217695
 30
0.0
 40
0.125
  0
CIRCLE
  5
2BD
330
6F
100
AcDbEntity
  8
9-0
  6
Continuous
 62
     4
100
AcDbCircle
 10
555.445930107344
 20
339.762441217695
 30
0.0
 40
0.0625
  0
CIRCLE
  5
2BE
330
6F
100
AcDbEntity
  8
9-0
  6
Continuous
 62
     4
100
AcDbCircle
 10
1750.445930107342
 20
339.762441217695
 30
0.0
 40
0.25
  0
CIRCLE
  5
2BF
330
6F
100
AcDbEntity
  8
9-0
  6
Continuous
 62
     4
100
AcDbCircle
 10
1750.445930107342
 20
339.762441217695
 30
0.0
 40
0.1875
  0
CIRCLE
  5
2C0
330
6F
100
AcDbEntity
  8
9-0
  6
Continuous
 62
     4
100
AcDbCircle
 10
1750.445930107342
 20
339.762441217695
 30
0.0
 40
0.125
  0
CIRCLE
  5
2C1
330
6F
100
AcDbEntity
  8
9-0
  6
Continuous
 62
     4
100
AcDbCircle
 10
1750.445930107342
 20
339.762441217695
 30
0.0
 40
0.0625
  0
LINE
  5
2C2
330
6F
100
AcDbEntity
  8
9-0
  6
Continuous
 62
     4
100
AcDbLine
 10
1153.445929828274
 20
589.762441207137
 30
0.0
 11
1153.445929828274
 21
459.7624412071369
 31
0.0
  0
LINE
  5
2C3
330
6F
100
AcDbEntity
  8
9-0
  6
Continuous
 62
     4
100
AcDbLine
 10
1447.445929828274
 20
589.762441207137
 30
0.0
 11
1447.445929828274
 21
459.7624412071369
 31
0.0
  0
TEXT
  5
2C4
330
6F
100
AcDbEntity
  8
9-0
 62
     4
100
AcDbText
 10
1269.668
 20
460.3819999999999
 30
0.0
 40
36.288
  1
294
100
AcDbText
  0
LINE
  5
2C5
330
6F
100
AcDbEntity
  8
9-0
  6
Continuous
 62
     4
100
AcDbLine
 10
1447.445930107338
 20
459.762441217695
 30
0.0
 11
1153.44593010734
 21
459.762441217695
 31
0.0
  0
CIRCLE
  5
2C6
330
6F
100
AcDbEntity
  8
9-0
  6
Continuous
 62
     4
100
AcDbCircle
 10
1447.445930107338
 20
459.762441217695
 30
0.0
 40
0.25
  0
CIRCLE
  5
2C7
330
6F
100
AcDbEntity
  8
9-0
  6
Continuous
 62
     4
100
AcDbCircle
 10
1447.445930107338
 20
459.762441217695
 30
0.0
 40
0.1875
  0
CIRCLE
  5
2C8
330
6F
100
AcDbEntity
  8
9-0
  6
Continuous
 62
     4
100
AcDbCircle
 10
1447.445930107338
 20
459.762441217695
 30
0.0
 40
0.125
  0
CIRCLE
  5
2C9
330
6F
100
AcDbEntity
  8
9-0
  6
Continuous
 62
     4
100
AcDbCircle
 10
1447.445930107338
 20
459.762441217695
 30
0.0
 40
0.0625
  0
CIRCLE
  5
2CA
330
6F
100
AcDbEntity
  8
9-0
  6
Continuous
 62
     4
100
AcDbCircle
 10
1153.44593010734
 20
459.762441217695
 30
0.0
 40
0.25
  0
CIRCLE
  5
2CB
330
6F
100
AcDbEntity
  8
9-0
  6
Continuous
 62
     4
100
AcDbCircle
 10
1153.44593010734
 20
459.762441217695
 30
0.0
 40
0.1875
  0
CIRCLE
  5
2CC
330
6F
100
AcDbEntity
  8
9-0
  6
Continuous
 62
     4
100
AcDbCircle
 10
1153.44593010734
 20
459.762441217695
 30
0.0
 40
0.125
  0
CIRCLE
  5
2CD
330
6F
100
AcDbEntity
  8
9-0
  6
Continuous
 62
     4
100
AcDbCircle
 10
1153.44593010734
 20
459.762441217695
 30
0.0
 40
0.0625
  0
LINE
  5
2CE
330
6F
100
AcDbEntity
  8
9-0
  6
Continuous
 62
     4
100
AcDbLine
 10
1153.445929828274
 20
589.762441207137
 30
0.0
 11
1153.445929828274
 21
459.7624412071369
 31
0.0
  0
LINE
  5
2CF
330
6F
100
AcDbEntity
  8
9-0
  6
Continuous
 62
     4
100
AcDbLine
 10
1148.445929828274
 20
589.762441207137
 30
0.0
 11
1148.445929828274
 21
459.7624412071369
 31
0.0
  0
LINE
  5
2D0
330
6F
100
AcDbEntity
  8
9-0
  6
Continuous
 62
     4
100
AcDbLine
 10
1163.445929828274
 20
459.7624412071369
 30
0.0
 11
1173.445929828274
 21
459.7624412071369
 31
0.0
  0
LINE
  5
2D1
330
6F
100
AcDbEntity
  8
9-0
  6
Continuous
 62
     4
100
AcDbLine
 10
1138.445929828274
 20
459.7624412071369
 30
0.0
 11
1128.445929828274
 21
459.7624412071369
 31
0.0
  0
LINE
  5
2D2
330
6F
100
AcDbEntity
  8
9-0
  6
Continuous
 62
     4
100
AcDbLine
 10
1150.945929828274
 20
459.7624412071369
 30
0.0
 11
1178.193674828274
 21
399.762441207137
 31
0.0
  0
LINE
  5
2D3
330
6F
100
AcDbEntity
  8
9-0
  6
Continuous
 62
     4
100
AcDbLine
 10
1178.193674828274
 20
399.762441207137
 30
0.0
 11
1216.315501828274
 21
399.762441207137
 31
0.0
  0
TEXT
  5
2D4
330
6F
100
AcDbEntity
  8
9-0
 62
     4
100
AcDbText
 10
1188.877
 20
400.3819999999999
 30
0.0
 40
36.288
  1
5
100
AcDbText
  0
LINE
  5
2D5
330
6F
100
AcDbEntity
  8
9-0
  6
Continuous
 62
     4
100
AcDbLine
 10
1153.445929828274
 20
459.7624412071369
 30
0.0
 11
1148.445929828274
 21
459.7624412071369
 31
0.0
  0
LINE
  5
2D6
330
6F
100
AcDbEntity
  8
9-0
  6
Continuous
 62
     4
100
AcDbLine
 10
1153.445929828274
 20
459.7624412071369
 30
0.0
 11
1148.445929828274
 21
459.7624412071369
 31
0.0
  0
CIRCLE
  5
2D7
330
6F
100
AcDbEntity
  8
9-0
  6
Continuous
 62
     4
100
AcDbCircle
 10
1153.44593010734
 20
459.762441217695
 30
0.0
 40
0.25
  0
CIRCLE
  5
2D8
330
6F
100
AcDbEntity
  8
9-0
  6
Continuous
 62
     4
100
AcDbCircle
 10
1153.44593010734
 20
459.762441217695
 30
0.0
 40
0.1875
  0
CIRCLE
  5
2D9
330
6F
100
AcDbEntity
  8
9-0
  6
Continuous
 62
     4
100
AcDbCircle
 10
1153.44593010734
 20
459.762441217695
 30
0.0
 40
0.125
  0
CIRCLE
  5
2DA
330
6F
100
AcDbEntity
  8
9-0
  6
Continuous
 62
     4
100
AcDbCircle
 10
1153.44593010734
 20
459.762441217695
 30
0.0
 40
0.0625
  0
ARC
  5
2DB
330
6F
100
AcDbEntity
  8
9-0
 62
     4
100
AcDbCircle
 10
1153.44593010734
 20
459.757441217695
 30
0.0
 40
2.5
100
AcDbArc
 50
180.1145914065301
 51
0.1145914059449637
  0
LINE
  5
2DC
330
6F
100
AcDbEntity
  8
9-0
 62
     4
100
AcDbLine
 10
1158.44593010734
 20
459.7624412177459
 30
0.0
 11
1163.44593010734
 21
459.762441217797
 31
0.0
  0
CIRCLE
  5
2DD
330
6F
100
AcDbEntity
  8
9-0
  6
Continuous
 62
     4
100
AcDbCircle
 10
1148.445930107342
 20
459.762441217695
 30
0.0
 40
0.25
  0
CIRCLE
  5
2DE
330
6F
100
AcDbEntity
  8
9-0
  6
Continuous
 62
     4
100
AcDbCircle
 10
1148.445930107342
 20
459.762441217695
 30
0.0
 40
0.1875
  0
CIRCLE
  5
2DF
330
6F
100
AcDbEntity
  8
9-0
  6
Continuous
 62
     4
100
AcDbCircle
 10
1148.445930107342
 20
459.762441217695
 30
0.0
 40
0.125
  0
CIRCLE
  5
2E0
330
6F
100
AcDbEntity
  8
9-0
  6
Continuous
 62
     4
100
AcDbCircle
 10
1148.445930107342
 20
459.762441217695
 30
0.0
 40
0.0625
  0
ARC
  5
2E1
330
6F
100
AcDbEntity
  8
9-0
 62
     4
100
AcDbCircle
 10
1148.445930107342
 20
459.7674412176949
 30
0.0
 40
2.5
100
AcDbArc
 50
0.1145914065300158
 51
180.114591405945
  0
LINE
  5
2E2
330
6F
100
AcDbEntity
  8
9-0
 62
     4
100
AcDbLine
 10
1143.445930107342
 20
459.762441217695
 30
0.0
 11
1138.445930107342
 21
459.762441217695
 31
0.0
  0
LINE
  5
2E3
330
6F
100
AcDbEntity
  8
9-0
  6
Continuous
 62
     4
100
AcDbLine
 10
855.445929828274
 20
589.762441207137
 30
0.0
 11
855.445929828274
 21
459.7624412071369
 31
0.0
  0
LINE
  5
2E4
330
6F
100
AcDbEntity
  8
9-0
  6
Continuous
 62
     4
100
AcDbLine
 10
854.445929828274
 20
589.762441207137
 30
0.0
 11
854.445929828274
 21
459.7624412071369
 31
0.0
  0
LINE
  5
2E5
330
6F
100
AcDbEntity
  8
9-0
  6
Continuous
 62
     4
100
AcDbLine
 10
865.4459298282739
 20
459.7624412071369
 30
0.0
 11
875.4459298282739
 21
459.7624412071369
 31
0.0
  0
LINE
  5
2E6
330
6F
100
AcDbEntity
  8
9-0
  6
Continuous
 62
     4
100
AcDbLine
 10
844.4459298282739
 20
459.7624412071369
 30
0.0
 11
834.4459298282739
 21
459.7624412071369
 31
0.0
  0
LINE
  5
2E7
330
6F
100
AcDbEntity
  8
9-0
  6
Continuous
 62
     4
100
AcDbLine
 10
854.9459298282739
 20
459.7624412071369
 30
0.0
 11
881.1936748282739
 21
399.762441207137
 31
0.0
  0
LINE
  5
2E8
330
6F
100
AcDbEntity
  8
9-0
  6
Continuous
 62
     4
100
AcDbLine
 10
881.1936748282739
 20
399.762441207137
 30
0.0
 11
910.609917828274
 21
399.762441207137
 31
0.0
  0
TEXT
  5
2E9
330
6F
100
AcDbEntity
  8
9-0
 62
     4
100
AcDbText
 10
887.5239999999999
 20
400.3819999999999
 30
0.0
 40
36.288
  1
1
100
AcDbText
  0
LINE
  5
2EA
330
6F
100
AcDbEntity
  8
9-0
  6
Continuous
 62
     4
100
AcDbLine
 10
855.445929828274
 20
459.7624412071369
 30
0.0
 11
854.445929828274
 21
459.7624412071369
 31
0.0
  0
LINE
  5
2EB
330
6F
100
AcDbEntity
  8
9-0
  6
Continuous
 62
     4
100
AcDbLine
 10
855.445929828274
 20
459.7624412071369
 30
0.0
 11
854.445929828274
 21
459.7624412071369
 31
0.0
  0
CIRCLE
  5
2EC
330
6F
100
AcDbEntity
  8
9-0
  6
Continuous
 62
     4
100
AcDbCircle
 10
855.445930107348
 20
459.762441217695
 30
0.0
 40
0.25
  0
CIRCLE
  5
2ED
330
6F
100
AcDbEntity
  8
9-0
  6
Continuous
 62
     4
100
AcDbCircle
 10
855.445930107348
 20
459.762441217695
 30
0.0
 40
0.1875
  0
CIRCLE
  5
2EE
330
6F
100
AcDbEntity
  8
9-0
  6
Continuous
 62
     4
100
AcDbCircle
 10
855.445930107348
 20
459.762441217695
 30
0.0
 40
0.125
  0
CIRCLE
  5
2EF
330
6F
100
AcDbEntity
  8
9-0
  6
Continuous
 62
     4
100
AcDbCircle
 10
855.445930107348
 20
459.762441217695
 30
0.0
 40
0.0625
  0
ARC
  5
2F0
330
6F
100
AcDbEntity
  8
9-0
 62
     4
100
AcDbCircle
 10
855.445930107348
 20
459.757441217695
 30
0.0
 40
2.5
100
AcDbArc
 50
180.1145914065301
 51
0.1145914059449637
  0
LINE
  5
2F1
330
6F
100
AcDbEntity
  8
9-0
 62
     4
100
AcDbLine
 10
860.4459301073479
 20
459.7624412177459
 30
0.0
 11
865.445930107348
 21
459.762441217797
 31
0.0
  0
CIRCLE
  5
2F2
330
6F
100
AcDbEntity
  8
9-0
  6
Continuous
 62
     4
100
AcDbCircle
 10
854.44593010735
 20
459.762441217695
 30
0.0
 40
0.25
  0
CIRCLE
  5
2F3
330
6F
100
AcDbEntity
  8
9-0
  6
Continuous
 62
     4
100
AcDbCircle
 10
854.44593010735
 20
459.762441217695
 30
0.0
 40
0.1875
  0
CIRCLE
  5
2F4
330
6F
100
AcDbEntity
  8
9-0
  6
Continuous
 62
     4
100
AcDbCircle
 10
854.44593010735
 20
459.762441217695
 30
0.0
 40
0.125
  0
CIRCLE
  5
2F5
330
6F
100
AcDbEntity
  8
9-0
  6
Continuous
 62
     4
100
AcDbCircle
 10
854.44593010735
 20
459.762441217695
 30
0.0
 40
0.0625
  0
ARC
  5
2F6
330
6F
100
AcDbEntity
  8
9-0
 62
     4
100
AcDbCircle
 10
854.44593010735
 20
459.7674412176949
 30
0.0
 40
2.5
100
AcDbArc
 50
0.1145914065300158
 51
180.114591405945
  0
LINE
  5
2F7
330
6F
100
AcDbEntity
  8
9-0
 62
     4
100
AcDbLine
 10
849.4459301073501
 20
459.762441217695
 30
0.0
 11
844.44593010735
 21
459.762441217695
 31
0.0
  0
LINE
  5
2F8
330
6F
100
AcDbEntity
  8
9-0
  6
Continuous
 62
     4
100
AcDbLine
 10
563.4459298282739
 20
589.762441207137
 30
0.0
 11
563.4459298282739
 21
459.7624412071369
 31
0.0
  0
LINE
  5
2F9
330
6F
100
AcDbEntity
  8
9-0
  6
Continuous
 62
     4
100
AcDbLine
 10
555.4459298282739
 20
589.762441207137
 30
0.0
 11
555.4459298282739
 21
459.7624412071369
 31
0.0
  0
LINE
  5
2FA
330
6F
100
AcDbEntity
  8
9-0
  6
Continuous
 62
     4
100
AcDbLine
 10
573.445929828274
 20
459.7624412071369
 30
0.0
 11
583.4459298282739
 21
459.7624412071369
 31
0.0
  0
LINE
  5
2FB
330
6F
100
AcDbEntity
  8
9-0
  6
Continuous
 62
     4
100
AcDbLine
 10
545.4459298282739
 20
459.7624412071369
 30
0.0
 11
535.445929828274
 21
459.7624412071369
 31
0.0
  0
LINE
  5
2FC
330
6F
100
AcDbEntity
  8
9-0
  6
Continuous
 62
     4
100
AcDbLine
 10
559.4459298282739
 20
459.7624412071369
 30
0.0
 11
584.193674828274
 21
399.762441207137
 31
0.0
  0
LINE
  5
2FD
330
6F
100
AcDbEntity
  8
9-0
  6
Continuous
 62
     4
100
AcDbLine
 10
584.193674828274
 20
399.762441207137
 30
0.0
 11
622.670831828274
 21
399.762441207137
 31
0.0
  0
TEXT
  5
2FE
330
6F
100
AcDbEntity
  8
9-0
 62
     4
100
AcDbText
 10
595.0549999999999
 20
400.3819999999999
 30
0.0
 40
36.288
  1
8
100
AcDbText
  0
LINE
  5
2FF
330
6F
100
AcDbEntity
  8
9-0
  6
Continuous
 62
     4
100
AcDbLine
 10
563.4459298282739
 20
459.7624412071369
 30
0.0
 11
555.4459298282739
 21
459.7624412071369
 31
0.0
  0
LINE
  5
300
330
6F
100
AcDbEntity
  8
9-0
  6
Continuous
 62
     4
100
AcDbLine
 10
563.4459298282739
 20
459.7624412071369
 30
0.0
 11
555.4459298282739
 21
459.7624412071369
 31
0.0
  0
CIRCLE
  5
301
330
6F
100
AcDbEntity
  8
9-0
  6
Continuous
 62
     4
100
AcDbCircle
 10
563.4459301073459
 20
459.762441217695
 30
0.0
 40
0.25
  0
CIRCLE
  5
302
330
6F
100
AcDbEntity
  8
9-0
  6
Continuous
 62
     4
100
AcDbCircle
 10
563.4459301073459
 20
459.762441217695
 30
0.0
 40
0.1875
  0
CIRCLE
  5
303
330
6F
100
AcDbEntity
  8
9-0
  6
Continuous
 62
     4
100
AcDbCircle
 10
563.4459301073459
 20
459.762441217695
 30
0.0
 40
0.125
  0
CIRCLE
  5
304
330
6F
100
AcDbEntity
  8
9-0
  6
Continuous
 62
     4
100
AcDbCircle
 10
563.4459301073459
 20
459.762441217695
 30
0.0
 40
0.0625
  0
ARC
  5
305
330
6F
100
AcDbEntity
  8
9-0
 62
     4
100
AcDbCircle
 10
563.4459301073459
 20
459.757441217695
 30
0.0
 40
2.5
100
AcDbArc
 50
180.1145914065301
 51
0.1145914059449637
  0
LINE
  5
306
330
6F
100
AcDbEntity
  8
9-0
 62
     4
100
AcDbLine
 10
568.4459301073458
 20
459.7624412177459
 30
0.0
 11
573.4459301073459
 21
459.762441217797
 31
0.0
  0
CIRCLE
  5
307
330
6F
100
AcDbEntity
  8
9-0
  6
Continuous
 62
     4
100
AcDbCircle
 10
555.445930107344
 20
459.762441217695
 30
0.0
 40
0.25
  0
CIRCLE
  5
308
330
6F
100
AcDbEntity
  8
9-0
  6
Continuous
 62
     4
100
AcDbCircle
 10
555.445930107344
 20
459.762441217695
 30
0.0
 40
0.1875
  0
CIRCLE
  5
309
330
6F
100
AcDbEntity
  8
9-0
  6
Continuous
 62
     4
100
AcDbCircle
 10
555.445930107344
 20
459.762441217695
 30
0.0
 40
0.125
  0
CIRCLE
  5
30A
330
6F
100
AcDbEntity
  8
9-0
  6
Continuous
 62
     4
100
AcDbCircle
 10
555.445930107344
 20
459.762441217695
 30
0.0
 40
0.0625
  0
ARC
  5
30B
330
6F
100
AcDbEntity
  8
9-0
 62
     4
100
AcDbCircle
 10
555.445930107344
 20
459.7674412176949
 30
0.0
 40
2.5
100
AcDbArc
 50
0.1145914065300158
 51
180.114591405945
  0
LINE
  5
30C
330
6F
100
AcDbEntity
  8
9-0
 62
     4
100
AcDbLine
 10
550.4459301073439
 20
459.762441217695
 30
0.0
 11
545.4459301073439
 21
459.762441217695
 31
0.0
  0
LINE
  5
30D
330
6F
100
AcDbEntity
  8
9-0
  6
Continuous
 62
     4
100
AcDbLine
 10
1148.445929828274
 20
589.762441207137
 30
0.0
 11
1148.445929828274
 21
459.7624412071369
 31
0.0
  0
LINE
  5
30E
330
6F
100
AcDbEntity
  8
9-0
  6
Continuous
 62
     4
100
AcDbLine
 10
856.445929828274
 20
589.762441207137
 30
0.0
 11
856.445929828274
 21
459.7624412071369
 31
0.0
  0
TEXT
  5
30F
330
6F
100
AcDbEntity
  8
9-0
 62
     4
100
AcDbText
 10
971.668
 20
460.3819999999999
 30
0.0
 40
36.288
  1
292
100
AcDbText
  0
LINE
  5
310
330
6F
100
AcDbEntity
  8
9-0
  6
Continuous
 62
     4
100
AcDbLine
 10
856.4459301073441
 20
459.762441217695
 30
0.0
 11
1148.445930107342
 21
459.762441217695
 31
0.0
  0
CIRCLE
  5
311
330
6F
100
AcDbEntity
  8
9-0
  6
Continuous
 62
     4
100
AcDbCircle
 10
856.4459301073441
 20
459.762441217695
 30
0.0
 40
0.25
  0
CIRCLE
  5
312
330
6F
100
AcDbEntity
  8
9-0
  6
Continuous
 62
     4
100
AcDbCircle
 10
856.4459301073441
 20
459.762441217695
 30
0.0
 40
0.1875
  0
CIRCLE
  5
313
330
6F
100
AcDbEntity
  8
9-0
  6
Continuous
 62
     4
100
AcDbCircle
 10
856.4459301073441
 20
459.762441217695
 30
0.0
 40
0.125
  0
CIRCLE
  5
314
330
6F
100
AcDbEntity
  8
9-0
  6
Continuous
 62
     4
100
AcDbCircle
 10
856.4459301073441
 20
459.762441217695
 30
0.0
 40
0.0625
  0
CIRCLE
  5
315
330
6F
100
AcDbEntity
  8
9-0
  6
Continuous
 62
     4
100
AcDbCircle
 10
1148.445930107342
 20
459.762441217695
 30
0.0
 40
0.25
  0
CIRCLE
  5
316
330
6F
100
AcDbEntity
  8
9-0
  6
Continuous
 62
     4
100
AcDbCircle
 10
1148.445930107342
 20
459.762441217695
 30
0.0
 40
0.1875
  0
CIRCLE
  5
317
330
6F
100
AcDbEntity
  8
9-0
  6
Continuous
 62
     4
100
AcDbCircle
 10
1148.445930107342
 20
459.762441217695
 30
0.0
 40
0.125
  0
CIRCLE
  5
318
330
6F
100
AcDbEntity
  8
9-0
  6
Continuous
 62
     4
100
AcDbCircle
 10
1148.445930107342
 20
459.762441217695
 30
0.0
 40
0.0625
  0
LINE
  5
319
330
6F
100
AcDbEntity
  8
9-0
  6
Continuous
 62
     4
100
AcDbLine
 10
563.4459298282739
 20
589.762441207137
 30
0.0
 11
563.4459298282739
 21
459.7624412071369
 31
0.0
  0
LINE
  5
31A
330
6F
100
AcDbEntity
  8
9-0
  6
Continuous
 62
     4
100
AcDbLine
 10
855.445929828274
 20
589.762441207137
 30
0.0
 11
855.445929828274
 21
459.7624412071369
 31
0.0
  0
TEXT
  5
31B
330
6F
100
AcDbEntity
  8
9-0
 62
     4
100
AcDbText
 10
678.668
 20
460.3819999999999
 30
0.0
 40
36.288
  1
292
100
AcDbText
  0
LINE
  5
31C
330
6F
100
AcDbEntity
  8
9-0
  6
Continuous
 62
     4
100
AcDbLine
 10
855.445930107348
 20
459.762441217695
 30
0.0
 11
563.4459301073459
 21
459.762441217695
 31
0.0
  0
CIRCLE
  5
31D
330
6F
100
AcDbEntity
  8
9-0
  6
Continuous
 62
     4
100
AcDbCircle
 10
855.445930107348
 20
459.762441217695
 30
0.0
 40
0.25
  0
CIRCLE
  5
31E
330
6F
100
AcDbEntity
  8
9-0
  6
Continuous
 62
     4
100
AcDbCircle
 10
855.445930107348
 20
459.762441217695
 30
0.0
 40
0.1875
  0
CIRCLE
  5
31F
330
6F
100
AcDbEntity
  8
9-0
  6
Continuous
 62
     4
100
AcDbCircle
 10
855.445930107348
 20
459.762441217695
 30
0.0
 40
0.125
  0
CIRCLE
  5
320
330
6F
100
AcDbEntity
  8
9-0
  6
Continuous
 62
     4
100
AcDbCircle
 10
855.445930107348
 20
459.762441217695
 30
0.0
 40
0.0625
  0
CIRCLE
  5
321
330
6F
100
AcDbEntity
  8
9-0
  6
Continuous
 62
     4
100
AcDbCircle
 10
563.4459301073459
 20
459.762441217695
 30
0.0
 40
0.25
  0
CIRCLE
  5
322
330
6F
100
AcDbEntity
  8
9-0
  6
Continuous
 62
     4
100
AcDbCircle
 10
563.4459301073459
 20
459.762441217695
 30
0.0
 40
0.1875
  0
CIRCLE
  5
323
330
6F
100
AcDbEntity
  8
9-0
  6
Continuous
 62
     4
100
AcDbCircle
 10
563.4459301073459
 20
459.762441217695
 30
0.0
 40
0.125
  0
CIRCLE
  5
324
330
6F
100
AcDbEntity
  8
9-0
  6
Continuous
 62
     4
100
AcDbCircle
 10
563.4459301073459
 20
459.762441217695
 30
0.0
 40
0.0625
  0
LINE
  5
325
330
6F
100
AcDbEntity
  8
9-0
  6
Continuous
 62
     4
100
AcDbLine
 10
1448.445929828274
 20
589.762441207137
 30
0.0
 11
1448.445929828274
 21
459.7624412071369
 31
0.0
  0
LINE
  5
326
330
6F
100
AcDbEntity
  8
9-0
  6
Continuous
 62
     4
100
AcDbLine
 10
1447.445929828274
 20
589.762441207137
 30
0.0
 11
1447.445929828274
 21
459.7624412071369
 31
0.0
  0
LINE
  5
327
330
6F
100
AcDbEntity
  8
9-0
  6
Continuous
 62
     4
100
AcDbLine
 10
1458.445929828274
 20
459.7624412071369
 30
0.0
 11
1468.445929828274
 21
459.7624412071369
 31
0.0
  0
LINE
  5
328
330
6F
100
AcDbEntity
  8
9-0
  6
Continuous
 62
     4
100
AcDbLine
 10
1437.445929828274
 20
459.7624412071369
 30
0.0
 11
1427.445929828274
 21
459.7624412071369
 31
0.0
  0
LINE
  5
329
330
6F
100
AcDbEntity
  8
9-0
  6
Continuous
 62
     4
100
AcDbLine
 10
1447.945929828274
 20
459.7624412071369
 30
0.0
 11
1476.693674828274
 21
399.762441207137
 31
0.0
  0
LINE
  5
32A
330
6F
100
AcDbEntity
  8
9-0
  6
Continuous
 62
     4
100
AcDbLine
 10
1476.693674828274
 20
399.762441207137
 30
0.0
 11
1506.109917828274
 21
399.762441207137
 31
0.0
  0
TEXT
  5
32B
330
6F
100
AcDbEntity
  8
9-0
 62
     4
100
AcDbText
 10
1483.024
 20
400.3819999999999
 30
0.0
 40
36.288
  1
1
100
AcDbText
  0
LINE
  5
32C
330
6F
100
AcDbEntity
  8
9-0
  6
Continuous
 62
     4
100
AcDbLine
 10
1448.445929828274
 20
459.7624412071369
 30
0.0
 11
1447.445929828274
 21
459.7624412071369
 31
0.0
  0
LINE
  5
32D
330
6F
100
AcDbEntity
  8
9-0
  6
Continuous
 62
     4
100
AcDbLine
 10
1448.445929828274
 20
459.7624412071369
 30
0.0
 11
1447.445929828274
 21
459.7624412071369
 31
0.0
  0
CIRCLE
  5
32E
330
6F
100
AcDbEntity
  8
9-0
  6
Continuous
 62
     4
100
AcDbCircle
 10
1448.445930107341
 20
459.762441217695
 30
0.0
 40
0.25
  0
CIRCLE
  5
32F
330
6F
100
AcDbEntity
  8
9-0
  6
Continuous
 62
     4
100
AcDbCircle
 10
1448.445930107341
 20
459.762441217695
 30
0.0
 40
0.1875
  0
CIRCLE
  5
330
330
6F
100
AcDbEntity
  8
9-0
  6
Continuous
 62
     4
100
AcDbCircle
 10
1448.445930107341
 20
459.762441217695
 30
0.0
 40
0.125
  0
CIRCLE
  5
331
330
6F
100
AcDbEntity
  8
9-0
  6
Continuous
 62
     4
100
AcDbCircle
 10
1448.445930107341
 20
459.762441217695
 30
0.0
 40
0.0625
  0
ARC
  5
332
330
6F
100
AcDbEntity
  8
9-0
 62
     4
100
AcDbCircle
 10
1448.445930107341
 20
459.757441217695
 30
0.0
 40
2.5
100
AcDbArc
 50
180.1145914065301
 51
0.1145914059449637
  0
LINE
  5
333
330
6F
100
AcDbEntity
  8
9-0
 62
     4
100
AcDbLine
 10
1453.445930107342
 20
459.7624412177459
 30
0.0
 11
1458.445930107342
 21
459.762441217797
 31
0.0
  0
CIRCLE
  5
334
330
6F
100
AcDbEntity
  8
9-0
  6
Continuous
 62
     4
100
AcDbCircle
 10
1447.445930107338
 20
459.762441217695
 30
0.0
 40
0.25
  0
CIRCLE
  5
335
330
6F
100
AcDbEntity
  8
9-0
  6
Continuous
 62
     4
100
AcDbCircle
 10
1447.445930107338
 20
459.762441217695
 30
0.0
 40
0.1875
  0
CIRCLE
  5
336
330
6F
100
AcDbEntity
  8
9-0
  6
Continuous
 62
     4
100
AcDbCircle
 10
1447.445930107338
 20
459.762441217695
 30
0.0
 40
0.125
  0
CIRCLE
  5
337
330
6F
100
AcDbEntity
  8
9-0
  6
Continuous
 62
     4
100
AcDbCircle
 10
1447.445930107338
 20
459.762441217695
 30
0.0
 40
0.0625
  0
ARC
  5
338
330
6F
100
AcDbEntity
  8
9-0
 62
     4
100
AcDbCircle
 10
1447.445930107338
 20
459.7674412176949
 30
0.0
 40
2.5
100
AcDbArc
 50
0.1145914065300158
 51
180.114591405945
  0
LINE
  5
339
330
6F
100
AcDbEntity
  8
9-0
 62
     4
100
AcDbLine
 10
1442.445930107338
 20
459.762441217695
 30
0.0
 11
1437.445930107338
 21
459.762441217695
 31
0.0
  0
LINE
  5
33A
330
6F
100
AcDbEntity
  8
9-0
  6
Continuous
 62
     4
100
AcDbLine
 10
1742.445929828274
 20
589.762441207137
 30
0.0
 11
1742.445929828274
 21
459.7624412071369
 31
0.0
  0
LINE
  5
33B
330
6F
100
AcDbEntity
  8
9-0
  6
Continuous
 62
     4
100
AcDbLine
 10
1750.445929828274
 20
589.762441207137
 30
0.0
 11
1750.445929828274
 21
459.7624412071369
 31
0.0
  0
LINE
  5
33C
330
6F
100
AcDbEntity
  8
9-0
  6
Continuous
 62
     4
100
AcDbLine
 10
1732.445929828274
 20
459.7624412071369
 30
0.0
 11
1722.445929828274
 21
459.7624412071369
 31
0.0
  0
LINE
  5
33D
330
6F
100
AcDbEntity
  8
9-0
  6
Continuous
 62
     4
100
AcDbLine
 10
1760.445929828273
 20
459.7624412071369
 30
0.0
 11
1770.445929828274
 21
459.7624412071369
 31
0.0
  0
LINE
  5
33E
330
6F
100
AcDbEntity
  8
9-0
  6
Continuous
 62
     4
100
AcDbLine
 10
1746.445929828274
 20
459.7624412071369
 30
0.0
 11
1724.698185828273
 21
399.762441207137
 31
0.0
  0
LINE
  5
33F
330
6F
100
AcDbEntity
  8
9-0
  6
Continuous
 62
     4
100
AcDbLine
 10
1724.698185828273
 20
399.762441207137
 30
0.0
 11
1686.221027828274
 21
399.762441207137
 31
0.0
  0
TEXT
  5
340
330
6F
100
AcDbEntity
  8
9-0
 62
     4
100
AcDbText
 10
1697.082
 20
400.3819999999999
 30
0.0
 40
36.288
  1
8
100
AcDbText
  0
LINE
  5
341
330
6F
100
AcDbEntity
  8
9-0
  6
Continuous
 62
     4
100
AcDbLine
 10
1742.445929828274
 20
459.7624412071369
 30
0.0
 11
1750.445929828274
 21
459.7624412071369
 31
0.0
  0
LINE
  5
342
330
6F
100
AcDbEntity
  8
9-0
  6
Continuous
 62
     4
100
AcDbLine
 10
1742.445929828274
 20
459.7624412071369
 30
0.0
 11
1750.445929828274
 21
459.7624412071369
 31
0.0
  0
CIRCLE
  5
343
330
6F
100
AcDbEntity
  8
9-0
  6
Continuous
 62
     4
100
AcDbCircle
 10
1742.445930107342
 20
459.762441217695
 30
0.0
 40
0.25
  0
CIRCLE
  5
344
330
6F
100
AcDbEntity
  8
9-0
  6
Continuous
 62
     4
100
AcDbCircle
 10
1742.445930107342
 20
459.762441217695
 30
0.0
 40
0.1875
  0
CIRCLE
  5
345
330
6F
100
AcDbEntity
  8
9-0
  6
Continuous
 62
     4
100
AcDbCircle
 10
1742.445930107342
 20
459.762441217695
 30
0.0
 40
0.125
  0
CIRCLE
  5
346
330
6F
100
AcDbEntity
  8
9-0
  6
Continuous
 62
     4
100
AcDbCircle
 10
1742.445930107342
 20
459.762441217695
 30
0.0
 40
0.0625
  0
ARC
  5
347
330
6F
100
AcDbEntity
  8
9-0
 62
     4
100
AcDbCircle
 10
1742.445930107342
 20
459.7674412176949
 30
0.0
 40
2.5
100
AcDbArc
 50
0.1145914065300158
 51
180.114591405945
  0
LINE
  5
348
330
6F
100
AcDbEntity
  8
9-0
 62
     4
100
AcDbLine
 10
1737.445930107342
 20
459.762441217695
 30
0.0
 11
1732.445930107342
 21
459.762441217695
 31
0.0
  0
CIRCLE
  5
349
330
6F
100
AcDbEntity
  8
9-0
  6
Continuous
 62
     4
100
AcDbCircle
 10
1750.445930107344
 20
459.762441217695
 30
0.0
 40
0.25
  0
CIRCLE
  5
34A
330
6F
100
AcDbEntity
  8
9-0
  6
Continuous
 62
     4
100
AcDbCircle
 10
1750.445930107344
 20
459.762441217695
 30
0.0
 40
0.1875
  0
CIRCLE
  5
34B
330
6F
100
AcDbEntity
  8
9-0
  6
Continuous
 62
     4
100
AcDbCircle
 10
1750.445930107344
 20
459.762441217695
 30
0.0
 40
0.125
  0
CIRCLE
  5
34C
330
6F
100
AcDbEntity
  8
9-0
  6
Continuous
 62
     4
100
AcDbCircle
 10
1750.445930107344
 20
459.762441217695
 30
0.0
 40
0.0625
  0
ARC
  5
34D
330
6F
100
AcDbEntity
  8
9-0
 62
     4
100
AcDbCircle
 10
1750.445930107344
 20
459.757441217695
 30
0.0
 40
2.5
100
AcDbArc
 50
180.1145914065301
 51
0.1145914059449637
  0
LINE
  5
34E
330
6F
100
AcDbEntity
  8
9-0
 62
     4
100
AcDbLine
 10
1755.445930107344
 20
459.7624412177459
 30
0.0
 11
1760.445930107344
 21
459.762441217797
 31
0.0
  0
LINE
  5
34F
330
6F
100
AcDbEntity
  8
9-0
  6
Continuous
 62
     4
100
AcDbLine
 10
1742.445929828274
 20
589.762441207137
 30
0.0
 11
1742.445929828274
 21
459.7624412071369
 31
0.0
  0
LINE
  5
350
330
6F
100
AcDbEntity
  8
9-0
  6
Continuous
 62
     4
100
AcDbLine
 10
1448.445929828274
 20
589.762441207137
 30
0.0
 11
1448.445929828274
 21
459.7624412071369
 31
0.0
  0
TEXT
  5
351
330
6F
100
AcDbEntity
  8
9-0
 62
     4
100
AcDbText
 10
1564.668
 20
460.3819999999999
 30
0.0
 40
36.288
  1
294
100
AcDbText
  0
LINE
  5
352
330
6F
100
AcDbEntity
  8
9-0
  6
Continuous
 62
     4
100
AcDbLine
 10
1448.445930107341
 20
459.762441217695
 30
0.0
 11
1742.445930107342
 21
459.762441217695
 31
0.0
  0
CIRCLE
  5
353
330
6F
100
AcDbEntity
  8
9-0
  6
Continuous
 62
     4
100
AcDbCircle
 10
1448.445930107341
 20
459.762441217695
 30
0.0
 40
0.25
  0
CIRCLE
  5
354
330
6F
100
AcDbEntity
  8
9-0
  6
Continuous
 62
     4
100
AcDbCircle
 10
1448.445930107341
 20
459.762441217695
 30
0.0
 40
0.1875
  0
CIRCLE
  5
355
330
6F
100
AcDbEntity
  8
9-0
  6
Continuous
 62
     4
100
AcDbCircle
 10
1448.445930107341
 20
459.762441217695
 30
0.0
 40
0.125
  0
CIRCLE
  5
356
330
6F
100
AcDbEntity
  8
9-0
  6
Continuous
 62
     4
100
AcDbCircle
 10
1448.445930107341
 20
459.762441217695
 30
0.0
 40
0.0625
  0
CIRCLE
  5
357
330
6F
100
AcDbEntity
  8
9-0
  6
Continuous
 62
     4
100
AcDbCircle
 10
1742.445930107342
 20
459.762441217695
 30
0.0
 40
0.25
  0
CIRCLE
  5
358
330
6F
100
AcDbEntity
  8
9-0
  6
Continuous
 62
     4
100
AcDbCircle
 10
1742.445930107342
 20
459.762441217695
 30
0.0
 40
0.1875
  0
CIRCLE
  5
359
330
6F
100
AcDbEntity
  8
9-0
  6
Continuous
 62
     4
100
AcDbCircle
 10
1742.445930107342
 20
459.762441217695
 30
0.0
 40
0.125
  0
CIRCLE
  5
35A
330
6F
100
AcDbEntity
  8
9-0
  6
Continuous
 62
     4
100
AcDbCircle
 10
1742.445930107342
 20
459.762441217695
 30
0.0
 40
0.0625
  0
LINE
  5
35B
330
6F
100
AcDbEntity
  8
1-0
  6
DASHED2
 62
     7
100
AcDbLine
 10
1100.445929778887
 20
1264.76244091507
 30
0.0
 11
605.445929778887
 21
1264.76244091507
 31
0.0
  0
LINE
  5
35C
330
6F
100
AcDbEntity
  8
1-0
  6
DASHED2
 62
     7
100
AcDbLine
 10
585.445929778887
 20
1284.76244091507
 30
0.0
 11
585.445929778887
 21
1409.76244091507
 31
0.0
  0
ARC
  5
35D
330
6F
100
AcDbEntity
  8
1-0
  6
DASHED2
 62
     7
100
AcDbCircle
 10
605.445929778887
 20
1284.76244091507
 30
0.0
 40
20.0
100
AcDbArc
 50
180.0
 51
270.0
  0
LINE
  5
35E
330
6F
100
AcDbEntity
  8
2-0
  6
DASHED2
 62
     7
100
AcDbLine
 10
985.4459297788871
 20
1076.76244091507
 30
0.0
 11
985.4459297788871
 21
619.76244091507
 31
0.0
  0
LINE
  5
35F
330
6F
100
AcDbEntity
  8
2-0
  6
DASHED2
 62
     7
100
AcDbLine
 10
955.445929778887
 20
1076.76244091507
 30
0.0
 11
955.445929778887
 21
619.76244091507
 31
0.0
  0
LINE
  5
360
330
6F
100
AcDbEntity
  8
A-0
  6
CENTER
 62
     6
100
AcDbLine
 10
970.445929778887
 20
1309.29484491507
 30
0.0
 11
970.445929778887
 21
593.9232899150701
 31
0.0
  0
LINE
  5
361
330
6F
100
AcDbEntity
  8
2-0
  6
DASHED2
 62
     7
100
AcDbLine
 10
1060.445929778887
 20
1259.76244091507
 30
0.0
 11
880.445929778887
 21
1259.76244091507
 31
0.0
  0
LINE
  5
362
330
6F
100
AcDbEntity
  8
2-0
  6
DASHED2
 62
     7
100
AcDbLine
 10
882.693586778887
 20
1245.76244091507
 30
0.0
 11
892.4459297788869
 21
1245.76244091507
 31
0.0
  0
LINE
  5
363
330
6F
100
AcDbEntity
  8
2-0
  6
DASHED2
 62
     7
100
AcDbLine
 10
882.693586778887
 20
1259.76244091507
 30
0.0
 11
882.693586778887
 21
1245.76244091507
 31
0.0
  0
LINE
  5
364
330
6F
100
AcDbEntity
  8
2-0
  6
DASHED2
 62
     7
100
AcDbLine
 10
880.445929778887
 20
1264.76244091507
 30
0.0
 11
880.445929778887
 21
1259.76244091507
 31
0.0
  0
LINE
  5
365
330
6F
100
AcDbEntity
  8
2-0
  6
DASHED2
 62
     7
100
AcDbLine
 10
1033.872273407118
 20
1170.762441621554
 30
0.0
 11
1033.872273407118
 21
1117.662441621554
 31
0.0
  0
ARC
  5
366
330
6F
100
AcDbEntity
  8
2-0
  6
DASHED2
 62
     7
100
AcDbCircle
 10
1023.872273778887
 20
1117.66244191507
 30
0.0
 40
10.0
100
AcDbArc
 50
270.0
 51
359.9999999997079
  0
LINE
  5
367
330
6F
100
AcDbEntity
  8
2-0
  6
DASHED2
 62
     7
100
AcDbLine
 10
1023.872273407118
 20
1107.662441621554
 30
0.0
 11
917.0195868075699
 21
1107.662441621554
 31
0.0
  0
ARC
  5
368
330
6F
100
AcDbEntity
  8
2-0
  6
DASHED2
 62
     7
100
AcDbCircle
 10
917.0195867788871
 20
1117.66244191507
 30
0.0
 40
10.0
100
AcDbArc
 50
180.000000000293
 51
270.000000000001
  0
LINE
  5
369
330
6F
100
AcDbEntity
  8
2-0
  6
DASHED2
 62
     7
100
AcDbLine
 10
907.01958680757
 20
1117.662441621554
 30
0.0
 11
907.01958680757
 21
1170.762441621554
 31
0.0
  0
LINE
  5
36A
330
6F
100
AcDbEntity
  8
2-0
  6
DASHED2
 62
     7
100
AcDbLine
 10
940.445930107346
 20
1107.662441621554
 30
0.0
 11
940.445930107344
 21
1076.762441217694
 31
0.0
  0
LINE
  5
36B
330
6F
100
AcDbEntity
  8
2-0
  6
DASHED2
 62
     7
100
AcDbLine
 10
940.445930107344
 20
1076.762441217694
 30
0.0
 11
1000.445930107346
 21
1076.762441217694
 31
0.0
  0
LINE
  5
36C
330
6F
100
AcDbEntity
  8
2-0
  6
DASHED2
 62
     7
100
AcDbLine
 10
1000.445930107346
 20
1076.762441217694
 30
0.0
 11
1000.445930107346
 21
1107.662441621554
 31
0.0
  0
LINE
  5
36D
330
6F
100
AcDbEntity
  8
2-0
  6
DASHED2
 62
     7
100
AcDbLine
 10
1048.445929778887
 20
1242.56091691507
 30
0.0
 11
1039.357130778887
 21
1237.56091691507
 31
0.0
  0
LINE
  5
36E
330
6F
100
AcDbEntity
  8
2-0
  6
DASHED2
 62
     7
100
AcDbLine
 10
892.4459297788869
 20
1242.56091691507
 30
0.0
 11
901.534728778887
 21
1237.56091691507
 31
0.0
  0
LINE
  5
36F
330
6F
100
AcDbEntity
  8
2-0
  6
DASHED2
 62
     7
100
AcDbLine
 10
1039.357130778887
 20
1237.56091691507
 30
0.0
 11
1039.357130778887
 21
1172.97720791507
 31
0.0
  0
LINE
  5
370
330
6F
100
AcDbEntity
  8
2-0
  6
DASHED2
 62
     7
100
AcDbLine
 10
901.534728778887
 20
1237.56091691507
 30
0.0
 11
901.534728778887
 21
1172.97720791507
 31
0.0
  0
LINE
  5
371
330
6F
100
AcDbEntity
  8
2-0
  6
DASHED2
 62
     7
100
AcDbLine
 10
1039.357131250576
 20
1170.762441621554
 30
0.0
 11
901.534728964115
 21
1170.762441621554
 31
0.0
  0
LINE
  5
372
330
6F
100
AcDbEntity
  8
2-0
  6
DASHED2
 62
     7
100
AcDbLine
 10
1039.357130778887
 20
1237.56091691507
 30
0.0
 11
901.534728778887
 21
1237.56091691507
 31
0.0
  0
LINE
  5
373
330
6F
100
AcDbEntity
  8
2-0
  6
DASHED2
 62
     7
100
AcDbLine
 10
1058.198273778887
 20
1245.76244091507
 30
0.0
 11
1048.445929778887
 21
1245.76244091507
 31
0.0
  0
LINE
  5
374
330
6F
100
AcDbEntity
  8
2-0
  6
DASHED2
 62
     7
100
AcDbLine
 10
1048.445929778887
 20
1259.76244091507
 30
0.0
 11
1048.445929778887
 21
1242.56091691507
 31
0.0
  0
LINE
  5
375
330
6F
100
AcDbEntity
  8
2-0
  6
DASHED2
 62
     7
100
AcDbLine
 10
892.4459297788869
 20
1259.76244091507
 30
0.0
 11
892.4459297788869
 21
1242.56091691507
 31
0.0
  0
LINE
  5
376
330
6F
100
AcDbEntity
  8
2-0
  6
DASHED2
 62
     7
100
AcDbLine
 10
1048.445929778887
 20
1242.56091691507
 30
0.0
 11
892.4459297788869
 21
1242.56091691507
 31
0.0
  0
LINE
  5
377
330
6F
100
AcDbEntity
  8
2-0
  6
DASHED2
 62
     7
100
AcDbLine
 10
1060.445929778887
 20
1264.76244091507
 30
0.0
 11
1060.445929778887
 21
1259.76244091507
 31
0.0
  0
LINE
  5
378
330
6F
100
AcDbEntity
  8
2-0
  6
DASHED2
 62
     7
100
AcDbLine
 10
1058.198273778887
 20
1259.76244091507
 30
0.0
 11
1058.198273778887
 21
1245.76244091507
 31
0.0
  0
LINE
  5
379
330
6F
100
AcDbEntity
  8
9-0
  6
Continuous
 62
     4
100
AcDbLine
 10
1015.912362828274
 20
1076.762441207137
 30
0.0
 11
1066.555953828274
 21
1076.762441207137
 31
0.0
  0
LINE
  5
37A
330
6F
100
AcDbEntity
  8
9-0
  6
Continuous
 62
     4
100
AcDbLine
 10
1025.423836828274
 20
609.762441207137
 30
0.0
 11
1066.555953828274
 21
609.762441207137
 31
0.0
  0
TEXT
  5
37B
330
6F
100
AcDbEntity
  8
9-0
 62
     4
100
AcDbText
 10
1065.936
 20
809.6619999999999
 30
0.0
 40
36.288
  1
467
 50
90.0
100
AcDbText
  0
LINE
  5
37C
330
6F
100
AcDbEntity
  8
9-0
  6
Continuous
 62
     4
100
AcDbLine
 10
1066.555953814335
 20
609.762441217695
 30
0.0
 11
1066.555953814335
 21
1076.762441217694
 31
0.0
  0
CIRCLE
  5
37D
330
6F
100
AcDbEntity
  8
9-0
  6
Continuous
 62
     4
100
AcDbCircle
 10
1066.555953814335
 20
609.762441217695
 30
0.0
 40
0.25
  0
CIRCLE
  5
37E
330
6F
100
AcDbEntity
  8
9-0
  6
Continuous
 62
     4
100
AcDbCircle
 10
1066.555953814335
 20
609.762441217695
 30
0.0
 40
0.1875
  0
CIRCLE
  5
37F
330
6F
100
AcDbEntity
  8
9-0
  6
Continuous
 62
     4
100
AcDbCircle
 10
1066.555953814335
 20
609.762441217695
 30
0.0
 40
0.125
  0
CIRCLE
  5
380
330
6F
100
AcDbEntity
  8
9-0
  6
Continuous
 62
     4
100
AcDbCircle
 10
1066.555953814335
 20
609.762441217695
 30
0.0
 40
0.0625
  0
CIRCLE
  5
381
330
6F
100
AcDbEntity
  8
9-0
  6
Continuous
 62
     4
100
AcDbCircle
 10
1066.555953814335
 20
1076.762441217694
 30
0.0
 40
0.25
  0
CIRCLE
  5
382
330
6F
100
AcDbEntity
  8
9-0
  6
Continuous
 62
     4
100
AcDbCircle
 10
1066.555953814335
 20
1076.762441217694
 30
0.0
 40
0.1875
  0
CIRCLE
  5
383
330
6F
100
AcDbEntity
  8
9-0
  6
Continuous
 62
     4
100
AcDbCircle
 10
1066.555953814335
 20
1076.762441217694
 30
0.0
 40
0.125
  0
CIRCLE
  5
384
330
6F
100
AcDbEntity
  8
9-0
  6
Continuous
 62
     4
100
AcDbCircle
 10
1066.555953814335
 20
1076.762441217694
 30
0.0
 40
0.0625
  0
LINE
  5
385
330
6F
100
AcDbEntity
  8
1-0
  6
CENTER
 62
     8
100
AcDbLine
 10
1448.44593010734
 20
1204.762441217695
 30
0.0
 11
1742.445930107342
 21
954.7624412176951
 31
0.0
  0
LINE
  5
386
330
6F
100
AcDbEntity
  8
1-0
  6
CENTER
 62
     8
100
AcDbLine
 10
1742.445930107342
 20
954.7624412176951
 30
0.0
 11
1448.445930107341
 21
699.762441217695
 31
0.0
  0
LINE
  5
387
330
6F
100
AcDbEntity
  8
1-0
  6
Continuous
 62
     7
100
AcDbLine
 10
1742.445930107342
 20
699.762441217695
 30
0.0
 11
1742.445930107342
 21
1204.762441217695
 31
0.0
  0
LINE
  5
388
330
6F
100
AcDbEntity
  8
1-0
  6
Continuous
 62
     7
100
AcDbLine
 10
1742.445930107342
 20
1204.762441217695
 30
0.0
 11
1448.44593010734
 21
1204.762441217695
 31
0.0
  0
LINE
  5
389
330
6F
100
AcDbEntity
  8
1-0
  6
Continuous
 62
     7
100
AcDbLine
 10
1448.44593010734
 20
1204.762441217695
 30
0.0
 11
1448.445930107341
 21
699.762441217695
 31
0.0
  0
LINE
  5
38A
330
6F
100
AcDbEntity
  8
1-0
  6
Continuous
 62
     7
100
AcDbLine
 10
1448.445930107341
 20
699.762441217695
 30
0.0
 11
1742.445930107342
 21
699.762441217695
 31
0.0
  0
LINE
  5
38B
330
6F
100
AcDbEntity
  8
1-0
  6
CENTER
 62
     8
100
AcDbLine
 10
855.445930107346
 20
1374.762441217695
 30
0.0
 11
563.445930107344
 21
1037.262441217694
 31
0.0
  0
LINE
  5
38C
330
6F
100
AcDbEntity
  8
1-0
  6
CENTER
 62
     8
100
AcDbLine
 10
563.445930107344
 20
1037.262441217694
 30
0.0
 11
855.4459301073441
 21
699.7624412176938
 31
0.0
  0
LINE
  5
38D
330
6F
100
AcDbEntity
  8
1-0
  6
Continuous
 62
     7
100
AcDbLine
 10
855.4459301073441
 20
699.762441217695
 30
0.0
 11
563.4459301073459
 21
699.762441217695
 31
0.0
  0
LINE
  5
38E
330
6F
100
AcDbEntity
  8
1-0
  6
Continuous
 62
     7
100
AcDbLine
 10
563.4459301073459
 20
699.762441217695
 30
0.0
 11
563.445930107344
 21
1374.762441217695
 31
0.0
  0
LINE
  5
38F
330
6F
100
AcDbEntity
  8
1-0
  6
Continuous
 62
     7
100
AcDbLine
 10
563.445930107344
 20
1374.762441217695
 30
0.0
 11
855.445930107346
 21
1374.762441217695
 31
0.0
  0
LINE
  5
390
330
6F
100
AcDbEntity
  8
1-0
  6
Continuous
 62
     7
100
AcDbLine
 10
855.445930107346
 20
1374.762441217695
 30
0.0
 11
855.4459301073441
 21
699.762441217695
 31
0.0
  0
LINE
  5
391
330
6F
100
AcDbEntity
  8
1-0
  6
CENTER
 62
     8
100
AcDbLine
 10
856.4459301073421
 20
1374.762441217695
 30
0.0
 11
1148.445930107344
 21
1039.762441217694
 31
0.0
  0
LINE
  5
392
330
6F
100
AcDbEntity
  8
1-0
  6
CENTER
 62
     8
100
AcDbLine
 10
1148.445930107344
 20
1039.762441217694
 30
0.0
 11
856.4459301073441
 21
699.762441217695
 31
0.0
  0
LINE
  5
393
330
6F
100
AcDbEntity
  8
1-0
  6
Continuous
 62
     7
100
AcDbLine
 10
856.4459301073441
 20
699.762441217695
 30
0.0
 11
1148.445930107342
 21
699.762441217695
 31
0.0
  0
LINE
  5
394
330
6F
100
AcDbEntity
  8
1-0
  6
Continuous
 62
     7
100
AcDbLine
 10
1148.445930107342
 20
699.762441217695
 30
0.0
 11
1148.445930107344
 21
1374.762441217695
 31
0.0
  0
LINE
  5
395
330
6F
100
AcDbEntity
  8
1-0
  6
Continuous
 62
     7
100
AcDbLine
 10
1148.445930107344
 20
1374.762441217695
 30
0.0
 11
856.4459301073421
 21
1374.762441217695
 31
0.0
  0
LINE
  5
396
330
6F
100
AcDbEntity
  8
1-0
  6
Continuous
 62
     7
100
AcDbLine
 10
856.4459301073421
 20
1374.762441217695
 30
0.0
 11
856.4459301073441
 21
699.762441217695
 31
0.0
  0
LINE
  5
397
330
6F
100
AcDbEntity
  8
1-0
  6
CENTER
 62
     8
100
AcDbLine
 10
1447.44593010734
 20
1204.762441217695
 30
0.0
 11
1153.445930107339
 21
954.7624412176951
 31
0.0
  0
LINE
  5
398
330
6F
100
AcDbEntity
  8
1-0
  6
CENTER
 62
     8
100
AcDbLine
 10
1153.445930107339
 20
954.7624412176951
 30
0.0
 11
1447.445930107338
 21
699.762441217695
 31
0.0
  0
LINE
  5
399
330
6F
100
AcDbEntity
  8
3-0
  6
Continuous
 62
     7
100
AcDbLine
 10
563.445929778887
 20
1367.76244091507
 30
0.0
 11
855.445929778887
 21
1367.76244091507
 31
0.0
  0
LINE
  5
39A
330
6F
100
AcDbEntity
  8
3-0
  6
Continuous
 62
     7
100
AcDbLine
 10
563.445929778887
 20
1348.06244091507
 30
0.0
 11
855.445929778887
 21
1348.06244091507
 31
0.0
  0
LINE
  5
39B
330
6F
100
AcDbEntity
  8
3-0
  6
Continuous
 62
     7
100
AcDbLine
 10
856.445929778887
 20
1367.76244091507
 30
0.0
 11
1148.445929778887
 21
1367.76244091507
 31
0.0
  0
LINE
  5
39C
330
6F
100
AcDbEntity
  8
3-0
  6
Continuous
 62
     7
100
AcDbLine
 10
856.445929778887
 20
1348.06244091507
 30
0.0
 11
1148.445929778887
 21
1348.06244091507
 31
0.0
  0
LINE
  5
39D
330
6F
100
AcDbEntity
  8
3-0
  6
Continuous
 62
     7
100
AcDbLine
 10
1153.445929778887
 20
1197.76244091507
 30
0.0
 11
1447.445929778887
 21
1197.76244091507
 31
0.0
  0
LINE
  5
39E
330
6F
100
AcDbEntity
  8
3-0
  6
Continuous
 62
     7
100
AcDbLine
 10
1153.445929778887
 20
1178.06244091507
 30
0.0
 11
1447.445929778887
 21
1178.06244091507
 31
0.0
  0
LINE
  5
39F
330
6F
100
AcDbEntity
  8
3-0
  6
Continuous
 62
     7
100
AcDbLine
 10
1448.445929778887
 20
1197.76244091507
 30
0.0
 11
1742.445929778886
 21
1197.76244091507
 31
0.0
  0
LINE
  5
3A0
330
6F
100
AcDbEntity
  8
3-0
  6
Continuous
 62
     7
100
AcDbLine
 10
1448.445929778887
 20
1178.06244091507
 30
0.0
 11
1742.445929778886
 21
1178.06244091507
 31
0.0
  0
LINE
  5
3A1
330
6F
100
AcDbEntity
  8
1-0
  6
Continuous
 62
     7
100
AcDbLine
 10
1447.445930107338
 20
699.762441217695
 30
0.0
 11
1153.44593010734
 21
699.762441217695
 31
0.0
  0
LINE
  5
3A2
330
6F
100
AcDbEntity
  8
1-0
  6
Continuous
 62
     7
100
AcDbLine
 10
1153.44593010734
 20
699.762441217695
 30
0.0
 11
1153.445930107338
 21
1204.762441217695
 31
0.0
  0
LINE
  5
3A3
330
6F
100
AcDbEntity
  8
1-0
  6
Continuous
 62
     7
100
AcDbLine
 10
1153.445930107338
 20
1204.762441217695
 30
0.0
 11
1447.44593010734
 21
1204.762441217695
 31
0.0
  0
LINE
  5
3A4
330
6F
100
AcDbEntity
  8
1-0
  6
Continuous
 62
     7
100
AcDbLine
 10
1447.44593010734
 20
1204.762441217695
 30
0.0
 11
1447.445930107338
 21
699.762441217695
 31
0.0
  0
LINE
  5
3A5
330
6F
100
AcDbEntity
  8
1-0
  6
DASHED2
 62
     7
100
AcDbLine
 10
1120.445929778887
 20
1409.76244091507
 30
0.0
 11
1120.445929778887
 21
1284.76244091507
 31
0.0
  0
ARC
  5
3A6
330
6F
100
AcDbEntity
  8
1-0
  6
DASHED2
 62
     7
100
AcDbCircle
 10
1100.445929778887
 20
1284.76244091507
 30
0.0
 40
20.0
100
AcDbArc
 50
270.0
 51
0.0
  0
TEXT
  5
3A7
330
6F
100
AcDbEntity
  8
C-0
 62
     5
100
AcDbText
 10
3202.164000000001
 20
2235.903
 30
0.0
 40
25.92
  1
アルミ製　ラインハンドル
100
AcDbText
  0
TEXT
  5
3A8
330
6F
100
AcDbEntity
  8
C-0
 62
     5
100
AcDbText
 10
3198.15
 20
2130.775
 30
0.0
 40
25.92
  1
180Φ大型排水トラップ付（\U+FF76
100
AcDbText
  0
LINE
  5
3A9
330
6F
100
AcDbEntity
  8
2-0
  6
DASHED2
 62
     7
100
AcDbLine
 10
2691.159387778887
 20
609.7624409150699
 30
0.0
 11
2706.159387778887
 21
609.7624409150699
 31
0.0
  0
LINE
  5
3AA
330
6F
100
AcDbEntity
  8
2-0
  6
Continuous
 62
     7
100
AcDbLine
 10
2691.159387778887
 20
609.7624409150699
 30
0.0
 11
3091.159387778887
 21
610.14491691507
 31
0.0
  0
LINE
  5
3AB
330
6F
100
AcDbEntity
  8
2-0
  6
DASHED2
 62
     7
100
AcDbLine
 10
3475.939383778887
 20
1210.14491691507
 30
0.0
 11
3475.939383778887
 21
610.14491691507
 31
0.0
  0
LINE
  5
3AC
330
6F
100
AcDbEntity
  8
2-0
  6
Continuous
 62
     7
100
AcDbLine
 10
3460.939383778887
 20
1210.14491691507
 30
0.0
 11
3460.939383778887
 21
610.14491691507
 31
0.0
  0
LINE
  5
3AD
330
6F
100
AcDbEntity
  8
2-0
  6
DASHED2
 62
     7
100
AcDbLine
 10
3460.939383778887
 20
635.14491691507
 30
0.0
 11
3475.939383778887
 21
635.14491691507
 31
0.0
  0
LINE
  5
3AE
330
6F
100
AcDbEntity
  8
2-0
  6
DASHED2
 62
     7
100
AcDbLine
 10
3460.939383778887
 20
610.14491691507
 30
0.0
 11
3475.939383778887
 21
610.14491691507
 31
0.0
  0
LINE
  5
3AF
330
6F
100
AcDbEntity
  8
2-0
  6
DASHED2
 62
     7
100
AcDbLine
 10
3460.939383778887
 20
610.14491691507
 30
0.0
 11
3475.939383778887
 21
635.14491691507
 31
0.0
  0
LINE
  5
3B0
330
6F
100
AcDbEntity
  8
9-0
  6
Continuous
 62
     4
100
AcDbLine
 10
3860.939383828274
 20
590.144916207137
 30
0.0
 11
3860.939383828274
 21
460.144916207137
 31
0.0
  0
LINE
  5
3B1
330
6F
100
AcDbEntity
  8
9-0
  6
Continuous
 62
     4
100
AcDbLine
 10
3460.939383828274
 20
590.144916207137
 30
0.0
 11
3460.939383828274
 21
460.144916207137
 31
0.0
  0
TEXT
  5
3B2
330
6F
100
AcDbEntity
  8
9-0
 62
     4
100
AcDbText
 10
3630.162000000001
 20
460.7649999999999
 30
0.0
 40
36.288
  1
400
100
AcDbText
  0
LINE
  5
3B3
330
6F
100
AcDbEntity
  8
9-0
  6
Continuous
 62
     4
100
AcDbLine
 10
3460.939383395923
 20
460.14491652192
 30
0.0
 11
3860.939383395919
 21
460.14491652192
 31
0.0
  0
CIRCLE
  5
3B4
330
6F
100
AcDbEntity
  8
9-0
  6
Continuous
 62
     4
100
AcDbCircle
 10
3460.939383395923
 20
460.14491652192
 30
0.0
 40
0.25
  0
CIRCLE
  5
3B5
330
6F
100
AcDbEntity
  8
9-0
  6
Continuous
 62
     4
100
AcDbCircle
 10
3460.939383395923
 20
460.14491652192
 30
0.0
 40
0.1875
  0
CIRCLE
  5
3B6
330
6F
100
AcDbEntity
  8
9-0
  6
Continuous
 62
     4
100
AcDbCircle
 10
3460.939383395923
 20
460.14491652192
 30
0.0
 40
0.125
  0
CIRCLE
  5
3B7
330
6F
100
AcDbEntity
  8
9-0
  6
Continuous
 62
     4
100
AcDbCircle
 10
3460.939383395923
 20
460.14491652192
 30
0.0
 40
0.0625
  0
CIRCLE
  5
3B8
330
6F
100
AcDbEntity
  8
9-0
  6
Continuous
 62
     4
100
AcDbCircle
 10
3860.939383395919
 20
460.14491652192
 30
0.0
 40
0.25
  0
CIRCLE
  5
3B9
330
6F
100
AcDbEntity
  8
9-0
  6
Continuous
 62
     4
100
AcDbCircle
 10
3860.939383395919
 20
460.14491652192
 30
0.0
 40
0.1875
  0
CIRCLE
  5
3BA
330
6F
100
AcDbEntity
  8
9-0
  6
Continuous
 62
     4
100
AcDbCircle
 10
3860.939383395919
 20
460.14491652192
 30
0.0
 40
0.125
  0
CIRCLE
  5
3BB
330
6F
100
AcDbEntity
  8
9-0
  6
Continuous
 62
     4
100
AcDbCircle
 10
3860.939383395919
 20
460.14491652192
 30
0.0
 40
0.0625
  0
LINE
  5
3BC
330
6F
100
AcDbEntity
  8
9-0
  6
Continuous
 62
     4
100
AcDbLine
 10
3912.939383828274
 20
588.717234207137
 30
0.0
 11
3912.939383828274
 21
360.144916207137
 31
0.0
  0
LINE
  5
3BD
330
6F
100
AcDbEntity
  8
9-0
  6
Continuous
 62
     4
100
AcDbLine
 10
3460.939383828274
 20
490.144916207137
 30
0.0
 11
3460.939383828274
 21
360.144916207137
 31
0.0
  0
TEXT
  5
3BE
330
6F
100
AcDbEntity
  8
9-0
 62
     4
100
AcDbText
 10
3656.162000000001
 20
360.765
 30
0.0
 40
36.288
  1
452
100
AcDbText
  0
LINE
  5
3BF
330
6F
100
AcDbEntity
  8
9-0
  6
Continuous
 62
     4
100
AcDbLine
 10
3460.939383395923
 20
360.1449165219201
 30
0.0
 11
3912.93938339592
 21
360.1449165219201
 31
0.0
  0
CIRCLE
  5
3C0
330
6F
100
AcDbEntity
  8
9-0
  6
Continuous
 62
     4
100
AcDbCircle
 10
3460.939383395923
 20
360.1449165219201
 30
0.0
 40
0.25
  0
CIRCLE
  5
3C1
330
6F
100
AcDbEntity
  8
9-0
  6
Continuous
 62
     4
100
AcDbCircle
 10
3460.939383395923
 20
360.1449165219201
 30
0.0
 40
0.1875
  0
CIRCLE
  5
3C2
330
6F
100
AcDbEntity
  8
9-0
  6
Continuous
 62
     4
100
AcDbCircle
 10
3460.939383395923
 20
360.1449165219201
 30
0.0
 40
0.125
  0
CIRCLE
  5
3C3
330
6F
100
AcDbEntity
  8
9-0
  6
Continuous
 62
     4
100
AcDbCircle
 10
3460.939383395923
 20
360.1449165219201
 30
0.0
 40
0.0625
  0
CIRCLE
  5
3C4
330
6F
100
AcDbEntity
  8
9-0
  6
Continuous
 62
     4
100
AcDbCircle
 10
3912.93938339592
 20
360.1449165219201
 30
0.0
 40
0.25
  0
CIRCLE
  5
3C5
330
6F
100
AcDbEntity
  8
9-0
  6
Continuous
 62
     4
100
AcDbCircle
 10
3912.93938339592
 20
360.1449165219201
 30
0.0
 40
0.1875
  0
CIRCLE
  5
3C6
330
6F
100
AcDbEntity
  8
9-0
  6
Continuous
 62
     4
100
AcDbCircle
 10
3912.93938339592
 20
360.1449165219201
 30
0.0
 40
0.125
  0
CIRCLE
  5
3C7
330
6F
100
AcDbEntity
  8
9-0
  6
Continuous
 62
     4
100
AcDbCircle
 10
3912.93938339592
 20
360.1449165219201
 30
0.0
 40
0.0625
  0
LINE
  5
3C8
330
6F
100
AcDbEntity
  8
2-0
  6
DASHED2
 62
     7
100
AcDbLine
 10
3475.939383778887
 20
715.14491691507
 30
0.0
 11
3891.939383778887
 21
715.14491691507
 31
0.0
  0
LINE
  5
3C9
330
6F
100
AcDbEntity
  8
2-0
  6
Continuous
 62
     7
100
AcDbLine
 10
3460.939383778887
 20
610.14491691507
 30
0.0
 11
3860.939383778887
 21
610.14491691507
 31
0.0
  0
LINE
  5
3CA
330
6F
100
AcDbEntity
  8
2-0
  6
DASHED2
 62
     7
100
AcDbLine
 10
3475.939383778887
 20
700.1449169150699
 30
0.0
 11
3890.939383778887
 21
700.1449169150699
 31
0.0
  0
LINE
  5
3CB
330
6F
100
AcDbEntity
  8
2-0
  6
Continuous
 62
     7
100
AcDbLine
 10
3870.939383778887
 20
700.1449169150699
 30
0.0
 11
3891.939383778887
 21
700.1449169150699
 31
0.0
  0
LINE
  5
3CC
330
6F
100
AcDbEntity
  8
2-0
  6
Continuous
 62
     7
100
AcDbLine
 10
3897.339383778887
 20
700.1449169150699
 30
0.0
 11
3912.939383778887
 21
700.1449169150699
 31
0.0
  0
LINE
  5
3CD
330
6F
100
AcDbEntity
  8
2-0
  6
Continuous
 62
     7
100
AcDbLine
 10
3851.939383778887
 20
700.1449169150699
 30
0.0
 11
3851.939383778887
 21
610.14491691507
 31
0.0
  0
LINE
  5
3CE
330
6F
100
AcDbEntity
  8
2-0
  6
Continuous
 62
     7
100
AcDbLine
 10
3860.939383778887
 20
700.1449169150699
 30
0.0
 11
3860.939383778887
 21
610.14491691507
 31
0.0
  0
LINE
  5
3CF
330
6F
100
AcDbEntity
  8
2-0
  6
DASHED2
 62
     7
100
AcDbLine
 10
3460.939383778887
 20
1185.14491691507
 30
0.0
 11
3475.939383778887
 21
1185.14491691507
 31
0.0
  0
LINE
  5
3D0
330
6F
100
AcDbEntity
  8
2-0
  6
DASHED2
 62
     7
100
AcDbLine
 10
3460.939383778887
 20
1185.14491691507
 30
0.0
 11
3475.939383778887
 21
1210.14491691507
 31
0.0
  0
LINE
  5
3D1
330
6F
100
AcDbEntity
  8
2-0
  6
Continuous
 62
     7
100
AcDbLine
 10
3460.939383778887
 20
1230.14491691507
 30
0.0
 11
3910.939383778887
 21
1230.14491691507
 31
0.0
  0
LINE
  5
3D2
330
6F
100
AcDbEntity
  8
2-0
  6
Continuous
 62
     7
100
AcDbLine
 10
3460.939383778887
 20
1210.14491691507
 30
0.0
 11
3910.939383778887
 21
1210.14491691507
 31
0.0
  0
LINE
  5
3D3
330
6F
100
AcDbEntity
  8
9-0
  6
Continuous
 62
     4
100
AcDbLine
 10
3460.939383828274
 20
1255.935885207137
 30
0.0
 11
3460.939383828274
 21
1387.896026207137
 31
0.0
  0
LINE
  5
3D4
330
6F
100
AcDbEntity
  8
9-0
  6
Continuous
 62
     4
100
AcDbLine
 10
3912.939383828274
 20
1255.935885207137
 30
0.0
 11
3912.939383828274
 21
1387.896026207137
 31
0.0
  0
TEXT
  5
3D5
330
6F
100
AcDbEntity
  8
9-0
 62
     4
100
AcDbText
 10
3656.162000000001
 20
1388.516
 30
0.0
 40
36.288
  1
452
100
AcDbText
  0
LINE
  5
3D6
330
6F
100
AcDbEntity
  8
9-0
  6
Continuous
 62
     4
100
AcDbLine
 10
3912.939383395965
 20
1387.896026094653
 30
0.0
 11
3460.939383395923
 21
1387.896026094653
 31
0.0
  0
CIRCLE
  5
3D7
330
6F
100
AcDbEntity
  8
9-0
  6
Continuous
 62
     4
100
AcDbCircle
 10
3912.939383395965
 20
1387.896026094653
 30
0.0
 40
0.25
  0
CIRCLE
  5
3D8
330
6F
100
AcDbEntity
  8
9-0
  6
Continuous
 62
     4
100
AcDbCircle
 10
3912.939383395965
 20
1387.896026094653
 30
0.0
 40
0.1875
  0
CIRCLE
  5
3D9
330
6F
100
AcDbEntity
  8
9-0
  6
Continuous
 62
     4
100
AcDbCircle
 10
3912.939383395965
 20
1387.896026094653
 30
0.0
 40
0.125
  0
CIRCLE
  5
3DA
330
6F
100
AcDbEntity
  8
9-0
  6
Continuous
 62
     4
100
AcDbCircle
 10
3912.939383395965
 20
1387.896026094653
 30
0.0
 40
0.0625
  0
CIRCLE
  5
3DB
330
6F
100
AcDbEntity
  8
9-0
  6
Continuous
 62
     4
100
AcDbCircle
 10
3460.939383395923
 20
1387.896026094653
 30
0.0
 40
0.25
  0
CIRCLE
  5
3DC
330
6F
100
AcDbEntity
  8
9-0
  6
Continuous
 62
     4
100
AcDbCircle
 10
3460.939383395923
 20
1387.896026094653
 30
0.0
 40
0.1875
  0
CIRCLE
  5
3DD
330
6F
100
AcDbEntity
  8
9-0
  6
Continuous
 62
     4
100
AcDbCircle
 10
3460.939383395923
 20
1387.896026094653
 30
0.0
 40
0.125
  0
CIRCLE
  5
3DE
330
6F
100
AcDbEntity
  8
9-0
  6
Continuous
 62
     4
100
AcDbCircle
 10
3460.939383395923
 20
1387.896026094653
 30
0.0
 40
0.0625
  0
LINE
  5
3DF
330
6F
100
AcDbEntity
  8
2-0
  6
Continuous
 62
     7
100
AcDbLine
 10
3460.939383778887
 20
1230.14491691507
 30
0.0
 11
3460.939383778887
 21
1210.14491691507
 31
0.0
  0
LINE
  5
3E0
330
6F
100
AcDbEntity
  8
2-0
  6
DASHED2
 62
     7
100
AcDbLine
 10
3463.939383778887
 20
1210.14491691507
 30
0.0
 11
3478.939383778886
 21
1210.14491691507
 31
0.0
  0
ARC
  5
3E1
330
6F
100
AcDbEntity
  8
2-0
  6
Continuous
 62
     7
100
AcDbCircle
 10
3910.939383778887
 20
1212.14491691507
 30
0.0
 40
2.0
100
AcDbArc
 50
270.0
 51
0.0
  0
ARC
  5
3E2
330
6F
100
AcDbEntity
  8
2-0
  6
Continuous
 62
     7
100
AcDbCircle
 10
3910.939383778887
 20
1228.14491691507
 30
0.0
 40
2.0
100
AcDbArc
 50
0.0
 51
90.0
  0
LINE
  5
3E3
330
6F
100
AcDbEntity
  8
2-0
  6
Continuous
 62
     7
100
AcDbLine
 10
3912.939383778887
 20
1228.14491691507
 30
0.0
 11
3912.939383778887
 21
1212.14491691507
 31
0.0
  0
LINE
  5
3E4
330
6F
100
AcDbEntity
  8
2-0
  6
Continuous
 62
     7
100
AcDbLine
 10
3898.939383778887
 20
1210.14491691507
 30
0.0
 11
3910.939383778887
 21
1210.14491691507
 31
0.0
  0
LINE
  5
3E5
330
6F
100
AcDbEntity
  8
2-0
  6
DASHED2
 62
     7
100
AcDbLine
 10
3870.939383395921
 20
1180.14491652192
 30
0.0
 11
3891.939383395919
 21
1180.14491652192
 31
0.0
  0
LINE
  5
3E6
330
6F
100
AcDbEntity
  8
2-0
  6
DASHED2
 62
     7
100
AcDbLine
 10
3891.939383395919
 20
1180.14491652192
 30
0.0
 11
3891.939383395919
 21
1210.14491652192
 31
0.0
  0
LINE
  5
3E7
330
6F
100
AcDbEntity
  8
2-0
  6
DASHED2
 62
     7
100
AcDbLine
 10
3891.939383395919
 20
1210.14491652192
 30
0.0
 11
3870.939383395921
 21
1210.14491652192
 31
0.0
  0
LINE
  5
3E8
330
6F
100
AcDbEntity
  8
2-0
  6
DASHED2
 62
     7
100
AcDbLine
 10
3870.939383395921
 20
1210.14491652192
 30
0.0
 11
3870.939383395921
 21
1180.14491652192
 31
0.0
  0
LINE
  5
3E9
330
6F
100
AcDbEntity
  8
9-0
  6
Continuous
 62
     4
100
AcDbLine
 10
3151.159387828274
 20
1496.407408207137
 30
0.0
 11
3151.159387828274
 21
1626.407408207137
 31
0.0
  0
LINE
  5
3EA
330
6F
100
AcDbEntity
  8
9-0
  6
Continuous
 62
     4
100
AcDbLine
 10
2691.159387828274
 20
1496.407408207137
 30
0.0
 11
2691.159387828274
 21
1626.407408207137
 31
0.0
  0
TEXT
  5
3EB
330
6F
100
AcDbEntity
  8
9-0
 62
     4
100
AcDbText
 10
2890.382
 20
1627.027
 30
0.0
 40
36.288
  1
460
100
AcDbText
  0
LINE
  5
3EC
330
6F
100
AcDbEntity
  8
9-0
  6
Continuous
 62
     4
100
AcDbLine
 10
2691.159387471117
 20
1626.407408418783
 30
0.0
 11
3151.159387471125
 21
1626.407408418783
 31
0.0
  0
CIRCLE
  5
3ED
330
6F
100
AcDbEntity
  8
9-0
  6
Continuous
 62
     4
100
AcDbCircle
 10
2691.159387471117
 20
1626.407408418783
 30
0.0
 40
0.25
  0
CIRCLE
  5
3EE
330
6F
100
AcDbEntity
  8
9-0
  6
Continuous
 62
     4
100
AcDbCircle
 10
2691.159387471117
 20
1626.407408418783
 30
0.0
 40
0.1875
  0
CIRCLE
  5
3EF
330
6F
100
AcDbEntity
  8
9-0
  6
Continuous
 62
     4
100
AcDbCircle
 10
2691.159387471117
 20
1626.407408418783
 30
0.0
 40
0.125
  0
CIRCLE
  5
3F0
330
6F
100
AcDbEntity
  8
9-0
  6
Continuous
 62
     4
100
AcDbCircle
 10
2691.159387471117
 20
1626.407408418783
 30
0.0
 40
0.0625
  0
CIRCLE
  5
3F1
330
6F
100
AcDbEntity
  8
9-0
  6
Continuous
 62
     4
100
AcDbCircle
 10
3151.159387471125
 20
1626.407408418783
 30
0.0
 40
0.25
  0
CIRCLE
  5
3F2
330
6F
100
AcDbEntity
  8
9-0
  6
Continuous
 62
     4
100
AcDbCircle
 10
3151.159387471125
 20
1626.407408418783
 30
0.0
 40
0.1875
  0
CIRCLE
  5
3F3
330
6F
100
AcDbEntity
  8
9-0
  6
Continuous
 62
     4
100
AcDbCircle
 10
3151.159387471125
 20
1626.407408418783
 30
0.0
 40
0.125
  0
CIRCLE
  5
3F4
330
6F
100
AcDbEntity
  8
9-0
  6
Continuous
 62
     4
100
AcDbCircle
 10
3151.159387471125
 20
1626.407408418783
 30
0.0
 40
0.0625
  0
LINE
  5
3F5
330
6F
100
AcDbEntity
  8
2-0
  6
DASHED2
 62
     7
100
AcDbLine
 10
2706.159387778887
 20
715.14491691507
 30
0.0
 11
3122.159387778887
 21
715.14491691507
 31
0.0
  0
LINE
  5
3F6
330
6F
100
AcDbEntity
  8
9-0
  6
Continuous
 62
     4
100
AcDbLine
 10
3091.159387828274
 20
590.144916207137
 30
0.0
 11
3091.159387828274
 21
460.144916207137
 31
0.0
  0
LINE
  5
3F7
330
6F
100
AcDbEntity
  8
9-0
  6
Continuous
 62
     4
100
AcDbLine
 10
2691.159387828274
 20
590.144916207137
 30
0.0
 11
2691.159387828274
 21
460.144916207137
 31
0.0
  0
TEXT
  5
3F8
330
6F
100
AcDbEntity
  8
9-0
 62
     4
100
AcDbText
 10
2860.382
 20
460.7649999999999
 30
0.0
 40
36.288
  1
400
100
AcDbText
  0
LINE
  5
3F9
330
6F
100
AcDbEntity
  8
9-0
  6
Continuous
 62
     4
100
AcDbLine
 10
2691.159387471117
 20
460.144916521919
 30
0.0
 11
3091.159387471119
 21
460.144916521919
 31
0.0
  0
CIRCLE
  5
3FA
330
6F
100
AcDbEntity
  8
9-0
  6
Continuous
 62
     4
100
AcDbCircle
 10
2691.159387471117
 20
460.144916521919
 30
0.0
 40
0.25
  0
CIRCLE
  5
3FB
330
6F
100
AcDbEntity
  8
9-0
  6
Continuous
 62
     4
100
AcDbCircle
 10
2691.159387471117
 20
460.144916521919
 30
0.0
 40
0.1875
  0
CIRCLE
  5
3FC
330
6F
100
AcDbEntity
  8
9-0
  6
Continuous
 62
     4
100
AcDbCircle
 10
2691.159387471117
 20
460.144916521919
 30
0.0
 40
0.125
  0
CIRCLE
  5
3FD
330
6F
100
AcDbEntity
  8
9-0
  6
Continuous
 62
     4
100
AcDbCircle
 10
2691.159387471117
 20
460.144916521919
 30
0.0
 40
0.0625
  0
CIRCLE
  5
3FE
330
6F
100
AcDbEntity
  8
9-0
  6
Continuous
 62
     4
100
AcDbCircle
 10
3091.159387471119
 20
460.144916521919
 30
0.0
 40
0.25
  0
CIRCLE
  5
3FF
330
6F
100
AcDbEntity
  8
9-0
  6
Continuous
 62
     4
100
AcDbCircle
 10
3091.159387471119
 20
460.144916521919
 30
0.0
 40
0.1875
  0
CIRCLE
  5
400
330
6F
100
AcDbEntity
  8
9-0
  6
Continuous
 62
     4
100
AcDbCircle
 10
3091.159387471119
 20
460.144916521919
 30
0.0
 40
0.125
  0
CIRCLE
  5
401
330
6F
100
AcDbEntity
  8
9-0
  6
Continuous
 62
     4
100
AcDbCircle
 10
3091.159387471119
 20
460.144916521919
 30
0.0
 40
0.0625
  0
LINE
  5
402
330
6F
100
AcDbEntity
  8
9-0
  6
Continuous
 62
     4
100
AcDbLine
 10
3143.159387828274
 20
590.144916207137
 30
0.0
 11
3143.159387828274
 21
360.144916207137
 31
0.0
  0
LINE
  5
403
330
6F
100
AcDbEntity
  8
9-0
  6
Continuous
 62
     4
100
AcDbLine
 10
2691.159387828274
 20
590.144916207137
 30
0.0
 11
2691.159387828274
 21
360.144916207137
 31
0.0
  0
TEXT
  5
404
330
6F
100
AcDbEntity
  8
9-0
 62
     4
100
AcDbText
 10
2886.382
 20
360.765
 30
0.0
 40
36.288
  1
452
100
AcDbText
  0
LINE
  5
405
330
6F
100
AcDbEntity
  8
9-0
  6
Continuous
 62
     4
100
AcDbLine
 10
2691.159387471118
 20
360.144916521919
 30
0.0
 11
3143.159387471115
 21
360.144916521919
 31
0.0
  0
CIRCLE
  5
406
330
6F
100
AcDbEntity
  8
9-0
  6
Continuous
 62
     4
100
AcDbCircle
 10
2691.159387471118
 20
360.144916521919
 30
0.0
 40
0.25
  0
CIRCLE
  5
407
330
6F
100
AcDbEntity
  8
9-0
  6
Continuous
 62
     4
100
AcDbCircle
 10
2691.159387471118
 20
360.144916521919
 30
0.0
 40
0.1875
  0
CIRCLE
  5
408
330
6F
100
AcDbEntity
  8
9-0
  6
Continuous
 62
     4
100
AcDbCircle
 10
2691.159387471118
 20
360.144916521919
 30
0.0
 40
0.125
  0
CIRCLE
  5
409
330
6F
100
AcDbEntity
  8
9-0
  6
Continuous
 62
     4
100
AcDbCircle
 10
2691.159387471118
 20
360.144916521919
 30
0.0
 40
0.0625
  0
CIRCLE
  5
40A
330
6F
100
AcDbEntity
  8
9-0
  6
Continuous
 62
     4
100
AcDbCircle
 10
3143.159387471115
 20
360.144916521919
 30
0.0
 40
0.25
  0
CIRCLE
  5
40B
330
6F
100
AcDbEntity
  8
9-0
  6
Continuous
 62
     4
100
AcDbCircle
 10
3143.159387471115
 20
360.144916521919
 30
0.0
 40
0.1875
  0
CIRCLE
  5
40C
330
6F
100
AcDbEntity
  8
9-0
  6
Continuous
 62
     4
100
AcDbCircle
 10
3143.159387471115
 20
360.144916521919
 30
0.0
 40
0.125
  0
CIRCLE
  5
40D
330
6F
100
AcDbEntity
  8
9-0
  6
Continuous
 62
     4
100
AcDbCircle
 10
3143.159387471115
 20
360.144916521919
 30
0.0
 40
0.0625
  0
LINE
  5
40E
330
6F
100
AcDbEntity
  8
2-0
  6
DASHED2
 62
     7
100
AcDbLine
 10
2706.159387778887
 20
700.1449169150699
 30
0.0
 11
3121.159387778887
 21
700.1449169150699
 31
0.0
  0
LINE
  5
40F
330
6F
100
AcDbEntity
  8
2-0
  6
Continuous
 62
     7
100
AcDbLine
 10
2716.159387778887
 20
1410.14491691507
 30
0.0
 11
3149.159387778887
 21
1410.14491691507
 31
0.0
  0
LINE
  5
410
330
6F
100
AcDbEntity
  8
2-0
  6
Continuous
 62
     7
100
AcDbLine
 10
2691.159387778887
 20
1385.14491691507
 30
0.0
 11
3149.159387778887
 21
1385.14491691507
 31
0.0
  0
LINE
  5
411
330
6F
100
AcDbEntity
  8
2-0
  6
Continuous
 62
     7
100
AcDbLine
 10
2206.888394778887
 20
513.65719091507
 30
0.0
 11
2636.016370778887
 21
513.65719091507
 31
0.0
  0
LINE
  5
412
330
6F
100
AcDbEntity
  8
A-0
  6
CENTER
 62
     6
100
AcDbLine
 10
2934.159387778887
 20
1400.14491691507
 30
0.0
 11
2934.159387778887
 21
580.39115791507
 31
0.0
  0
LINE
  5
413
330
6F
100
AcDbEntity
  8
2-0
  6
DASHED2
 62
     7
100
AcDbLine
 10
2706.159387778887
 20
1385.14491691507
 30
0.0
 11
2706.159676778887
 21
609.77414991507
 31
0.0
  0
LINE
  5
414
330
6F
100
AcDbEntity
  8
2-0
  6
Continuous
 62
     7
100
AcDbLine
 10
2691.159387778887
 20
1385.14491691507
 30
0.0
 11
2691.159387778887
 21
609.7624409150699
 31
0.0
  0
LINE
  5
415
330
6F
100
AcDbEntity
  8
2-0
  6
Continuous
 62
     7
100
AcDbLine
 10
2636.016370778887
 20
513.65719091507
 30
0.0
 11
2906.058850778887
 21
700.1449169150699
 31
0.0
  0
LINE
  5
416
330
6F
100
AcDbEntity
  8
9-0
  6
Continuous
 62
     4
100
AcDbLine
 10
2934.159387828274
 20
830.739988207137
 30
0.0
 11
2934.159387828274
 21
816.071728207137
 31
0.0
  0
LINE
  5
417
330
6F
100
AcDbEntity
  8
9-0
  6
Continuous
 62
     4
100
AcDbLine
 10
2691.159387828274
 20
946.0717282071369
 30
0.0
 11
2691.159387828274
 21
816.071728207137
 31
0.0
  0
TEXT
  5
418
330
6F
100
AcDbEntity
  8
9-0
 62
     4
100
AcDbText
 10
2781.882
 20
816.6920000000001
 30
0.0
 40
36.288
  1
243
100
AcDbText
  0
LINE
  5
419
330
6F
100
AcDbEntity
  8
9-0
  6
Continuous
 62
     4
100
AcDbLine
 10
2691.159387471118
 20
816.071728618348
 30
0.0
 11
2934.159387471117
 21
816.071728618348
 31
0.0
  0
CIRCLE
  5
41A
330
6F
100
AcDbEntity
  8
9-0
  6
Continuous
 62
     4
100
AcDbCircle
 10
2691.159387471118
 20
816.071728618348
 30
0.0
 40
0.25
  0
CIRCLE
  5
41B
330
6F
100
AcDbEntity
  8
9-0
  6
Continuous
 62
     4
100
AcDbCircle
 10
2691.159387471118
 20
816.071728618348
 30
0.0
 40
0.1875
  0
CIRCLE
  5
41C
330
6F
100
AcDbEntity
  8
9-0
  6
Continuous
 62
     4
100
AcDbCircle
 10
2691.159387471118
 20
816.071728618348
 30
0.0
 40
0.125
  0
CIRCLE
  5
41D
330
6F
100
AcDbEntity
  8
9-0
  6
Continuous
 62
     4
100
AcDbCircle
 10
2691.159387471118
 20
816.071728618348
 30
0.0
 40
0.0625
  0
CIRCLE
  5
41E
330
6F
100
AcDbEntity
  8
9-0
  6
Continuous
 62
     4
100
AcDbCircle
 10
2934.159387471117
 20
816.071728618348
 30
0.0
 40
0.25
  0
CIRCLE
  5
41F
330
6F
100
AcDbEntity
  8
9-0
  6
Continuous
 62
     4
100
AcDbCircle
 10
2934.159387471117
 20
816.071728618348
 30
0.0
 40
0.1875
  0
CIRCLE
  5
420
330
6F
100
AcDbEntity
  8
9-0
  6
Continuous
 62
     4
100
AcDbCircle
 10
2934.159387471117
 20
816.071728618348
 30
0.0
 40
0.125
  0
CIRCLE
  5
421
330
6F
100
AcDbEntity
  8
9-0
  6
Continuous
 62
     4
100
AcDbCircle
 10
2934.159387471117
 20
816.071728618348
 30
0.0
 40
0.0625
  0
LINE
  5
422
330
6F
100
AcDbEntity
  8
2-0
  6
DASHED2
 62
     7
100
AcDbLine
 10
2865.809387471116
 20
719.816705195395
 30
0.0
 11
2913.909387471117
 21
719.816705195395
 31
0.0
  0
LINE
  5
423
330
6F
100
AcDbEntity
  8
2-0
  6
DASHED2
 62
     7
100
AcDbLine
 10
2913.909387471117
 20
719.816705195395
 30
0.0
 11
2913.909387471117
 21
710.92272179507
 31
0.0
  0
LINE
  5
424
330
6F
100
AcDbEntity
  8
2-0
  6
DASHED2
 62
     7
100
AcDbLine
 10
2913.909387471117
 20
710.92272179507
 30
0.0
 11
2954.409387471116
 21
710.92272179507
 31
0.0
  0
LINE
  5
425
330
6F
100
AcDbEntity
  8
2-0
  6
DASHED2
 62
     7
100
AcDbLine
 10
2954.409387471116
 20
710.92272179507
 30
0.0
 11
2954.409387471116
 21
719.816705195395
 31
0.0
  0
LINE
  5
426
330
6F
100
AcDbEntity
  8
2-0
  6
DASHED2
 62
     7
100
AcDbLine
 10
2954.409387471116
 20
719.816705195395
 30
0.0
 11
3002.509387471117
 21
719.816705195395
 31
0.0
  0
LINE
  5
427
330
6F
100
AcDbEntity
  8
2-0
  6
DASHED2
 62
     7
100
AcDbLine
 10
2691.159387778887
 20
635.14491691507
 30
0.0
 11
2706.159387778887
 21
635.14491691507
 31
0.0
  0
LINE
  5
428
330
6F
100
AcDbEntity
  8
2-0
  6
DASHED2
 62
     7
100
AcDbLine
 10
2691.159387778887
 20
609.7624409150699
 30
0.0
 11
2706.159676778887
 21
609.77414991507
 31
0.0
  0
LINE
  5
429
330
6F
100
AcDbEntity
  8
2-0
  6
DASHED2
 62
     7
100
AcDbLine
 10
2691.159387778887
 20
609.7624409150699
 30
0.0
 11
2706.159387778887
 21
635.14491691507
 31
0.0
  0
LINE
  5
42A
330
6F
100
AcDbEntity
  8
2-0
  6
Continuous
 62
     7
100
AcDbLine
 10
2906.058850778887
 20
700.1449169150699
 30
0.0
 11
2845.925554778887
 21
676.55208891507
 31
0.0
  0
LINE
  5
42B
330
6F
100
AcDbEntity
  8
2-0
  6
DASHED2
 62
     7
100
AcDbLine
 10
2879.159387778887
 20
715.14491691507
 30
0.0
 11
2879.159387778887
 21
700.1449169150699
 31
0.0
  0
LINE
  5
42C
330
6F
100
AcDbEntity
  8
2-0
  6
DASHED2
 62
     7
100
AcDbLine
 10
2989.159387778887
 20
715.14491691507
 30
0.0
 11
2989.159387778887
 21
700.1449169150699
 31
0.0
  0
LINE
  5
42D
330
6F
100
AcDbEntity
  8
2-0
  6
DASHED2
 62
     7
100
AcDbLine
 10
2991.859387778887
 20
1258.14491691507
 30
0.0
 11
2876.459387778887
 21
1258.14491691507
 31
0.0
  0
LINE
  5
42E
330
6F
100
AcDbEntity
  8
2-0
  6
DASHED2
 62
     7
100
AcDbLine
 10
2691.159387778887
 20
1185.14491691507
 30
0.0
 11
2706.159387778887
 21
1210.14491691507
 31
0.0
  0
LINE
  5
42F
330
6F
100
AcDbEntity
  8
2-0
  6
DASHED2
 62
     7
100
AcDbLine
 10
2691.159387778887
 20
1185.14491691507
 30
0.0
 11
2706.159387778887
 21
1185.14491691507
 31
0.0
  0
LINE
  5
430
330
6F
100
AcDbEntity
  8
2-0
  6
DASHED2
 62
     7
100
AcDbLine
 10
2691.159387778887
 20
1235.14491691507
 30
0.0
 11
2706.159387778887
 21
1235.14491691507
 31
0.0
  0
LINE
  5
431
330
6F
100
AcDbEntity
  8
2-0
  6
DASHED2
 62
     7
100
AcDbLine
 10
2691.159387778887
 20
1210.14491691507
 30
0.0
 11
2706.159387778887
 21
1210.14491691507
 31
0.0
  0
LINE
  5
432
330
6F
100
AcDbEntity
  8
2-0
  6
DASHED2
 62
     7
100
AcDbLine
 10
2691.159387778887
 20
1210.14491691507
 30
0.0
 11
2706.159387778887
 21
1235.14491691507
 31
0.0
  0
LINE
  5
433
330
6F
100
AcDbEntity
  8
2-0
  6
DASHED2
 62
     7
100
AcDbLine
 10
2691.159387778887
 20
1360.14491691507
 30
0.0
 11
2706.159387778887
 21
1385.14491691507
 31
0.0
  0
LINE
  5
434
330
6F
100
AcDbEntity
  8
2-0
  6
DASHED2
 62
     7
100
AcDbLine
 10
2691.159387778887
 20
1360.14491691507
 30
0.0
 11
2706.159387778887
 21
1360.14491691507
 31
0.0
  0
ARC
  5
435
330
6F
100
AcDbEntity
  8
2-0
  6
Continuous
 62
     7
100
AcDbCircle
 10
2711.159387778887
 20
1495.14491691507
 30
0.0
 40
5.0
100
AcDbArc
 50
0.0
 51
90.0
  0
LINE
  5
436
330
6F
100
AcDbEntity
  8
2-0
  6
Continuous
 62
     7
100
AcDbLine
 10
2716.159387778887
 20
1495.14491691507
 30
0.0
 11
2716.159387778887
 21
1410.14491691507
 31
0.0
  0
LINE
  5
437
330
6F
100
AcDbEntity
  8
2-0
  6
Continuous
 62
     7
100
AcDbLine
 10
2691.159387778887
 20
1500.14491691507
 30
0.0
 11
2691.159387778887
 21
1385.14491691507
 31
0.0
  0
LINE
  5
438
330
6F
100
AcDbEntity
  8
2-0
  6
Continuous
 62
     7
100
AcDbLine
 10
2691.159387778887
 20
1500.14491691507
 30
0.0
 11
2711.159387778887
 21
1500.14491691507
 31
0.0
  0
LINE
  5
439
330
6F
100
AcDbEntity
  8
2-0
  6
Continuous
 62
     7
100
AcDbLine
 10
3092.159387778887
 20
700.1449169150699
 30
0.0
 11
3122.159387778887
 21
700.1449169150699
 31
0.0
  0
LINE
  5
43A
330
6F
100
AcDbEntity
  8
2-0
  6
Continuous
 62
     7
100
AcDbLine
 10
3082.159387778887
 20
700.1449169150699
 30
0.0
 11
3082.159387778887
 21
610.14491691507
 31
0.0
  0
LINE
  5
43B
330
6F
100
AcDbEntity
  8
2-0
  6
Continuous
 62
     7
100
AcDbLine
 10
3091.159387778887
 20
700.1449169150699
 30
0.0
 11
3091.159387778887
 21
610.14491691507
 31
0.0
  0
LINE
  5
43C
330
6F
100
AcDbEntity
  8
2-0
  6
Continuous
 62
     7
100
AcDbLine
 10
3127.559387778886
 20
700.1449169150699
 30
0.0
 11
3143.159387778887
 21
700.1449169150699
 31
0.0
  0
LINE
  5
43D
330
6F
100
AcDbEntity
  8
2-0
  6
DASHED2
 62
     7
100
AcDbLine
 10
3112.159387778887
 20
1385.14491691507
 30
0.0
 11
3112.159387778887
 21
1225.14491691507
 31
0.0
  0
ARC
  5
43E
330
6F
100
AcDbEntity
  8
2-0
  6
Continuous
 62
     7
100
AcDbCircle
 10
3149.159387778887
 20
1387.14491691507
 30
0.0
 40
2.0
100
AcDbArc
 50
270.0
 51
0.0
  0
ARC
  5
43F
330
6F
100
AcDbEntity
  8
2-0
  6
Continuous
 62
     7
100
AcDbCircle
 10
3149.159387778887
 20
1408.14491691507
 30
0.0
 40
2.0
100
AcDbArc
 50
0.0
 51
90.0
  0
LINE
  5
440
330
6F
100
AcDbEntity
  8
2-0
  6
Continuous
 62
     7
100
AcDbLine
 10
3129.159387778887
 20
1385.14491691507
 30
0.0
 11
3144.159387778887
 21
1385.14491691507
 31
0.0
  0
LINE
  5
441
330
6F
100
AcDbEntity
  8
2-0
  6
Continuous
 62
     7
100
AcDbLine
 10
3151.159387778887
 20
1408.14491691507
 30
0.0
 11
3151.159387778887
 21
1387.14491691507
 31
0.0
  0
LINE
  5
442
330
6F
100
AcDbEntity
  8
2-0
  6
DASHED2
 62
     7
100
AcDbLine
 10
2751.159387471117
 20
1410.144916521918
 30
0.0
 11
2751.159387471117
 21
1287.144916521918
 31
0.0
  0
ARC
  5
443
330
6F
100
AcDbEntity
  8
2-0
  6
DASHED2
 62
     7
100
AcDbCircle
 10
2771.159387778887
 20
1287.14491691507
 30
0.0
 40
20.0
100
AcDbArc
 50
180.000000000292
 51
270.0
  0
LINE
  5
444
330
6F
100
AcDbEntity
  8
2-0
  6
DASHED2
 62
     7
100
AcDbLine
 10
2771.159387471117
 20
1267.144916521918
 30
0.0
 11
2876.159387471117
 21
1265.218507758773
 31
0.0
  0
LINE
  5
445
330
6F
100
AcDbEntity
  8
2-0
  6
DASHED2
 62
     7
100
AcDbLine
 10
2876.159387471117
 20
1265.218507758773
 30
0.0
 11
2876.159387471117
 21
1258.144916521918
 31
0.0
  0
LINE
  5
446
330
6F
100
AcDbEntity
  8
2-0
  6
DASHED2
 62
     7
100
AcDbLine
 10
2876.159387471117
 20
1258.144916521918
 30
0.0
 11
2992.159387471117
 21
1258.144916521918
 31
0.0
  0
LINE
  5
447
330
6F
100
AcDbEntity
  8
2-0
  6
DASHED2
 62
     7
100
AcDbLine
 10
2992.159387471117
 20
1258.144916521918
 30
0.0
 11
2992.159387471117
 21
1265.199483908857
 31
0.0
  0
LINE
  5
448
330
6F
100
AcDbEntity
  8
2-0
  6
DASHED2
 62
     7
100
AcDbLine
 10
2992.159387471117
 20
1265.199483908857
 30
0.0
 11
3089.159387471116
 21
1267.144916521918
 31
0.0
  0
ARC
  5
449
330
6F
100
AcDbEntity
  8
2-0
  6
DASHED2
 62
     7
100
AcDbCircle
 10
3089.159387778887
 20
1287.14491691507
 30
0.0
 40
20.0
100
AcDbArc
 50
269.999999999999
 51
359.999999999706
  0
LINE
  5
44A
330
6F
100
AcDbEntity
  8
2-0
  6
DASHED2
 62
     7
100
AcDbLine
 10
3109.159387471117
 20
1287.144916521918
 30
0.0
 11
3109.159387471117
 21
1410.144916521918
 31
0.0
  0
LINE
  5
44B
330
6F
100
AcDbEntity
  8
2-0
  6
DASHED2
 62
     7
100
AcDbLine
 10
2949.159387778887
 20
1077.21850791507
 30
0.0
 11
2949.159387778887
 21
610.21850791507
 31
0.0
  0
LINE
  5
44C
330
6F
100
AcDbEntity
  8
2-0
  6
DASHED2
 62
     7
100
AcDbLine
 10
2919.159387778887
 20
1077.21850791507
 30
0.0
 11
2919.159387778887
 21
610.21850791507
 31
0.0
  0
LINE
  5
44D
330
6F
100
AcDbEntity
  8
2-0
  6
DASHED2
 62
     7
100
AcDbLine
 10
3024.159387778887
 20
1260.21850791507
 30
0.0
 11
2844.159387778887
 21
1260.21850791507
 31
0.0
  0
LINE
  5
44E
330
6F
100
AcDbEntity
  8
2-0
  6
DASHED2
 62
     7
100
AcDbLine
 10
2846.407043778887
 20
1246.21850791507
 30
0.0
 11
2856.159387778887
 21
1246.21850791507
 31
0.0
  0
LINE
  5
44F
330
6F
100
AcDbEntity
  8
2-0
  6
DASHED2
 62
     7
100
AcDbLine
 10
2846.407043778887
 20
1260.21850791507
 30
0.0
 11
2846.407043778887
 21
1246.21850791507
 31
0.0
  0
LINE
  5
450
330
6F
100
AcDbEntity
  8
2-0
  6
DASHED2
 62
     7
100
AcDbLine
 10
2844.159387778887
 20
1265.21850791507
 30
0.0
 11
2844.159387778887
 21
1260.21850791507
 31
0.0
  0
LINE
  5
451
330
6F
100
AcDbEntity
  8
2-0
  6
DASHED2
 62
     7
100
AcDbLine
 10
2997.585730770891
 20
1171.218508162632
 30
0.0
 11
2997.585730770891
 21
1118.118508162632
 31
0.0
  0
ARC
  5
452
330
6F
100
AcDbEntity
  8
2-0
  6
DASHED2
 62
     7
100
AcDbCircle
 10
2987.585730778887
 20
1118.11850791507
 30
0.0
 40
10.0
100
AcDbArc
 50
270.0
 51
359.9999999997079
  0
LINE
  5
453
330
6F
100
AcDbEntity
  8
2-0
  6
DASHED2
 62
     7
100
AcDbLine
 10
2987.585730770891
 20
1108.118508162632
 30
0.0
 11
2880.733044171343
 21
1108.118508162632
 31
0.0
  0
ARC
  5
454
330
6F
100
AcDbEntity
  8
2-0
  6
DASHED2
 62
     7
100
AcDbCircle
 10
2880.733043778887
 20
1118.11850791507
 30
0.0
 40
10.0
100
AcDbArc
 50
180.000000000292
 51
270.0
  0
LINE
  5
455
330
6F
100
AcDbEntity
  8
2-0
  6
DASHED2
 62
     7
100
AcDbLine
 10
2870.733044171343
 20
1118.118508162632
 30
0.0
 11
2870.733044171343
 21
1171.218508162632
 31
0.0
  0
LINE
  5
456
330
6F
100
AcDbEntity
  8
2-0
  6
DASHED2
 62
     7
100
AcDbLine
 10
2904.159387471119
 20
1108.118508162632
 30
0.0
 11
2904.159387471117
 21
1077.218507758773
 31
0.0
  0
LINE
  5
457
330
6F
100
AcDbEntity
  8
2-0
  6
DASHED2
 62
     7
100
AcDbLine
 10
2904.159387471117
 20
1077.218507758773
 30
0.0
 11
2964.159387471118
 21
1077.218507758773
 31
0.0
  0
LINE
  5
458
330
6F
100
AcDbEntity
  8
2-0
  6
DASHED2
 62
     7
100
AcDbLine
 10
2964.159387471118
 20
1077.218507758773
 30
0.0
 11
2964.159387471118
 21
1108.118508162632
 31
0.0
  0
LINE
  5
459
330
6F
100
AcDbEntity
  8
2-0
  6
DASHED2
 62
     7
100
AcDbLine
 10
2856.159387778887
 20
1243.01698391507
 30
0.0
 11
2865.248186778887
 21
1238.01698391507
 31
0.0
  0
LINE
  5
45A
330
6F
100
AcDbEntity
  8
2-0
  6
DASHED2
 62
     7
100
AcDbLine
 10
3003.070588778887
 20
1238.01698391507
 30
0.0
 11
3003.070588778887
 21
1173.43327391507
 31
0.0
  0
LINE
  5
45B
330
6F
100
AcDbEntity
  8
2-0
  6
DASHED2
 62
     7
100
AcDbLine
 10
2865.248186778887
 20
1238.01698391507
 30
0.0
 11
2865.248186778887
 21
1173.43327391507
 31
0.0
  0
LINE
  5
45C
330
6F
100
AcDbEntity
  8
2-0
  6
DASHED2
 62
     7
100
AcDbLine
 10
3003.070588614348
 20
1171.218508162632
 30
0.0
 11
2865.248186327887
 21
1171.218508162632
 31
0.0
  0
LINE
  5
45D
330
6F
100
AcDbEntity
  8
2-0
  6
DASHED2
 62
     7
100
AcDbLine
 10
3003.070588778887
 20
1238.01698391507
 30
0.0
 11
2865.248186778887
 21
1238.01698391507
 31
0.0
  0
LINE
  5
45E
330
6F
100
AcDbEntity
  8
2-0
  6
DASHED2
 62
     7
100
AcDbLine
 10
2856.159387778887
 20
1260.21850791507
 30
0.0
 11
2856.159387778887
 21
1243.01698391507
 31
0.0
  0
LINE
  5
45F
330
6F
100
AcDbEntity
  8
2-0
  6
DASHED2
 62
     7
100
AcDbLine
 10
3012.159387778887
 20
1243.01698391507
 30
0.0
 11
2856.159387778887
 21
1243.01698391507
 31
0.0
  0
LINE
  5
460
330
6F
100
AcDbEntity
  8
2-0
  6
DASHED2
 62
     7
100
AcDbLine
 10
3012.159387778887
 20
1243.01698391507
 30
0.0
 11
3003.070588778887
 21
1238.01698391507
 31
0.0
  0
LINE
  5
461
330
6F
100
AcDbEntity
  8
2-0
  6
DASHED2
 62
     7
100
AcDbLine
 10
3021.911730778887
 20
1246.21850791507
 30
0.0
 11
3012.159387778887
 21
1246.21850791507
 31
0.0
  0
LINE
  5
462
330
6F
100
AcDbEntity
  8
2-0
  6
DASHED2
 62
     7
100
AcDbLine
 10
3012.159387778887
 20
1260.21850791507
 30
0.0
 11
3012.159387778887
 21
1243.01698391507
 31
0.0
  0
LINE
  5
463
330
6F
100
AcDbEntity
  8
2-0
  6
DASHED2
 62
     7
100
AcDbLine
 10
3024.159387778887
 20
1265.21850791507
 30
0.0
 11
3024.159387778887
 21
1260.21850791507
 31
0.0
  0
LINE
  5
464
330
6F
100
AcDbEntity
  8
2-0
  6
DASHED2
 62
     7
100
AcDbLine
 10
3021.911730778887
 20
1260.21850791507
 30
0.0
 11
3021.911730778887
 21
1246.21850791507
 31
0.0
  0
LINE
  5
465
330
6F
100
AcDbEntity
  8
2-0
  6
Continuous
 62
     7
100
AcDbLine
 10
3122.159387778887
 20
1385.14491691507
 30
0.0
 11
3122.159387778887
 21
700.1449169150699
 31
0.0
  0
LINE
  5
466
330
6F
100
AcDbEntity
  8
2-0
  6
DASHED2
 62
     7
100
AcDbLine
 10
3112.159387778887
 20
1225.14491691507
 30
0.0
 11
3122.159387778887
 21
1225.14491691507
 31
0.0
  0
LINE
  5
467
330
6F
100
AcDbEntity
  8
2-0
  6
Continuous
 62
     7
100
AcDbLine
 10
3143.159387778887
 20
700.1449169150699
 30
0.0
 11
3143.159387778887
 21
1352.14491691507
 31
0.0
  0
LINE
  5
468
330
6F
100
AcDbEntity
  8
2-0
  6
Continuous
 62
     7
100
AcDbLine
 10
3143.159387778887
 20
1322.36001391507
 30
0.0
 11
3143.159387778887
 21
1332.36001391507
 31
0.0
  0
LINE
  5
469
330
6F
100
AcDbEntity
  8
2-0
  6
Continuous
 62
     7
100
AcDbLine
 10
3143.159387778887
 20
1352.14491691507
 30
0.0
 11
3128.159387778887
 21
1352.14491691507
 31
0.0
  0
LINE
  5
46A
330
6F
100
AcDbEntity
  8
2-0
  6
Continuous
 62
     7
100
AcDbLine
 10
3127.559387778886
 20
1352.14491691507
 30
0.0
 11
3143.159387778887
 21
1352.14491691507
 31
0.0
  0
LINE
  5
46B
330
6F
100
AcDbEntity
  8
1-0
  6
Continuous
 62
     7
100
AcDbLine
 10
3127.559387778886
 20
1352.14491691507
 30
0.0
 11
3127.559387778886
 21
1337.14491691507
 31
0.0
  0
LINE
  5
46C
330
6F
100
AcDbEntity
  8
1-0
  6
Continuous
 62
     7
100
AcDbLine
 10
3143.159387778887
 20
1352.14491691507
 30
0.0
 11
3143.159387778887
 21
1345.94491691507
 31
0.0
  0
LINE
  5
46D
330
6F
100
AcDbEntity
  8
1-0
  6
Continuous
 62
     7
100
AcDbLine
 10
3127.559387778886
 20
1352.14491691507
 30
0.0
 11
3127.559387778886
 21
700.1449169150699
 31
0.0
  0
LINE
  5
46E
330
6F
100
AcDbEntity
  8
2-0
  6
Continuous
 62
     7
100
AcDbLine
 10
3891.939383778887
 20
1210.14491691507
 30
0.0
 11
3891.939383778887
 21
700.1449169150699
 31
0.0
  0
LINE
  5
46F
330
6F
100
AcDbEntity
  8
2-0
  6
Continuous
 62
     7
100
AcDbLine
 10
3912.939383778887
 20
700.1449169150699
 30
0.0
 11
3912.939383778887
 21
1177.14491691507
 31
0.0
  0
LINE
  5
470
330
6F
100
AcDbEntity
  8
2-0
  6
Continuous
 62
     7
100
AcDbLine
 10
3912.939383778887
 20
1177.14491691507
 30
0.0
 11
3897.939383778887
 21
1177.14491691507
 31
0.0
  0
LINE
  5
471
330
6F
100
AcDbEntity
  8
2-0
  6
Continuous
 62
     7
100
AcDbLine
 10
3897.339383778887
 20
1177.14491691507
 30
0.0
 11
3912.939383778887
 21
1177.14491691507
 31
0.0
  0
LINE
  5
472
330
6F
100
AcDbEntity
  8
1-0
  6
Continuous
 62
     7
100
AcDbLine
 10
3897.339383778887
 20
1177.14491691507
 30
0.0
 11
3897.339383778887
 21
1162.14491691507
 31
0.0
  0
LINE
  5
473
330
6F
100
AcDbEntity
  8
1-0
  6
Continuous
 62
     7
100
AcDbLine
 10
3912.939383778887
 20
1177.14491691507
 30
0.0
 11
3912.939383778887
 21
1170.94491691507
 31
0.0
  0
LINE
  5
474
330
6F
100
AcDbEntity
  8
1-0
  6
Continuous
 62
     7
100
AcDbLine
 10
3897.339383778887
 20
1177.14491691507
 30
0.0
 11
3897.339383778887
 21
700.1449169150699
 31
0.0
  0
LINE
  5
475
330
6F
100
AcDbEntity
  8
1-0
  6
Continuous
 62
     7
100
AcDbLine
 10
2992.159387778887
 20
1265.14491691507
 30
0.0
 11
2876.159387778887
 21
1265.21850791507
 31
0.0
  0
LINE
  5
476
330
6F
100
AcDbEntity
  8
9-0
  6
Continuous
 62
     4
100
AcDbLine
 10
2912.659387828274
 20
1410.144916207137
 30
0.0
 11
2902.387617828274
 21
1410.144916207137
 31
0.0
  0
LINE
  5
477
330
6F
100
AcDbEntity
  8
9-0
  6
Continuous
 62
     4
100
AcDbLine
 10
2914.159387828274
 20
1265.181712207137
 30
0.0
 11
2902.387617828274
 21
1265.181712207137
 31
0.0
  0
TEXT
  5
478
330
6F
100
AcDbEntity
  8
9-0
 62
     4
100
AcDbText
 10
2901.768
 20
1304.063
 30
0.0
 40
36.288
  1
145
 50
90.0
100
AcDbText
  0
LINE
  5
479
330
6F
100
AcDbEntity
  8
9-0
  6
Continuous
 62
     4
100
AcDbLine
 10
2902.387618003501
 20
1265.181712140346
 30
0.0
 11
2902.387618003501
 21
1410.144916521918
 31
0.0
  0
CIRCLE
  5
47A
330
6F
100
AcDbEntity
  8
9-0
  6
Continuous
 62
     4
100
AcDbCircle
 10
2902.387618003501
 20
1265.181712140346
 30
0.0
 40
0.25
  0
CIRCLE
  5
47B
330
6F
100
AcDbEntity
  8
9-0
  6
Continuous
 62
     4
100
AcDbCircle
 10
2902.387618003501
 20
1265.181712140346
 30
0.0
 40
0.1875
  0
CIRCLE
  5
47C
330
6F
100
AcDbEntity
  8
9-0
  6
Continuous
 62
     4
100
AcDbCircle
 10
2902.387618003501
 20
1265.181712140346
 30
0.0
 40
0.125
  0
CIRCLE
  5
47D
330
6F
100
AcDbEntity
  8
9-0
  6
Continuous
 62
     4
100
AcDbCircle
 10
2902.387618003501
 20
1265.181712140346
 30
0.0
 40
0.0625
  0
CIRCLE
  5
47E
330
6F
100
AcDbEntity
  8
9-0
  6
Continuous
 62
     4
100
AcDbCircle
 10
2902.387618003501
 20
1410.144916521918
 30
0.0
 40
0.25
  0
CIRCLE
  5
47F
330
6F
100
AcDbEntity
  8
9-0
  6
Continuous
 62
     4
100
AcDbCircle
 10
2902.387618003501
 20
1410.144916521918
 30
0.0
 40
0.1875
  0
CIRCLE
  5
480
330
6F
100
AcDbEntity
  8
9-0
  6
Continuous
 62
     4
100
AcDbCircle
 10
2902.387618003501
 20
1410.144916521918
 30
0.0
 40
0.125
  0
CIRCLE
  5
481
330
6F
100
AcDbEntity
  8
9-0
  6
Continuous
 62
     4
100
AcDbCircle
 10
2902.387618003501
 20
1410.144916521918
 30
0.0
 40
0.0625
  0
TEXT
  5
482
330
6F
100
AcDbEntity
  8
C-0
 62
     5
100
AcDbText
 10
2224.103
 20
521.348
 30
0.0
 40
25.92
  1
排水穴　φ110（工場加工）
100
AcDbText
  0
TEXT
  5
483
330
6F
100
AcDbEntity
  8
C-0
 62
     5
100
AcDbText
 10
2223.929
 20
477.9609999999999
 30
0.0
 40
25.92
  1
（回転板付）
100
AcDbText
  0
TEXT
  5
484
330
6F
100
AcDbEntity
  8
C-0
 62
     5
100
AcDbText
 10
3190.602000000001
 20
2379.856
 30
0.0
 40
25.92
  1
(SW)は鏡面仕上げ
100
AcDbText
  0
LINE
  5
485
330
6F
100
AcDbEntity
  8
2-0
  6
DASHED2
 62
     7
100
AcDbLine
 10
3122.159387778887
 20
1020.14491691507
 30
0.0
 11
3122.159387778887
 21
787.1449169150699
 31
0.0
  0
LINE
  5
486
330
6F
100
AcDbEntity
  8
2-0
  6
DASHED2
 62
     7
100
AcDbLine
 10
3122.159387778887
 20
1059.76244091507
 30
0.0
 11
3122.159387778887
 21
846.26244091507
 31
0.0
  0
TEXT
  5
487
330
6F
100
AcDbEntity
  8
C-0
 62
     5
100
AcDbText
 10
3199.223
 20
2030.862
 30
0.0
 40
25.92
  1
ポリプロピレン製　4本収納
100
AcDbText
  0
TEXT
  5
488
330
6F
100
AcDbEntity
  8
C-0
 62
     5
100
AcDbText
 10
3977.994000000001
 20
48.69699999999999
 30
0.0
 40
31.104
  1
2022.1
100
AcDbText
  0
TEXT
  5
489
330
6F
100
AcDbEntity
  8
C-0
 62
     5
100
AcDbText
 10
2864.575
 20
1855.528
 30
0.0
 40
25.92
  1
※　右シンクは本図の左右対称です。
100
AcDbText
  0
TEXT
  5
48A
330
6F
100
AcDbEntity
  8
C-0
 62
     5
100
AcDbText
 10
691.26
 20
931.5800000000001
 30
0.0
 40
25.92
  1
包丁差
100
AcDbText
  0
LINE
  5
48B
330
6F
100
AcDbEntity
  8
4-0
  6
DASHED2
 62
     7
100
AcDbLine
 10
592.445929778887
 20
834.76244091507
 30
0.0
 11
836.445929778887
 21
834.76244091507
 31
0.0
  0
LINE
  5
48C
330
6F
100
AcDbEntity
  8
4-0
  6
DASHED2
 62
     7
100
AcDbLine
 10
584.445929778887
 20
842.76244091507
 30
0.0
 11
584.445929778887
 21
1064.76244091507
 31
0.0
  0
LINE
  5
48D
330
6F
100
AcDbEntity
  8
4-0
  6
DASHED2
 62
     7
100
AcDbLine
 10
844.4459297788871
 20
1064.76244091507
 30
0.0
 11
844.4459297788871
 21
842.76244091507
 31
0.0
  0
ARC
  5
48E
330
6F
100
AcDbEntity
  8
4-0
  6
DOT
 62
     7
100
AcDbCircle
 10
592.445929778887
 20
842.76244091507
 30
0.0
 40
8.0
100
AcDbArc
 50
180.0
 51
270.0
  0
ARC
  5
48F
330
6F
100
AcDbEntity
  8
4-0
  6
DOT
 62
     7
100
AcDbCircle
 10
836.445929778887
 20
842.76244091507
 30
0.0
 40
8.0
100
AcDbArc
 50
270.0
 51
0.0
  0
ARC
  5
490
330
6F
100
AcDbEntity
  8
4-0
  6
DASHED2
 62
     7
100
AcDbCircle
 10
843.4459297788871
 20
1063.76244091507
 30
0.0
 40
1.0
100
AcDbArc
 50
0.0
 51
90.0
  0
ARC
  5
491
330
6F
100
AcDbEntity
  8
4-0
  6
DASHED2
 62
     7
100
AcDbCircle
 10
585.445929778887
 20
1063.76244091507
 30
0.0
 40
1.0
100
AcDbArc
 50
90.0
 51
180.0
  0
ARC
  5
492
330
6F
100
AcDbEntity
  8
4-0
  6
DASHED2
 62
     7
100
AcDbCircle
 10
839.445929778887
 20
869.76244091507
 30
0.0
 40
7.0
100
AcDbArc
 50
90.0
 51
270.0
  0
LINE
  5
493
330
6F
100
AcDbEntity
  8
4-0
  6
DASHED2
 62
     7
100
AcDbLine
 10
839.445929778887
 20
876.76244091507
 30
0.0
 11
844.4459297788871
 21
876.76244091507
 31
0.0
  0
LINE
  5
494
330
6F
100
AcDbEntity
  8
4-0
  6
DASHED2
 62
     7
100
AcDbLine
 10
839.445929778887
 20
862.7624409150699
 30
0.0
 11
844.4459297788871
 21
862.7624409150699
 31
0.0
  0
CIRCLE
  5
495
330
6F
100
AcDbEntity
  8
4-0
  6
DASHED2
 62
     7
100
AcDbCircle
 10
839.445929778887
 20
869.76244091507
 30
0.0
 40
2.0
  0
ARC
  5
496
330
6F
100
AcDbEntity
  8
4-0
  6
DASHED2
 62
     7
100
AcDbCircle
 10
839.445929778887
 20
1029.76244091507
 30
0.0
 40
7.0
100
AcDbArc
 50
90.0
 51
270.0
  0
LINE
  5
497
330
6F
100
AcDbEntity
  8
4-0
  6
DASHED2
 62
     7
100
AcDbLine
 10
839.445929778887
 20
1036.76244091507
 30
0.0
 11
844.4459297788871
 21
1036.76244091507
 31
0.0
  0
LINE
  5
498
330
6F
100
AcDbEntity
  8
4-0
  6
DASHED2
 62
     7
100
AcDbLine
 10
839.445929778887
 20
1022.76244091507
 30
0.0
 11
844.4459297788871
 21
1022.76244091507
 31
0.0
  0
CIRCLE
  5
499
330
6F
100
AcDbEntity
  8
4-0
  6
DASHED2
 62
     7
100
AcDbCircle
 10
839.445929778887
 20
1029.76244091507
 30
0.0
 40
2.0
  0
ARC
  5
49A
330
6F
100
AcDbEntity
  8
4-0
  6
DASHED2
 62
     7
100
AcDbCircle
 10
589.445929778887
 20
869.76244091507
 30
0.0
 40
7.0
100
AcDbArc
 50
270.0
 51
90.0
  0
LINE
  5
49B
330
6F
100
AcDbEntity
  8
4-0
  6
DASHED2
 62
     7
100
AcDbLine
 10
589.445929778887
 20
876.76244091507
 30
0.0
 11
584.445929778887
 21
876.76244091507
 31
0.0
  0
LINE
  5
49C
330
6F
100
AcDbEntity
  8
4-0
  6
DASHED2
 62
     7
100
AcDbLine
 10
589.445929778887
 20
862.7624409150699
 30
0.0
 11
584.445929778887
 21
862.7624409150699
 31
0.0
  0
CIRCLE
  5
49D
330
6F
100
AcDbEntity
  8
4-0
  6
DASHED2
 62
     7
100
AcDbCircle
 10
589.445929778887
 20
869.76244091507
 30
0.0
 40
2.0
  0
ARC
  5
49E
330
6F
100
AcDbEntity
  8
4-0
  6
DASHED2
 62
     7
100
AcDbCircle
 10
589.445929778887
 20
1029.76244091507
 30
0.0
 40
7.0
100
AcDbArc
 50
270.0
 51
90.0
  0
LINE
  5
49F
330
6F
100
AcDbEntity
  8
4-0
  6
DASHED2
 62
     7
100
AcDbLine
 10
589.445929778887
 20
1036.76244091507
 30
0.0
 11
584.445929778887
 21
1036.76244091507
 31
0.0
  0
LINE
  5
4A0
330
6F
100
AcDbEntity
  8
4-0
  6
DASHED2
 62
     7
100
AcDbLine
 10
589.445929778887
 20
1022.76244091507
 30
0.0
 11
584.445929778887
 21
1022.76244091507
 31
0.0
  0
CIRCLE
  5
4A1
330
6F
100
AcDbEntity
  8
4-0
  6
DASHED2
 62
     7
100
AcDbCircle
 10
589.445929778887
 20
1029.76244091507
 30
0.0
 40
2.0
  0
LINE
  5
4A2
330
6F
100
AcDbEntity
  8
4-0
  6
DASHED2
 62
     7
100
AcDbLine
 10
587.445929778887
 20
1067.76244091507
 30
0.0
 11
841.4459297788869
 21
1067.76244091507
 31
0.0
  0
ARC
  5
4A3
330
6F
100
AcDbEntity
  8
4-0
  6
DASHED2
 62
     7
100
AcDbCircle
 10
587.445929778887
 20
1064.76244091507
 30
0.0
 40
3.0
100
AcDbArc
 50
90.0
 51
180.0
  0
ARC
  5
4A4
330
6F
100
AcDbEntity
  8
4-0
  6
DASHED2
 62
     7
100
AcDbCircle
 10
841.4459297788869
 20
1064.76244091507
 30
0.0
 40
3.0
100
AcDbArc
 50
0.0
 51
90.0
  0
LINE
  5
4A5
330
6F
100
AcDbEntity
  8
1-0
  6
Continuous
 62
     4
100
AcDbLine
 10
816.945929828274
 20
1067.762441207137
 30
0.0
 11
792.8796588282739
 21
1067.762441207137
 31
0.0
  0
LINE
  5
4A6
330
6F
100
AcDbEntity
  8
1-0
  6
Continuous
 62
     4
100
AcDbLine
 10
761.3253358282739
 20
699.762441207137
 30
0.0
 11
792.8796588282739
 21
699.762441207137
 31
0.0
  0
TEXT
  5
4A7
330
6F
100
AcDbEntity
  8
1-0
 62
     4
100
AcDbText
 10
792.26
 20
850.1619999999999
 30
0.0
 40
36.288
  1
368
 50
90.0
100
AcDbText
  0
LINE
  5
4A8
330
6F
100
AcDbEntity
  8
1-0
  6
Continuous
 62
     4
100
AcDbLine
 10
792.879659253854
 20
699.762441217695
 30
0.0
 11
792.879659253854
 21
1067.762441217694
 31
0.0
  0
CIRCLE
  5
4A9
330
6F
100
AcDbEntity
  8
1-0
  6
Continuous
 62
     4
100
AcDbCircle
 10
792.879659253854
 20
699.762441217695
 30
0.0
 40
0.25
  0
CIRCLE
  5
4AA
330
6F
100
AcDbEntity
  8
1-0
  6
Continuous
 62
     4
100
AcDbCircle
 10
792.879659253854
 20
699.762441217695
 30
0.0
 40
0.1875
  0
CIRCLE
  5
4AB
330
6F
100
AcDbEntity
  8
1-0
  6
Continuous
 62
     4
100
AcDbCircle
 10
792.879659253854
 20
699.762441217695
 30
0.0
 40
0.125
  0
CIRCLE
  5
4AC
330
6F
100
AcDbEntity
  8
1-0
  6
Continuous
 62
     4
100
AcDbCircle
 10
792.879659253854
 20
699.762441217695
 30
0.0
 40
0.0625
  0
CIRCLE
  5
4AD
330
6F
100
AcDbEntity
  8
1-0
  6
Continuous
 62
     4
100
AcDbCircle
 10
792.879659253854
 20
1067.762441217694
 30
0.0
 40
0.25
  0
CIRCLE
  5
4AE
330
6F
100
AcDbEntity
  8
1-0
  6
Continuous
 62
     4
100
AcDbCircle
 10
792.879659253854
 20
1067.762441217694
 30
0.0
 40
0.1875
  0
CIRCLE
  5
4AF
330
6F
100
AcDbEntity
  8
1-0
  6
Continuous
 62
     4
100
AcDbCircle
 10
792.879659253854
 20
1067.762441217694
 30
0.0
 40
0.125
  0
CIRCLE
  5
4B0
330
6F
100
AcDbEntity
  8
1-0
  6
Continuous
 62
     4
100
AcDbCircle
 10
792.879659253854
 20
1067.762441217694
 30
0.0
 40
0.0625
  0
LINE
  5
4B1
330
6F
100
AcDbEntity
  8
2-0
  6
DASHED2
 62
     7
100
AcDbLine
 10
3088.363855778887
 20
1068.14491691507
 30
0.0
 11
3124.559387778887
 21
1068.14491691507
 31
0.0
  0
ARC
  5
4B2
330
6F
100
AcDbEntity
  8
2-0
  6
DASHED2
 62
     7
100
AcDbCircle
 10
3088.363855778887
 20
1067.14491691507
 30
0.0
 40
1.0
100
AcDbArc
 50
90.0
 51
180.0
  0
LINE
  5
4B3
330
6F
100
AcDbEntity
  8
2-0
  6
DASHED2
 62
     7
100
AcDbLine
 10
3087.363855778887
 20
1049.14491691507
 30
0.0
 11
3087.363855778887
 21
1067.14491691507
 31
0.0
  0
LINE
  5
4B4
330
6F
100
AcDbEntity
  8
2-0
  6
DASHED2
 62
     7
100
AcDbLine
 10
3087.419948778887
 20
1048.14491691507
 30
0.0
 11
3087.363855778887
 21
1048.14491691507
 31
0.0
  0
LINE
  5
4B5
330
6F
100
AcDbEntity
  8
2-0
  6
DASHED2
 62
     7
100
AcDbLine
 10
3087.419948778887
 20
1048.81470491507
 30
0.0
 11
3087.419948778887
 21
846.14491691507
 31
0.0
  0
LINE
  5
4B6
330
6F
100
AcDbEntity
  8
2-0
  6
DASHED2
 62
     7
100
AcDbLine
 10
3095.363855778887
 20
838.14491691507
 30
0.0
 11
3126.559387778887
 21
838.14491691507
 31
0.0
  0
ARC
  5
4B7
330
6F
100
AcDbEntity
  8
2-0
  6
DASHED2
 62
     7
100
AcDbCircle
 10
3095.363855778887
 20
846.14491691507
 30
0.0
 40
8.0
100
AcDbArc
 50
231.318
 51
270.0
  0
ARC
  5
4B8
330
6F
100
AcDbEntity
  8
2-0
  6
DASHED2
 62
     7
100
AcDbCircle
 10
3095.419948778887
 20
846.14491691507
 30
0.0
 40
8.0
100
AcDbArc
 50
180.0
 51
230.801
  0
LINE
  5
4B9
330
6F
100
AcDbEntity
  8
2-0
  6
DASHED2
 62
     7
100
AcDbLine
 10
3105.306647778887
 20
1042.14491691507
 30
0.0
 11
3126.559387778887
 21
1042.14491691507
 31
0.0
  0
LINE
  5
4BA
330
6F
100
AcDbEntity
  8
2-0
  6
DASHED2
 62
     7
100
AcDbLine
 10
3105.306647778887
 20
1024.14491691507
 30
0.0
 11
3126.559387778887
 21
1024.14491691507
 31
0.0
  0
LINE
  5
4BB
330
6F
100
AcDbEntity
  8
2-0
  6
DASHED2
 62
     7
100
AcDbLine
 10
3105.306647778887
 20
882.1449169150699
 30
0.0
 11
3126.559387778887
 21
882.1449169150699
 31
0.0
  0
LINE
  5
4BC
330
6F
100
AcDbEntity
  8
2-0
  6
DASHED2
 62
     7
100
AcDbLine
 10
3105.306647778887
 20
864.14491691507
 30
0.0
 11
3126.559387778887
 21
864.14491691507
 31
0.0
  0
LINE
  5
4BD
330
6F
100
AcDbEntity
  8
3-0
  6
Continuous
 62
     7
100
AcDbLine
 10
3142.289387778887
 20
1380.14491691507
 30
0.0
 11
3128.159387778887
 21
1380.14491691507
 31
0.0
  0
LINE
  5
4BE
330
6F
100
AcDbEntity
  8
3-0
  6
Continuous
 62
     7
100
AcDbLine
 10
3126.408673778886
 20
1380.14491691507
 30
0.0
 11
3143.335743778887
 21
1380.14491691507
 31
0.0
  0
LINE
  5
4BF
330
6F
100
AcDbEntity
  8
3-0
  6
Continuous
 62
     7
100
AcDbLine
 10
3133.009661778887
 20
1378.14491691507
 30
0.0
 11
3139.630163778887
 21
1378.14491691507
 31
0.0
  0
LINE
  5
4C0
330
6F
100
AcDbEntity
  8
3-0
  6
Continuous
 62
     7
100
AcDbLine
 10
3126.442278778887
 20
1334.54491691507
 30
0.0
 11
3127.559387778886
 21
1334.54491691507
 31
0.0
  0
LINE
  5
4C1
330
6F
100
AcDbEntity
  8
3-0
  6
Continuous
 62
     7
100
AcDbLine
 10
3125.559387778887
 20
1379.340182915069
 30
0.0
 11
3125.559387778887
 21
1335.31924991507
 31
0.0
  0
LINE
  5
4C2
330
6F
100
AcDbEntity
  8
3-0
  6
Continuous
 62
     7
100
AcDbLine
 10
3127.559387778886
 20
1352.14491691507
 30
0.0
 11
3127.559387778886
 21
1334.54491691507
 31
0.0
  0
ARC
  5
4C3
330
6F
100
AcDbEntity
  8
3-0
  6
Continuous
 62
     7
100
AcDbCircle
 10
3126.460268778887
 20
1335.45592991507
 30
0.0
 40
0.9111909999999999
100
AcDbArc
 50
188.627
 51
268.869
  0
ARC
  5
4C4
330
6F
100
AcDbEntity
  8
3-0
  6
Continuous
 62
     7
100
AcDbCircle
 10
3126.440400778887
 20
1379.26091391507
 30
0.0
 40
0.884572
100
AcDbArc
 50
87.94499999999999
 51
174.859
  0
LINE
  5
4C5
330
6F
100
AcDbEntity
  8
3-0
  6
Continuous
 62
     7
100
AcDbLine
 10
3143.535382778887
 20
1379.96459391507
 30
0.0
 11
3144.294915778887
 21
1373.66324391507
 31
0.0
  0
LINE
  5
4C6
330
6F
100
AcDbEntity
  8
3-0
  6
Continuous
 62
     7
100
AcDbLine
 10
3140.133828778887
 20
1377.78534991507
 30
0.0
 11
3140.663467778887
 21
1373.49373691507
 31
0.0
  0
ARC
  5
4C7
330
6F
100
AcDbEntity
  8
3-0
  6
Continuous
 62
     7
100
AcDbCircle
 10
3141.358197778887
 20
1373.57947491507
 30
0.0
 40
0.7
100
AcDbArc
 50
187.035
 51
270.0
  0
ARC
  5
4C8
330
6F
100
AcDbEntity
  8
3-0
  6
Continuous
 62
     7
100
AcDbCircle
 10
3139.620171778887
 20
1377.59838091507
 30
0.0
 40
0.546626
100
AcDbArc
 50
20.001
 51
88.953
  0
ARC
  5
4C9
330
6F
100
AcDbEntity
  8
3-0
  6
Continuous
 62
     7
100
AcDbCircle
 10
3133.702679778887
 20
1372.75615291507
 30
0.0
 40
5.433143
100
AcDbArc
 50
97.32800000000001
 51
175.897
  0
LINE
  5
4CA
330
6F
100
AcDbEntity
  8
3-0
  6
Continuous
 62
     7
100
AcDbLine
 10
3128.283462778887
 20
1373.14491691507
 30
0.0
 11
3128.281809778887
 21
1358.82540791507
 31
0.0
  0
ARC
  5
4CB
330
6F
100
AcDbEntity
  8
3-0
  6
Continuous
 62
     7
100
AcDbCircle
 10
3143.274944778887
 20
1379.87693091507
 30
0.0
 40
0.274796
100
AcDbArc
 50
18.603
 51
77.217
  0
LINE
  5
4CC
330
6F
100
AcDbEntity
  8
3-0
  6
Continuous
 62
     7
100
AcDbLine
 10
3141.358197778887
 20
1372.87947491507
 30
0.0
 11
3143.599946778886
 21
1372.87947491507
 31
0.0
  0
ARC
  5
4CD
330
6F
100
AcDbEntity
  8
3-0
  6
Continuous
 62
     7
100
AcDbCircle
 10
3143.599946778886
 20
1373.57947491507
 30
0.0
 40
0.7
100
AcDbArc
 50
270.0
 51
6.873000000000001
  0
ARC
  5
4CE
330
6F
100
AcDbEntity
  8
3-0
  6
Continuous
 62
     7
100
AcDbCircle
 10
3133.942609778887
 20
1359.46347891507
 30
0.0
 40
5.7
100
AcDbArc
 50
186.431
 51
256.176
  0
ARC
  5
4CF
330
6F
100
AcDbEntity
  8
3-0
  6
Continuous
 62
     7
100
AcDbCircle
 10
3132.576067778887
 20
1351.93213991507
 30
0.0
 40
1.999706999999999
100
AcDbArc
 50
6.107999999999998
 51
89.846
  0
LINE
  5
4D0
330
6F
100
AcDbEntity
  8
2-0
  6
Continuous
 62
     7
100
AcDbLine
 10
3127.559387778886
 20
1352.14491691507
 30
0.0
 11
3143.159387778887
 21
1352.14491691507
 31
0.0
  0
LINE
  5
4D1
330
6F
100
AcDbEntity
  8
3-0
  6
Continuous
 62
     7
100
AcDbLine
 10
3912.069383778887
 20
1205.14491691507
 30
0.0
 11
3897.939383778887
 21
1205.14491691507
 31
0.0
  0
LINE
  5
4D2
330
6F
100
AcDbEntity
  8
3-0
  6
Continuous
 62
     7
100
AcDbLine
 10
3896.188669778887
 20
1205.14491691507
 30
0.0
 11
3913.115739778887
 21
1205.14491691507
 31
0.0
  0
LINE
  5
4D3
330
6F
100
AcDbEntity
  8
3-0
  6
Continuous
 62
     7
100
AcDbLine
 10
3902.789656778887
 20
1203.14491691507
 30
0.0
 11
3909.410159778887
 21
1203.14491691507
 31
0.0
  0
LINE
  5
4D4
330
6F
100
AcDbEntity
  8
3-0
  6
Continuous
 62
     7
100
AcDbLine
 10
3896.222274778887
 20
1159.54491691507
 30
0.0
 11
3897.339383778887
 21
1159.54491691507
 31
0.0
  0
LINE
  5
4D5
330
6F
100
AcDbEntity
  8
3-0
  6
Continuous
 62
     7
100
AcDbLine
 10
3895.339383778887
 20
1204.34018291507
 30
0.0
 11
3895.339383778887
 21
1160.31924991507
 31
0.0
  0
LINE
  5
4D6
330
6F
100
AcDbEntity
  8
3-0
  6
Continuous
 62
     7
100
AcDbLine
 10
3897.339383778887
 20
1177.14491691507
 30
0.0
 11
3897.339383778887
 21
1159.54491691507
 31
0.0
  0
ARC
  5
4D7
330
6F
100
AcDbEntity
  8
3-0
  6
Continuous
 62
     7
100
AcDbCircle
 10
3896.240264778887
 20
1160.45592991507
 30
0.0
 40
0.9111909999999999
100
AcDbArc
 50
188.627
 51
268.869
  0
ARC
  5
4D8
330
6F
100
AcDbEntity
  8
3-0
  6
Continuous
 62
     7
100
AcDbCircle
 10
3896.220396778887
 20
1204.26091391507
 30
0.0
 40
0.884572
100
AcDbArc
 50
87.94499999999999
 51
174.859
  0
LINE
  5
4D9
330
6F
100
AcDbEntity
  8
3-0
  6
Continuous
 62
     7
100
AcDbLine
 10
3913.315378778886
 20
1204.96459391507
 30
0.0
 11
3914.074911778887
 21
1198.66324391507
 31
0.0
  0
LINE
  5
4DA
330
6F
100
AcDbEntity
  8
3-0
  6
Continuous
 62
     7
100
AcDbLine
 10
3909.913824778887
 20
1202.78534991507
 30
0.0
 11
3910.443463778887
 21
1198.49373691507
 31
0.0
  0
ARC
  5
4DB
330
6F
100
AcDbEntity
  8
3-0
  6
Continuous
 62
     7
100
AcDbCircle
 10
3911.138193778887
 20
1198.57947491507
 30
0.0
 40
0.7
100
AcDbArc
 50
187.035
 51
270.0
  0
ARC
  5
4DC
330
6F
100
AcDbEntity
  8
3-0
  6
Continuous
 62
     7
100
AcDbCircle
 10
3909.400167778887
 20
1202.59838091507
 30
0.0
 40
0.546626
100
AcDbArc
 50
20.001
 51
88.953
  0
ARC
  5
4DD
330
6F
100
AcDbEntity
  8
3-0
  6
Continuous
 62
     7
100
AcDbCircle
 10
3903.482675778887
 20
1197.75615291507
 30
0.0
 40
5.433143
100
AcDbArc
 50
97.32800000000001
 51
175.897
  0
LINE
  5
4DE
330
6F
100
AcDbEntity
  8
3-0
  6
Continuous
 62
     7
100
AcDbLine
 10
3898.063458778887
 20
1198.14491691507
 30
0.0
 11
3898.061805778887
 21
1183.82540791507
 31
0.0
  0
ARC
  5
4DF
330
6F
100
AcDbEntity
  8
3-0
  6
Continuous
 62
     7
100
AcDbCircle
 10
3913.054940778887
 20
1204.87693091507
 30
0.0
 40
0.274796
100
AcDbArc
 50
18.603
 51
77.217
  0
LINE
  5
4E0
330
6F
100
AcDbEntity
  8
3-0
  6
Continuous
 62
     7
100
AcDbLine
 10
3911.138193778887
 20
1197.87947491507
 30
0.0
 11
3913.379941778887
 21
1197.87947491507
 31
0.0
  0
ARC
  5
4E1
330
6F
100
AcDbEntity
  8
3-0
  6
Continuous
 62
     7
100
AcDbCircle
 10
3913.379941778887
 20
1198.57947491507
 30
0.0
 40
0.7
100
AcDbArc
 50
270.0
 51
6.873000000000001
  0
ARC
  5
4E2
330
6F
100
AcDbEntity
  8
3-0
  6
Continuous
 62
     7
100
AcDbCircle
 10
3903.722605778887
 20
1184.46347891507
 30
0.0
 40
5.7
100
AcDbArc
 50
186.431
 51
256.176
  0
ARC
  5
4E3
330
6F
100
AcDbEntity
  8
3-0
  6
Continuous
 62
     7
100
AcDbCircle
 10
3902.356063778887
 20
1176.93213991507
 30
0.0
 40
1.999706999999999
100
AcDbArc
 50
6.107999999999998
 51
89.846
  0
LINE
  5
4E4
330
6F
100
AcDbEntity
  8
2-0
  6
Continuous
 62
     7
100
AcDbLine
 10
3897.339383778887
 20
1177.14491691507
 30
0.0
 11
3912.939383778887
 21
1177.14491691507
 31
0.0
  0
TEXT
  5
4E5
330
6F
100
AcDbEntity
  8
C-0
 62
     2
100
AcDbText
 10
2938.938
 20
474.7969999999999
 30
0.0
 40
25.92
  1
※
100
AcDbText
  0
TEXT
  5
4E6
330
6F
100
AcDbEntity
  8
C-0
 62
     2
100
AcDbText
 10
3118.253
 20
311.962
 30
0.0
 40
25.92
  1
※巾木奥行(D)(M)(A)はD406
100
AcDbText
  0
TEXT
  5
4E7
330
6F
100
AcDbEntity
  8
C-0
 62
     2
100
AcDbText
 10
3716.461
 20
475.574
 30
0.0
 40
25.92
  1
※
100
AcDbText
  0
ENDSEC
  0
SECTION
  2
OBJECTS
  0
DICTIONARY
  5
C
330
0
100
AcDbDictionary
281
     1
  3
ACAD_CIP_PREVIOUS_PRODUCT_INFO
350
4E9
  3
ACAD_COLOR
350
62
  3
ACAD_DETAILVIEWSTYLE
350
69
  3
ACAD_GROUP
350
D
  3
ACAD_LAYOUT
350
61
  3
ACAD_MATERIAL
350
10
  3
ACAD_MLEADERSTYLE
350
65
  3
ACAD_MLINESTYLE
350
5E
  3
ACAD_PLOTSETTINGS
350
60
  3
ACAD_PLOTSTYLENAME
350
E
  3
ACAD_SCALELIST
350
42
  3
ACAD_SECTIONVIEWSTYLE
350
67
  3
ACAD_TABLESTYLE
350
63
  3
ACAD_VISUALSTYLE
350
29
  3
ACDB_RECOMPOSE_DATA
350
50F
  3
AcDbVariableDictionary
350
502
  3
DWGPROPS
350
510
  0
DICTIONARY
  5
4EA
330
54
100
AcDbDictionary
280
     1
281
     1
  3
ADSK_XREC_LAYER_RECONCILED
360
4EB
  0
DICTIONARY
  5
4EC
330
7F
100
AcDbDictionary
280
     1
281
     1
  3
ADSK_XREC_LAYER_RECONCILED
360
4ED
  0
DICTIONARY
  5
4EE
330
80
100
AcDbDictionary
280
     1
281
     1
  3
ADSK_XREC_LAYER_RECONCILED
360
4EF
  0
DICTIONARY
  5
4F0
330
81
100
AcDbDictionary
280
     1
281
     1
  3
ADSK_XREC_LAYER_RECONCILED
360
4F1
  0
DICTIONARY
  5
4F2
330
82
100
AcDbDictionary
280
     1
281
     1
  3
ADSK_XREC_LAYER_RECONCILED
360
4F3
  0
DICTIONARY
  5
4F4
330
83
100
AcDbDictionary
280
     1
281
     1
  3
ADSK_XREC_LAYER_RECONCILED
360
4F5
  0
DICTIONARY
  5
4F6
330
84
100
AcDbDictionary
280
     1
281
     1
  3
ADSK_XREC_LAYER_RECONCILED
360
4F7
  0
DICTIONARY
  5
4F8
330
85
100
AcDbDictionary
280
     1
281
     1
  3
ADSK_XREC_LAYER_RECONCILED
360
4F9
  0
DICTIONARY
  5
4FA
330
86
100
AcDbDictionary
280
     1
281
     1
  3
ADSK_XREC_LAYER_RECONCILED
360
4FB
  0
DICTIONARY
  5
4FC
330
87
100
AcDbDictionary
280
     1
281
     1
  3
ADSK_XREC_LAYER_RECONCILED
360
4FD
  0
DICTIONARY
  5
4FE
330
88
100
AcDbDictionary
280
     1
281
     1
  3
ADSK_XREC_LAYER_RECONCILED
360
4FF
  0
DICTIONARY
  5
500
330
8E
100
AcDbDictionary
280
     1
281
     1
  3
ADSK_XREC_LAYER_RECONCILED
360
501
  0
XRECORD
  5
4E9
102
{ACAD_REACTORS
330
C
102
}
330
C
100
AcDbXrecord
280
     1
300
ACDLT
300
2020
300

  0
DICTIONARY
  5
62
102
{ACAD_REACTORS
330
C
102
}
330
C
100
AcDbDictionary
281
     1
  0
DICTIONARY
  5
69
102
{ACAD_REACTORS
330
C
102
}
330
C
100
AcDbDictionary
281
     1
  3
Imperial24
350
6A
  0
DICTIONARY
  5
D
102
{ACAD_REACTORS
330
C
102
}
330
C
100
AcDbDictionary
281
     1
  0
DICTIONARY
  5
61
102
{ACAD_REACTORS
330
C
102
}
330
C
100
AcDbDictionary
281
     1
  3
Model
350
72
  3
レイアウト1
350
6E
  0
DICTIONARY
  5
10
102
{ACAD_REACTORS
330
C
102
}
330
C
100
AcDbDictionary
281
     1
  3
ByBlock
350
19
  3
ByLayer
350
11
  3
Global
350
21
  0
DICTIONARY
  5
65
102
{ACAD_REACTORS
330
C
102
}
330
C
100
AcDbDictionary
281
     1
  3
Standard
350
66
  0
DICTIONARY
  5
5E
102
{ACAD_REACTORS
330
C
102
}
330
C
100
AcDbDictionary
281
     1
  3
Standard
350
5F
  0
DICTIONARY
  5
60
102
{ACAD_REACTORS
330
C
102
}
330
C
100
AcDbDictionary
281
     1
  0
ACDBDICTIONARYWDFLT
  5
E
102
{ACAD_REACTORS
330
C
102
}
330
C
100
AcDbDictionary
281
     1
  3
Normal
350
F
100
AcDbDictionaryWithDefault
340
F
  0
DICTIONARY
  5
42
102
{ACAD_REACTORS
330
C
102
}
330
C
100
AcDbDictionary
281
     1
  3
A0
350
43
  3
A1
350
44
  3
A2
350
45
  3
A3
350
46
  3
A4
350
47
  3
A5
350
48
  3
A6
350
49
  3
A7
350
4A
  3
A8
350
4B
  3
A9
350
4C
  3
B0
350
4D
  3
B1
350
4E
  3
B2
350
4F
  3
B3
350
50
  3
B4
350
51
  3
B5
350
52
  3
B6
350
53
  0
DICTIONARY
  5
67
102
{ACAD_REACTORS
330
C
102
}
330
C
100
AcDbDictionary
281
     1
  3
Imperial24
350
68
  0
DICTIONARY
  5
63
102
{ACAD_REACTORS
330
C
102
}
330
C
100
AcDbDictionary
281
     1
  3
Standard
350
64
  0
DICTIONARY
  5
29
102
{ACAD_REACTORS
330
C
102
}
330
C
100
AcDbDictionary
281
     1
  3
2dWireframe
350
2F
  3
Basic
350
2E
  3
Brighten
350
35
  3
ColorChange
350
39
  3
Conceptual
350
32
  3
Dim
350
34
  3
EdgeColorOff
350
41
  3
Facepattern
350
38
  3
Flat
350
2A
  3
FlatWithEdges
350
2B
  3
Gouraud
350
2C
  3
GouraudWithEdges
350
2D
  3
Hidden
350
31
  3
JitterOff
350
3F
  3
Linepattern
350
37
  3
OverhangOff
350
40
  3
Realistic
350
33
  3
Shaded
350
3E
  3
Shaded with edges
350
3D
  3
Shades of Gray
350
3A
  3
Sketchy
350
3B
  3
Thicken
350
36
  3
Wireframe
350
30
  3
X-Ray
350
3C
  0
XRECORD
  5
50F
102
{ACAD_REACTORS
330
C
102
}
330
C
100
AcDbXrecord
280
     1
 90
        1
330
64
  0
DICTIONARY
  5
502
102
{ACAD_REACTORS
330
C
102
}
330
C
100
AcDbDictionary
281
     1
  3
CANNOSCALE
350
507
  3
CMLEADERSTYLE
350
504
  3
CTABLESTYLE
350
503
  3
CVIEWDETAILSTYLE
350
505
  3
CVIEWSECTIONSTYLE
350
506
  3
DIMASSOC
350
50A
  3
INDEXCTL
350
509
  3
SORTENTS
350
508
  3
XCLIPFRAME
350
50B
  0
XRECORD
  5
510
102
{ACAD_REACTORS
330
C
102
}
330
C
100
AcDbXrecord
280
     1
  1
DWGPROPS COOKIE
  2

  3

  4

  6

  7

  8
suzuki
  9

300
=
301
=
302
=
303
=
304
=
305
=
306
=
307
=
308
=
309
=
 40
0.0002314814814815
 41
2459647.7621875
 42
2459647.762418982
  1

 90
        0
  0
XRECORD
  5
4EB
102
{ACAD_REACTORS
330
4EA
102
}
330
4EA
100
AcDbXrecord
280
     1
290
     1
  0
XRECORD
  5
4ED
102
{ACAD_REACTORS
330
4EC
102
}
330
4EC
100
AcDbXrecord
280
     1
290
     1
  0
XRECORD
  5
4EF
102
{ACAD_REACTORS
330
4EE
102
}
330
4EE
100
AcDbXrecord
280
     1
290
     1
  0
XRECORD
  5
4F1
102
{ACAD_REACTORS
330
4F0
102
}
330
4F0
100
AcDbXrecord
280
     1
290
     1
  0
XRECORD
  5
4F3
102
{ACAD_REACTORS
330
4F2
102
}
330
4F2
100
AcDbXrecord
280
     1
290
     1
  0
XRECORD
  5
4F5
102
{ACAD_REACTORS
330
4F4
102
}
330
4F4
100
AcDbXrecord
280
     1
290
     1
  0
XRECORD
  5
4F7
102
{ACAD_REACTORS
330
4F6
102
}
330
4F6
100
AcDbXrecord
280
     1
290
     1
  0
XRECORD
  5
4F9
102
{ACAD_REACTORS
330
4F8
102
}
330
4F8
100
AcDbXrecord
280
     1
290
     1
  0
XRECORD
  5
4FB
102
{ACAD_REACTORS
330
4FA
102
}
330
4FA
100
AcDbXrecord
280
     1
290
     1
  0
XRECORD
  5
4FD
102
{ACAD_REACTORS
330
4FC
102
}
330
4FC
100
AcDbXrecord
280
     1
290
     1
  0
XRECORD
  5
4FF
102
{ACAD_REACTORS
330
4FE
102
}
330
4FE
100
AcDbXrecord
280
     1
290
     1
  0
XRECORD
  5
501
102
{ACAD_REACTORS
330
500
102
}
330
500
100
AcDbXrecord
280
     1
290
     1
  0
ACDBDETAILVIEWSTYLE
  5
6A
102
{ACAD_XDICTIONARY
360
548
102
}
102
{ACAD_REACTORS
330
69
102
}
330
69
100
AcDbModelDocViewStyle
 70
     0
  3
Imperial24
290
     0
100
AcDbDetailViewStyle
 70
     0
 71
     0
 90
        3
 71
     1
340
55
 40
0.24
340
0
 40
0.24
300

 40
0.36
280
     3
 71
     2
340
5C
 90
       25
 71
     3
340
55
 40
0.24
 90
        1
 40
0.75
 90
        1
300
%<\AcVar ViewType \f "%tc1">% %<\AcVar ViewDetailId>%\PSCALE %<\AcVar ViewScale \f "%sn">%
 71
     4
340
5C
 90
       25
340
5C
 90
       25
280
     0
  0
LAYOUT
  5
72
102
{ACAD_XDICTIONARY
360
54C
102
}
102
{ACAD_REACTORS
330
61
102
}
330
61
100
AcDbPlotSettings
  1

  2
DocuCentre-V 4070
  4

  6

 40
0.0
 41
0.0
 42
0.0
 43
0.0
 44
0.0
 45
0.0
 46
0.0
 47
0.0
 48
0.0
 49
0.0
140
0.0
141
0.0
142
1.0
143
1.0
 70
  1712
 72
     0
 73
     0
 74
     0
  7

 75
     0
147
1.0
148
0.0
149
0.0
100
AcDbLayout
  1
Model
 70
     1
 71
     0
 10
0.0
 20
0.0
 11
12.0
 21
9.0
 12
0.0
 22
0.0
 32
0.0
 14
0.0
 24
0.0
 34
0.0
 15
0.0
 25
0.0
 35
0.0
146
0.0
 13
0.0
 23
0.0
 33
0.0
 16
1.0
 26
0.0
 36
0.0
 17
0.0
 27
1.0
 37
0.0
 76
     0
330
6F
331
8D
  0
LAYOUT
  5
6E
102
{ACAD_XDICTIONARY
360
54A
102
}
102
{ACAD_REACTORS
330
61
102
}
330
61
100
AcDbPlotSettings
  1

  2
DocuCentre-V 4070
  4

  6

 40
0.0
 41
0.0
 42
0.0
 43
0.0
 44
0.0
 45
0.0
 46
0.0
 47
0.0
 48
0.0
 49
0.0
140
0.0
141
0.0
142
1.0
143
1.0
 70
   688
 72
     0
 73
     0
 74
     5
  7

 75
    16
147
1.0
148
0.0
149
0.0
100
AcDbLayout
  1
レイアウト1
 70
     1
 71
     1
 10
0.0
 20
0.0
 11
12.0
 21
9.0
 12
0.0
 22
0.0
 32
0.0
 14
1.000000000000000E+20
 24
1.000000000000000E+20
 34
1.000000000000000E+20
 15
-1.000000000000000E+20
 25
-1.000000000000000E+20
 35
-1.000000000000000E+20
146
0.0
 13
0.0
 23
0.0
 33
0.0
 16
1.0
 26
0.0
 36
0.0
 17
0.0
 27
1.0
 37
0.0
 76
     0
330
6B
  0
MATERIAL
  5
19
102
{ACAD_XDICTIONARY
360
1A
102
}
102
{ACAD_REACTORS
330
10
102
}
330
10
100
AcDbMaterial
  1
ByBlock
 72
     0
 43
0.0208333333333333
 43
0.0
 43
0.0
 43
0.0
 43
0.0
 43
0.0208333333333333
 43
0.0
 43
0.0
 43
0.0
 43
0.0
 43
1.0
 43
0.0
 43
0.0
 43
0.0
 43
0.0
 43
1.0
 77
     0
 47
0.0208333333333333
 47
0.0
 47
0.0
 47
0.0
 47
0.0
 47
0.0208333333333333
 47
0.0
 47
0.0
 47
0.0
 47
0.0
 47
1.0
 47
0.0
 47
0.0
 47
0.0
 47
0.0
 47
1.0
171
     0
 49
0.0208333333333333
 49
0.0
 49
0.0
 49
0.0
 49
0.0
 49
0.0208333333333333
 49
0.0
 49
0.0
 49
0.0
 49
0.0
 49
1.0
 49
0.0
 49
0.0
 49
0.0
 49
0.0
 49
1.0
175
     0
142
0.0208333333333333
142
0.0
142
0.0
142
0.0
142
0.0
142
0.0208333333333333
142
0.0
142
0.0
142
0.0
142
0.0
142
1.0
142
0.0
142
0.0
142
0.0
142
0.0
142
1.0
179
     0
144
0.0208333333333333
144
0.0
144
0.0
144
0.0
144
0.0
144
0.0208333333333333
144
0.0
144
0.0
144
0.0
144
0.0
144
1.0
144
0.0
144
0.0
144
0.0
144
0.0
144
1.0
147
0.0208333333333333
147
0.0
147
0.0
147
0.0
147
0.0
147
0.0208333333333333
147
0.0
147
0.0
147
0.0
147
0.0
147
1.0
147
0.0
147
0.0
147
0.0
147
0.0
147
1.0
  0
MATERIAL
  5
11
102
{ACAD_XDICTIONARY
360
12
102
}
102
{ACAD_REACTORS
330
10
102
}
330
10
100
AcDbMaterial
  1
ByLayer
 72
     0
 43
0.0208333333333333
 43
0.0
 43
0.0
 43
0.0
 43
0.0
 43
0.0208333333333333
 43
0.0
 43
0.0
 43
0.0
 43
0.0
 43
1.0
 43
0.0
 43
0.0
 43
0.0
 43
0.0
 43
1.0
 77
     0
 47
0.0208333333333333
 47
0.0
 47
0.0
 47
0.0
 47
0.0
 47
0.0208333333333333
 47
0.0
 47
0.0
 47
0.0
 47
0.0
 47
1.0
 47
0.0
 47
0.0
 47
0.0
 47
0.0
 47
1.0
171
     0
 49
0.0208333333333333
 49
0.0
 49
0.0
 49
0.0
 49
0.0
 49
0.0208333333333333
 49
0.0
 49
0.0
 49
0.0
 49
0.0
 49
1.0
 49
0.0
 49
0.0
 49
0.0
 49
0.0
 49
1.0
175
     0
142
0.0208333333333333
142
0.0
142
0.0
142
0.0
142
0.0
142
0.0208333333333333
142
0.0
142
0.0
142
0.0
142
0.0
142
1.0
142
0.0
142
0.0
142
0.0
142
0.0
142
1.0
179
     0
144
0.0208333333333333
144
0.0
144
0.0
144
0.0
144
0.0
144
0.0208333333333333
144
0.0
144
0.0
144
0.0
144
0.0
144
1.0
144
0.0
144
0.0
144
0.0
144
0.0
144
1.0
147
0.0208333333333333
147
0.0
147
0.0
147
0.0
147
0.0
147
0.0208333333333333
147
0.0
147
0.0
147
0.0
147
0.0
147
1.0
147
0.0
147
0.0
147
0.0
147
0.0
147
1.0
  0
MATERIAL
  5
21
102
{ACAD_XDICTIONARY
360
22
102
}
102
{ACAD_REACTORS
330
10
102
}
330
10
100
AcDbMaterial
  1
Global
 72
     0
 43
0.0208333333333333
 43
0.0
 43
0.0
 43
0.0
 43
0.0
 43
0.0208333333333333
 43
0.0
 43
0.0
 43
0.0
 43
0.0
 43
1.0
 43
0.0
 43
0.0
 43
0.0
 43
0.0
 43
1.0
 77
     0
 47
0.0208333333333333
 47
0.0
 47
0.0
 47
0.0
 47
0.0
 47
0.0208333333333333
 47
0.0
 47
0.0
 47
0.0
 47
0.0
 47
1.0
 47
0.0
 47
0.0
 47
0.0
 47
0.0
 47
1.0
171
     0
 49
0.0208333333333333
 49
0.0
 49
0.0
 49
0.0
 49
0.0
 49
0.0208333333333333
 49
0.0
 49
0.0
 49
0.0
 49
0.0
 49
1.0
 49
0.0
 49
0.0
 49
0.0
 49
0.0
 49
1.0
175
     0
142
0.0208333333333333
142
0.0
142
0.0
142
0.0
142
0.0
142
0.0208333333333333
142
0.0
142
0.0
142
0.0
142
0.0
142
1.0
142
0.0
142
0.0
142
0.0
142
0.0
142
1.0
179
     0
144
0.0208333333333333
144
0.0
144
0.0
144
0.0
144
0.0
144
0.0208333333333333
144
0.0
144
0.0
144
0.0
144
0.0
144
1.0
144
0.0
144
0.0
144
0.0
144
0.0
144
1.0
147
0.0208333333333333
147
0.0
147
0.0
147
0.0
147
0.0
147
0.0208333333333333
147
0.0
147
0.0
147
0.0
147
0.0
147
1.0
147
0.0
147
0.0
147
0.0
147
0.0
147
1.0
  0
MLEADERSTYLE
  5
66
102
{ACAD_REACTORS
330
65
102
}
330
65
100
AcDbMLeaderStyle
170
     2
171
     1
172
     0
 90
        2
 40
0.0
 41
0.0
173
     1
 91
-1056964608
340
5A
 92
       -2
290
     1
 42
0.09
291
     1
 43
0.36
  3
Standard
 44
0.18
300

342
55
174
     1
178
     6
175
     1
176
     0
 93
-1056964608
 45
0.18
292
     0
297
     0
 46
0.18
 94
-1056964608
 47
1.0
 49
1.0
140
1.0
293
     1
141
0.0
294
     1
177
     0
142
1.0
295
     0
296
     0
143
0.125
1001
ACAD_MLEADERVER
1070
     2
  0
MLINESTYLE
  5
5F
102
{ACAD_REACTORS
330
5E
102
}
330
5E
100
AcDbMlineStyle
  2
STANDARD
 70
     0
  3

 62
   256
 51
90.0
 52
90.0
 71
     2
 49
0.5
 62
   256
  6
BYLAYER
 49
-0.5
 62
   256
  6
BYLAYER
  0
ACDBPLACEHOLDER
  5
F
102
{ACAD_REACTORS
330
E
102
}
330
E
  0
SCALE
  5
43
102
{ACAD_REACTORS
330
42
102
}
330
42
100
AcDbScale
 70
     0
300
1:1
140
1.0
141
1.0
290
     1
  0
SCALE
  5
44
102
{ACAD_REACTORS
330
42
102
}
330
42
100
AcDbScale
 70
     0
300
1/128" = 1'-0"
140
0.0078125
141
12.0
290
     0
  0
SCALE
  5
45
102
{ACAD_REACTORS
330
42
102
}
330
42
100
AcDbScale
 70
     0
300
1/64" = 1'-0"
140
0.015625
141
12.0
290
     0
  0
SCALE
  5
46
102
{ACAD_REACTORS
330
42
102
}
330
42
100
AcDbScale
 70
     0
300
1/32" = 1'-0"
140
0.03125
141
12.0
290
     0
  0
SCALE
  5
47
102
{ACAD_REACTORS
330
42
102
}
330
42
100
AcDbScale
 70
     0
300
1/16" = 1'-0"
140
0.0625
141
12.0
290
     0
  0
SCALE
  5
48
102
{ACAD_REACTORS
330
42
102
}
330
42
100
AcDbScale
 70
     0
300
3/32" = 1'-0"
140
0.09375
141
12.0
290
     0
  0
SCALE
  5
49
102
{ACAD_REACTORS
330
42
102
}
330
42
100
AcDbScale
 70
     0
300
1/8" = 1'-0"
140
0.125
141
12.0
290
     0
  0
SCALE
  5
4A
102
{ACAD_REACTORS
330
42
102
}
330
42
100
AcDbScale
 70
     0
300
3/16" = 1'-0"
140
0.1875
141
12.0
290
     0
  0
SCALE
  5
4B
102
{ACAD_REACTORS
330
42
102
}
330
42
100
AcDbScale
 70
     0
300
1/4" = 1'-0"
140
0.25
141
12.0
290
     0
  0
SCALE
  5
4C
102
{ACAD_REACTORS
330
42
102
}
330
42
100
AcDbScale
 70
     0
300
3/8" = 1'-0"
140
0.375
141
12.0
290
     0
  0
SCALE
  5
4D
102
{ACAD_REACTORS
330
42
102
}
330
42
100
AcDbScale
 70
     0
300
1/2" = 1'-0"
140
0.5
141
12.0
290
     0
  0
SCALE
  5
4E
102
{ACAD_REACTORS
330
42
102
}
330
42
100
AcDbScale
 70
     0
300
3/4" = 1'-0"
140
0.75
141
12.0
290
     0
  0
SCALE
  5
4F
102
{ACAD_REACTORS
330
42
102
}
330
42
100
AcDbScale
 70
     0
300
1" = 1'-0"
140
1.0
141
12.0
290
     0
  0
SCALE
  5
50
102
{ACAD_REACTORS
330
42
102
}
330
42
100
AcDbScale
 70
     0
300
1-1/2" = 1'-0"
140
1.5
141
12.0
290
     0
  0
SCALE
  5
51
102
{ACAD_REACTORS
330
42
102
}
330
42
100
AcDbScale
 70
     0
300
3" = 1'-0"
140
3.0
141
12.0
290
     0
  0
SCALE
  5
52
102
{ACAD_REACTORS
330
42
102
}
330
42
100
AcDbScale
 70
     0
300
6" = 1'-0"
140
6.0
141
12.0
290
     0
  0
SCALE
  5
53
102
{ACAD_REACTORS
330
42
102
}
330
42
100
AcDbScale
 70
     0
300
1'-0" = 1'-0"
140
12.0
141
12.0
290
     0
  0
ACDBSECTIONVIEWSTYLE
  5
68
102
{ACAD_XDICTIONARY
360
546
102
}
102
{ACAD_REACTORS
330
67
102
}
330
67
100
AcDbModelDocViewStyle
 70
     0
  3
Imperial24
290
     0
100
AcDbSectionViewStyle
 70
     0
 71
     0
 90
       78
 71
     1
340
55
 40
0.24
340
0
340
0
 40
0.24
300
I, O, Q, S, X, Z
 40
0.48
 90
        3
 40
0.18
 90
        1
 71
     2
340
5C
 90
       25
340
5C
 90
       50
 40
0.24
 40
0.0
 40
0.24
 71
     3
340
55
 40
0.24
 90
        1
 40
0.75
 90
        1
300
%<\AcVar ViewType \f "%tc1">% %<\AcVar ViewSectionStartId>%-%<\AcVar ViewSectionEndId>%\PSCALE %<\AcVar ViewScale \f "%sn">%
 71
     4
300
ANSI31
 40
1.0
 90
        0
290
     0
290
     0
 90
        6
 40
0.0
 40
1.570796326794896
 40
0.2617993877991494
 40
1.308996938995747
 40
-0.2617993877991494
 40
1.832595714594046
  0
TABLESTYLE
  5
64
102
{ACAD_XDICTIONARY
360
50D
102
}
102
{ACAD_REACTORS
330
63
102
}
330
63
100
AcDbTableStyle
  3
Standard
 70
     0
 71
     0
 40
0.06
 41
0.06
280
     0
281
     0
  7
STANDARD
140
0.18
170
     2
 62
     0
 63
     7
283
     0
274
    -2
284
     1
 64
     0
275
    -2
285
     1
 65
     0
276
    -2
286
     1
 66
     0
277
    -2
287
     1
 67
     0
278
    -2
288
     1
 68
     0
279
    -2
289
     1
 69
     0
  7
STANDARD
140
0.25
170
     5
 62
     0
 63
     7
283
     0
274
    -2
284
     1
 64
     0
275
    -2
285
     1
 65
     0
276
    -2
286
     1
 66
     0
277
    -2
287
     1
 67
     0
278
    -2
288
     1
 68
     0
279
    -2
289
     1
 69
     0
  7
STANDARD
140
0.18
170
     5
 62
     0
 63
     7
283
     0
274
    -2
284
     1
 64
     0
275
    -2
285
     1
 65
     0
276
    -2
286
     1
 66
     0
277
    -2
287
     1
 67
     0
278
    -2
288
     1
 68
     0
279
    -2
289
     1
 69
     0
  0
VISUALSTYLE
  5
2F
102
{ACAD_XDICTIONARY
360
51E
102
}
102
{ACAD_REACTORS
330
29
102
}
330
29
100
AcDbVisualStyle
  2
2dWireframe
 70
     4
 71
     0
 72
     2
 73
     0
 90
        0
 40
-0.6
 41
-30.0
 62
     5
 63
     7
 74
     1
 91
        4
 64
     7
 65
   257
 75
     1
175
     1
 42
1.0
 92
        0
 66
   257
 43
1.0
 76
     1
 77
     6
 78
     2
 67
     7
 79
     5
170
     0
171
     0
290
     0
174
     0
 93
        1
 44
0.0
173
     0
291
     0
 45
0.0
1001
ACAD
1000
AcDbSavedByObjectVersion
1070
     0
  0
VISUALSTYLE
  5
2E
102
{ACAD_XDICTIONARY
360
51C
102
}
102
{ACAD_REACTORS
330
29
102
}
330
29
100
AcDbVisualStyle
  2
Basic
 70
     7
 71
     1
 72
     0
 73
     1
 90
        0
 40
-0.6
 41
-30.0
 62
     5
 63
     7
 74
     0
 91
        4
 64
     7
 65
   257
 75
     1
175
     1
 42
1.0
 92
        8
 66
     7
 43
1.0
 76
     1
 77
     6
 78
     2
 67
     7
 79
     5
170
     0
171
     0
290
     0
174
     0
 93
        1
 44
0.0
173
     0
291
     1
 45
0.0
1001
ACAD
1000
AcDbSavedByObjectVersion
1070
     0
  0
VISUALSTYLE
  5
35
102
{ACAD_XDICTIONARY
360
52A
102
}
102
{ACAD_REACTORS
330
29
102
}
330
29
100
AcDbVisualStyle
  2
Brighten
 70
    12
 71
     2
 72
     2
 73
     0
 90
        0
 40
-0.6
 41
-30.0
 62
     5
 63
     7
 74
     1
 91
        4
 64
     7
 65
   257
 75
     1
175
     1
 42
1.0
 92
        8
 66
     7
 43
1.0
 76
     1
 77
     6
 78
     2
 67
     7
 79
     5
170
     0
171
     0
290
     0
174
     0
 93
        1
 44
50.0
173
     0
291
     1
 45
0.0
1001
ACAD
1000
AcDbSavedByObjectVersion
1070
     0
  0
VISUALSTYLE
  5
39
102
{ACAD_XDICTIONARY
360
532
102
}
102
{ACAD_REACTORS
330
29
102
}
330
29
100
AcDbVisualStyle
  2
ColorChange
 70
    16
 71
     2
 72
     2
 73
     3
 90
        0
 40
-0.6
 41
-30.0
 62
     5
 63
     8
 74
     1
 91
        4
 64
     7
 65
   257
 75
     1
175
     1
 42
1.0
 92
        8
 66
     8
 43
1.0
 76
     1
 77
     6
 78
     2
 67
     7
 79
     5
170
     0
171
     0
290
     0
174
     0
 93
        1
 44
0.0
173
     0
291
     1
 45
0.0
1001
ACAD
1000
AcDbSavedByObjectVersion
1070
     0
  0
VISUALSTYLE
  5
32
102
{ACAD_XDICTIONARY
360
524
102
}
102
{ACAD_REACTORS
330
29
102
}
330
29
100
AcDbVisualStyle
  2
Conceptual
 70
     9
 71
     3
 72
     2
 73
     0
 90
        0
 40
-0.6
 41
-30.0
 62
     5
 63
     7
 74
     2
 91
        2
 64
     7
 65
   257
 75
     1
175
     1
 42
179.0
 92
        8
 66
     7
 43
1.0
 76
     1
 77
     6
 78
     2
 67
     7
 79
     3
170
     0
171
     0
290
     0
174
     0
 93
        1
 44
0.0
173
     0
291
     0
 45
0.0
1001
ACAD
1000
AcDbSavedByObjectVersion
1070
     0
  0
VISUALSTYLE
  5
34
102
{ACAD_XDICTIONARY
360
528
102
}
102
{ACAD_REACTORS
330
29
102
}
330
29
100
AcDbVisualStyle
  2
Dim
 70
    11
 71
     2
 72
     2
 73
     0
 90
        0
 40
-0.6
 41
-30.0
 62
     5
 63
     7
 74
     1
 91
        4
 64
     7
 65
   257
 75
     1
175
     1
 42
1.0
 92
        8
 66
     7
 43
1.0
 76
     1
 77
     6
 78
     2
 67
     7
 79
     5
170
     0
171
     0
290
     0
174
     0
 93
        1
 44
-50.0
173
     0
291
     1
 45
0.0
1001
ACAD
1000
AcDbSavedByObjectVersion
1070
     0
  0
VISUALSTYLE
  5
41
102
{ACAD_XDICTIONARY
360
542
102
}
102
{ACAD_REACTORS
330
29
102
}
330
29
100
AcDbVisualStyle
  2
EdgeColorOff
 70
    22
 71
     2
 72
     2
 73
     0
 90
        0
 40
-0.6
 41
-30.0
 62
     5
 63
     7
 74
     1
 91
        4
 64
     7
 65
   257
 75
     1
175
     1
 42
1.0
 92
        8
 66
     7
 43
1.0
 76
     1
 77
     6
 78
     2
 67
     7
 79
     5
170
     0
171
     0
290
     0
174
     0
 93
        1
 44
0.0
173
     0
291
     1
 45
0.0
1001
ACAD
1000
AcDbSavedByObjectVersion
1070
     0
  0
VISUALSTYLE
  5
38
102
{ACAD_XDICTIONARY
360
530
102
}
102
{ACAD_REACTORS
330
29
102
}
330
29
100
AcDbVisualStyle
  2
Facepattern
 70
    15
 71
     2
 72
     2
 73
     0
 90
        0
 40
-0.6
 41
-30.0
 62
     5
 63
     7
 74
     1
 91
        4
 64
     7
 65
   257
 75
     1
175
     1
 42
1.0
 92
        8
 66
     7
 43
1.0
 76
     1
 77
     6
 78
     2
 67
     7
 79
     5
170
     0
171
     0
290
     0
174
     0
 93
        1
 44
0.0
173
     0
291
     1
 45
0.0
1001
ACAD
1000
AcDbSavedByObjectVersion
1070
     0
  0
VISUALSTYLE
  5
2A
102
{ACAD_XDICTIONARY
360
514
102
}
102
{ACAD_REACTORS
330
29
102
}
330
29
100
AcDbVisualStyle
  2
Flat
 70
     0
 71
     2
 72
     1
 73
     1
 90
        2
 40
-0.6
 41
30.0
 62
     5
 63
     7
 74
     0
 91
        0
 64
     7
 65
   257
 75
     1
175
     1
 42
1.0
 92
        8
 66
     7
 43
1.0
 76
     1
 77
     6
 78
     2
 67
     7
 79
     5
170
     0
171
     0
290
     0
174
     0
 93
       13
 44
0.0
173
     0
291
     1
 45
0.0
1001
ACAD
1000
AcDbSavedByObjectVersion
1070
     0
  0
VISUALSTYLE
  5
2B
102
{ACAD_XDICTIONARY
360
516
102
}
102
{ACAD_REACTORS
330
29
102
}
330
29
100
AcDbVisualStyle
  2
FlatWithEdges
 70
     1
 71
     2
 72
     1
 73
     1
 90
        2
 40
-0.6
 41
30.0
 62
     5
 63
     7
 74
     1
 91
        0
 64
     7
 65
   257
 75
     1
175
     1
 42
1.0
 92
        0
 66
   257
 43
1.0
 76
     1
 77
     6
 78
     2
 67
     7
 79
     5
170
     0
171
     0
290
     0
174
     0
 93
       13
 44
0.0
173
     0
291
     1
 45
0.0
1001
ACAD
1000
AcDbSavedByObjectVersion
1070
     0
  0
VISUALSTYLE
  5
2C
102
{ACAD_XDICTIONARY
360
518
102
}
102
{ACAD_REACTORS
330
29
102
}
330
29
100
AcDbVisualStyle
  2
Gouraud
 70
     2
 71
     2
 72
     2
 73
     1
 90
        2
 40
-0.6
 41
30.0
 62
     5
 63
     7
 74
     0
 91
        0
 64
     7
 65
   257
 75
     1
175
     1
 42
1.0
 92
        0
 66
     7
 43
1.0
 76
     1
 77
     6
 78
     2
 67
     7
 79
     5
170
     0
171
     0
290
     0
174
     0
 93
       13
 44
0.0
173
     0
291
     1
 45
0.0
1001
ACAD
1000
AcDbSavedByObjectVersion
1070
     0
  0
VISUALSTYLE
  5
2D
102
{ACAD_XDICTIONARY
360
51A
102
}
102
{ACAD_REACTORS
330
29
102
}
330
29
100
AcDbVisualStyle
  2
GouraudWithEdges
 70
     3
 71
     2
 72
     2
 73
     1
 90
        2
 40
-0.6
 41
30.0
 62
     5
 63
     7
 74
     1
 91
        0
 64
     7
 65
   257
 75
     1
175
     1
 42
1.0
 92
        0
 66
   257
 43
1.0
 76
     1
 77
     6
 78
     2
 67
     7
 79
     5
170
     0
171
     0
290
     0
174
     0
 93
       13
 44
0.0
173
     0
291
     1
 45
0.0
1001
ACAD
1000
AcDbSavedByObjectVersion
1070
     0
  0
VISUALSTYLE
  5
31
102
{ACAD_XDICTIONARY
360
522
102
}
102
{ACAD_REACTORS
330
29
102
}
330
29
100
AcDbVisualStyle
  2
Hidden
 70
     6
 71
     1
 72
     2
 73
     2
 90
        0
 40
-0.6
 41
-30.0
 62
     5
 63
     7
 74
     2
 91
        2
 64
     7
 65
   257
 75
     2
175
     1
 42
40.0
 92
        0
 66
   257
 43
1.0
 76
     1
 77
     6
 78
     2
 67
     7
 79
     3
170
     0
171
     0
290
     0
174
     0
 93
        1
 44
0.0
173
     0
291
     0
 45
0.0
1001
ACAD
1000
AcDbSavedByObjectVersion
1070
     0
  0
VISUALSTYLE
  5
3F
102
{ACAD_XDICTIONARY
360
53E
102
}
102
{ACAD_REACTORS
330
29
102
}
330
29
100
AcDbVisualStyle
  2
JitterOff
 70
    20
 71
     2
 72
     2
 73
     0
 90
        0
 40
-0.6
 41
-30.0
 62
     5
 63
     7
 74
     1
 91
        4
 64
     7
 65
   257
 75
     1
175
     1
 42
1.0
 92
       10
 66
     7
 43
1.0
 76
     1
 77
     6
 78
     2
 67
     7
 79
     5
170
     0
171
     0
290
     0
174
     0
 93
        1
 44
0.0
173
     0
291
     1
 45
0.0
1001
ACAD
1000
AcDbSavedByObjectVersion
1070
     0
  0
VISUALSTYLE
  5
37
102
{ACAD_XDICTIONARY
360
52E
102
}
102
{ACAD_REACTORS
330
29
102
}
330
29
100
AcDbVisualStyle
  2
Linepattern
 70
    14
 71
     2
 72
     2
 73
     0
 90
        0
 40
-0.6
 41
-30.0
 62
     5
 63
     7
 74
     1
 91
        4
 64
     7
 65
   257
 75
     7
175
     7
 42
1.0
 92
        8
 66
     7
 43
1.0
 76
     1
 77
     6
 78
     2
 67
     7
 79
     5
170
     0
171
     0
290
     0
174
     0
 93
        1
 44
0.0
173
     0
291
     1
 45
0.0
1001
ACAD
1000
AcDbSavedByObjectVersion
1070
     0
  0
VISUALSTYLE
  5
40
102
{ACAD_XDICTIONARY
360
540
102
}
102
{ACAD_REACTORS
330
29
102
}
330
29
100
AcDbVisualStyle
  2
OverhangOff
 70
    21
 71
     2
 72
     2
 73
     0
 90
        0
 40
-0.6
 41
-30.0
 62
     5
 63
     7
 74
     1
 91
        4
 64
     7
 65
   257
 75
     1
175
     1
 42
1.0
 92
        9
 66
     7
 43
1.0
 76
     1
 77
     6
 78
     2
 67
     7
 79
     5
170
     0
171
     0
290
     0
174
     0
 93
        1
 44
0.0
173
     0
291
     1
 45
0.0
1001
ACAD
1000
AcDbSavedByObjectVersion
1070
     0
  0
VISUALSTYLE
  5
33
102
{ACAD_XDICTIONARY
360
526
102
}
102
{ACAD_REACTORS
330
29
102
}
330
29
100
AcDbVisualStyle
  2
Realistic
 70
     8
 71
     2
 72
     3
 73
     0
 90
        2
 40
-0.6
 41
30.0
 62
     5
 63
     7
 74
     0
 91
        0
 64
     7
 65
   257
 75
     1
175
     1
 42
1.0
 92
        8
 66
   257
 43
1.0
 76
     1
 77
     6
 78
     2
 67
     7
 79
     3
170
     0
171
     0
290
     0
174
     0
 93
       13
 44
0.0
173
     0
291
     0
 45
0.0
1001
ACAD
1000
AcDbSavedByObjectVersion
1070
     0
  0
VISUALSTYLE
  5
3E
102
{ACAD_XDICTIONARY
360
53C
102
}
102
{ACAD_REACTORS
330
29
102
}
330
29
100
AcDbVisualStyle
  2
Shaded
 70
    27
 71
     2
 72
     2
 73
     1
 90
        2
 40
-0.6
 41
30.0
 62
     5
 63
     7
 74
     0
 91
        4
 64
     7
 65
   257
 75
     1
175
     1
 42
1.0
 92
        8
 66
   257
 43
1.0
 76
     1
 77
     6
 78
     2
 67
     8
 79
     3
170
     0
171
     0
290
     0
174
     0
 93
        5
 44
0.0
173
     0
291
     0
 45
0.0
1001
ACAD
1000
AcDbSavedByObjectVersion
1070
     0
  0
VISUALSTYLE
  5
3D
102
{ACAD_XDICTIONARY
360
53A
102
}
102
{ACAD_REACTORS
330
29
102
}
330
29
100
AcDbVisualStyle
  2
Shaded with edges
 70
    26
 71
     2
 72
     2
 73
     1
 90
        2
 40
-0.6
 41
30.0
 62
     5
 63
     7
 74
     1
 91
        2
 64
     7
 65
   257
 75
     2
175
     1
 42
1.0
 92
        8
 66
   257
 43
1.0
 76
     1
 77
     6
 78
     2
 67
     7
 79
     3
170
     0
171
     0
290
     0
174
     0
 93
        5
 44
0.0
173
     0
291
     0
 45
0.0
1001
ACAD
1000
AcDbSavedByObjectVersion
1070
     0
  0
VISUALSTYLE
  5
3A
102
{ACAD_XDICTIONARY
360
534
102
}
102
{ACAD_REACTORS
330
29
102
}
330
29
100
AcDbVisualStyle
  2
Shades of Gray
 70
    23
 71
     2
 72
     2
 73
     3
 90
        0
 40
-0.6
 41
-30.0
 62
     5
 63
     7
 74
     2
 91
        2
 64
     7
 65
     7
 75
     1
175
     1
 42
40.0
 92
        8
 66
     7
 43
1.0
 76
     1
 77
     6
 78
     2
 67
     7
 79
     3
170
     0
171
     0
290
     0
174
     0
 93
        1
 44
0.0
173
     0
291
     0
 45
0.0
1001
ACAD
1000
AcDbSavedByObjectVersion
1070
     0
  0
VISUALSTYLE
  5
3B
102
{ACAD_XDICTIONARY
360
536
102
}
102
{ACAD_REACTORS
330
29
102
}
330
29
100
AcDbVisualStyle
  2
Sketchy
 70
    24
 71
     1
 72
     2
 73
     2
 90
        0
 40
-0.6
 41
-30.0
 62
     5
 63
     7
 74
     2
 91
        2
 64
     7
 65
     7
 75
     1
175
     1
 42
40.0
 92
       11
 66
     7
 43
1.0
 76
     1
 77
     6
 78
     2
 67
     7
 79
     6
170
     0
171
     0
290
     0
174
     0
 93
        1
 44
0.0
173
     0
291
     0
 45
0.0
1001
ACAD
1000
AcDbSavedByObjectVersion
1070
     0
  0
VISUALSTYLE
  5
36
102
{ACAD_XDICTIONARY
360
52C
102
}
102
{ACAD_REACTORS
330
29
102
}
330
29
100
AcDbVisualStyle
  2
Thicken
 70
    13
 71
     2
 72
     2
 73
     0
 90
        0
 40
-0.6
 41
-30.0
 62
     5
 63
     7
 74
     1
 91
        4
 64
     7
 65
   257
 75
     1
175
     1
 42
1.0
 92
       12
 66
     7
 43
1.0
 76
     1
 77
     6
 78
     2
 67
     7
 79
     5
170
     0
171
     0
290
     0
174
     0
 93
        1
 44
0.0
173
     0
291
     1
 45
0.0
1001
ACAD
1000
AcDbSavedByObjectVersion
1070
     0
  0
VISUALSTYLE
  5
30
102
{ACAD_XDICTIONARY
360
520
102
}
102
{ACAD_REACTORS
330
29
102
}
330
29
100
AcDbVisualStyle
  2
Wireframe
 70
     5
 71
     0
 72
     2
 73
     0
 90
        0
 40
-0.6
 41
-30.0
 62
     5
 63
     7
 74
     1
 91
        4
 64
     7
 65
   257
 75
     1
175
     1
 42
1.0
 92
        0
 66
   257
 43
1.0
 76
     1
 77
     6
 78
     2
 67
     7
 79
     3
170
     0
171
     0
290
     0
174
     0
 93
        1
 44
0.0
173
     0
291
     0
 45
0.0
1001
ACAD
1000
AcDbSavedByObjectVersion
1070
     0
  0
VISUALSTYLE
  5
3C
102
{ACAD_XDICTIONARY
360
538
102
}
102
{ACAD_REACTORS
330
29
102
}
330
29
100
AcDbVisualStyle
  2
X-Ray
 70
    25
 71
     2
 72
     2
 73
     1
 90
        1
 40
0.5
 41
-30.0
 62
     5
 63
     7
 74
     1
 91
        0
 64
     7
 65
   257
 75
     1
175
     1
 42
1.0
 92
        8
 66
     7
 43
1.0
 76
     1
 77
     6
 78
     2
 67
     7
 79
     3
170
     0
171
     0
290
     0
174
     0
 93
       13
 44
0.0
173
     0
291
     0
 45
0.0
1001
ACAD
1000
AcDbSavedByObjectVersion
1070
     0
  0
DICTIONARYVAR
  5
507
102
{ACAD_REACTORS
330
502
102
}
330
502
100
DictionaryVariables
280
     0
  1
1:1
  0
DICTIONARYVAR
  5
504
102
{ACAD_REACTORS
330
502
102
}
330
502
100
DictionaryVariables
280
     0
  1
STANDARD
  0
DICTIONARYVAR
  5
503
102
{ACAD_REACTORS
330
502
102
}
330
502
100
DictionaryVariables
280
     0
  1
STANDARD
  0
DICTIONARYVAR
  5
505
102
{ACAD_REACTORS
330
502
102
}
330
502
100
DictionaryVariables
280
     0
  1
Imperial24
  0
DICTIONARYVAR
  5
506
102
{ACAD_REACTORS
330
502
102
}
330
502
100
DictionaryVariables
280
     0
  1
Imperial24
  0
DICTIONARYVAR
  5
50A
102
{ACAD_REACTORS
330
502
102
}
330
502
100
DictionaryVariables
280
     0
  1
1
  0
DICTIONARYVAR
  5
509
102
{ACAD_REACTORS
330
502
102
}
330
502
100
DictionaryVariables
280
     0
  1
0
  0
DICTIONARYVAR
  5
508
102
{ACAD_REACTORS
330
502
102
}
330
502
100
DictionaryVariables
280
     0
  1
127
  0
DICTIONARYVAR
  5
50B
102
{ACAD_REACTORS
330
502
102
}
330
502
100
DictionaryVariables
280
     0
  1
2
  0
DICTIONARY
  5
548
330
6A
100
AcDbDictionary
280
     1
281
     1
  3
ACAD_XREC_ROUNDTRIP
360
549
  0
DICTIONARY
  5
54C
330
72
100
AcDbDictionary
280
     1
281
     1
  3
ACAD_XREC_ROUNDTRIP
360
54D
  0
DICTIONARY
  5
54A
330
6E
100
AcDbDictionary
280
     1
281
     1
  3
ACAD_XREC_ROUNDTRIP
360
54B
  0
DICTIONARY
  5
1A
330
19
100
AcDbDictionary
280
     1
281
     1
  3
ACAD_XREC_ROUNDTRIP
360
512
  3
BUMPTILE
360
1C
  3
DIFFUSETILE
360
1B
  3
OPACITYTILE
360
1F
  3
REFLECTIONTILE
360
1E
  3
REFRACTIONTILE
360
20
  3
SPECULARTILE
360
1D
  0
DICTIONARY
  5
12
330
11
100
AcDbDictionary
280
     1
281
     1
  3
ACAD_XREC_ROUNDTRIP
360
511
  3
BUMPTILE
360
14
  3
DIFFUSETILE
360
13
  3
OPACITYTILE
360
17
  3
REFLECTIONTILE
360
16
  3
REFRACTIONTILE
360
18
  3
SPECULARTILE
360
15
  0
DICTIONARY
  5
22
330
21
100
AcDbDictionary
280
     1
281
     1
  3
ACAD_XREC_ROUNDTRIP
360
513
  3
BUMPTILE
360
24
  3
DIFFUSETILE
360
23
  3
OPACITYTILE
360
27
  3
REFLECTIONTILE
360
26
  3
REFRACTIONTILE
360
28
  3
SPECULARTILE
360
25
  0
DICTIONARY
  5
546
330
68
100
AcDbDictionary
280
     1
281
     1
  3
ACAD_XREC_ROUNDTRIP
360
547
  0
DICTIONARY
  5
50D
330
64
100
AcDbDictionary
280
     1
281
     1
  3
ACAD_ROUNDTRIP_2008_TABLESTYLE_CELLSTYLEMAP
360
50E
  3
ACAD_XREC_ROUNDTRIP
360
544
  0
DICTIONARY
  5
51E
330
2F
100
AcDbDictionary
280
     1
281
     1
  3
ACAD_XREC_ROUNDTRIP
360
51F
  0
DICTIONARY
  5
51C
330
2E
100
AcDbDictionary
280
     1
281
     1
  3
ACAD_XREC_ROUNDTRIP
360
51D
  0
DICTIONARY
  5
52A
330
35
100
AcDbDictionary
280
     1
281
     1
  3
ACAD_XREC_ROUNDTRIP
360
52B
  0
DICTIONARY
  5
532
330
39
100
AcDbDictionary
280
     1
281
     1
  3
ACAD_XREC_ROUNDTRIP
360
533
  0
DICTIONARY
  5
524
330
32
100
AcDbDictionary
280
     1
281
     1
  3
ACAD_XREC_ROUNDTRIP
360
525
  0
DICTIONARY
  5
528
330
34
100
AcDbDictionary
280
     1
281
     1
  3
ACAD_XREC_ROUNDTRIP
360
529
  0
DICTIONARY
  5
542
330
41
100
AcDbDictionary
280
     1
281
     1
  3
ACAD_XREC_ROUNDTRIP
360
543
  0
DICTIONARY
  5
530
330
38
100
AcDbDictionary
280
     1
281
     1
  3
ACAD_XREC_ROUNDTRIP
360
531
  0
DICTIONARY
  5
514
330
2A
100
AcDbDictionary
280
     1
281
     1
  3
ACAD_XREC_ROUNDTRIP
360
515
  0
DICTIONARY
  5
516
330
2B
100
AcDbDictionary
280
     1
281
     1
  3
ACAD_XREC_ROUNDTRIP
360
517
  0
DICTIONARY
  5
518
330
2C
100
AcDbDictionary
280
     1
281
     1
  3
ACAD_XREC_ROUNDTRIP
360
519
  0
DICTIONARY
  5
51A
330
2D
100
AcDbDictionary
280
     1
281
     1
  3
ACAD_XREC_ROUNDTRIP
360
51B
  0
DICTIONARY
  5
522
330
31
100
AcDbDictionary
280
     1
281
     1
  3
ACAD_XREC_ROUNDTRIP
360
523
  0
DICTIONARY
  5
53E
330
3F
100
AcDbDictionary
280
     1
281
     1
  3
ACAD_XREC_ROUNDTRIP
360
53F
  0
DICTIONARY
  5
52E
330
37
100
AcDbDictionary
280
     1
281
     1
  3
ACAD_XREC_ROUNDTRIP
360
52F
  0
DICTIONARY
  5
540
330
40
100
AcDbDictionary
280
     1
281
     1
  3
ACAD_XREC_ROUNDTRIP
360
541
  0
DICTIONARY
  5
526
330
33
100
AcDbDictionary
280
     1
281
     1
  3
ACAD_XREC_ROUNDTRIP
360
527
  0
DICTIONARY
  5
53C
330
3E
100
AcDbDictionary
280
     1
281
     1
  3
ACAD_XREC_ROUNDTRIP
360
53D
  0
DICTIONARY
  5
53A
330
3D
100
AcDbDictionary
280
     1
281
     1
  3
ACAD_XREC_ROUNDTRIP
360
53B
  0
DICTIONARY
  5
534
330
3A
100
AcDbDictionary
280
     1
281
     1
  3
ACAD_XREC_ROUNDTRIP
360
535
  0
DICTIONARY
  5
536
330
3B
100
AcDbDictionary
280
     1
281
     1
  3
ACAD_XREC_ROUNDTRIP
360
537
  0
DICTIONARY
  5
52C
330
36
100
AcDbDictionary
280
     1
281
     1
  3
ACAD_XREC_ROUNDTRIP
360
52D
  0
DICTIONARY
  5
520
330
30
100
AcDbDictionary
280
     1
281
     1
  3
ACAD_XREC_ROUNDTRIP
360
521
  0
DICTIONARY
  5
538
330
3C
100
AcDbDictionary
280
     1
281
     1
  3
ACAD_XREC_ROUNDTRIP
360
539
  0
XRECORD
  5
549
102
{ACAD_REACTORS
330
548
102
}
330
548
100
AcDbXrecord
280
     1
102
DISPLAYNAME
  1
Imperial24
102
FLAGS
 90
        0
  0
XRECORD
  5
54D
102
{ACAD_REACTORS
330
54C
102
}
330
54C
100
AcDbXrecord
280
     1
102
SHADEPLOT
 70
     0
102
SHADEPLOTRESLEVEL
 70
     2
102
SHADEPLOTCUSTOMDPI
 70
   300
  0
XRECORD
  5
54B
102
{ACAD_REACTORS
330
54A
102
}
330
54A
100
AcDbXrecord
280
     1
102
SHADEPLOT
 70
     0
102
SHADEPLOTRESLEVEL
 70
     2
102
SHADEPLOTCUSTOMDPI
 70
   300
  0
XRECORD
  5
512
102
{ACAD_REACTORS
330
1A
102
}
330
1A
100
AcDbXrecord
280
     1
102
MATERIAL
148
0.0
149
0.0
149
0.0
 93
        0
 94
      127
282
     0
 72
     0
 77
     0
171
     0
175
     0
179
     0
273
     0
  0
XRECORD
  5
1C
102
{ACAD_REACTORS
330
1A
102
}
330
1A
100
AcDbXrecord
280
     1
270
     1
271
     1
  0
XRECORD
  5
1B
102
{ACAD_REACTORS
330
1A
102
}
330
1A
100
AcDbXrecord
280
     1
270
     1
271
     1
  0
XRECORD
  5
1F
102
{ACAD_REACTORS
330
1A
102
}
330
1A
100
AcDbXrecord
280
     1
270
     1
271
     1
  0
XRECORD
  5
1E
102
{ACAD_REACTORS
330
1A
102
}
330
1A
100
AcDbXrecord
280
     1
270
     1
271
     1
  0
XRECORD
  5
20
102
{ACAD_REACTORS
330
1A
102
}
330
1A
100
AcDbXrecord
280
     1
270
     1
271
     1
  0
XRECORD
  5
1D
102
{ACAD_REACTORS
330
1A
102
}
330
1A
100
AcDbXrecord
280
     1
270
     1
271
     1
  0
XRECORD
  5
511
102
{ACAD_REACTORS
330
12
102
}
330
12
100
AcDbXrecord
280
     1
102
MATERIAL
148
0.0
149
0.0
149
0.0
 93
        0
 94
      127
282
     0
 72
     0
 77
     0
171
     0
175
     0
179
     0
273
     0
  0
XRECORD
  5
14
102
{ACAD_REACTORS
330
12
102
}
330
12
100
AcDbXrecord
280
     1
270
     1
271
     1
  0
XRECORD
  5
13
102
{ACAD_REACTORS
330
12
102
}
330
12
100
AcDbXrecord
280
     1
270
     1
271
     1
  0
XRECORD
  5
17
102
{ACAD_REACTORS
330
12
102
}
330
12
100
AcDbXrecord
280
     1
270
     1
271
     1
  0
XRECORD
  5
16
102
{ACAD_REACTORS
330
12
102
}
330
12
100
AcDbXrecord
280
     1
270
     1
271
     1
  0
XRECORD
  5
18
102
{ACAD_REACTORS
330
12
102
}
330
12
100
AcDbXrecord
280
     1
270
     1
271
     1
  0
XRECORD
  5
15
102
{ACAD_REACTORS
330
12
102
}
330
12
100
AcDbXrecord
280
     1
270
     1
271
     1
  0
XRECORD
  5
513
102
{ACAD_REACTORS
330
22
102
}
330
22
100
AcDbXrecord
280
     1
102
MATERIAL
148
0.0
149
0.0
149
0.0
 93
        0
 94
      127
282
     0
 72
     0
 77
     0
171
     0
175
     0
179
     0
273
     0
  0
XRECORD
  5
24
102
{ACAD_REACTORS
330
22
102
}
330
22
100
AcDbXrecord
280
     1
270
     1
271
     1
  0
XRECORD
  5
23
102
{ACAD_REACTORS
330
22
102
}
330
22
100
AcDbXrecord
280
     1
270
     1
271
     1
  0
XRECORD
  5
27
102
{ACAD_REACTORS
330
22
102
}
330
22
100
AcDbXrecord
280
     1
270
     1
271
     1
  0
XRECORD
  5
26
102
{ACAD_REACTORS
330
22
102
}
330
22
100
AcDbXrecord
280
     1
270
     1
271
     1
  0
XRECORD
  5
28
102
{ACAD_REACTORS
330
22
102
}
330
22
100
AcDbXrecord
280
     1
270
     1
271
     1
  0
XRECORD
  5
25
102
{ACAD_REACTORS
330
22
102
}
330
22
100
AcDbXrecord
280
     1
270
     1
271
     1
  0
XRECORD
  5
547
102
{ACAD_REACTORS
330
546
102
}
330
546
100
AcDbXrecord
280
     1
102
DISPLAYNAME
  1
Imperial24
102
FLAGS
 90
        0
  0
CELLSTYLEMAP
  5
50E
102
{ACAD_REACTORS
330
50D
102
}
330
50D
100
AcDbCellStyleMap
 90
        3
300
CELLSTYLE
  1
TABLEFORMAT_BEGIN
 90
        5
170
     1
 91
        0
 92
    32768
 62
   257
 93
        1
300
CONTENTFORMAT
  1
CONTENTFORMAT_BEGIN
 90
        0
 91
        0
 92
      512
 93
        0
300

 40
0.0
140
1.0
 94
        5
 62
     0
340
55
144
0.25
309
CONTENTFORMAT_END
171
     0
 94
        0
309
TABLEFORMAT_END
  1
CELLSTYLE_BEGIN
 90
        1
 91
        1
300
_TITLE
309
CELLSTYLE_END
300
CELLSTYLE
  1
TABLEFORMAT_BEGIN
 90
        5
170
     1
 91
        0
 92
        0
 62
   257
 93
        1
300
CONTENTFORMAT
  1
CONTENTFORMAT_BEGIN
 90
        0
 91
        0
 92
      512
 93
        0
300

 40
0.0
140
1.0
 94
        5
 62
     0
340
55
144
0.18
309
CONTENTFORMAT_END
171
     0
 94
        0
309
TABLEFORMAT_END
  1
CELLSTYLE_BEGIN
 90
        2
 91
        1
300
_HEADER
309
CELLSTYLE_END
300
CELLSTYLE
  1
TABLEFORMAT_BEGIN
 90
        5
170
     1
 91
        0
 92
        0
 62
   257
 93
        1
300
CONTENTFORMAT
  1
CONTENTFORMAT_BEGIN
 90
        0
 91
        0
 92
      512
 93
        0
300

 40
0.0
140
1.0
 94
        2
 62
     0
340
55
144
0.18
309
CONTENTFORMAT_END
171
     0
 94
        0
309
TABLEFORMAT_END
  1
CELLSTYLE_BEGIN
 90
        3
 91
        2
300
_DATA
309
CELLSTYLE_END
  0
XRECORD
  5
544
102
{ACAD_REACTORS
330
50D
102
}
330
50D
100
AcDbXrecord
280
     1
102
ACAD_ROUNDTRIP_PRE2007_TABLESTYLE
 90
      512
 91
        0
  1

 92
      512
 93
        0
  2

 94
      512
 95
        0
  3

  0
XRECORD
  5
51F
102
{ACAD_REACTORS
330
51E
102
}
330
51E
100
AcDbXrecord
280
     1
102
RTVSPost2010Prop28
280
     1
102
RTVSPost2010PropOp28
 70
     1
102
RTVSPost2010Prop29
280
     1
102
RTVSPost2010PropOp29
 70
     1
102
RTVSPost2010Prop30
280
     0
102
RTVSPost2010PropOp30
 70
     1
102
RTVSPost2010Prop31
280
     0
102
RTVSPost2010PropOp31
 70
     1
102
RTVSPost2010Prop32
280
     0
102
RTVSPost2010PropOp32
 70
     1
102
RTVSPost2010Prop33
280
     0
102
RTVSPost2010PropOp33
 70
     1
102
RTVSPost2010Prop34
280
     0
102
RTVSPost2010PropOp34
 70
     1
102
RTVSPost2010Prop35
280
     0
102
RTVSPost2010PropOp35
 70
     1
102
RTVSPost2010Prop36
280
     0
102
RTVSPost2010PropOp36
 70
     1
102
RTVSPost2010Prop37
 90
       50
102
RTVSPost2010PropOp37
 70
     1
102
RTVSPost2010Prop38
140
0.0
102
RTVSPost2010PropOp38
 70
     1
102
RTVSPost2010Prop39
140
1.0
102
RTVSPost2010PropOp39
 70
     1
102
RTVSPost2010Prop40
 90
        0
102
RTVSPost2010PropOp40
 70
     1
102
RTVSPost2010Prop41ColorIndex
 90
       18
102
RTVSPost2010Prop41ColorRGB
 90
        0
102
RTVSPost2010PropOp41
 70
     1
102
RTVSPost2010Prop42
 90
       50
102
RTVSPost2010PropOp42
 70
     1
102
RTVSPost2010Prop43
 90
        3
102
RTVSPost2010PropOp43
 70
     1
102
RTVSPost2010Prop44ColorIndex
 90
        5
102
RTVSPost2010Prop44ColorRGB
 90
      255
102
RTVSPost2010PropOp44
 70
     1
102
RTVSPost2010Prop45
280
     0
102
RTVSPost2010PropOp45
 70
     1
102
RTVSPost2010Prop46
 90
       50
102
RTVSPost2010PropOp46
 70
     1
102
RTVSPost2010Prop47
 90
       50
102
RTVSPost2010PropOp47
 70
     1
102
RTVSPost2010Prop48
 90
       50
102
RTVSPost2010PropOp48
 70
     1
102
RTVSPost2010Prop49
280
     0
102
RTVSPost2010PropOp49
 70
     1
102
RTVSPost2010Prop50
 90
       50
102
RTVSPost2010PropOp50
 70
     1
102
RTVSPost2010Prop51ColorIndex
 90
      256
102
RTVSPost2010Prop51ColorRGB
 90
-16777216
102
RTVSPost2010PropOp51
 70
     0
102
RTVSPost2010Prop52
140
1.0
102
RTVSPost2010PropOp52
 70
     0
102
RTVSPost2010Prop53
 90
        2
102
RTVSPost2010PropOp53
 70
     1
102
RTVSPost2010Prop54
  1
strokes_ogs.tif
102
RTVSPost2010PropOp54
 70
     1
102
RTVSPost2010Prop55
280
     0
102
RTVSPost2010PropOp55
 70
     1
102
RTVSPost2010Prop56
140
1.0
102
RTVSPost2010PropOp56
 70
     1
102
RTVSPost2010Prop57
140
1.0
102
RTVSPost2010PropOp57
 70
     1
102
RTVSPropertyOp0
 70
     1
102
RTVSPropertyOp1
 70
     1
102
RTVSPropertyOp2
 70
     1
102
RTVSPropertyOp3
 70
     1
102
RTVSPropertyOp4
 70
     1
102
RTVSPropertyOp5
 70
     1
102
RTVSPropertyOp6
 70
     1
102
RTVSPropertyOp7
 70
     1
102
RTVSPropertyOp8
 70
     1
102
RTVSPropertyOp9
 70
     1
102
RTVSPropertyOp10
 70
     1
102
RTVSPropertyOp11
 70
     1
102
RTVSPropertyOp12
 70
     1
102
RTVSPropertyOp13
 70
     1
102
RTVSPropertyOp14
 70
     1
102
RTVSPropertyOp15
 70
     1
102
RTVSPropertyOp16
 70
     1
102
RTVSPropertyOp17
 70
     1
102
RTVSPropertyOp18
 70
     1
102
RTVSPropertyOp19
 70
     1
102
RTVSPropertyOp20
 70
     1
102
RTVSPropertyOp21
 70
     1
102
RTVSPropertyOp22
 70
     1
102
RTVSPropertyOp23
 70
     1
102
RTVSPropertyOp24
 70
     1
102
RTVSPropertyOp25
 70
     1
102
RTVSPropertyOp26
 70
     1
102
RTVSPropertyOp27
 70
     1
102
RTVSPropertyOp28
 70
     1
102
RTVSPropertyOp29
 70
     1
102
RTVSPropertyOp30
 70
     1
102
RTVSPropertyOp31
 70
     1
102
RTVSPropertyOp32
 70
     1
102
RTVSPropertyOp33
 70
     1
102
RTVSPropertyOp34
 70
     1
102
RTVSPropertyOp35
 70
     1
102
RTVSPropertyOp36
 70
     1
102
RTVSPropertyOp37
 70
     1
102
RTVSPropertyOp38
 70
     1
102
RTVSPropertyOp39
 70
     1
102
RTVSPropertyOp40
 70
     1
102
RTVSPropertyOp41
 70
     1
102
RTVSPropertyOp42
 70
     1
102
RTVSPropertyOp43
 70
     1
102
RTVSPropertyOp44
 70
     1
102
RTVSPropertyOp45
 70
     1
102
RTVSPropertyOp46
 70
     1
102
RTVSPropertyOp47
 70
     1
102
RTVSPropertyOp48
 70
     1
102
RTVSPropertyOp49
 70
     1
102
RTVSPropertyOp50
 70
     1
102
RTVSPropertyOp51
 70
     0
102
RTVSPropertyOp52
 70
     0
102
RTVSPropertyOp53
 70
     1
102
RTVSPropertyOp54
 70
     1
102
RTVSPropertyOp55
 70
     1
102
RTVSPropertyOp56
 70
     1
102
RTVSPropertyOp57
 70
     1
102
RTVSPropertyOp58
 70
     1
102
RTVSPropertyOp59
 70
     1
102
RTVSPropertyOp60
 70
     1
102
RTVSPropertyOp61
 70
     1
102
RTVSPropertyOp62
 70
     1
  0
XRECORD
  5
51D
102
{ACAD_REACTORS
330
51C
102
}
330
51C
100
AcDbXrecord
280
     1
102
RTVSPost2010Prop28
280
     0
102
RTVSPost2010PropOp28
 70
     1
102
RTVSPost2010Prop29
280
     1
102
RTVSPost2010PropOp29
 70
     1
102
RTVSPost2010Prop30
280
     1
102
RTVSPost2010PropOp30
 70
     1
102
RTVSPost2010Prop31
280
     0
102
RTVSPost2010PropOp31
 70
     1
102
RTVSPost2010Prop32
280
     0
102
RTVSPost2010PropOp32
 70
     1
102
RTVSPost2010Prop33
280
     0
102
RTVSPost2010PropOp33
 70
     1
102
RTVSPost2010Prop34
280
     0
102
RTVSPost2010PropOp34
 70
     1
102
RTVSPost2010Prop35
280
     0
102
RTVSPost2010PropOp35
 70
     1
102
RTVSPost2010Prop36
280
     0
102
RTVSPost2010PropOp36
 70
     1
102
RTVSPost2010Prop37
 90
       50
102
RTVSPost2010PropOp37
 70
     1
102
RTVSPost2010Prop38
140
0.0
102
RTVSPost2010PropOp38
 70
     1
102
RTVSPost2010Prop39
140
1.0
102
RTVSPost2010PropOp39
 70
     1
102
RTVSPost2010Prop40
 90
        0
102
RTVSPost2010PropOp40
 70
     1
102
RTVSPost2010Prop41ColorIndex
 90
       18
102
RTVSPost2010Prop41ColorRGB
 90
        0
102
RTVSPost2010PropOp41
 70
     1
102
RTVSPost2010Prop42
 90
       50
102
RTVSPost2010PropOp42
 70
     1
102
RTVSPost2010Prop43
 90
        3
102
RTVSPost2010PropOp43
 70
     1
102
RTVSPost2010Prop44ColorIndex
 90
        5
102
RTVSPost2010Prop44ColorRGB
 90
      255
102
RTVSPost2010PropOp44
 70
     1
102
RTVSPost2010Prop45
280
     0
102
RTVSPost2010PropOp45
 70
     1
102
RTVSPost2010Prop46
 90
       50
102
RTVSPost2010PropOp46
 70
     1
102
RTVSPost2010Prop47
 90
       50
102
RTVSPost2010PropOp47
 70
     1
102
RTVSPost2010Prop48
 90
       50
102
RTVSPost2010PropOp48
 70
     1
102
RTVSPost2010Prop49
280
     0
102
RTVSPost2010PropOp49
 70
     1
102
RTVSPost2010Prop50
 90
       50
102
RTVSPost2010PropOp50
 70
     1
102
RTVSPost2010Prop51ColorIndex
 90
      256
102
RTVSPost2010Prop51ColorRGB
 90
-16777216
102
RTVSPost2010PropOp51
 70
     0
102
RTVSPost2010Prop52
140
1.0
102
RTVSPost2010PropOp52
 70
     0
102
RTVSPost2010Prop53
 90
        2
102
RTVSPost2010PropOp53
 70
     1
102
RTVSPost2010Prop54
  1
strokes_ogs.tif
102
RTVSPost2010PropOp54
 70
     1
102
RTVSPost2010Prop55
280
     0
102
RTVSPost2010PropOp55
 70
     1
102
RTVSPost2010Prop56
140
1.0
102
RTVSPost2010PropOp56
 70
     1
102
RTVSPost2010Prop57
140
1.0
102
RTVSPost2010PropOp57
 70
     1
102
RTVSPropertyOp0
 70
     1
102
RTVSPropertyOp1
 70
     1
102
RTVSPropertyOp2
 70
     1
102
RTVSPropertyOp3
 70
     1
102
RTVSPropertyOp4
 70
     1
102
RTVSPropertyOp5
 70
     1
102
RTVSPropertyOp6
 70
     1
102
RTVSPropertyOp7
 70
     1
102
RTVSPropertyOp8
 70
     1
102
RTVSPropertyOp9
 70
     1
102
RTVSPropertyOp10
 70
     1
102
RTVSPropertyOp11
 70
     1
102
RTVSPropertyOp12
 70
     1
102
RTVSPropertyOp13
 70
     1
102
RTVSPropertyOp14
 70
     1
102
RTVSPropertyOp15
 70
     1
102
RTVSPropertyOp16
 70
     1
102
RTVSPropertyOp17
 70
     1
102
RTVSPropertyOp18
 70
     1
102
RTVSPropertyOp19
 70
     1
102
RTVSPropertyOp20
 70
     1
102
RTVSPropertyOp21
 70
     1
102
RTVSPropertyOp22
 70
     1
102
RTVSPropertyOp23
 70
     1
102
RTVSPropertyOp24
 70
     1
102
RTVSPropertyOp25
 70
     1
102
RTVSPropertyOp26
 70
     1
102
RTVSPropertyOp27
 70
     1
102
RTVSPropertyOp28
 70
     1
102
RTVSPropertyOp29
 70
     1
102
RTVSPropertyOp30
 70
     1
102
RTVSPropertyOp31
 70
     1
102
RTVSPropertyOp32
 70
     1
102
RTVSPropertyOp33
 70
     1
102
RTVSPropertyOp34
 70
     1
102
RTVSPropertyOp35
 70
     1
102
RTVSPropertyOp36
 70
     1
102
RTVSPropertyOp37
 70
     1
102
RTVSPropertyOp38
 70
     1
102
RTVSPropertyOp39
 70
     1
102
RTVSPropertyOp40
 70
     1
102
RTVSPropertyOp41
 70
     1
102
RTVSPropertyOp42
 70
     1
102
RTVSPropertyOp43
 70
     1
102
RTVSPropertyOp44
 70
     1
102
RTVSPropertyOp45
 70
     1
102
RTVSPropertyOp46
 70
     1
102
RTVSPropertyOp47
 70
     1
102
RTVSPropertyOp48
 70
     1
102
RTVSPropertyOp49
 70
     1
102
RTVSPropertyOp50
 70
     1
102
RTVSPropertyOp51
 70
     0
102
RTVSPropertyOp52
 70
     0
102
RTVSPropertyOp53
 70
     1
102
RTVSPropertyOp54
 70
     1
102
RTVSPropertyOp55
 70
     1
102
RTVSPropertyOp56
 70
     1
102
RTVSPropertyOp57
 70
     1
102
RTVSPropertyOp58
 70
     1
102
RTVSPropertyOp59
 70
     1
102
RTVSPropertyOp60
 70
     1
102
RTVSPropertyOp61
 70
     1
102
RTVSPropertyOp62
 70
     1
  0
XRECORD
  5
52B
102
{ACAD_REACTORS
330
52A
102
}
330
52A
100
AcDbXrecord
280
     1
102
RTVSPost2010Prop28
280
     0
102
RTVSPost2010PropOp28
 70
     1
102
RTVSPost2010Prop29
280
     1
102
RTVSPost2010PropOp29
 70
     1
102
RTVSPost2010Prop30
280
     1
102
RTVSPost2010PropOp30
 70
     1
102
RTVSPost2010Prop31
280
     0
102
RTVSPost2010PropOp31
 70
     1
102
RTVSPost2010Prop32
280
     0
102
RTVSPost2010PropOp32
 70
     1
102
RTVSPost2010Prop33
280
     0
102
RTVSPost2010PropOp33
 70
     1
102
RTVSPost2010Prop34
280
     0
102
RTVSPost2010PropOp34
 70
     1
102
RTVSPost2010Prop35
280
     0
102
RTVSPost2010PropOp35
 70
     1
102
RTVSPost2010Prop36
280
     0
102
RTVSPost2010PropOp36
 70
     1
102
RTVSPost2010Prop37
 90
       50
102
RTVSPost2010PropOp37
 70
     1
102
RTVSPost2010Prop38
140
0.0
102
RTVSPost2010PropOp38
 70
     1
102
RTVSPost2010Prop39
140
1.0
102
RTVSPost2010PropOp39
 70
     1
102
RTVSPost2010Prop40
 90
        0
102
RTVSPost2010PropOp40
 70
     1
102
RTVSPost2010Prop41ColorIndex
 90
       18
102
RTVSPost2010Prop41ColorRGB
 90
        0
102
RTVSPost2010PropOp41
 70
     1
102
RTVSPost2010Prop42
 90
       50
102
RTVSPost2010PropOp42
 70
     1
102
RTVSPost2010Prop43
 90
        3
102
RTVSPost2010PropOp43
 70
     1
102
RTVSPost2010Prop44ColorIndex
 90
        5
102
RTVSPost2010Prop44ColorRGB
 90
      255
102
RTVSPost2010PropOp44
 70
     1
102
RTVSPost2010Prop45
280
     0
102
RTVSPost2010PropOp45
 70
     1
102
RTVSPost2010Prop46
 90
       50
102
RTVSPost2010PropOp46
 70
     1
102
RTVSPost2010Prop47
 90
       50
102
RTVSPost2010PropOp47
 70
     1
102
RTVSPost2010Prop48
 90
       50
102
RTVSPost2010PropOp48
 70
     1
102
RTVSPost2010Prop49
280
     0
102
RTVSPost2010PropOp49
 70
     1
102
RTVSPost2010Prop50
 90
       50
102
RTVSPost2010PropOp50
 70
     1
102
RTVSPost2010Prop51ColorIndex
 90
      256
102
RTVSPost2010Prop51ColorRGB
 90
-16777216
102
RTVSPost2010PropOp51
 70
     0
102
RTVSPost2010Prop52
140
1.0
102
RTVSPost2010PropOp52
 70
     0
102
RTVSPost2010Prop53
 90
        2
102
RTVSPost2010PropOp53
 70
     1
102
RTVSPost2010Prop54
  1
strokes_ogs.tif
102
RTVSPost2010PropOp54
 70
     1
102
RTVSPost2010Prop55
280
     0
102
RTVSPost2010PropOp55
 70
     1
102
RTVSPost2010Prop56
140
1.0
102
RTVSPost2010PropOp56
 70
     1
102
RTVSPost2010Prop57
140
1.0
102
RTVSPost2010PropOp57
 70
     1
102
RTVSPropertyOp0
 70
     1
102
RTVSPropertyOp1
 70
     1
102
RTVSPropertyOp2
 70
     1
102
RTVSPropertyOp3
 70
     1
102
RTVSPropertyOp4
 70
     1
102
RTVSPropertyOp5
 70
     1
102
RTVSPropertyOp6
 70
     1
102
RTVSPropertyOp7
 70
     1
102
RTVSPropertyOp8
 70
     1
102
RTVSPropertyOp9
 70
     1
102
RTVSPropertyOp10
 70
     1
102
RTVSPropertyOp11
 70
     1
102
RTVSPropertyOp12
 70
     1
102
RTVSPropertyOp13
 70
     1
102
RTVSPropertyOp14
 70
     1
102
RTVSPropertyOp15
 70
     1
102
RTVSPropertyOp16
 70
     1
102
RTVSPropertyOp17
 70
     1
102
RTVSPropertyOp18
 70
     1
102
RTVSPropertyOp19
 70
     1
102
RTVSPropertyOp20
 70
     1
102
RTVSPropertyOp21
 70
     1
102
RTVSPropertyOp22
 70
     1
102
RTVSPropertyOp23
 70
     1
102
RTVSPropertyOp24
 70
     1
102
RTVSPropertyOp25
 70
     1
102
RTVSPropertyOp26
 70
     1
102
RTVSPropertyOp27
 70
     1
102
RTVSPropertyOp28
 70
     1
102
RTVSPropertyOp29
 70
     1
102
RTVSPropertyOp30
 70
     1
102
RTVSPropertyOp31
 70
     1
102
RTVSPropertyOp32
 70
     1
102
RTVSPropertyOp33
 70
     1
102
RTVSPropertyOp34
 70
     1
102
RTVSPropertyOp35
 70
     1
102
RTVSPropertyOp36
 70
     1
102
RTVSPropertyOp37
 70
     1
102
RTVSPropertyOp38
 70
     1
102
RTVSPropertyOp39
 70
     1
102
RTVSPropertyOp40
 70
     1
102
RTVSPropertyOp41
 70
     1
102
RTVSPropertyOp42
 70
     1
102
RTVSPropertyOp43
 70
     1
102
RTVSPropertyOp44
 70
     1
102
RTVSPropertyOp45
 70
     1
102
RTVSPropertyOp46
 70
     1
102
RTVSPropertyOp47
 70
     1
102
RTVSPropertyOp48
 70
     1
102
RTVSPropertyOp49
 70
     1
102
RTVSPropertyOp50
 70
     1
102
RTVSPropertyOp51
 70
     0
102
RTVSPropertyOp52
 70
     0
102
RTVSPropertyOp53
 70
     1
102
RTVSPropertyOp54
 70
     1
102
RTVSPropertyOp55
 70
     1
102
RTVSPropertyOp56
 70
     1
102
RTVSPropertyOp57
 70
     1
102
RTVSPropertyOp58
 70
     1
102
RTVSPropertyOp59
 70
     1
102
RTVSPropertyOp60
 70
     1
102
RTVSPropertyOp61
 70
     1
102
RTVSPropertyOp62
 70
     1
  0
XRECORD
  5
533
102
{ACAD_REACTORS
330
532
102
}
330
532
100
AcDbXrecord
280
     1
102
RTVSPost2010Prop28
280
     0
102
RTVSPost2010PropOp28
 70
     1
102
RTVSPost2010Prop29
280
     1
102
RTVSPost2010PropOp29
 70
     1
102
RTVSPost2010Prop30
280
     1
102
RTVSPost2010PropOp30
 70
     1
102
RTVSPost2010Prop31
280
     0
102
RTVSPost2010PropOp31
 70
     1
102
RTVSPost2010Prop32
280
     0
102
RTVSPost2010PropOp32
 70
     1
102
RTVSPost2010Prop33
280
     0
102
RTVSPost2010PropOp33
 70
     1
102
RTVSPost2010Prop34
280
     0
102
RTVSPost2010PropOp34
 70
     1
102
RTVSPost2010Prop35
280
     0
102
RTVSPost2010PropOp35
 70
     1
102
RTVSPost2010Prop36
280
     0
102
RTVSPost2010PropOp36
 70
     1
102
RTVSPost2010Prop37
 90
       50
102
RTVSPost2010PropOp37
 70
     1
102
RTVSPost2010Prop38
140
0.0
102
RTVSPost2010PropOp38
 70
     1
102
RTVSPost2010Prop39
140
1.0
102
RTVSPost2010PropOp39
 70
     1
102
RTVSPost2010Prop40
 90
        0
102
RTVSPost2010PropOp40
 70
     1
102
RTVSPost2010Prop41ColorIndex
 90
       18
102
RTVSPost2010Prop41ColorRGB
 90
        0
102
RTVSPost2010PropOp41
 70
     1
102
RTVSPost2010Prop42
 90
       50
102
RTVSPost2010PropOp42
 70
     1
102
RTVSPost2010Prop43
 90
        3
102
RTVSPost2010PropOp43
 70
     1
102
RTVSPost2010Prop44ColorIndex
 90
        5
102
RTVSPost2010Prop44ColorRGB
 90
      255
102
RTVSPost2010PropOp44
 70
     1
102
RTVSPost2010Prop45
280
     0
102
RTVSPost2010PropOp45
 70
     1
102
RTVSPost2010Prop46
 90
       50
102
RTVSPost2010PropOp46
 70
     1
102
RTVSPost2010Prop47
 90
       50
102
RTVSPost2010PropOp47
 70
     1
102
RTVSPost2010Prop48
 90
       50
102
RTVSPost2010PropOp48
 70
     1
102
RTVSPost2010Prop49
280
     0
102
RTVSPost2010PropOp49
 70
     1
102
RTVSPost2010Prop50
 90
       50
102
RTVSPost2010PropOp50
 70
     1
102
RTVSPost2010Prop51ColorIndex
 90
      256
102
RTVSPost2010Prop51ColorRGB
 90
-16777216
102
RTVSPost2010PropOp51
 70
     0
102
RTVSPost2010Prop52
140
1.0
102
RTVSPost2010PropOp52
 70
     0
102
RTVSPost2010Prop53
 90
        2
102
RTVSPost2010PropOp53
 70
     1
102
RTVSPost2010Prop54
  1
strokes_ogs.tif
102
RTVSPost2010PropOp54
 70
     1
102
RTVSPost2010Prop55
280
     0
102
RTVSPost2010PropOp55
 70
     1
102
RTVSPost2010Prop56
140
1.0
102
RTVSPost2010PropOp56
 70
     1
102
RTVSPost2010Prop57
140
1.0
102
RTVSPost2010PropOp57
 70
     1
102
RTVSPropertyOp0
 70
     1
102
RTVSPropertyOp1
 70
     1
102
RTVSPropertyOp2
 70
     1
102
RTVSPropertyOp3
 70
     1
102
RTVSPropertyOp4
 70
     1
102
RTVSPropertyOp5
 70
     1
102
RTVSPropertyOp6
 70
     1
102
RTVSPropertyOp7
 70
     1
102
RTVSPropertyOp8
 70
     1
102
RTVSPropertyOp9
 70
     1
102
RTVSPropertyOp10
 70
     1
102
RTVSPropertyOp11
 70
     1
102
RTVSPropertyOp12
 70
     1
102
RTVSPropertyOp13
 70
     1
102
RTVSPropertyOp14
 70
     1
102
RTVSPropertyOp15
 70
     1
102
RTVSPropertyOp16
 70
     1
102
RTVSPropertyOp17
 70
     1
102
RTVSPropertyOp18
 70
     1
102
RTVSPropertyOp19
 70
     1
102
RTVSPropertyOp20
 70
     1
102
RTVSPropertyOp21
 70
     1
102
RTVSPropertyOp22
 70
     1
102
RTVSPropertyOp23
 70
     1
102
RTVSPropertyOp24
 70
     1
102
RTVSPropertyOp25
 70
     1
102
RTVSPropertyOp26
 70
     1
102
RTVSPropertyOp27
 70
     1
102
RTVSPropertyOp28
 70
     1
102
RTVSPropertyOp29
 70
     1
102
RTVSPropertyOp30
 70
     1
102
RTVSPropertyOp31
 70
     1
102
RTVSPropertyOp32
 70
     1
102
RTVSPropertyOp33
 70
     1
102
RTVSPropertyOp34
 70
     1
102
RTVSPropertyOp35
 70
     1
102
RTVSPropertyOp36
 70
     1
102
RTVSPropertyOp37
 70
     1
102
RTVSPropertyOp38
 70
     1
102
RTVSPropertyOp39
 70
     1
102
RTVSPropertyOp40
 70
     1
102
RTVSPropertyOp41
 70
     1
102
RTVSPropertyOp42
 70
     1
102
RTVSPropertyOp43
 70
     1
102
RTVSPropertyOp44
 70
     1
102
RTVSPropertyOp45
 70
     1
102
RTVSPropertyOp46
 70
     1
102
RTVSPropertyOp47
 70
     1
102
RTVSPropertyOp48
 70
     1
102
RTVSPropertyOp49
 70
     1
102
RTVSPropertyOp50
 70
     1
102
RTVSPropertyOp51
 70
     0
102
RTVSPropertyOp52
 70
     0
102
RTVSPropertyOp53
 70
     1
102
RTVSPropertyOp54
 70
     1
102
RTVSPropertyOp55
 70
     1
102
RTVSPropertyOp56
 70
     1
102
RTVSPropertyOp57
 70
     1
102
RTVSPropertyOp58
 70
     1
102
RTVSPropertyOp59
 70
     1
102
RTVSPropertyOp60
 70
     1
102
RTVSPropertyOp61
 70
     1
102
RTVSPropertyOp62
 70
     1
  0
XRECORD
  5
525
102
{ACAD_REACTORS
330
524
102
}
330
524
100
AcDbXrecord
280
     1
102
RTVSPost2010Prop28
280
     0
102
RTVSPost2010PropOp28
 70
     1
102
RTVSPost2010Prop29
280
     1
102
RTVSPost2010PropOp29
 70
     1
102
RTVSPost2010Prop30
280
     1
102
RTVSPost2010PropOp30
 70
     1
102
RTVSPost2010Prop31
280
     0
102
RTVSPost2010PropOp31
 70
     1
102
RTVSPost2010Prop32
280
     0
102
RTVSPost2010PropOp32
 70
     1
102
RTVSPost2010Prop33
280
     0
102
RTVSPost2010PropOp33
 70
     1
102
RTVSPost2010Prop34
280
     0
102
RTVSPost2010PropOp34
 70
     1
102
RTVSPost2010Prop35
280
     0
102
RTVSPost2010PropOp35
 70
     1
102
RTVSPost2010Prop36
280
     0
102
RTVSPost2010PropOp36
 70
     1
102
RTVSPost2010Prop37
 90
       50
102
RTVSPost2010PropOp37
 70
     1
102
RTVSPost2010Prop38
140
0.0
102
RTVSPost2010PropOp38
 70
     1
102
RTVSPost2010Prop39
140
1.0
102
RTVSPost2010PropOp39
 70
     1
102
RTVSPost2010Prop40
 90
        0
102
RTVSPost2010PropOp40
 70
     1
102
RTVSPost2010Prop41ColorIndex
 90
       18
102
RTVSPost2010Prop41ColorRGB
 90
        0
102
RTVSPost2010PropOp41
 70
     1
102
RTVSPost2010Prop42
 90
       50
102
RTVSPost2010PropOp42
 70
     1
102
RTVSPost2010Prop43
 90
        3
102
RTVSPost2010PropOp43
 70
     1
102
RTVSPost2010Prop44ColorIndex
 90
        5
102
RTVSPost2010Prop44ColorRGB
 90
      255
102
RTVSPost2010PropOp44
 70
     1
102
RTVSPost2010Prop45
280
     0
102
RTVSPost2010PropOp45
 70
     1
102
RTVSPost2010Prop46
 90
       50
102
RTVSPost2010PropOp46
 70
     1
102
RTVSPost2010Prop47
 90
       50
102
RTVSPost2010PropOp47
 70
     1
102
RTVSPost2010Prop48
 90
       50
102
RTVSPost2010PropOp48
 70
     1
102
RTVSPost2010Prop49
280
     0
102
RTVSPost2010PropOp49
 70
     1
102
RTVSPost2010Prop50
 90
       50
102
RTVSPost2010PropOp50
 70
     1
102
RTVSPost2010Prop51ColorIndex
 90
      256
102
RTVSPost2010Prop51ColorRGB
 90
-16777216
102
RTVSPost2010PropOp51
 70
     0
102
RTVSPost2010Prop52
140
1.0
102
RTVSPost2010PropOp52
 70
     0
102
RTVSPost2010Prop53
 90
        2
102
RTVSPost2010PropOp53
 70
     1
102
RTVSPost2010Prop54
  1
strokes_ogs.tif
102
RTVSPost2010PropOp54
 70
     1
102
RTVSPost2010Prop55
280
     0
102
RTVSPost2010PropOp55
 70
     1
102
RTVSPost2010Prop56
140
1.0
102
RTVSPost2010PropOp56
 70
     1
102
RTVSPost2010Prop57
140
1.0
102
RTVSPost2010PropOp57
 70
     1
102
RTVSPropertyOp0
 70
     1
102
RTVSPropertyOp1
 70
     1
102
RTVSPropertyOp2
 70
     1
102
RTVSPropertyOp3
 70
     1
102
RTVSPropertyOp4
 70
     1
102
RTVSPropertyOp5
 70
     1
102
RTVSPropertyOp6
 70
     1
102
RTVSPropertyOp7
 70
     1
102
RTVSPropertyOp8
 70
     1
102
RTVSPropertyOp9
 70
     1
102
RTVSPropertyOp10
 70
     1
102
RTVSPropertyOp11
 70
     1
102
RTVSPropertyOp12
 70
     1
102
RTVSPropertyOp13
 70
     1
102
RTVSPropertyOp14
 70
     1
102
RTVSPropertyOp15
 70
     1
102
RTVSPropertyOp16
 70
     1
102
RTVSPropertyOp17
 70
     1
102
RTVSPropertyOp18
 70
     1
102
RTVSPropertyOp19
 70
     1
102
RTVSPropertyOp20
 70
     1
102
RTVSPropertyOp21
 70
     1
102
RTVSPropertyOp22
 70
     1
102
RTVSPropertyOp23
 70
     1
102
RTVSPropertyOp24
 70
     1
102
RTVSPropertyOp25
 70
     1
102
RTVSPropertyOp26
 70
     1
102
RTVSPropertyOp27
 70
     1
102
RTVSPropertyOp28
 70
     1
102
RTVSPropertyOp29
 70
     1
102
RTVSPropertyOp30
 70
     1
102
RTVSPropertyOp31
 70
     1
102
RTVSPropertyOp32
 70
     1
102
RTVSPropertyOp33
 70
     1
102
RTVSPropertyOp34
 70
     1
102
RTVSPropertyOp35
 70
     1
102
RTVSPropertyOp36
 70
     1
102
RTVSPropertyOp37
 70
     1
102
RTVSPropertyOp38
 70
     1
102
RTVSPropertyOp39
 70
     1
102
RTVSPropertyOp40
 70
     1
102
RTVSPropertyOp41
 70
     1
102
RTVSPropertyOp42
 70
     1
102
RTVSPropertyOp43
 70
     1
102
RTVSPropertyOp44
 70
     1
102
RTVSPropertyOp45
 70
     1
102
RTVSPropertyOp46
 70
     1
102
RTVSPropertyOp47
 70
     1
102
RTVSPropertyOp48
 70
     1
102
RTVSPropertyOp49
 70
     1
102
RTVSPropertyOp50
 70
     1
102
RTVSPropertyOp51
 70
     0
102
RTVSPropertyOp52
 70
     0
102
RTVSPropertyOp53
 70
     1
102
RTVSPropertyOp54
 70
     1
102
RTVSPropertyOp55
 70
     1
102
RTVSPropertyOp56
 70
     1
102
RTVSPropertyOp57
 70
     1
102
RTVSPropertyOp58
 70
     1
102
RTVSPropertyOp59
 70
     1
102
RTVSPropertyOp60
 70
     1
102
RTVSPropertyOp61
 70
     1
102
RTVSPropertyOp62
 70
     1
  0
XRECORD
  5
529
102
{ACAD_REACTORS
330
528
102
}
330
528
100
AcDbXrecord
280
     1
102
RTVSPost2010Prop28
280
     0
102
RTVSPost2010PropOp28
 70
     1
102
RTVSPost2010Prop29
280
     1
102
RTVSPost2010PropOp29
 70
     1
102
RTVSPost2010Prop30
280
     1
102
RTVSPost2010PropOp30
 70
     1
102
RTVSPost2010Prop31
280
     0
102
RTVSPost2010PropOp31
 70
     1
102
RTVSPost2010Prop32
280
     0
102
RTVSPost2010PropOp32
 70
     1
102
RTVSPost2010Prop33
280
     0
102
RTVSPost2010PropOp33
 70
     1
102
RTVSPost2010Prop34
280
     0
102
RTVSPost2010PropOp34
 70
     1
102
RTVSPost2010Prop35
280
     0
102
RTVSPost2010PropOp35
 70
     1
102
RTVSPost2010Prop36
280
     0
102
RTVSPost2010PropOp36
 70
     1
102
RTVSPost2010Prop37
 90
       50
102
RTVSPost2010PropOp37
 70
     1
102
RTVSPost2010Prop38
140
0.0
102
RTVSPost2010PropOp38
 70
     1
102
RTVSPost2010Prop39
140
1.0
102
RTVSPost2010PropOp39
 70
     1
102
RTVSPost2010Prop40
 90
        0
102
RTVSPost2010PropOp40
 70
     1
102
RTVSPost2010Prop41ColorIndex
 90
       18
102
RTVSPost2010Prop41ColorRGB
 90
        0
102
RTVSPost2010PropOp41
 70
     1
102
RTVSPost2010Prop42
 90
       50
102
RTVSPost2010PropOp42
 70
     1
102
RTVSPost2010Prop43
 90
        3
102
RTVSPost2010PropOp43
 70
     1
102
RTVSPost2010Prop44ColorIndex
 90
        5
102
RTVSPost2010Prop44ColorRGB
 90
      255
102
RTVSPost2010PropOp44
 70
     1
102
RTVSPost2010Prop45
280
     0
102
RTVSPost2010PropOp45
 70
     1
102
RTVSPost2010Prop46
 90
       50
102
RTVSPost2010PropOp46
 70
     1
102
RTVSPost2010Prop47
 90
       50
102
RTVSPost2010PropOp47
 70
     1
102
RTVSPost2010Prop48
 90
       50
102
RTVSPost2010PropOp48
 70
     1
102
RTVSPost2010Prop49
280
     0
102
RTVSPost2010PropOp49
 70
     1
102
RTVSPost2010Prop50
 90
       50
102
RTVSPost2010PropOp50
 70
     1
102
RTVSPost2010Prop51ColorIndex
 90
      256
102
RTVSPost2010Prop51ColorRGB
 90
-16777216
102
RTVSPost2010PropOp51
 70
     0
102
RTVSPost2010Prop52
140
1.0
102
RTVSPost2010PropOp52
 70
     0
102
RTVSPost2010Prop53
 90
        2
102
RTVSPost2010PropOp53
 70
     1
102
RTVSPost2010Prop54
  1
strokes_ogs.tif
102
RTVSPost2010PropOp54
 70
     1
102
RTVSPost2010Prop55
280
     0
102
RTVSPost2010PropOp55
 70
     1
102
RTVSPost2010Prop56
140
1.0
102
RTVSPost2010PropOp56
 70
     1
102
RTVSPost2010Prop57
140
1.0
102
RTVSPost2010PropOp57
 70
     1
102
RTVSPropertyOp0
 70
     1
102
RTVSPropertyOp1
 70
     1
102
RTVSPropertyOp2
 70
     1
102
RTVSPropertyOp3
 70
     1
102
RTVSPropertyOp4
 70
     1
102
RTVSPropertyOp5
 70
     1
102
RTVSPropertyOp6
 70
     1
102
RTVSPropertyOp7
 70
     1
102
RTVSPropertyOp8
 70
     1
102
RTVSPropertyOp9
 70
     1
102
RTVSPropertyOp10
 70
     1
102
RTVSPropertyOp11
 70
     1
102
RTVSPropertyOp12
 70
     1
102
RTVSPropertyOp13
 70
     1
102
RTVSPropertyOp14
 70
     1
102
RTVSPropertyOp15
 70
     1
102
RTVSPropertyOp16
 70
     1
102
RTVSPropertyOp17
 70
     1
102
RTVSPropertyOp18
 70
     1
102
RTVSPropertyOp19
 70
     1
102
RTVSPropertyOp20
 70
     1
102
RTVSPropertyOp21
 70
     1
102
RTVSPropertyOp22
 70
     1
102
RTVSPropertyOp23
 70
     1
102
RTVSPropertyOp24
 70
     1
102
RTVSPropertyOp25
 70
     1
102
RTVSPropertyOp26
 70
     1
102
RTVSPropertyOp27
 70
     1
102
RTVSPropertyOp28
 70
     1
102
RTVSPropertyOp29
 70
     1
102
RTVSPropertyOp30
 70
     1
102
RTVSPropertyOp31
 70
     1
102
RTVSPropertyOp32
 70
     1
102
RTVSPropertyOp33
 70
     1
102
RTVSPropertyOp34
 70
     1
102
RTVSPropertyOp35
 70
     1
102
RTVSPropertyOp36
 70
     1
102
RTVSPropertyOp37
 70
     1
102
RTVSPropertyOp38
 70
     1
102
RTVSPropertyOp39
 70
     1
102
RTVSPropertyOp40
 70
     1
102
RTVSPropertyOp41
 70
     1
102
RTVSPropertyOp42
 70
     1
102
RTVSPropertyOp43
 70
     1
102
RTVSPropertyOp44
 70
     1
102
RTVSPropertyOp45
 70
     1
102
RTVSPropertyOp46
 70
     1
102
RTVSPropertyOp47
 70
     1
102
RTVSPropertyOp48
 70
     1
102
RTVSPropertyOp49
 70
     1
102
RTVSPropertyOp50
 70
     1
102
RTVSPropertyOp51
 70
     0
102
RTVSPropertyOp52
 70
     0
102
RTVSPropertyOp53
 70
     1
102
RTVSPropertyOp54
 70
     1
102
RTVSPropertyOp55
 70
     1
102
RTVSPropertyOp56
 70
     1
102
RTVSPropertyOp57
 70
     1
102
RTVSPropertyOp58
 70
     1
102
RTVSPropertyOp59
 70
     1
102
RTVSPropertyOp60
 70
     1
102
RTVSPropertyOp61
 70
     1
102
RTVSPropertyOp62
 70
     1
  0
XRECORD
  5
543
102
{ACAD_REACTORS
330
542
102
}
330
542
100
AcDbXrecord
280
     1
102
RTVSPost2010Prop28
280
     0
102
RTVSPost2010PropOp28
 70
     1
102
RTVSPost2010Prop29
280
     1
102
RTVSPost2010PropOp29
 70
     1
102
RTVSPost2010Prop30
280
     1
102
RTVSPost2010PropOp30
 70
     1
102
RTVSPost2010Prop31
280
     0
102
RTVSPost2010PropOp31
 70
     1
102
RTVSPost2010Prop32
280
     0
102
RTVSPost2010PropOp32
 70
     1
102
RTVSPost2010Prop33
280
     0
102
RTVSPost2010PropOp33
 70
     1
102
RTVSPost2010Prop34
280
     0
102
RTVSPost2010PropOp34
 70
     1
102
RTVSPost2010Prop35
280
     0
102
RTVSPost2010PropOp35
 70
     1
102
RTVSPost2010Prop36
280
     0
102
RTVSPost2010PropOp36
 70
     1
102
RTVSPost2010Prop37
 90
       50
102
RTVSPost2010PropOp37
 70
     0
102
RTVSPost2010Prop38
140
0.0
102
RTVSPost2010PropOp38
 70
     0
102
RTVSPost2010Prop39
140
1.0
102
RTVSPost2010PropOp39
 70
     0
102
RTVSPost2010Prop40
 90
        0
102
RTVSPost2010PropOp40
 70
     0
102
RTVSPost2010Prop41ColorIndex
 90
       18
102
RTVSPost2010Prop41ColorRGB
 90
        0
102
RTVSPost2010PropOp41
 70
     0
102
RTVSPost2010Prop42
 90
       50
102
RTVSPost2010PropOp42
 70
     0
102
RTVSPost2010Prop43
 90
        3
102
RTVSPost2010PropOp43
 70
     0
102
RTVSPost2010Prop44ColorIndex
 90
        5
102
RTVSPost2010Prop44ColorRGB
 90
      255
102
RTVSPost2010PropOp44
 70
     0
102
RTVSPost2010Prop45
280
     0
102
RTVSPost2010PropOp45
 70
     1
102
RTVSPost2010Prop46
 90
       50
102
RTVSPost2010PropOp46
 70
     0
102
RTVSPost2010Prop47
 90
       50
102
RTVSPost2010PropOp47
 70
     0
102
RTVSPost2010Prop48
 90
       50
102
RTVSPost2010PropOp48
 70
     0
102
RTVSPost2010Prop49
280
     0
102
RTVSPost2010PropOp49
 70
     1
102
RTVSPost2010Prop50
 90
       50
102
RTVSPost2010PropOp50
 70
     0
102
RTVSPost2010Prop51ColorIndex
 90
      256
102
RTVSPost2010Prop51ColorRGB
 90
-16777216
102
RTVSPost2010PropOp51
 70
     0
102
RTVSPost2010Prop52
140
1.0
102
RTVSPost2010PropOp52
 70
     0
102
RTVSPost2010Prop53
 90
        2
102
RTVSPost2010PropOp53
 70
     0
102
RTVSPost2010Prop54
  1
strokes_ogs.tif
102
RTVSPost2010PropOp54
 70
     0
102
RTVSPost2010Prop55
280
     0
102
RTVSPost2010PropOp55
 70
     1
102
RTVSPost2010Prop56
140
1.0
102
RTVSPost2010PropOp56
 70
     0
102
RTVSPost2010Prop57
140
1.0
102
RTVSPost2010PropOp57
 70
     0
102
RTVSPropertyOp0
 70
     0
102
RTVSPropertyOp1
 70
     0
102
RTVSPropertyOp2
 70
     0
102
RTVSPropertyOp3
 70
     0
102
RTVSPropertyOp4
 70
     0
102
RTVSPropertyOp5
 70
     0
102
RTVSPropertyOp6
 70
     0
102
RTVSPropertyOp7
 70
     0
102
RTVSPropertyOp8
 70
     0
102
RTVSPropertyOp9
 70
     0
102
RTVSPropertyOp10
 70
     0
102
RTVSPropertyOp11
 70
     0
102
RTVSPropertyOp12
 70
     0
102
RTVSPropertyOp13
 70
     0
102
RTVSPropertyOp14
 70
     2
102
RTVSPropertyOp15
 70
     0
102
RTVSPropertyOp16
 70
     0
102
RTVSPropertyOp17
 70
     0
102
RTVSPropertyOp18
 70
     0
102
RTVSPropertyOp19
 70
     0
102
RTVSPropertyOp20
 70
     0
102
RTVSPropertyOp21
 70
     0
102
RTVSPropertyOp22
 70
     0
102
RTVSPropertyOp23
 70
     0
102
RTVSPropertyOp24
 70
     0
102
RTVSPropertyOp25
 70
     0
102
RTVSPropertyOp26
 70
     0
102
RTVSPropertyOp27
 70
     0
102
RTVSPropertyOp28
 70
     1
102
RTVSPropertyOp29
 70
     1
102
RTVSPropertyOp30
 70
     1
102
RTVSPropertyOp31
 70
     1
102
RTVSPropertyOp32
 70
     1
102
RTVSPropertyOp33
 70
     1
102
RTVSPropertyOp34
 70
     1
102
RTVSPropertyOp35
 70
     1
102
RTVSPropertyOp36
 70
     1
102
RTVSPropertyOp37
 70
     0
102
RTVSPropertyOp38
 70
     0
102
RTVSPropertyOp39
 70
     0
102
RTVSPropertyOp40
 70
     0
102
RTVSPropertyOp41
 70
     0
102
RTVSPropertyOp42
 70
     0
102
RTVSPropertyOp43
 70
     0
102
RTVSPropertyOp44
 70
     0
102
RTVSPropertyOp45
 70
     1
102
RTVSPropertyOp46
 70
     0
102
RTVSPropertyOp47
 70
     0
102
RTVSPropertyOp48
 70
     0
102
RTVSPropertyOp49
 70
     1
102
RTVSPropertyOp50
 70
     0
102
RTVSPropertyOp51
 70
     0
102
RTVSPropertyOp52
 70
     0
102
RTVSPropertyOp53
 70
     0
102
RTVSPropertyOp54
 70
     0
102
RTVSPropertyOp55
 70
     1
102
RTVSPropertyOp56
 70
     0
102
RTVSPropertyOp57
 70
     0
102
RTVSPropertyOp58
 70
     0
102
RTVSPropertyOp59
 70
     0
102
RTVSPropertyOp60
 70
     0
102
RTVSPropertyOp61
 70
     0
102
RTVSPropertyOp62
 70
     0
  0
XRECORD
  5
531
102
{ACAD_REACTORS
330
530
102
}
330
530
100
AcDbXrecord
280
     1
102
RTVSPost2010Prop28
280
     0
102
RTVSPost2010PropOp28
 70
     1
102
RTVSPost2010Prop29
280
     1
102
RTVSPost2010PropOp29
 70
     1
102
RTVSPost2010Prop30
280
     1
102
RTVSPost2010PropOp30
 70
     1
102
RTVSPost2010Prop31
280
     0
102
RTVSPost2010PropOp31
 70
     1
102
RTVSPost2010Prop32
280
     0
102
RTVSPost2010PropOp32
 70
     1
102
RTVSPost2010Prop33
280
     0
102
RTVSPost2010PropOp33
 70
     1
102
RTVSPost2010Prop34
280
     0
102
RTVSPost2010PropOp34
 70
     1
102
RTVSPost2010Prop35
280
     0
102
RTVSPost2010PropOp35
 70
     1
102
RTVSPost2010Prop36
280
     0
102
RTVSPost2010PropOp36
 70
     1
102
RTVSPost2010Prop37
 90
       50
102
RTVSPost2010PropOp37
 70
     1
102
RTVSPost2010Prop38
140
0.0
102
RTVSPost2010PropOp38
 70
     1
102
RTVSPost2010Prop39
140
1.0
102
RTVSPost2010PropOp39
 70
     1
102
RTVSPost2010Prop40
 90
        0
102
RTVSPost2010PropOp40
 70
     1
102
RTVSPost2010Prop41ColorIndex
 90
       18
102
RTVSPost2010Prop41ColorRGB
 90
        0
102
RTVSPost2010PropOp41
 70
     1
102
RTVSPost2010Prop42
 90
       50
102
RTVSPost2010PropOp42
 70
     1
102
RTVSPost2010Prop43
 90
        3
102
RTVSPost2010PropOp43
 70
     1
102
RTVSPost2010Prop44ColorIndex
 90
        5
102
RTVSPost2010Prop44ColorRGB
 90
      255
102
RTVSPost2010PropOp44
 70
     1
102
RTVSPost2010Prop45
280
     0
102
RTVSPost2010PropOp45
 70
     1
102
RTVSPost2010Prop46
 90
       50
102
RTVSPost2010PropOp46
 70
     1
102
RTVSPost2010Prop47
 90
       50
102
RTVSPost2010PropOp47
 70
     1
102
RTVSPost2010Prop48
 90
       50
102
RTVSPost2010PropOp48
 70
     1
102
RTVSPost2010Prop49
280
     0
102
RTVSPost2010PropOp49
 70
     1
102
RTVSPost2010Prop50
 90
       50
102
RTVSPost2010PropOp50
 70
     1
102
RTVSPost2010Prop51ColorIndex
 90
      256
102
RTVSPost2010Prop51ColorRGB
 90
-16777216
102
RTVSPost2010PropOp51
 70
     0
102
RTVSPost2010Prop52
140
1.0
102
RTVSPost2010PropOp52
 70
     0
102
RTVSPost2010Prop53
 90
        2
102
RTVSPost2010PropOp53
 70
     1
102
RTVSPost2010Prop54
  1
strokes_ogs.tif
102
RTVSPost2010PropOp54
 70
     1
102
RTVSPost2010Prop55
280
     0
102
RTVSPost2010PropOp55
 70
     1
102
RTVSPost2010Prop56
140
1.0
102
RTVSPost2010PropOp56
 70
     1
102
RTVSPost2010Prop57
140
1.0
102
RTVSPost2010PropOp57
 70
     1
102
RTVSPropertyOp0
 70
     1
102
RTVSPropertyOp1
 70
     1
102
RTVSPropertyOp2
 70
     1
102
RTVSPropertyOp3
 70
     1
102
RTVSPropertyOp4
 70
     1
102
RTVSPropertyOp5
 70
     1
102
RTVSPropertyOp6
 70
     1
102
RTVSPropertyOp7
 70
     1
102
RTVSPropertyOp8
 70
     1
102
RTVSPropertyOp9
 70
     1
102
RTVSPropertyOp10
 70
     1
102
RTVSPropertyOp11
 70
     1
102
RTVSPropertyOp12
 70
     1
102
RTVSPropertyOp13
 70
     1
102
RTVSPropertyOp14
 70
     1
102
RTVSPropertyOp15
 70
     1
102
RTVSPropertyOp16
 70
     1
102
RTVSPropertyOp17
 70
     1
102
RTVSPropertyOp18
 70
     1
102
RTVSPropertyOp19
 70
     1
102
RTVSPropertyOp20
 70
     1
102
RTVSPropertyOp21
 70
     1
102
RTVSPropertyOp22
 70
     1
102
RTVSPropertyOp23
 70
     1
102
RTVSPropertyOp24
 70
     1
102
RTVSPropertyOp25
 70
     1
102
RTVSPropertyOp26
 70
     1
102
RTVSPropertyOp27
 70
     1
102
RTVSPropertyOp28
 70
     1
102
RTVSPropertyOp29
 70
     1
102
RTVSPropertyOp30
 70
     1
102
RTVSPropertyOp31
 70
     1
102
RTVSPropertyOp32
 70
     1
102
RTVSPropertyOp33
 70
     1
102
RTVSPropertyOp34
 70
     1
102
RTVSPropertyOp35
 70
     1
102
RTVSPropertyOp36
 70
     1
102
RTVSPropertyOp37
 70
     1
102
RTVSPropertyOp38
 70
     1
102
RTVSPropertyOp39
 70
     1
102
RTVSPropertyOp40
 70
     1
102
RTVSPropertyOp41
 70
     1
102
RTVSPropertyOp42
 70
     1
102
RTVSPropertyOp43
 70
     1
102
RTVSPropertyOp44
 70
     1
102
RTVSPropertyOp45
 70
     1
102
RTVSPropertyOp46
 70
     1
102
RTVSPropertyOp47
 70
     1
102
RTVSPropertyOp48
 70
     1
102
RTVSPropertyOp49
 70
     1
102
RTVSPropertyOp50
 70
     1
102
RTVSPropertyOp51
 70
     0
102
RTVSPropertyOp52
 70
     0
102
RTVSPropertyOp53
 70
     1
102
RTVSPropertyOp54
 70
     1
102
RTVSPropertyOp55
 70
     1
102
RTVSPropertyOp56
 70
     1
102
RTVSPropertyOp57
 70
     1
102
RTVSPropertyOp58
 70
     1
102
RTVSPropertyOp59
 70
     1
102
RTVSPropertyOp60
 70
     1
102
RTVSPropertyOp61
 70
     1
102
RTVSPropertyOp62
 70
     1
  0
XRECORD
  5
515
102
{ACAD_REACTORS
330
514
102
}
330
514
100
AcDbXrecord
280
     1
102
RTVSPost2010Prop28
280
     0
102
RTVSPost2010PropOp28
 70
     1
102
RTVSPost2010Prop29
280
     1
102
RTVSPost2010PropOp29
 70
     1
102
RTVSPost2010Prop30
280
     1
102
RTVSPost2010PropOp30
 70
     1
102
RTVSPost2010Prop31
280
     0
102
RTVSPost2010PropOp31
 70
     1
102
RTVSPost2010Prop32
280
     0
102
RTVSPost2010PropOp32
 70
     1
102
RTVSPost2010Prop33
280
     0
102
RTVSPost2010PropOp33
 70
     1
102
RTVSPost2010Prop34
280
     0
102
RTVSPost2010PropOp34
 70
     1
102
RTVSPost2010Prop35
280
     0
102
RTVSPost2010PropOp35
 70
     1
102
RTVSPost2010Prop36
280
     0
102
RTVSPost2010PropOp36
 70
     1
102
RTVSPost2010Prop37
 90
       50
102
RTVSPost2010PropOp37
 70
     1
102
RTVSPost2010Prop38
140
0.0
102
RTVSPost2010PropOp38
 70
     1
102
RTVSPost2010Prop39
140
1.0
102
RTVSPost2010PropOp39
 70
     1
102
RTVSPost2010Prop40
 90
        0
102
RTVSPost2010PropOp40
 70
     1
102
RTVSPost2010Prop41ColorIndex
 90
       18
102
RTVSPost2010Prop41ColorRGB
 90
        0
102
RTVSPost2010PropOp41
 70
     1
102
RTVSPost2010Prop42
 90
       50
102
RTVSPost2010PropOp42
 70
     1
102
RTVSPost2010Prop43
 90
        3
102
RTVSPost2010PropOp43
 70
     1
102
RTVSPost2010Prop44ColorIndex
 90
        5
102
RTVSPost2010Prop44ColorRGB
 90
      255
102
RTVSPost2010PropOp44
 70
     1
102
RTVSPost2010Prop45
280
     0
102
RTVSPost2010PropOp45
 70
     1
102
RTVSPost2010Prop46
 90
       50
102
RTVSPost2010PropOp46
 70
     1
102
RTVSPost2010Prop47
 90
       50
102
RTVSPost2010PropOp47
 70
     1
102
RTVSPost2010Prop48
 90
       50
102
RTVSPost2010PropOp48
 70
     1
102
RTVSPost2010Prop49
280
     0
102
RTVSPost2010PropOp49
 70
     1
102
RTVSPost2010Prop50
 90
       50
102
RTVSPost2010PropOp50
 70
     1
102
RTVSPost2010Prop51ColorIndex
 90
      256
102
RTVSPost2010Prop51ColorRGB
 90
-16777216
102
RTVSPost2010PropOp51
 70
     0
102
RTVSPost2010Prop52
140
1.0
102
RTVSPost2010PropOp52
 70
     0
102
RTVSPost2010Prop53
 90
        2
102
RTVSPost2010PropOp53
 70
     1
102
RTVSPost2010Prop54
  1
strokes_ogs.tif
102
RTVSPost2010PropOp54
 70
     1
102
RTVSPost2010Prop55
280
     0
102
RTVSPost2010PropOp55
 70
     1
102
RTVSPost2010Prop56
140
1.0
102
RTVSPost2010PropOp56
 70
     1
102
RTVSPost2010Prop57
140
1.0
102
RTVSPost2010PropOp57
 70
     1
102
RTVSPropertyOp0
 70
     1
102
RTVSPropertyOp1
 70
     1
102
RTVSPropertyOp2
 70
     1
102
RTVSPropertyOp3
 70
     1
102
RTVSPropertyOp4
 70
     1
102
RTVSPropertyOp5
 70
     1
102
RTVSPropertyOp6
 70
     1
102
RTVSPropertyOp7
 70
     1
102
RTVSPropertyOp8
 70
     1
102
RTVSPropertyOp9
 70
     1
102
RTVSPropertyOp10
 70
     1
102
RTVSPropertyOp11
 70
     1
102
RTVSPropertyOp12
 70
     1
102
RTVSPropertyOp13
 70
     1
102
RTVSPropertyOp14
 70
     1
102
RTVSPropertyOp15
 70
     1
102
RTVSPropertyOp16
 70
     1
102
RTVSPropertyOp17
 70
     1
102
RTVSPropertyOp18
 70
     1
102
RTVSPropertyOp19
 70
     1
102
RTVSPropertyOp20
 70
     1
102
RTVSPropertyOp21
 70
     1
102
RTVSPropertyOp22
 70
     1
102
RTVSPropertyOp23
 70
     1
102
RTVSPropertyOp24
 70
     1
102
RTVSPropertyOp25
 70
     1
102
RTVSPropertyOp26
 70
     1
102
RTVSPropertyOp27
 70
     1
102
RTVSPropertyOp28
 70
     1
102
RTVSPropertyOp29
 70
     1
102
RTVSPropertyOp30
 70
     1
102
RTVSPropertyOp31
 70
     1
102
RTVSPropertyOp32
 70
     1
102
RTVSPropertyOp33
 70
     1
102
RTVSPropertyOp34
 70
     1
102
RTVSPropertyOp35
 70
     1
102
RTVSPropertyOp36
 70
     1
102
RTVSPropertyOp37
 70
     1
102
RTVSPropertyOp38
 70
     1
102
RTVSPropertyOp39
 70
     1
102
RTVSPropertyOp40
 70
     1
102
RTVSPropertyOp41
 70
     1
102
RTVSPropertyOp42
 70
     1
102
RTVSPropertyOp43
 70
     1
102
RTVSPropertyOp44
 70
     1
102
RTVSPropertyOp45
 70
     1
102
RTVSPropertyOp46
 70
     1
102
RTVSPropertyOp47
 70
     1
102
RTVSPropertyOp48
 70
     1
102
RTVSPropertyOp49
 70
     1
102
RTVSPropertyOp50
 70
     1
102
RTVSPropertyOp51
 70
     0
102
RTVSPropertyOp52
 70
     0
102
RTVSPropertyOp53
 70
     1
102
RTVSPropertyOp54
 70
     1
102
RTVSPropertyOp55
 70
     1
102
RTVSPropertyOp56
 70
     1
102
RTVSPropertyOp57
 70
     1
102
RTVSPropertyOp58
 70
     1
102
RTVSPropertyOp59
 70
     1
102
RTVSPropertyOp60
 70
     1
102
RTVSPropertyOp61
 70
     1
102
RTVSPropertyOp62
 70
     1
  0
XRECORD
  5
517
102
{ACAD_REACTORS
330
516
102
}
330
516
100
AcDbXrecord
280
     1
102
RTVSPost2010Prop28
280
     0
102
RTVSPost2010PropOp28
 70
     1
102
RTVSPost2010Prop29
280
     1
102
RTVSPost2010PropOp29
 70
     1
102
RTVSPost2010Prop30
280
     1
102
RTVSPost2010PropOp30
 70
     1
102
RTVSPost2010Prop31
280
     0
102
RTVSPost2010PropOp31
 70
     1
102
RTVSPost2010Prop32
280
     0
102
RTVSPost2010PropOp32
 70
     1
102
RTVSPost2010Prop33
280
     0
102
RTVSPost2010PropOp33
 70
     1
102
RTVSPost2010Prop34
280
     0
102
RTVSPost2010PropOp34
 70
     1
102
RTVSPost2010Prop35
280
     0
102
RTVSPost2010PropOp35
 70
     1
102
RTVSPost2010Prop36
280
     0
102
RTVSPost2010PropOp36
 70
     1
102
RTVSPost2010Prop37
 90
       50
102
RTVSPost2010PropOp37
 70
     1
102
RTVSPost2010Prop38
140
0.0
102
RTVSPost2010PropOp38
 70
     1
102
RTVSPost2010Prop39
140
1.0
102
RTVSPost2010PropOp39
 70
     1
102
RTVSPost2010Prop40
 90
        0
102
RTVSPost2010PropOp40
 70
     1
102
RTVSPost2010Prop41ColorIndex
 90
       18
102
RTVSPost2010Prop41ColorRGB
 90
        0
102
RTVSPost2010PropOp41
 70
     1
102
RTVSPost2010Prop42
 90
       50
102
RTVSPost2010PropOp42
 70
     1
102
RTVSPost2010Prop43
 90
        3
102
RTVSPost2010PropOp43
 70
     1
102
RTVSPost2010Prop44ColorIndex
 90
        5
102
RTVSPost2010Prop44ColorRGB
 90
      255
102
RTVSPost2010PropOp44
 70
     1
102
RTVSPost2010Prop45
280
     0
102
RTVSPost2010PropOp45
 70
     1
102
RTVSPost2010Prop46
 90
       50
102
RTVSPost2010PropOp46
 70
     1
102
RTVSPost2010Prop47
 90
       50
102
RTVSPost2010PropOp47
 70
     1
102
RTVSPost2010Prop48
 90
       50
102
RTVSPost2010PropOp48
 70
     1
102
RTVSPost2010Prop49
280
     0
102
RTVSPost2010PropOp49
 70
     1
102
RTVSPost2010Prop50
 90
       50
102
RTVSPost2010PropOp50
 70
     1
102
RTVSPost2010Prop51ColorIndex
 90
      256
102
RTVSPost2010Prop51ColorRGB
 90
-16777216
102
RTVSPost2010PropOp51
 70
     0
102
RTVSPost2010Prop52
140
1.0
102
RTVSPost2010PropOp52
 70
     0
102
RTVSPost2010Prop53
 90
        2
102
RTVSPost2010PropOp53
 70
     1
102
RTVSPost2010Prop54
  1
strokes_ogs.tif
102
RTVSPost2010PropOp54
 70
     1
102
RTVSPost2010Prop55
280
     0
102
RTVSPost2010PropOp55
 70
     1
102
RTVSPost2010Prop56
140
1.0
102
RTVSPost2010PropOp56
 70
     1
102
RTVSPost2010Prop57
140
1.0
102
RTVSPost2010PropOp57
 70
     1
102
RTVSPropertyOp0
 70
     1
102
RTVSPropertyOp1
 70
     1
102
RTVSPropertyOp2
 70
     1
102
RTVSPropertyOp3
 70
     1
102
RTVSPropertyOp4
 70
     1
102
RTVSPropertyOp5
 70
     1
102
RTVSPropertyOp6
 70
     1
102
RTVSPropertyOp7
 70
     1
102
RTVSPropertyOp8
 70
     1
102
RTVSPropertyOp9
 70
     1
102
RTVSPropertyOp10
 70
     1
102
RTVSPropertyOp11
 70
     1
102
RTVSPropertyOp12
 70
     1
102
RTVSPropertyOp13
 70
     1
102
RTVSPropertyOp14
 70
     1
102
RTVSPropertyOp15
 70
     1
102
RTVSPropertyOp16
 70
     1
102
RTVSPropertyOp17
 70
     1
102
RTVSPropertyOp18
 70
     1
102
RTVSPropertyOp19
 70
     1
102
RTVSPropertyOp20
 70
     1
102
RTVSPropertyOp21
 70
     1
102
RTVSPropertyOp22
 70
     1
102
RTVSPropertyOp23
 70
     1
102
RTVSPropertyOp24
 70
     1
102
RTVSPropertyOp25
 70
     1
102
RTVSPropertyOp26
 70
     1
102
RTVSPropertyOp27
 70
     1
102
RTVSPropertyOp28
 70
     1
102
RTVSPropertyOp29
 70
     1
102
RTVSPropertyOp30
 70
     1
102
RTVSPropertyOp31
 70
     1
102
RTVSPropertyOp32
 70
     1
102
RTVSPropertyOp33
 70
     1
102
RTVSPropertyOp34
 70
     1
102
RTVSPropertyOp35
 70
     1
102
RTVSPropertyOp36
 70
     1
102
RTVSPropertyOp37
 70
     1
102
RTVSPropertyOp38
 70
     1
102
RTVSPropertyOp39
 70
     1
102
RTVSPropertyOp40
 70
     1
102
RTVSPropertyOp41
 70
     1
102
RTVSPropertyOp42
 70
     1
102
RTVSPropertyOp43
 70
     1
102
RTVSPropertyOp44
 70
     1
102
RTVSPropertyOp45
 70
     1
102
RTVSPropertyOp46
 70
     1
102
RTVSPropertyOp47
 70
     1
102
RTVSPropertyOp48
 70
     1
102
RTVSPropertyOp49
 70
     1
102
RTVSPropertyOp50
 70
     1
102
RTVSPropertyOp51
 70
     0
102
RTVSPropertyOp52
 70
     0
102
RTVSPropertyOp53
 70
     1
102
RTVSPropertyOp54
 70
     1
102
RTVSPropertyOp55
 70
     1
102
RTVSPropertyOp56
 70
     1
102
RTVSPropertyOp57
 70
     1
102
RTVSPropertyOp58
 70
     1
102
RTVSPropertyOp59
 70
     1
102
RTVSPropertyOp60
 70
     1
102
RTVSPropertyOp61
 70
     1
102
RTVSPropertyOp62
 70
     1
  0
XRECORD
  5
519
102
{ACAD_REACTORS
330
518
102
}
330
518
100
AcDbXrecord
280
     1
102
RTVSPost2010Prop28
280
     0
102
RTVSPost2010PropOp28
 70
     1
102
RTVSPost2010Prop29
280
     1
102
RTVSPost2010PropOp29
 70
     1
102
RTVSPost2010Prop30
280
     1
102
RTVSPost2010PropOp30
 70
     1
102
RTVSPost2010Prop31
280
     0
102
RTVSPost2010PropOp31
 70
     1
102
RTVSPost2010Prop32
280
     0
102
RTVSPost2010PropOp32
 70
     1
102
RTVSPost2010Prop33
280
     0
102
RTVSPost2010PropOp33
 70
     1
102
RTVSPost2010Prop34
280
     0
102
RTVSPost2010PropOp34
 70
     1
102
RTVSPost2010Prop35
280
     0
102
RTVSPost2010PropOp35
 70
     1
102
RTVSPost2010Prop36
280
     0
102
RTVSPost2010PropOp36
 70
     1
102
RTVSPost2010Prop37
 90
       50
102
RTVSPost2010PropOp37
 70
     1
102
RTVSPost2010Prop38
140
0.0
102
RTVSPost2010PropOp38
 70
     1
102
RTVSPost2010Prop39
140
1.0
102
RTVSPost2010PropOp39
 70
     1
102
RTVSPost2010Prop40
 90
        0
102
RTVSPost2010PropOp40
 70
     1
102
RTVSPost2010Prop41ColorIndex
 90
       18
102
RTVSPost2010Prop41ColorRGB
 90
        0
102
RTVSPost2010PropOp41
 70
     1
102
RTVSPost2010Prop42
 90
       50
102
RTVSPost2010PropOp42
 70
     1
102
RTVSPost2010Prop43
 90
        3
102
RTVSPost2010PropOp43
 70
     1
102
RTVSPost2010Prop44ColorIndex
 90
        5
102
RTVSPost2010Prop44ColorRGB
 90
      255
102
RTVSPost2010PropOp44
 70
     1
102
RTVSPost2010Prop45
280
     0
102
RTVSPost2010PropOp45
 70
     1
102
RTVSPost2010Prop46
 90
       50
102
RTVSPost2010PropOp46
 70
     1
102
RTVSPost2010Prop47
 90
       50
102
RTVSPost2010PropOp47
 70
     1
102
RTVSPost2010Prop48
 90
       50
102
RTVSPost2010PropOp48
 70
     1
102
RTVSPost2010Prop49
280
     0
102
RTVSPost2010PropOp49
 70
     1
102
RTVSPost2010Prop50
 90
       50
102
RTVSPost2010PropOp50
 70
     1
102
RTVSPost2010Prop51ColorIndex
 90
      256
102
RTVSPost2010Prop51ColorRGB
 90
-16777216
102
RTVSPost2010PropOp51
 70
     0
102
RTVSPost2010Prop52
140
1.0
102
RTVSPost2010PropOp52
 70
     0
102
RTVSPost2010Prop53
 90
        2
102
RTVSPost2010PropOp53
 70
     1
102
RTVSPost2010Prop54
  1
strokes_ogs.tif
102
RTVSPost2010PropOp54
 70
     1
102
RTVSPost2010Prop55
280
     0
102
RTVSPost2010PropOp55
 70
     1
102
RTVSPost2010Prop56
140
1.0
102
RTVSPost2010PropOp56
 70
     1
102
RTVSPost2010Prop57
140
1.0
102
RTVSPost2010PropOp57
 70
     1
102
RTVSPropertyOp0
 70
     1
102
RTVSPropertyOp1
 70
     1
102
RTVSPropertyOp2
 70
     1
102
RTVSPropertyOp3
 70
     1
102
RTVSPropertyOp4
 70
     1
102
RTVSPropertyOp5
 70
     1
102
RTVSPropertyOp6
 70
     1
102
RTVSPropertyOp7
 70
     1
102
RTVSPropertyOp8
 70
     1
102
RTVSPropertyOp9
 70
     1
102
RTVSPropertyOp10
 70
     1
102
RTVSPropertyOp11
 70
     1
102
RTVSPropertyOp12
 70
     1
102
RTVSPropertyOp13
 70
     1
102
RTVSPropertyOp14
 70
     1
102
RTVSPropertyOp15
 70
     1
102
RTVSPropertyOp16
 70
     1
102
RTVSPropertyOp17
 70
     1
102
RTVSPropertyOp18
 70
     1
102
RTVSPropertyOp19
 70
     1
102
RTVSPropertyOp20
 70
     1
102
RTVSPropertyOp21
 70
     1
102
RTVSPropertyOp22
 70
     1
102
RTVSPropertyOp23
 70
     1
102
RTVSPropertyOp24
 70
     1
102
RTVSPropertyOp25
 70
     1
102
RTVSPropertyOp26
 70
     1
102
RTVSPropertyOp27
 70
     1
102
RTVSPropertyOp28
 70
     1
102
RTVSPropertyOp29
 70
     1
102
RTVSPropertyOp30
 70
     1
102
RTVSPropertyOp31
 70
     1
102
RTVSPropertyOp32
 70
     1
102
RTVSPropertyOp33
 70
     1
102
RTVSPropertyOp34
 70
     1
102
RTVSPropertyOp35
 70
     1
102
RTVSPropertyOp36
 70
     1
102
RTVSPropertyOp37
 70
     1
102
RTVSPropertyOp38
 70
     1
102
RTVSPropertyOp39
 70
     1
102
RTVSPropertyOp40
 70
     1
102
RTVSPropertyOp41
 70
     1
102
RTVSPropertyOp42
 70
     1
102
RTVSPropertyOp43
 70
     1
102
RTVSPropertyOp44
 70
     1
102
RTVSPropertyOp45
 70
     1
102
RTVSPropertyOp46
 70
     1
102
RTVSPropertyOp47
 70
     1
102
RTVSPropertyOp48
 70
     1
102
RTVSPropertyOp49
 70
     1
102
RTVSPropertyOp50
 70
     1
102
RTVSPropertyOp51
 70
     0
102
RTVSPropertyOp52
 70
     0
102
RTVSPropertyOp53
 70
     1
102
RTVSPropertyOp54
 70
     1
102
RTVSPropertyOp55
 70
     1
102
RTVSPropertyOp56
 70
     1
102
RTVSPropertyOp57
 70
     1
102
RTVSPropertyOp58
 70
     1
102
RTVSPropertyOp59
 70
     1
102
RTVSPropertyOp60
 70
     1
102
RTVSPropertyOp61
 70
     1
102
RTVSPropertyOp62
 70
     1
  0
XRECORD
  5
51B
102
{ACAD_REACTORS
330
51A
102
}
330
51A
100
AcDbXrecord
280
     1
102
RTVSPost2010Prop28
280
     0
102
RTVSPost2010PropOp28
 70
     1
102
RTVSPost2010Prop29
280
     1
102
RTVSPost2010PropOp29
 70
     1
102
RTVSPost2010Prop30
280
     1
102
RTVSPost2010PropOp30
 70
     1
102
RTVSPost2010Prop31
280
     0
102
RTVSPost2010PropOp31
 70
     1
102
RTVSPost2010Prop32
280
     0
102
RTVSPost2010PropOp32
 70
     1
102
RTVSPost2010Prop33
280
     0
102
RTVSPost2010PropOp33
 70
     1
102
RTVSPost2010Prop34
280
     0
102
RTVSPost2010PropOp34
 70
     1
102
RTVSPost2010Prop35
280
     0
102
RTVSPost2010PropOp35
 70
     1
102
RTVSPost2010Prop36
280
     0
102
RTVSPost2010PropOp36
 70
     1
102
RTVSPost2010Prop37
 90
       50
102
RTVSPost2010PropOp37
 70
     1
102
RTVSPost2010Prop38
140
0.0
102
RTVSPost2010PropOp38
 70
     1
102
RTVSPost2010Prop39
140
1.0
102
RTVSPost2010PropOp39
 70
     1
102
RTVSPost2010Prop40
 90
        0
102
RTVSPost2010PropOp40
 70
     1
102
RTVSPost2010Prop41ColorIndex
 90
       18
102
RTVSPost2010Prop41ColorRGB
 90
        0
102
RTVSPost2010PropOp41
 70
     1
102
RTVSPost2010Prop42
 90
       50
102
RTVSPost2010PropOp42
 70
     1
102
RTVSPost2010Prop43
 90
        3
102
RTVSPost2010PropOp43
 70
     1
102
RTVSPost2010Prop44ColorIndex
 90
        5
102
RTVSPost2010Prop44ColorRGB
 90
      255
102
RTVSPost2010PropOp44
 70
     1
102
RTVSPost2010Prop45
280
     0
102
RTVSPost2010PropOp45
 70
     1
102
RTVSPost2010Prop46
 90
       50
102
RTVSPost2010PropOp46
 70
     1
102
RTVSPost2010Prop47
 90
       50
102
RTVSPost2010PropOp47
 70
     1
102
RTVSPost2010Prop48
 90
       50
102
RTVSPost2010PropOp48
 70
     1
102
RTVSPost2010Prop49
280
     0
102
RTVSPost2010PropOp49
 70
     1
102
RTVSPost2010Prop50
 90
       50
102
RTVSPost2010PropOp50
 70
     1
102
RTVSPost2010Prop51ColorIndex
 90
      256
102
RTVSPost2010Prop51ColorRGB
 90
-16777216
102
RTVSPost2010PropOp51
 70
     0
102
RTVSPost2010Prop52
140
1.0
102
RTVSPost2010PropOp52
 70
     0
102
RTVSPost2010Prop53
 90
        2
102
RTVSPost2010PropOp53
 70
     1
102
RTVSPost2010Prop54
  1
strokes_ogs.tif
102
RTVSPost2010PropOp54
 70
     1
102
RTVSPost2010Prop55
280
     0
102
RTVSPost2010PropOp55
 70
     1
102
RTVSPost2010Prop56
140
1.0
102
RTVSPost2010PropOp56
 70
     1
102
RTVSPost2010Prop57
140
1.0
102
RTVSPost2010PropOp57
 70
     1
102
RTVSPropertyOp0
 70
     1
102
RTVSPropertyOp1
 70
     1
102
RTVSPropertyOp2
 70
     1
102
RTVSPropertyOp3
 70
     1
102
RTVSPropertyOp4
 70
     1
102
RTVSPropertyOp5
 70
     1
102
RTVSPropertyOp6
 70
     1
102
RTVSPropertyOp7
 70
     1
102
RTVSPropertyOp8
 70
     1
102
RTVSPropertyOp9
 70
     1
102
RTVSPropertyOp10
 70
     1
102
RTVSPropertyOp11
 70
     1
102
RTVSPropertyOp12
 70
     1
102
RTVSPropertyOp13
 70
     1
102
RTVSPropertyOp14
 70
     1
102
RTVSPropertyOp15
 70
     1
102
RTVSPropertyOp16
 70
     1
102
RTVSPropertyOp17
 70
     1
102
RTVSPropertyOp18
 70
     1
102
RTVSPropertyOp19
 70
     1
102
RTVSPropertyOp20
 70
     1
102
RTVSPropertyOp21
 70
     1
102
RTVSPropertyOp22
 70
     1
102
RTVSPropertyOp23
 70
     1
102
RTVSPropertyOp24
 70
     1
102
RTVSPropertyOp25
 70
     1
102
RTVSPropertyOp26
 70
     1
102
RTVSPropertyOp27
 70
     1
102
RTVSPropertyOp28
 70
     1
102
RTVSPropertyOp29
 70
     1
102
RTVSPropertyOp30
 70
     1
102
RTVSPropertyOp31
 70
     1
102
RTVSPropertyOp32
 70
     1
102
RTVSPropertyOp33
 70
     1
102
RTVSPropertyOp34
 70
     1
102
RTVSPropertyOp35
 70
     1
102
RTVSPropertyOp36
 70
     1
102
RTVSPropertyOp37
 70
     1
102
RTVSPropertyOp38
 70
     1
102
RTVSPropertyOp39
 70
     1
102
RTVSPropertyOp40
 70
     1
102
RTVSPropertyOp41
 70
     1
102
RTVSPropertyOp42
 70
     1
102
RTVSPropertyOp43
 70
     1
102
RTVSPropertyOp44
 70
     1
102
RTVSPropertyOp45
 70
     1
102
RTVSPropertyOp46
 70
     1
102
RTVSPropertyOp47
 70
     1
102
RTVSPropertyOp48
 70
     1
102
RTVSPropertyOp49
 70
     1
102
RTVSPropertyOp50
 70
     1
102
RTVSPropertyOp51
 70
     0
102
RTVSPropertyOp52
 70
     0
102
RTVSPropertyOp53
 70
     1
102
RTVSPropertyOp54
 70
     1
102
RTVSPropertyOp55
 70
     1
102
RTVSPropertyOp56
 70
     1
102
RTVSPropertyOp57
 70
     1
102
RTVSPropertyOp58
 70
     1
102
RTVSPropertyOp59
 70
     1
102
RTVSPropertyOp60
 70
     1
102
RTVSPropertyOp61
 70
     1
102
RTVSPropertyOp62
 70
     1
  0
XRECORD
  5
523
102
{ACAD_REACTORS
330
522
102
}
330
522
100
AcDbXrecord
280
     1
102
RTVSPost2010Prop28
280
     0
102
RTVSPost2010PropOp28
 70
     1
102
RTVSPost2010Prop29
280
     1
102
RTVSPost2010PropOp29
 70
     1
102
RTVSPost2010Prop30
280
     1
102
RTVSPost2010PropOp30
 70
     1
102
RTVSPost2010Prop31
280
     0
102
RTVSPost2010PropOp31
 70
     1
102
RTVSPost2010Prop32
280
     0
102
RTVSPost2010PropOp32
 70
     1
102
RTVSPost2010Prop33
280
     0
102
RTVSPost2010PropOp33
 70
     1
102
RTVSPost2010Prop34
280
     0
102
RTVSPost2010PropOp34
 70
     1
102
RTVSPost2010Prop35
280
     0
102
RTVSPost2010PropOp35
 70
     1
102
RTVSPost2010Prop36
280
     0
102
RTVSPost2010PropOp36
 70
     1
102
RTVSPost2010Prop37
 90
       50
102
RTVSPost2010PropOp37
 70
     1
102
RTVSPost2010Prop38
140
0.0
102
RTVSPost2010PropOp38
 70
     1
102
RTVSPost2010Prop39
140
1.0
102
RTVSPost2010PropOp39
 70
     1
102
RTVSPost2010Prop40
 90
        0
102
RTVSPost2010PropOp40
 70
     1
102
RTVSPost2010Prop41ColorIndex
 90
       18
102
RTVSPost2010Prop41ColorRGB
 90
        0
102
RTVSPost2010PropOp41
 70
     1
102
RTVSPost2010Prop42
 90
       50
102
RTVSPost2010PropOp42
 70
     1
102
RTVSPost2010Prop43
 90
        3
102
RTVSPost2010PropOp43
 70
     1
102
RTVSPost2010Prop44ColorIndex
 90
        5
102
RTVSPost2010Prop44ColorRGB
 90
      255
102
RTVSPost2010PropOp44
 70
     1
102
RTVSPost2010Prop45
280
     0
102
RTVSPost2010PropOp45
 70
     1
102
RTVSPost2010Prop46
 90
       50
102
RTVSPost2010PropOp46
 70
     1
102
RTVSPost2010Prop47
 90
       50
102
RTVSPost2010PropOp47
 70
     1
102
RTVSPost2010Prop48
 90
       50
102
RTVSPost2010PropOp48
 70
     1
102
RTVSPost2010Prop49
280
     0
102
RTVSPost2010PropOp49
 70
     1
102
RTVSPost2010Prop50
 90
       50
102
RTVSPost2010PropOp50
 70
     1
102
RTVSPost2010Prop51ColorIndex
 90
      256
102
RTVSPost2010Prop51ColorRGB
 90
-16777216
102
RTVSPost2010PropOp51
 70
     0
102
RTVSPost2010Prop52
140
1.0
102
RTVSPost2010PropOp52
 70
     0
102
RTVSPost2010Prop53
 90
        2
102
RTVSPost2010PropOp53
 70
     1
102
RTVSPost2010Prop54
  1
strokes_ogs.tif
102
RTVSPost2010PropOp54
 70
     1
102
RTVSPost2010Prop55
280
     0
102
RTVSPost2010PropOp55
 70
     1
102
RTVSPost2010Prop56
140
1.0
102
RTVSPost2010PropOp56
 70
     1
102
RTVSPost2010Prop57
140
1.0
102
RTVSPost2010PropOp57
 70
     1
102
RTVSPropertyOp0
 70
     1
102
RTVSPropertyOp1
 70
     1
102
RTVSPropertyOp2
 70
     1
102
RTVSPropertyOp3
 70
     1
102
RTVSPropertyOp4
 70
     1
102
RTVSPropertyOp5
 70
     1
102
RTVSPropertyOp6
 70
     1
102
RTVSPropertyOp7
 70
     1
102
RTVSPropertyOp8
 70
     1
102
RTVSPropertyOp9
 70
     1
102
RTVSPropertyOp10
 70
     1
102
RTVSPropertyOp11
 70
     1
102
RTVSPropertyOp12
 70
     1
102
RTVSPropertyOp13
 70
     1
102
RTVSPropertyOp14
 70
     1
102
RTVSPropertyOp15
 70
     1
102
RTVSPropertyOp16
 70
     1
102
RTVSPropertyOp17
 70
     1
102
RTVSPropertyOp18
 70
     1
102
RTVSPropertyOp19
 70
     1
102
RTVSPropertyOp20
 70
     1
102
RTVSPropertyOp21
 70
     1
102
RTVSPropertyOp22
 70
     1
102
RTVSPropertyOp23
 70
     1
102
RTVSPropertyOp24
 70
     1
102
RTVSPropertyOp25
 70
     1
102
RTVSPropertyOp26
 70
     1
102
RTVSPropertyOp27
 70
     1
102
RTVSPropertyOp28
 70
     1
102
RTVSPropertyOp29
 70
     1
102
RTVSPropertyOp30
 70
     1
102
RTVSPropertyOp31
 70
     1
102
RTVSPropertyOp32
 70
     1
102
RTVSPropertyOp33
 70
     1
102
RTVSPropertyOp34
 70
     1
102
RTVSPropertyOp35
 70
     1
102
RTVSPropertyOp36
 70
     1
102
RTVSPropertyOp37
 70
     1
102
RTVSPropertyOp38
 70
     1
102
RTVSPropertyOp39
 70
     1
102
RTVSPropertyOp40
 70
     1
102
RTVSPropertyOp41
 70
     1
102
RTVSPropertyOp42
 70
     1
102
RTVSPropertyOp43
 70
     1
102
RTVSPropertyOp44
 70
     1
102
RTVSPropertyOp45
 70
     1
102
RTVSPropertyOp46
 70
     1
102
RTVSPropertyOp47
 70
     1
102
RTVSPropertyOp48
 70
     1
102
RTVSPropertyOp49
 70
     1
102
RTVSPropertyOp50
 70
     1
102
RTVSPropertyOp51
 70
     0
102
RTVSPropertyOp52
 70
     0
102
RTVSPropertyOp53
 70
     1
102
RTVSPropertyOp54
 70
     1
102
RTVSPropertyOp55
 70
     1
102
RTVSPropertyOp56
 70
     1
102
RTVSPropertyOp57
 70
     1
102
RTVSPropertyOp58
 70
     1
102
RTVSPropertyOp59
 70
     1
102
RTVSPropertyOp60
 70
     1
102
RTVSPropertyOp61
 70
     1
102
RTVSPropertyOp62
 70
     1
  0
XRECORD
  5
53F
102
{ACAD_REACTORS
330
53E
102
}
330
53E
100
AcDbXrecord
280
     1
102
RTVSPost2010Prop28
280
     0
102
RTVSPost2010PropOp28
 70
     1
102
RTVSPost2010Prop29
280
     1
102
RTVSPost2010PropOp29
 70
     1
102
RTVSPost2010Prop30
280
     1
102
RTVSPost2010PropOp30
 70
     1
102
RTVSPost2010Prop31
280
     0
102
RTVSPost2010PropOp31
 70
     1
102
RTVSPost2010Prop32
280
     0
102
RTVSPost2010PropOp32
 70
     1
102
RTVSPost2010Prop33
280
     0
102
RTVSPost2010PropOp33
 70
     1
102
RTVSPost2010Prop34
280
     0
102
RTVSPost2010PropOp34
 70
     1
102
RTVSPost2010Prop35
280
     0
102
RTVSPost2010PropOp35
 70
     1
102
RTVSPost2010Prop36
280
     0
102
RTVSPost2010PropOp36
 70
     1
102
RTVSPost2010Prop37
 90
       50
102
RTVSPost2010PropOp37
 70
     0
102
RTVSPost2010Prop38
140
0.0
102
RTVSPost2010PropOp38
 70
     0
102
RTVSPost2010Prop39
140
1.0
102
RTVSPost2010PropOp39
 70
     0
102
RTVSPost2010Prop40
 90
        0
102
RTVSPost2010PropOp40
 70
     0
102
RTVSPost2010Prop41ColorIndex
 90
       18
102
RTVSPost2010Prop41ColorRGB
 90
        0
102
RTVSPost2010PropOp41
 70
     0
102
RTVSPost2010Prop42
 90
       50
102
RTVSPost2010PropOp42
 70
     0
102
RTVSPost2010Prop43
 90
        3
102
RTVSPost2010PropOp43
 70
     0
102
RTVSPost2010Prop44ColorIndex
 90
        5
102
RTVSPost2010Prop44ColorRGB
 90
      255
102
RTVSPost2010PropOp44
 70
     0
102
RTVSPost2010Prop45
280
     0
102
RTVSPost2010PropOp45
 70
     1
102
RTVSPost2010Prop46
 90
       50
102
RTVSPost2010PropOp46
 70
     0
102
RTVSPost2010Prop47
 90
       50
102
RTVSPost2010PropOp47
 70
     0
102
RTVSPost2010Prop48
 90
       50
102
RTVSPost2010PropOp48
 70
     0
102
RTVSPost2010Prop49
280
     0
102
RTVSPost2010PropOp49
 70
     1
102
RTVSPost2010Prop50
 90
       50
102
RTVSPost2010PropOp50
 70
     0
102
RTVSPost2010Prop51ColorIndex
 90
      256
102
RTVSPost2010Prop51ColorRGB
 90
-16777216
102
RTVSPost2010PropOp51
 70
     0
102
RTVSPost2010Prop52
140
1.0
102
RTVSPost2010PropOp52
 70
     0
102
RTVSPost2010Prop53
 90
        2
102
RTVSPost2010PropOp53
 70
     0
102
RTVSPost2010Prop54
  1
strokes_ogs.tif
102
RTVSPost2010PropOp54
 70
     0
102
RTVSPost2010Prop55
280
     0
102
RTVSPost2010PropOp55
 70
     1
102
RTVSPost2010Prop56
140
1.0
102
RTVSPost2010PropOp56
 70
     0
102
RTVSPost2010Prop57
140
1.0
102
RTVSPost2010PropOp57
 70
     0
102
RTVSPropertyOp0
 70
     0
102
RTVSPropertyOp1
 70
     0
102
RTVSPropertyOp2
 70
     0
102
RTVSPropertyOp3
 70
     0
102
RTVSPropertyOp4
 70
     0
102
RTVSPropertyOp5
 70
     0
102
RTVSPropertyOp6
 70
     0
102
RTVSPropertyOp7
 70
     0
102
RTVSPropertyOp8
 70
     0
102
RTVSPropertyOp9
 70
     0
102
RTVSPropertyOp10
 70
     0
102
RTVSPropertyOp11
 70
     0
102
RTVSPropertyOp12
 70
     0
102
RTVSPropertyOp13
 70
     0
102
RTVSPropertyOp14
 70
     2
102
RTVSPropertyOp15
 70
     0
102
RTVSPropertyOp16
 70
     0
102
RTVSPropertyOp17
 70
     0
102
RTVSPropertyOp18
 70
     0
102
RTVSPropertyOp19
 70
     0
102
RTVSPropertyOp20
 70
     0
102
RTVSPropertyOp21
 70
     0
102
RTVSPropertyOp22
 70
     0
102
RTVSPropertyOp23
 70
     0
102
RTVSPropertyOp24
 70
     0
102
RTVSPropertyOp25
 70
     0
102
RTVSPropertyOp26
 70
     0
102
RTVSPropertyOp27
 70
     0
102
RTVSPropertyOp28
 70
     1
102
RTVSPropertyOp29
 70
     1
102
RTVSPropertyOp30
 70
     1
102
RTVSPropertyOp31
 70
     1
102
RTVSPropertyOp32
 70
     1
102
RTVSPropertyOp33
 70
     1
102
RTVSPropertyOp34
 70
     1
102
RTVSPropertyOp35
 70
     1
102
RTVSPropertyOp36
 70
     1
102
RTVSPropertyOp37
 70
     0
102
RTVSPropertyOp38
 70
     0
102
RTVSPropertyOp39
 70
     0
102
RTVSPropertyOp40
 70
     0
102
RTVSPropertyOp41
 70
     0
102
RTVSPropertyOp42
 70
     0
102
RTVSPropertyOp43
 70
     0
102
RTVSPropertyOp44
 70
     0
102
RTVSPropertyOp45
 70
     1
102
RTVSPropertyOp46
 70
     0
102
RTVSPropertyOp47
 70
     0
102
RTVSPropertyOp48
 70
     0
102
RTVSPropertyOp49
 70
     1
102
RTVSPropertyOp50
 70
     0
102
RTVSPropertyOp51
 70
     0
102
RTVSPropertyOp52
 70
     0
102
RTVSPropertyOp53
 70
     0
102
RTVSPropertyOp54
 70
     0
102
RTVSPropertyOp55
 70
     1
102
RTVSPropertyOp56
 70
     0
102
RTVSPropertyOp57
 70
     0
102
RTVSPropertyOp58
 70
     0
102
RTVSPropertyOp59
 70
     0
102
RTVSPropertyOp60
 70
     0
102
RTVSPropertyOp61
 70
     0
102
RTVSPropertyOp62
 70
     0
  0
XRECORD
  5
52F
102
{ACAD_REACTORS
330
52E
102
}
330
52E
100
AcDbXrecord
280
     1
102
RTVSPost2010Prop28
280
     0
102
RTVSPost2010PropOp28
 70
     1
102
RTVSPost2010Prop29
280
     1
102
RTVSPost2010PropOp29
 70
     1
102
RTVSPost2010Prop30
280
     1
102
RTVSPost2010PropOp30
 70
     1
102
RTVSPost2010Prop31
280
     0
102
RTVSPost2010PropOp31
 70
     1
102
RTVSPost2010Prop32
280
     0
102
RTVSPost2010PropOp32
 70
     1
102
RTVSPost2010Prop33
280
     0
102
RTVSPost2010PropOp33
 70
     1
102
RTVSPost2010Prop34
280
     0
102
RTVSPost2010PropOp34
 70
     1
102
RTVSPost2010Prop35
280
     0
102
RTVSPost2010PropOp35
 70
     1
102
RTVSPost2010Prop36
280
     0
102
RTVSPost2010PropOp36
 70
     1
102
RTVSPost2010Prop37
 90
       50
102
RTVSPost2010PropOp37
 70
     1
102
RTVSPost2010Prop38
140
0.0
102
RTVSPost2010PropOp38
 70
     1
102
RTVSPost2010Prop39
140
1.0
102
RTVSPost2010PropOp39
 70
     1
102
RTVSPost2010Prop40
 90
        0
102
RTVSPost2010PropOp40
 70
     1
102
RTVSPost2010Prop41ColorIndex
 90
       18
102
RTVSPost2010Prop41ColorRGB
 90
        0
102
RTVSPost2010PropOp41
 70
     1
102
RTVSPost2010Prop42
 90
       50
102
RTVSPost2010PropOp42
 70
     1
102
RTVSPost2010Prop43
 90
        3
102
RTVSPost2010PropOp43
 70
     1
102
RTVSPost2010Prop44ColorIndex
 90
        5
102
RTVSPost2010Prop44ColorRGB
 90
      255
102
RTVSPost2010PropOp44
 70
     1
102
RTVSPost2010Prop45
280
     0
102
RTVSPost2010PropOp45
 70
     1
102
RTVSPost2010Prop46
 90
       50
102
RTVSPost2010PropOp46
 70
     1
102
RTVSPost2010Prop47
 90
       50
102
RTVSPost2010PropOp47
 70
     1
102
RTVSPost2010Prop48
 90
       50
102
RTVSPost2010PropOp48
 70
     1
102
RTVSPost2010Prop49
280
     0
102
RTVSPost2010PropOp49
 70
     1
102
RTVSPost2010Prop50
 90
       50
102
RTVSPost2010PropOp50
 70
     1
102
RTVSPost2010Prop51ColorIndex
 90
      256
102
RTVSPost2010Prop51ColorRGB
 90
-16777216
102
RTVSPost2010PropOp51
 70
     0
102
RTVSPost2010Prop52
140
1.0
102
RTVSPost2010PropOp52
 70
     0
102
RTVSPost2010Prop53
 90
        2
102
RTVSPost2010PropOp53
 70
     1
102
RTVSPost2010Prop54
  1
strokes_ogs.tif
102
RTVSPost2010PropOp54
 70
     1
102
RTVSPost2010Prop55
280
     0
102
RTVSPost2010PropOp55
 70
     1
102
RTVSPost2010Prop56
140
1.0
102
RTVSPost2010PropOp56
 70
     1
102
RTVSPost2010Prop57
140
1.0
102
RTVSPost2010PropOp57
 70
     1
102
RTVSPropertyOp0
 70
     1
102
RTVSPropertyOp1
 70
     1
102
RTVSPropertyOp2
 70
     1
102
RTVSPropertyOp3
 70
     1
102
RTVSPropertyOp4
 70
     1
102
RTVSPropertyOp5
 70
     1
102
RTVSPropertyOp6
 70
     1
102
RTVSPropertyOp7
 70
     1
102
RTVSPropertyOp8
 70
     1
102
RTVSPropertyOp9
 70
     1
102
RTVSPropertyOp10
 70
     1
102
RTVSPropertyOp11
 70
     1
102
RTVSPropertyOp12
 70
     1
102
RTVSPropertyOp13
 70
     1
102
RTVSPropertyOp14
 70
     1
102
RTVSPropertyOp15
 70
     1
102
RTVSPropertyOp16
 70
     1
102
RTVSPropertyOp17
 70
     1
102
RTVSPropertyOp18
 70
     1
102
RTVSPropertyOp19
 70
     1
102
RTVSPropertyOp20
 70
     1
102
RTVSPropertyOp21
 70
     1
102
RTVSPropertyOp22
 70
     1
102
RTVSPropertyOp23
 70
     1
102
RTVSPropertyOp24
 70
     1
102
RTVSPropertyOp25
 70
     1
102
RTVSPropertyOp26
 70
     1
102
RTVSPropertyOp27
 70
     1
102
RTVSPropertyOp28
 70
     1
102
RTVSPropertyOp29
 70
     1
102
RTVSPropertyOp30
 70
     1
102
RTVSPropertyOp31
 70
     1
102
RTVSPropertyOp32
 70
     1
102
RTVSPropertyOp33
 70
     1
102
RTVSPropertyOp34
 70
     1
102
RTVSPropertyOp35
 70
     1
102
RTVSPropertyOp36
 70
     1
102
RTVSPropertyOp37
 70
     1
102
RTVSPropertyOp38
 70
     1
102
RTVSPropertyOp39
 70
     1
102
RTVSPropertyOp40
 70
     1
102
RTVSPropertyOp41
 70
     1
102
RTVSPropertyOp42
 70
     1
102
RTVSPropertyOp43
 70
     1
102
RTVSPropertyOp44
 70
     1
102
RTVSPropertyOp45
 70
     1
102
RTVSPropertyOp46
 70
     1
102
RTVSPropertyOp47
 70
     1
102
RTVSPropertyOp48
 70
     1
102
RTVSPropertyOp49
 70
     1
102
RTVSPropertyOp50
 70
     1
102
RTVSPropertyOp51
 70
     0
102
RTVSPropertyOp52
 70
     0
102
RTVSPropertyOp53
 70
     1
102
RTVSPropertyOp54
 70
     1
102
RTVSPropertyOp55
 70
     1
102
RTVSPropertyOp56
 70
     1
102
RTVSPropertyOp57
 70
     1
102
RTVSPropertyOp58
 70
     1
102
RTVSPropertyOp59
 70
     1
102
RTVSPropertyOp60
 70
     1
102
RTVSPropertyOp61
 70
     1
102
RTVSPropertyOp62
 70
     1
  0
XRECORD
  5
541
102
{ACAD_REACTORS
330
540
102
}
330
540
100
AcDbXrecord
280
     1
102
RTVSPost2010Prop28
280
     0
102
RTVSPost2010PropOp28
 70
     1
102
RTVSPost2010Prop29
280
     1
102
RTVSPost2010PropOp29
 70
     1
102
RTVSPost2010Prop30
280
     1
102
RTVSPost2010PropOp30
 70
     1
102
RTVSPost2010Prop31
280
     0
102
RTVSPost2010PropOp31
 70
     1
102
RTVSPost2010Prop32
280
     0
102
RTVSPost2010PropOp32
 70
     1
102
RTVSPost2010Prop33
280
     0
102
RTVSPost2010PropOp33
 70
     1
102
RTVSPost2010Prop34
280
     0
102
RTVSPost2010PropOp34
 70
     1
102
RTVSPost2010Prop35
280
     0
102
RTVSPost2010PropOp35
 70
     1
102
RTVSPost2010Prop36
280
     0
102
RTVSPost2010PropOp36
 70
     1
102
RTVSPost2010Prop37
 90
       50
102
RTVSPost2010PropOp37
 70
     0
102
RTVSPost2010Prop38
140
0.0
102
RTVSPost2010PropOp38
 70
     0
102
RTVSPost2010Prop39
140
1.0
102
RTVSPost2010PropOp39
 70
     0
102
RTVSPost2010Prop40
 90
        0
102
RTVSPost2010PropOp40
 70
     0
102
RTVSPost2010Prop41ColorIndex
 90
       18
102
RTVSPost2010Prop41ColorRGB
 90
        0
102
RTVSPost2010PropOp41
 70
     0
102
RTVSPost2010Prop42
 90
       50
102
RTVSPost2010PropOp42
 70
     0
102
RTVSPost2010Prop43
 90
        3
102
RTVSPost2010PropOp43
 70
     0
102
RTVSPost2010Prop44ColorIndex
 90
        5
102
RTVSPost2010Prop44ColorRGB
 90
      255
102
RTVSPost2010PropOp44
 70
     0
102
RTVSPost2010Prop45
280
     0
102
RTVSPost2010PropOp45
 70
     1
102
RTVSPost2010Prop46
 90
       50
102
RTVSPost2010PropOp46
 70
     0
102
RTVSPost2010Prop47
 90
       50
102
RTVSPost2010PropOp47
 70
     0
102
RTVSPost2010Prop48
 90
       50
102
RTVSPost2010PropOp48
 70
     0
102
RTVSPost2010Prop49
280
     0
102
RTVSPost2010PropOp49
 70
     1
102
RTVSPost2010Prop50
 90
       50
102
RTVSPost2010PropOp50
 70
     0
102
RTVSPost2010Prop51ColorIndex
 90
      256
102
RTVSPost2010Prop51ColorRGB
 90
-16777216
102
RTVSPost2010PropOp51
 70
     0
102
RTVSPost2010Prop52
140
1.0
102
RTVSPost2010PropOp52
 70
     0
102
RTVSPost2010Prop53
 90
        2
102
RTVSPost2010PropOp53
 70
     0
102
RTVSPost2010Prop54
  1
strokes_ogs.tif
102
RTVSPost2010PropOp54
 70
     0
102
RTVSPost2010Prop55
280
     0
102
RTVSPost2010PropOp55
 70
     1
102
RTVSPost2010Prop56
140
1.0
102
RTVSPost2010PropOp56
 70
     0
102
RTVSPost2010Prop57
140
1.0
102
RTVSPost2010PropOp57
 70
     0
102
RTVSPropertyOp0
 70
     0
102
RTVSPropertyOp1
 70
     0
102
RTVSPropertyOp2
 70
     0
102
RTVSPropertyOp3
 70
     0
102
RTVSPropertyOp4
 70
     0
102
RTVSPropertyOp5
 70
     0
102
RTVSPropertyOp6
 70
     0
102
RTVSPropertyOp7
 70
     0
102
RTVSPropertyOp8
 70
     0
102
RTVSPropertyOp9
 70
     0
102
RTVSPropertyOp10
 70
     0
102
RTVSPropertyOp11
 70
     0
102
RTVSPropertyOp12
 70
     0
102
RTVSPropertyOp13
 70
     0
102
RTVSPropertyOp14
 70
     2
102
RTVSPropertyOp15
 70
     0
102
RTVSPropertyOp16
 70
     0
102
RTVSPropertyOp17
 70
     0
102
RTVSPropertyOp18
 70
     0
102
RTVSPropertyOp19
 70
     0
102
RTVSPropertyOp20
 70
     0
102
RTVSPropertyOp21
 70
     0
102
RTVSPropertyOp22
 70
     0
102
RTVSPropertyOp23
 70
     0
102
RTVSPropertyOp24
 70
     0
102
RTVSPropertyOp25
 70
     0
102
RTVSPropertyOp26
 70
     0
102
RTVSPropertyOp27
 70
     0
102
RTVSPropertyOp28
 70
     1
102
RTVSPropertyOp29
 70
     1
102
RTVSPropertyOp30
 70
     1
102
RTVSPropertyOp31
 70
     1
102
RTVSPropertyOp32
 70
     1
102
RTVSPropertyOp33
 70
     1
102
RTVSPropertyOp34
 70
     1
102
RTVSPropertyOp35
 70
     1
102
RTVSPropertyOp36
 70
     1
102
RTVSPropertyOp37
 70
     0
102
RTVSPropertyOp38
 70
     0
102
RTVSPropertyOp39
 70
     0
102
RTVSPropertyOp40
 70
     0
102
RTVSPropertyOp41
 70
     0
102
RTVSPropertyOp42
 70
     0
102
RTVSPropertyOp43
 70
     0
102
RTVSPropertyOp44
 70
     0
102
RTVSPropertyOp45
 70
     1
102
RTVSPropertyOp46
 70
     0
102
RTVSPropertyOp47
 70
     0
102
RTVSPropertyOp48
 70
     0
102
RTVSPropertyOp49
 70
     1
102
RTVSPropertyOp50
 70
     0
102
RTVSPropertyOp51
 70
     0
102
RTVSPropertyOp52
 70
     0
102
RTVSPropertyOp53
 70
     0
102
RTVSPropertyOp54
 70
     0
102
RTVSPropertyOp55
 70
     1
102
RTVSPropertyOp56
 70
     0
102
RTVSPropertyOp57
 70
     0
102
RTVSPropertyOp58
 70
     0
102
RTVSPropertyOp59
 70
     0
102
RTVSPropertyOp60
 70
     0
102
RTVSPropertyOp61
 70
     0
102
RTVSPropertyOp62
 70
     0
  0
XRECORD
  5
527
102
{ACAD_REACTORS
330
526
102
}
330
526
100
AcDbXrecord
280
     1
102
RTVSPost2010Prop28
280
     0
102
RTVSPost2010PropOp28
 70
     1
102
RTVSPost2010Prop29
280
     1
102
RTVSPost2010PropOp29
 70
     1
102
RTVSPost2010Prop30
280
     1
102
RTVSPost2010PropOp30
 70
     1
102
RTVSPost2010Prop31
280
     0
102
RTVSPost2010PropOp31
 70
     1
102
RTVSPost2010Prop32
280
     0
102
RTVSPost2010PropOp32
 70
     1
102
RTVSPost2010Prop33
280
     0
102
RTVSPost2010PropOp33
 70
     1
102
RTVSPost2010Prop34
280
     0
102
RTVSPost2010PropOp34
 70
     1
102
RTVSPost2010Prop35
280
     0
102
RTVSPost2010PropOp35
 70
     1
102
RTVSPost2010Prop36
280
     0
102
RTVSPost2010PropOp36
 70
     1
102
RTVSPost2010Prop37
 90
       50
102
RTVSPost2010PropOp37
 70
     1
102
RTVSPost2010Prop38
140
0.0
102
RTVSPost2010PropOp38
 70
     1
102
RTVSPost2010Prop39
140
1.0
102
RTVSPost2010PropOp39
 70
     1
102
RTVSPost2010Prop40
 90
        0
102
RTVSPost2010PropOp40
 70
     1
102
RTVSPost2010Prop41ColorIndex
 90
       18
102
RTVSPost2010Prop41ColorRGB
 90
        0
102
RTVSPost2010PropOp41
 70
     1
102
RTVSPost2010Prop42
 90
       50
102
RTVSPost2010PropOp42
 70
     1
102
RTVSPost2010Prop43
 90
        3
102
RTVSPost2010PropOp43
 70
     1
102
RTVSPost2010Prop44ColorIndex
 90
        5
102
RTVSPost2010Prop44ColorRGB
 90
      255
102
RTVSPost2010PropOp44
 70
     1
102
RTVSPost2010Prop45
280
     0
102
RTVSPost2010PropOp45
 70
     1
102
RTVSPost2010Prop46
 90
       50
102
RTVSPost2010PropOp46
 70
     1
102
RTVSPost2010Prop47
 90
       50
102
RTVSPost2010PropOp47
 70
     1
102
RTVSPost2010Prop48
 90
       50
102
RTVSPost2010PropOp48
 70
     1
102
RTVSPost2010Prop49
280
     0
102
RTVSPost2010PropOp49
 70
     1
102
RTVSPost2010Prop50
 90
       50
102
RTVSPost2010PropOp50
 70
     1
102
RTVSPost2010Prop51ColorIndex
 90
      256
102
RTVSPost2010Prop51ColorRGB
 90
-16777216
102
RTVSPost2010PropOp51
 70
     0
102
RTVSPost2010Prop52
140
1.0
102
RTVSPost2010PropOp52
 70
     0
102
RTVSPost2010Prop53
 90
        2
102
RTVSPost2010PropOp53
 70
     1
102
RTVSPost2010Prop54
  1
strokes_ogs.tif
102
RTVSPost2010PropOp54
 70
     1
102
RTVSPost2010Prop55
280
     0
102
RTVSPost2010PropOp55
 70
     1
102
RTVSPost2010Prop56
140
1.0
102
RTVSPost2010PropOp56
 70
     1
102
RTVSPost2010Prop57
140
1.0
102
RTVSPost2010PropOp57
 70
     1
102
RTVSPropertyOp0
 70
     1
102
RTVSPropertyOp1
 70
     1
102
RTVSPropertyOp2
 70
     1
102
RTVSPropertyOp3
 70
     1
102
RTVSPropertyOp4
 70
     1
102
RTVSPropertyOp5
 70
     1
102
RTVSPropertyOp6
 70
     1
102
RTVSPropertyOp7
 70
     1
102
RTVSPropertyOp8
 70
     1
102
RTVSPropertyOp9
 70
     1
102
RTVSPropertyOp10
 70
     1
102
RTVSPropertyOp11
 70
     1
102
RTVSPropertyOp12
 70
     1
102
RTVSPropertyOp13
 70
     1
102
RTVSPropertyOp14
 70
     1
102
RTVSPropertyOp15
 70
     1
102
RTVSPropertyOp16
 70
     1
102
RTVSPropertyOp17
 70
     1
102
RTVSPropertyOp18
 70
     1
102
RTVSPropertyOp19
 70
     1
102
RTVSPropertyOp20
 70
     1
102
RTVSPropertyOp21
 70
     1
102
RTVSPropertyOp22
 70
     1
102
RTVSPropertyOp23
 70
     1
102
RTVSPropertyOp24
 70
     1
102
RTVSPropertyOp25
 70
     1
102
RTVSPropertyOp26
 70
     1
102
RTVSPropertyOp27
 70
     1
102
RTVSPropertyOp28
 70
     1
102
RTVSPropertyOp29
 70
     1
102
RTVSPropertyOp30
 70
     1
102
RTVSPropertyOp31
 70
     1
102
RTVSPropertyOp32
 70
     1
102
RTVSPropertyOp33
 70
     1
102
RTVSPropertyOp34
 70
     1
102
RTVSPropertyOp35
 70
     1
102
RTVSPropertyOp36
 70
     1
102
RTVSPropertyOp37
 70
     1
102
RTVSPropertyOp38
 70
     1
102
RTVSPropertyOp39
 70
     1
102
RTVSPropertyOp40
 70
     1
102
RTVSPropertyOp41
 70
     1
102
RTVSPropertyOp42
 70
     1
102
RTVSPropertyOp43
 70
     1
102
RTVSPropertyOp44
 70
     1
102
RTVSPropertyOp45
 70
     1
102
RTVSPropertyOp46
 70
     1
102
RTVSPropertyOp47
 70
     1
102
RTVSPropertyOp48
 70
     1
102
RTVSPropertyOp49
 70
     1
102
RTVSPropertyOp50
 70
     1
102
RTVSPropertyOp51
 70
     0
102
RTVSPropertyOp52
 70
     0
102
RTVSPropertyOp53
 70
     1
102
RTVSPropertyOp54
 70
     1
102
RTVSPropertyOp55
 70
     1
102
RTVSPropertyOp56
 70
     1
102
RTVSPropertyOp57
 70
     1
102
RTVSPropertyOp58
 70
     1
102
RTVSPropertyOp59
 70
     1
102
RTVSPropertyOp60
 70
     1
102
RTVSPropertyOp61
 70
     1
102
RTVSPropertyOp62
 70
     1
  0
XRECORD
  5
53D
102
{ACAD_REACTORS
330
53C
102
}
330
53C
100
AcDbXrecord
280
     1
102
RTVSPost2010Prop28
280
     0
102
RTVSPost2010PropOp28
 70
     1
102
RTVSPost2010Prop29
280
     1
102
RTVSPost2010PropOp29
 70
     1
102
RTVSPost2010Prop30
280
     1
102
RTVSPost2010PropOp30
 70
     1
102
RTVSPost2010Prop31
280
     0
102
RTVSPost2010PropOp31
 70
     1
102
RTVSPost2010Prop32
280
     0
102
RTVSPost2010PropOp32
 70
     1
102
RTVSPost2010Prop33
280
     0
102
RTVSPost2010PropOp33
 70
     1
102
RTVSPost2010Prop34
280
     0
102
RTVSPost2010PropOp34
 70
     1
102
RTVSPost2010Prop35
280
     0
102
RTVSPost2010PropOp35
 70
     1
102
RTVSPost2010Prop36
280
     0
102
RTVSPost2010PropOp36
 70
     1
102
RTVSPost2010Prop37
 90
       50
102
RTVSPost2010PropOp37
 70
     1
102
RTVSPost2010Prop38
140
0.0
102
RTVSPost2010PropOp38
 70
     1
102
RTVSPost2010Prop39
140
1.0
102
RTVSPost2010PropOp39
 70
     1
102
RTVSPost2010Prop40
 90
        0
102
RTVSPost2010PropOp40
 70
     1
102
RTVSPost2010Prop41ColorIndex
 90
       18
102
RTVSPost2010Prop41ColorRGB
 90
        0
102
RTVSPost2010PropOp41
 70
     1
102
RTVSPost2010Prop42
 90
       50
102
RTVSPost2010PropOp42
 70
     1
102
RTVSPost2010Prop43
 90
        3
102
RTVSPost2010PropOp43
 70
     1
102
RTVSPost2010Prop44ColorIndex
 90
        5
102
RTVSPost2010Prop44ColorRGB
 90
      255
102
RTVSPost2010PropOp44
 70
     1
102
RTVSPost2010Prop45
280
     0
102
RTVSPost2010PropOp45
 70
     1
102
RTVSPost2010Prop46
 90
       50
102
RTVSPost2010PropOp46
 70
     1
102
RTVSPost2010Prop47
 90
       50
102
RTVSPost2010PropOp47
 70
     1
102
RTVSPost2010Prop48
 90
       50
102
RTVSPost2010PropOp48
 70
     1
102
RTVSPost2010Prop49
280
     0
102
RTVSPost2010PropOp49
 70
     1
102
RTVSPost2010Prop50
 90
       50
102
RTVSPost2010PropOp50
 70
     1
102
RTVSPost2010Prop51ColorIndex
 90
      256
102
RTVSPost2010Prop51ColorRGB
 90
-16777216
102
RTVSPost2010PropOp51
 70
     0
102
RTVSPost2010Prop52
140
1.0
102
RTVSPost2010PropOp52
 70
     0
102
RTVSPost2010Prop53
 90
        2
102
RTVSPost2010PropOp53
 70
     1
102
RTVSPost2010Prop54
  1
strokes_ogs.tif
102
RTVSPost2010PropOp54
 70
     1
102
RTVSPost2010Prop55
280
     0
102
RTVSPost2010PropOp55
 70
     1
102
RTVSPost2010Prop56
140
1.0
102
RTVSPost2010PropOp56
 70
     1
102
RTVSPost2010Prop57
140
1.0
102
RTVSPost2010PropOp57
 70
     1
102
RTVSPropertyOp0
 70
     1
102
RTVSPropertyOp1
 70
     1
102
RTVSPropertyOp2
 70
     1
102
RTVSPropertyOp3
 70
     1
102
RTVSPropertyOp4
 70
     1
102
RTVSPropertyOp5
 70
     1
102
RTVSPropertyOp6
 70
     1
102
RTVSPropertyOp7
 70
     1
102
RTVSPropertyOp8
 70
     1
102
RTVSPropertyOp9
 70
     1
102
RTVSPropertyOp10
 70
     1
102
RTVSPropertyOp11
 70
     1
102
RTVSPropertyOp12
 70
     1
102
RTVSPropertyOp13
 70
     1
102
RTVSPropertyOp14
 70
     1
102
RTVSPropertyOp15
 70
     1
102
RTVSPropertyOp16
 70
     1
102
RTVSPropertyOp17
 70
     1
102
RTVSPropertyOp18
 70
     1
102
RTVSPropertyOp19
 70
     1
102
RTVSPropertyOp20
 70
     1
102
RTVSPropertyOp21
 70
     1
102
RTVSPropertyOp22
 70
     1
102
RTVSPropertyOp23
 70
     1
102
RTVSPropertyOp24
 70
     1
102
RTVSPropertyOp25
 70
     1
102
RTVSPropertyOp26
 70
     1
102
RTVSPropertyOp27
 70
     1
102
RTVSPropertyOp28
 70
     1
102
RTVSPropertyOp29
 70
     1
102
RTVSPropertyOp30
 70
     1
102
RTVSPropertyOp31
 70
     1
102
RTVSPropertyOp32
 70
     1
102
RTVSPropertyOp33
 70
     1
102
RTVSPropertyOp34
 70
     1
102
RTVSPropertyOp35
 70
     1
102
RTVSPropertyOp36
 70
     1
102
RTVSPropertyOp37
 70
     1
102
RTVSPropertyOp38
 70
     1
102
RTVSPropertyOp39
 70
     1
102
RTVSPropertyOp40
 70
     1
102
RTVSPropertyOp41
 70
     1
102
RTVSPropertyOp42
 70
     1
102
RTVSPropertyOp43
 70
     1
102
RTVSPropertyOp44
 70
     1
102
RTVSPropertyOp45
 70
     1
102
RTVSPropertyOp46
 70
     1
102
RTVSPropertyOp47
 70
     1
102
RTVSPropertyOp48
 70
     1
102
RTVSPropertyOp49
 70
     1
102
RTVSPropertyOp50
 70
     1
102
RTVSPropertyOp51
 70
     0
102
RTVSPropertyOp52
 70
     0
102
RTVSPropertyOp53
 70
     1
102
RTVSPropertyOp54
 70
     1
102
RTVSPropertyOp55
 70
     1
102
RTVSPropertyOp56
 70
     1
102
RTVSPropertyOp57
 70
     1
102
RTVSPropertyOp58
 70
     1
102
RTVSPropertyOp59
 70
     1
102
RTVSPropertyOp60
 70
     1
102
RTVSPropertyOp61
 70
     1
102
RTVSPropertyOp62
 70
     1
  0
XRECORD
  5
53B
102
{ACAD_REACTORS
330
53A
102
}
330
53A
100
AcDbXrecord
280
     1
102
RTVSPost2010Prop28
280
     0
102
RTVSPost2010PropOp28
 70
     1
102
RTVSPost2010Prop29
280
     1
102
RTVSPost2010PropOp29
 70
     1
102
RTVSPost2010Prop30
280
     1
102
RTVSPost2010PropOp30
 70
     1
102
RTVSPost2010Prop31
280
     0
102
RTVSPost2010PropOp31
 70
     1
102
RTVSPost2010Prop32
280
     0
102
RTVSPost2010PropOp32
 70
     1
102
RTVSPost2010Prop33
280
     0
102
RTVSPost2010PropOp33
 70
     1
102
RTVSPost2010Prop34
280
     0
102
RTVSPost2010PropOp34
 70
     1
102
RTVSPost2010Prop35
280
     0
102
RTVSPost2010PropOp35
 70
     1
102
RTVSPost2010Prop36
280
     0
102
RTVSPost2010PropOp36
 70
     1
102
RTVSPost2010Prop37
 90
       50
102
RTVSPost2010PropOp37
 70
     1
102
RTVSPost2010Prop38
140
0.0
102
RTVSPost2010PropOp38
 70
     1
102
RTVSPost2010Prop39
140
1.0
102
RTVSPost2010PropOp39
 70
     1
102
RTVSPost2010Prop40
 90
        0
102
RTVSPost2010PropOp40
 70
     1
102
RTVSPost2010Prop41ColorIndex
 90
       18
102
RTVSPost2010Prop41ColorRGB
 90
        0
102
RTVSPost2010PropOp41
 70
     1
102
RTVSPost2010Prop42
 90
       50
102
RTVSPost2010PropOp42
 70
     1
102
RTVSPost2010Prop43
 90
        3
102
RTVSPost2010PropOp43
 70
     1
102
RTVSPost2010Prop44ColorIndex
 90
        5
102
RTVSPost2010Prop44ColorRGB
 90
      255
102
RTVSPost2010PropOp44
 70
     1
102
RTVSPost2010Prop45
280
     0
102
RTVSPost2010PropOp45
 70
     1
102
RTVSPost2010Prop46
 90
       50
102
RTVSPost2010PropOp46
 70
     1
102
RTVSPost2010Prop47
 90
       50
102
RTVSPost2010PropOp47
 70
     1
102
RTVSPost2010Prop48
 90
       50
102
RTVSPost2010PropOp48
 70
     1
102
RTVSPost2010Prop49
280
     0
102
RTVSPost2010PropOp49
 70
     1
102
RTVSPost2010Prop50
 90
       50
102
RTVSPost2010PropOp50
 70
     1
102
RTVSPost2010Prop51ColorIndex
 90
      256
102
RTVSPost2010Prop51ColorRGB
 90
-16777216
102
RTVSPost2010PropOp51
 70
     0
102
RTVSPost2010Prop52
140
1.0
102
RTVSPost2010PropOp52
 70
     0
102
RTVSPost2010Prop53
 90
        2
102
RTVSPost2010PropOp53
 70
     1
102
RTVSPost2010Prop54
  1
strokes_ogs.tif
102
RTVSPost2010PropOp54
 70
     1
102
RTVSPost2010Prop55
280
     0
102
RTVSPost2010PropOp55
 70
     1
102
RTVSPost2010Prop56
140
1.0
102
RTVSPost2010PropOp56
 70
     1
102
RTVSPost2010Prop57
140
1.0
102
RTVSPost2010PropOp57
 70
     1
102
RTVSPropertyOp0
 70
     1
102
RTVSPropertyOp1
 70
     1
102
RTVSPropertyOp2
 70
     1
102
RTVSPropertyOp3
 70
     1
102
RTVSPropertyOp4
 70
     1
102
RTVSPropertyOp5
 70
     1
102
RTVSPropertyOp6
 70
     1
102
RTVSPropertyOp7
 70
     1
102
RTVSPropertyOp8
 70
     1
102
RTVSPropertyOp9
 70
     1
102
RTVSPropertyOp10
 70
     1
102
RTVSPropertyOp11
 70
     1
102
RTVSPropertyOp12
 70
     1
102
RTVSPropertyOp13
 70
     1
102
RTVSPropertyOp14
 70
     1
102
RTVSPropertyOp15
 70
     1
102
RTVSPropertyOp16
 70
     1
102
RTVSPropertyOp17
 70
     1
102
RTVSPropertyOp18
 70
     1
102
RTVSPropertyOp19
 70
     1
102
RTVSPropertyOp20
 70
     1
102
RTVSPropertyOp21
 70
     1
102
RTVSPropertyOp22
 70
     1
102
RTVSPropertyOp23
 70
     1
102
RTVSPropertyOp24
 70
     1
102
RTVSPropertyOp25
 70
     1
102
RTVSPropertyOp26
 70
     1
102
RTVSPropertyOp27
 70
     1
102
RTVSPropertyOp28
 70
     1
102
RTVSPropertyOp29
 70
     1
102
RTVSPropertyOp30
 70
     1
102
RTVSPropertyOp31
 70
     1
102
RTVSPropertyOp32
 70
     1
102
RTVSPropertyOp33
 70
     1
102
RTVSPropertyOp34
 70
     1
102
RTVSPropertyOp35
 70
     1
102
RTVSPropertyOp36
 70
     1
102
RTVSPropertyOp37
 70
     1
102
RTVSPropertyOp38
 70
     1
102
RTVSPropertyOp39
 70
     1
102
RTVSPropertyOp40
 70
     1
102
RTVSPropertyOp41
 70
     1
102
RTVSPropertyOp42
 70
     1
102
RTVSPropertyOp43
 70
     1
102
RTVSPropertyOp44
 70
     1
102
RTVSPropertyOp45
 70
     1
102
RTVSPropertyOp46
 70
     1
102
RTVSPropertyOp47
 70
     1
102
RTVSPropertyOp48
 70
     1
102
RTVSPropertyOp49
 70
     1
102
RTVSPropertyOp50
 70
     1
102
RTVSPropertyOp51
 70
     0
102
RTVSPropertyOp52
 70
     0
102
RTVSPropertyOp53
 70
     1
102
RTVSPropertyOp54
 70
     1
102
RTVSPropertyOp55
 70
     1
102
RTVSPropertyOp56
 70
     1
102
RTVSPropertyOp57
 70
     1
102
RTVSPropertyOp58
 70
     1
102
RTVSPropertyOp59
 70
     1
102
RTVSPropertyOp60
 70
     1
102
RTVSPropertyOp61
 70
     1
102
RTVSPropertyOp62
 70
     1
  0
XRECORD
  5
535
102
{ACAD_REACTORS
330
534
102
}
330
534
100
AcDbXrecord
280
     1
102
RTVSPost2010Prop28
280
     0
102
RTVSPost2010PropOp28
 70
     1
102
RTVSPost2010Prop29
280
     1
102
RTVSPost2010PropOp29
 70
     1
102
RTVSPost2010Prop30
280
     1
102
RTVSPost2010PropOp30
 70
     1
102
RTVSPost2010Prop31
280
     0
102
RTVSPost2010PropOp31
 70
     1
102
RTVSPost2010Prop32
280
     0
102
RTVSPost2010PropOp32
 70
     1
102
RTVSPost2010Prop33
280
     0
102
RTVSPost2010PropOp33
 70
     1
102
RTVSPost2010Prop34
280
     0
102
RTVSPost2010PropOp34
 70
     1
102
RTVSPost2010Prop35
280
     0
102
RTVSPost2010PropOp35
 70
     1
102
RTVSPost2010Prop36
280
     0
102
RTVSPost2010PropOp36
 70
     1
102
RTVSPost2010Prop37
 90
       50
102
RTVSPost2010PropOp37
 70
     1
102
RTVSPost2010Prop38
140
0.0
102
RTVSPost2010PropOp38
 70
     1
102
RTVSPost2010Prop39
140
1.0
102
RTVSPost2010PropOp39
 70
     1
102
RTVSPost2010Prop40
 90
        0
102
RTVSPost2010PropOp40
 70
     1
102
RTVSPost2010Prop41ColorIndex
 90
       18
102
RTVSPost2010Prop41ColorRGB
 90
        0
102
RTVSPost2010PropOp41
 70
     1
102
RTVSPost2010Prop42
 90
       50
102
RTVSPost2010PropOp42
 70
     1
102
RTVSPost2010Prop43
 90
        3
102
RTVSPost2010PropOp43
 70
     1
102
RTVSPost2010Prop44ColorIndex
 90
        5
102
RTVSPost2010Prop44ColorRGB
 90
      255
102
RTVSPost2010PropOp44
 70
     1
102
RTVSPost2010Prop45
280
     0
102
RTVSPost2010PropOp45
 70
     1
102
RTVSPost2010Prop46
 90
       50
102
RTVSPost2010PropOp46
 70
     1
102
RTVSPost2010Prop47
 90
       50
102
RTVSPost2010PropOp47
 70
     1
102
RTVSPost2010Prop48
 90
       50
102
RTVSPost2010PropOp48
 70
     1
102
RTVSPost2010Prop49
280
     0
102
RTVSPost2010PropOp49
 70
     1
102
RTVSPost2010Prop50
 90
       50
102
RTVSPost2010PropOp50
 70
     1
102
RTVSPost2010Prop51ColorIndex
 90
      256
102
RTVSPost2010Prop51ColorRGB
 90
-16777216
102
RTVSPost2010PropOp51
 70
     0
102
RTVSPost2010Prop52
140
1.0
102
RTVSPost2010PropOp52
 70
     0
102
RTVSPost2010Prop53
 90
        2
102
RTVSPost2010PropOp53
 70
     1
102
RTVSPost2010Prop54
  1
strokes_ogs.tif
102
RTVSPost2010PropOp54
 70
     1
102
RTVSPost2010Prop55
280
     0
102
RTVSPost2010PropOp55
 70
     1
102
RTVSPost2010Prop56
140
1.0
102
RTVSPost2010PropOp56
 70
     1
102
RTVSPost2010Prop57
140
1.0
102
RTVSPost2010PropOp57
 70
     1
102
RTVSPropertyOp0
 70
     1
102
RTVSPropertyOp1
 70
     1
102
RTVSPropertyOp2
 70
     1
102
RTVSPropertyOp3
 70
     1
102
RTVSPropertyOp4
 70
     1
102
RTVSPropertyOp5
 70
     1
102
RTVSPropertyOp6
 70
     1
102
RTVSPropertyOp7
 70
     1
102
RTVSPropertyOp8
 70
     1
102
RTVSPropertyOp9
 70
     1
102
RTVSPropertyOp10
 70
     1
102
RTVSPropertyOp11
 70
     1
102
RTVSPropertyOp12
 70
     1
102
RTVSPropertyOp13
 70
     1
102
RTVSPropertyOp14
 70
     1
102
RTVSPropertyOp15
 70
     1
102
RTVSPropertyOp16
 70
     1
102
RTVSPropertyOp17
 70
     1
102
RTVSPropertyOp18
 70
     1
102
RTVSPropertyOp19
 70
     1
102
RTVSPropertyOp20
 70
     1
102
RTVSPropertyOp21
 70
     1
102
RTVSPropertyOp22
 70
     1
102
RTVSPropertyOp23
 70
     1
102
RTVSPropertyOp24
 70
     1
102
RTVSPropertyOp25
 70
     1
102
RTVSPropertyOp26
 70
     1
102
RTVSPropertyOp27
 70
     1
102
RTVSPropertyOp28
 70
     1
102
RTVSPropertyOp29
 70
     1
102
RTVSPropertyOp30
 70
     1
102
RTVSPropertyOp31
 70
     1
102
RTVSPropertyOp32
 70
     1
102
RTVSPropertyOp33
 70
     1
102
RTVSPropertyOp34
 70
     1
102
RTVSPropertyOp35
 70
     1
102
RTVSPropertyOp36
 70
     1
102
RTVSPropertyOp37
 70
     1
102
RTVSPropertyOp38
 70
     1
102
RTVSPropertyOp39
 70
     1
102
RTVSPropertyOp40
 70
     1
102
RTVSPropertyOp41
 70
     1
102
RTVSPropertyOp42
 70
     1
102
RTVSPropertyOp43
 70
     1
102
RTVSPropertyOp44
 70
     1
102
RTVSPropertyOp45
 70
     1
102
RTVSPropertyOp46
 70
     1
102
RTVSPropertyOp47
 70
     1
102
RTVSPropertyOp48
 70
     1
102
RTVSPropertyOp49
 70
     1
102
RTVSPropertyOp50
 70
     1
102
RTVSPropertyOp51
 70
     0
102
RTVSPropertyOp52
 70
     0
102
RTVSPropertyOp53
 70
     1
102
RTVSPropertyOp54
 70
     1
102
RTVSPropertyOp55
 70
     1
102
RTVSPropertyOp56
 70
     1
102
RTVSPropertyOp57
 70
     1
102
RTVSPropertyOp58
 70
     1
102
RTVSPropertyOp59
 70
     1
102
RTVSPropertyOp60
 70
     1
102
RTVSPropertyOp61
 70
     1
102
RTVSPropertyOp62
 70
     1
  0
XRECORD
  5
537
102
{ACAD_REACTORS
330
536
102
}
330
536
100
AcDbXrecord
280
     1
102
RTVSPost2010Prop28
280
     0
102
RTVSPost2010PropOp28
 70
     1
102
RTVSPost2010Prop29
280
     1
102
RTVSPost2010PropOp29
 70
     1
102
RTVSPost2010Prop30
280
     1
102
RTVSPost2010PropOp30
 70
     1
102
RTVSPost2010Prop31
280
     0
102
RTVSPost2010PropOp31
 70
     1
102
RTVSPost2010Prop32
280
     0
102
RTVSPost2010PropOp32
 70
     1
102
RTVSPost2010Prop33
280
     0
102
RTVSPost2010PropOp33
 70
     1
102
RTVSPost2010Prop34
280
     0
102
RTVSPost2010PropOp34
 70
     1
102
RTVSPost2010Prop35
280
     0
102
RTVSPost2010PropOp35
 70
     1
102
RTVSPost2010Prop36
280
     0
102
RTVSPost2010PropOp36
 70
     1
102
RTVSPost2010Prop37
 90
       50
102
RTVSPost2010PropOp37
 70
     1
102
RTVSPost2010Prop38
140
0.0
102
RTVSPost2010PropOp38
 70
     1
102
RTVSPost2010Prop39
140
1.0
102
RTVSPost2010PropOp39
 70
     1
102
RTVSPost2010Prop40
 90
        0
102
RTVSPost2010PropOp40
 70
     1
102
RTVSPost2010Prop41ColorIndex
 90
       18
102
RTVSPost2010Prop41ColorRGB
 90
        0
102
RTVSPost2010PropOp41
 70
     1
102
RTVSPost2010Prop42
 90
       50
102
RTVSPost2010PropOp42
 70
     1
102
RTVSPost2010Prop43
 90
        3
102
RTVSPost2010PropOp43
 70
     1
102
RTVSPost2010Prop44ColorIndex
 90
        5
102
RTVSPost2010Prop44ColorRGB
 90
      255
102
RTVSPost2010PropOp44
 70
     1
102
RTVSPost2010Prop45
280
     0
102
RTVSPost2010PropOp45
 70
     1
102
RTVSPost2010Prop46
 90
       50
102
RTVSPost2010PropOp46
 70
     1
102
RTVSPost2010Prop47
 90
       50
102
RTVSPost2010PropOp47
 70
     1
102
RTVSPost2010Prop48
 90
       50
102
RTVSPost2010PropOp48
 70
     1
102
RTVSPost2010Prop49
280
     0
102
RTVSPost2010PropOp49
 70
     1
102
RTVSPost2010Prop50
 90
       50
102
RTVSPost2010PropOp50
 70
     1
102
RTVSPost2010Prop51ColorIndex
 90
      256
102
RTVSPost2010Prop51ColorRGB
 90
-16777216
102
RTVSPost2010PropOp51
 70
     0
102
RTVSPost2010Prop52
140
1.0
102
RTVSPost2010PropOp52
 70
     0
102
RTVSPost2010Prop53
 90
        2
102
RTVSPost2010PropOp53
 70
     1
102
RTVSPost2010Prop54
  1
strokes_ogs.tif
102
RTVSPost2010PropOp54
 70
     1
102
RTVSPost2010Prop55
280
     0
102
RTVSPost2010PropOp55
 70
     1
102
RTVSPost2010Prop56
140
1.0
102
RTVSPost2010PropOp56
 70
     1
102
RTVSPost2010Prop57
140
1.0
102
RTVSPost2010PropOp57
 70
     1
102
RTVSPropertyOp0
 70
     1
102
RTVSPropertyOp1
 70
     1
102
RTVSPropertyOp2
 70
     1
102
RTVSPropertyOp3
 70
     1
102
RTVSPropertyOp4
 70
     1
102
RTVSPropertyOp5
 70
     1
102
RTVSPropertyOp6
 70
     1
102
RTVSPropertyOp7
 70
     1
102
RTVSPropertyOp8
 70
     1
102
RTVSPropertyOp9
 70
     1
102
RTVSPropertyOp10
 70
     1
102
RTVSPropertyOp11
 70
     1
102
RTVSPropertyOp12
 70
     1
102
RTVSPropertyOp13
 70
     1
102
RTVSPropertyOp14
 70
     1
102
RTVSPropertyOp15
 70
     1
102
RTVSPropertyOp16
 70
     1
102
RTVSPropertyOp17
 70
     1
102
RTVSPropertyOp18
 70
     1
102
RTVSPropertyOp19
 70
     1
102
RTVSPropertyOp20
 70
     1
102
RTVSPropertyOp21
 70
     1
102
RTVSPropertyOp22
 70
     1
102
RTVSPropertyOp23
 70
     1
102
RTVSPropertyOp24
 70
     1
102
RTVSPropertyOp25
 70
     1
102
RTVSPropertyOp26
 70
     1
102
RTVSPropertyOp27
 70
     1
102
RTVSPropertyOp28
 70
     1
102
RTVSPropertyOp29
 70
     1
102
RTVSPropertyOp30
 70
     1
102
RTVSPropertyOp31
 70
     1
102
RTVSPropertyOp32
 70
     1
102
RTVSPropertyOp33
 70
     1
102
RTVSPropertyOp34
 70
     1
102
RTVSPropertyOp35
 70
     1
102
RTVSPropertyOp36
 70
     1
102
RTVSPropertyOp37
 70
     1
102
RTVSPropertyOp38
 70
     1
102
RTVSPropertyOp39
 70
     1
102
RTVSPropertyOp40
 70
     1
102
RTVSPropertyOp41
 70
     1
102
RTVSPropertyOp42
 70
     1
102
RTVSPropertyOp43
 70
     1
102
RTVSPropertyOp44
 70
     1
102
RTVSPropertyOp45
 70
     1
102
RTVSPropertyOp46
 70
     1
102
RTVSPropertyOp47
 70
     1
102
RTVSPropertyOp48
 70
     1
102
RTVSPropertyOp49
 70
     1
102
RTVSPropertyOp50
 70
     1
102
RTVSPropertyOp51
 70
     0
102
RTVSPropertyOp52
 70
     0
102
RTVSPropertyOp53
 70
     1
102
RTVSPropertyOp54
 70
     1
102
RTVSPropertyOp55
 70
     1
102
RTVSPropertyOp56
 70
     1
102
RTVSPropertyOp57
 70
     1
102
RTVSPropertyOp58
 70
     1
102
RTVSPropertyOp59
 70
     1
102
RTVSPropertyOp60
 70
     1
102
RTVSPropertyOp61
 70
     1
102
RTVSPropertyOp62
 70
     1
  0
XRECORD
  5
52D
102
{ACAD_REACTORS
330
52C
102
}
330
52C
100
AcDbXrecord
280
     1
102
RTVSPost2010Prop28
280
     0
102
RTVSPost2010PropOp28
 70
     1
102
RTVSPost2010Prop29
280
     1
102
RTVSPost2010PropOp29
 70
     1
102
RTVSPost2010Prop30
280
     1
102
RTVSPost2010PropOp30
 70
     1
102
RTVSPost2010Prop31
280
     0
102
RTVSPost2010PropOp31
 70
     1
102
RTVSPost2010Prop32
280
     0
102
RTVSPost2010PropOp32
 70
     1
102
RTVSPost2010Prop33
280
     0
102
RTVSPost2010PropOp33
 70
     1
102
RTVSPost2010Prop34
280
     0
102
RTVSPost2010PropOp34
 70
     1
102
RTVSPost2010Prop35
280
     0
102
RTVSPost2010PropOp35
 70
     1
102
RTVSPost2010Prop36
280
     0
102
RTVSPost2010PropOp36
 70
     1
102
RTVSPost2010Prop37
 90
       50
102
RTVSPost2010PropOp37
 70
     1
102
RTVSPost2010Prop38
140
0.0
102
RTVSPost2010PropOp38
 70
     1
102
RTVSPost2010Prop39
140
1.0
102
RTVSPost2010PropOp39
 70
     1
102
RTVSPost2010Prop40
 90
        0
102
RTVSPost2010PropOp40
 70
     1
102
RTVSPost2010Prop41ColorIndex
 90
       18
102
RTVSPost2010Prop41ColorRGB
 90
        0
102
RTVSPost2010PropOp41
 70
     1
102
RTVSPost2010Prop42
 90
       50
102
RTVSPost2010PropOp42
 70
     1
102
RTVSPost2010Prop43
 90
        3
102
RTVSPost2010PropOp43
 70
     1
102
RTVSPost2010Prop44ColorIndex
 90
        5
102
RTVSPost2010Prop44ColorRGB
 90
      255
102
RTVSPost2010PropOp44
 70
     1
102
RTVSPost2010Prop45
280
     0
102
RTVSPost2010PropOp45
 70
     1
102
RTVSPost2010Prop46
 90
       50
102
RTVSPost2010PropOp46
 70
     1
102
RTVSPost2010Prop47
 90
       50
102
RTVSPost2010PropOp47
 70
     1
102
RTVSPost2010Prop48
 90
       50
102
RTVSPost2010PropOp48
 70
     1
102
RTVSPost2010Prop49
280
     0
102
RTVSPost2010PropOp49
 70
     1
102
RTVSPost2010Prop50
 90
       50
102
RTVSPost2010PropOp50
 70
     1
102
RTVSPost2010Prop51ColorIndex
 90
      256
102
RTVSPost2010Prop51ColorRGB
 90
-16777216
102
RTVSPost2010PropOp51
 70
     0
102
RTVSPost2010Prop52
140
1.0
102
RTVSPost2010PropOp52
 70
     0
102
RTVSPost2010Prop53
 90
        2
102
RTVSPost2010PropOp53
 70
     1
102
RTVSPost2010Prop54
  1
strokes_ogs.tif
102
RTVSPost2010PropOp54
 70
     1
102
RTVSPost2010Prop55
280
     0
102
RTVSPost2010PropOp55
 70
     1
102
RTVSPost2010Prop56
140
1.0
102
RTVSPost2010PropOp56
 70
     1
102
RTVSPost2010Prop57
140
1.0
102
RTVSPost2010PropOp57
 70
     1
102
RTVSPropertyOp0
 70
     1
102
RTVSPropertyOp1
 70
     1
102
RTVSPropertyOp2
 70
     1
102
RTVSPropertyOp3
 70
     1
102
RTVSPropertyOp4
 70
     1
102
RTVSPropertyOp5
 70
     1
102
RTVSPropertyOp6
 70
     1
102
RTVSPropertyOp7
 70
     1
102
RTVSPropertyOp8
 70
     1
102
RTVSPropertyOp9
 70
     1
102
RTVSPropertyOp10
 70
     1
102
RTVSPropertyOp11
 70
     1
102
RTVSPropertyOp12
 70
     1
102
RTVSPropertyOp13
 70
     1
102
RTVSPropertyOp14
 70
     1
102
RTVSPropertyOp15
 70
     1
102
RTVSPropertyOp16
 70
     1
102
RTVSPropertyOp17
 70
     1
102
RTVSPropertyOp18
 70
     1
102
RTVSPropertyOp19
 70
     1
102
RTVSPropertyOp20
 70
     1
102
RTVSPropertyOp21
 70
     1
102
RTVSPropertyOp22
 70
     1
102
RTVSPropertyOp23
 70
     1
102
RTVSPropertyOp24
 70
     1
102
RTVSPropertyOp25
 70
     1
102
RTVSPropertyOp26
 70
     1
102
RTVSPropertyOp27
 70
     1
102
RTVSPropertyOp28
 70
     1
102
RTVSPropertyOp29
 70
     1
102
RTVSPropertyOp30
 70
     1
102
RTVSPropertyOp31
 70
     1
102
RTVSPropertyOp32
 70
     1
102
RTVSPropertyOp33
 70
     1
102
RTVSPropertyOp34
 70
     1
102
RTVSPropertyOp35
 70
     1
102
RTVSPropertyOp36
 70
     1
102
RTVSPropertyOp37
 70
     1
102
RTVSPropertyOp38
 70
     1
102
RTVSPropertyOp39
 70
     1
102
RTVSPropertyOp40
 70
     1
102
RTVSPropertyOp41
 70
     1
102
RTVSPropertyOp42
 70
     1
102
RTVSPropertyOp43
 70
     1
102
RTVSPropertyOp44
 70
     1
102
RTVSPropertyOp45
 70
     1
102
RTVSPropertyOp46
 70
     1
102
RTVSPropertyOp47
 70
     1
102
RTVSPropertyOp48
 70
     1
102
RTVSPropertyOp49
 70
     1
102
RTVSPropertyOp50
 70
     1
102
RTVSPropertyOp51
 70
     0
102
RTVSPropertyOp52
 70
     0
102
RTVSPropertyOp53
 70
     1
102
RTVSPropertyOp54
 70
     1
102
RTVSPropertyOp55
 70
     1
102
RTVSPropertyOp56
 70
     1
102
RTVSPropertyOp57
 70
     1
102
RTVSPropertyOp58
 70
     1
102
RTVSPropertyOp59
 70
     1
102
RTVSPropertyOp60
 70
     1
102
RTVSPropertyOp61
 70
     1
102
RTVSPropertyOp62
 70
     1
  0
XRECORD
  5
521
102
{ACAD_REACTORS
330
520
102
}
330
520
100
AcDbXrecord
280
     1
102
RTVSPost2010Prop28
280
     0
102
RTVSPost2010PropOp28
 70
     1
102
RTVSPost2010Prop29
280
     1
102
RTVSPost2010PropOp29
 70
     1
102
RTVSPost2010Prop30
280
     1
102
RTVSPost2010PropOp30
 70
     1
102
RTVSPost2010Prop31
280
     0
102
RTVSPost2010PropOp31
 70
     1
102
RTVSPost2010Prop32
280
     0
102
RTVSPost2010PropOp32
 70
     1
102
RTVSPost2010Prop33
280
     0
102
RTVSPost2010PropOp33
 70
     1
102
RTVSPost2010Prop34
280
     0
102
RTVSPost2010PropOp34
 70
     1
102
RTVSPost2010Prop35
280
     0
102
RTVSPost2010PropOp35
 70
     1
102
RTVSPost2010Prop36
280
     0
102
RTVSPost2010PropOp36
 70
     1
102
RTVSPost2010Prop37
 90
       50
102
RTVSPost2010PropOp37
 70
     1
102
RTVSPost2010Prop38
140
0.0
102
RTVSPost2010PropOp38
 70
     1
102
RTVSPost2010Prop39
140
1.0
102
RTVSPost2010PropOp39
 70
     1
102
RTVSPost2010Prop40
 90
        0
102
RTVSPost2010PropOp40
 70
     1
102
RTVSPost2010Prop41ColorIndex
 90
       18
102
RTVSPost2010Prop41ColorRGB
 90
        0
102
RTVSPost2010PropOp41
 70
     1
102
RTVSPost2010Prop42
 90
       50
102
RTVSPost2010PropOp42
 70
     1
102
RTVSPost2010Prop43
 90
        3
102
RTVSPost2010PropOp43
 70
     1
102
RTVSPost2010Prop44ColorIndex
 90
        5
102
RTVSPost2010Prop44ColorRGB
 90
      255
102
RTVSPost2010PropOp44
 70
     1
102
RTVSPost2010Prop45
280
     0
102
RTVSPost2010PropOp45
 70
     1
102
RTVSPost2010Prop46
 90
       50
102
RTVSPost2010PropOp46
 70
     1
102
RTVSPost2010Prop47
 90
       50
102
RTVSPost2010PropOp47
 70
     1
102
RTVSPost2010Prop48
 90
       50
102
RTVSPost2010PropOp48
 70
     1
102
RTVSPost2010Prop49
280
     0
102
RTVSPost2010PropOp49
 70
     1
102
RTVSPost2010Prop50
 90
       50
102
RTVSPost2010PropOp50
 70
     1
102
RTVSPost2010Prop51ColorIndex
 90
      256
102
RTVSPost2010Prop51ColorRGB
 90
-16777216
102
RTVSPost2010PropOp51
 70
     0
102
RTVSPost2010Prop52
140
1.0
102
RTVSPost2010PropOp52
 70
     0
102
RTVSPost2010Prop53
 90
        2
102
RTVSPost2010PropOp53
 70
     1
102
RTVSPost2010Prop54
  1
strokes_ogs.tif
102
RTVSPost2010PropOp54
 70
     1
102
RTVSPost2010Prop55
280
     0
102
RTVSPost2010PropOp55
 70
     1
102
RTVSPost2010Prop56
140
1.0
102
RTVSPost2010PropOp56
 70
     1
102
RTVSPost2010Prop57
140
1.0
102
RTVSPost2010PropOp57
 70
     1
102
RTVSPropertyOp0
 70
     1
102
RTVSPropertyOp1
 70
     1
102
RTVSPropertyOp2
 70
     1
102
RTVSPropertyOp3
 70
     1
102
RTVSPropertyOp4
 70
     1
102
RTVSPropertyOp5
 70
     1
102
RTVSPropertyOp6
 70
     1
102
RTVSPropertyOp7
 70
     1
102
RTVSPropertyOp8
 70
     1
102
RTVSPropertyOp9
 70
     1
102
RTVSPropertyOp10
 70
     1
102
RTVSPropertyOp11
 70
     1
102
RTVSPropertyOp12
 70
     1
102
RTVSPropertyOp13
 70
     1
102
RTVSPropertyOp14
 70
     1
102
RTVSPropertyOp15
 70
     1
102
RTVSPropertyOp16
 70
     1
102
RTVSPropertyOp17
 70
     1
102
RTVSPropertyOp18
 70
     1
102
RTVSPropertyOp19
 70
     1
102
RTVSPropertyOp20
 70
     1
102
RTVSPropertyOp21
 70
     1
102
RTVSPropertyOp22
 70
     1
102
RTVSPropertyOp23
 70
     1
102
RTVSPropertyOp24
 70
     1
102
RTVSPropertyOp25
 70
     1
102
RTVSPropertyOp26
 70
     1
102
RTVSPropertyOp27
 70
     1
102
RTVSPropertyOp28
 70
     1
102
RTVSPropertyOp29
 70
     1
102
RTVSPropertyOp30
 70
     1
102
RTVSPropertyOp31
 70
     1
102
RTVSPropertyOp32
 70
     1
102
RTVSPropertyOp33
 70
     1
102
RTVSPropertyOp34
 70
     1
102
RTVSPropertyOp35
 70
     1
102
RTVSPropertyOp36
 70
     1
102
RTVSPropertyOp37
 70
     1
102
RTVSPropertyOp38
 70
     1
102
RTVSPropertyOp39
 70
     1
102
RTVSPropertyOp40
 70
     1
102
RTVSPropertyOp41
 70
     1
102
RTVSPropertyOp42
 70
     1
102
RTVSPropertyOp43
 70
     1
102
RTVSPropertyOp44
 70
     1
102
RTVSPropertyOp45
 70
     1
102
RTVSPropertyOp46
 70
     1
102
RTVSPropertyOp47
 70
     1
102
RTVSPropertyOp48
 70
     1
102
RTVSPropertyOp49
 70
     1
102
RTVSPropertyOp50
 70
     1
102
RTVSPropertyOp51
 70
     0
102
RTVSPropertyOp52
 70
     0
102
RTVSPropertyOp53
 70
     1
102
RTVSPropertyOp54
 70
     1
102
RTVSPropertyOp55
 70
     1
102
RTVSPropertyOp56
 70
     1
102
RTVSPropertyOp57
 70
     1
102
RTVSPropertyOp58
 70
     1
102
RTVSPropertyOp59
 70
     1
102
RTVSPropertyOp60
 70
     1
102
RTVSPropertyOp61
 70
     1
102
RTVSPropertyOp62
 70
     1
  0
XRECORD
  5
539
102
{ACAD_REACTORS
330
538
102
}
330
538
100
AcDbXrecord
280
     1
102
RTVSPost2010Prop28
280
     0
102
RTVSPost2010PropOp28
 70
     1
102
RTVSPost2010Prop29
280
     1
102
RTVSPost2010PropOp29
 70
     1
102
RTVSPost2010Prop30
280
     1
102
RTVSPost2010PropOp30
 70
     1
102
RTVSPost2010Prop31
280
     0
102
RTVSPost2010PropOp31
 70
     1
102
RTVSPost2010Prop32
280
     0
102
RTVSPost2010PropOp32
 70
     1
102
RTVSPost2010Prop33
280
     0
102
RTVSPost2010PropOp33
 70
     1
102
RTVSPost2010Prop34
280
     0
102
RTVSPost2010PropOp34
 70
     1
102
RTVSPost2010Prop35
280
     0
102
RTVSPost2010PropOp35
 70
     1
102
RTVSPost2010Prop36
280
     0
102
RTVSPost2010PropOp36
 70
     1
102
RTVSPost2010Prop37
 90
       50
102
RTVSPost2010PropOp37
 70
     1
102
RTVSPost2010Prop38
140
0.0
102
RTVSPost2010PropOp38
 70
     1
102
RTVSPost2010Prop39
140
1.0
102
RTVSPost2010PropOp39
 70
     1
102
RTVSPost2010Prop40
 90
        0
102
RTVSPost2010PropOp40
 70
     1
102
RTVSPost2010Prop41ColorIndex
 90
       18
102
RTVSPost2010Prop41ColorRGB
 90
        0
102
RTVSPost2010PropOp41
 70
     1
102
RTVSPost2010Prop42
 90
       50
102
RTVSPost2010PropOp42
 70
     1
102
RTVSPost2010Prop43
 90
        3
102
RTVSPost2010PropOp43
 70
     1
102
RTVSPost2010Prop44ColorIndex
 90
        5
102
RTVSPost2010Prop44ColorRGB
 90
      255
102
RTVSPost2010PropOp44
 70
     1
102
RTVSPost2010Prop45
280
     0
102
RTVSPost2010PropOp45
 70
     1
102
RTVSPost2010Prop46
 90
       50
102
RTVSPost2010PropOp46
 70
     1
102
RTVSPost2010Prop47
 90
       50
102
RTVSPost2010PropOp47
 70
     1
102
RTVSPost2010Prop48
 90
       50
102
RTVSPost2010PropOp48
 70
     1
102
RTVSPost2010Prop49
280
     0
102
RTVSPost2010PropOp49
 70
     1
102
RTVSPost2010Prop50
 90
       50
102
RTVSPost2010PropOp50
 70
     1
102
RTVSPost2010Prop51ColorIndex
 90
      256
102
RTVSPost2010Prop51ColorRGB
 90
-16777216
102
RTVSPost2010PropOp51
 70
     0
102
RTVSPost2010Prop52
140
1.0
102
RTVSPost2010PropOp52
 70
     0
102
RTVSPost2010Prop53
 90
        2
102
RTVSPost2010PropOp53
 70
     1
102
RTVSPost2010Prop54
  1
strokes_ogs.tif
102
RTVSPost2010PropOp54
 70
     1
102
RTVSPost2010Prop55
280
     0
102
RTVSPost2010PropOp55
 70
     1
102
RTVSPost2010Prop56
140
1.0
102
RTVSPost2010PropOp56
 70
     1
102
RTVSPost2010Prop57
140
1.0
102
RTVSPost2010PropOp57
 70
     1
102
RTVSPropertyOp0
 70
     1
102
RTVSPropertyOp1
 70
     1
102
RTVSPropertyOp2
 70
     1
102
RTVSPropertyOp3
 70
     1
102
RTVSPropertyOp4
 70
     1
102
RTVSPropertyOp5
 70
     1
102
RTVSPropertyOp6
 70
     1
102
RTVSPropertyOp7
 70
     1
102
RTVSPropertyOp8
 70
     1
102
RTVSPropertyOp9
 70
     1
102
RTVSPropertyOp10
 70
     1
102
RTVSPropertyOp11
 70
     1
102
RTVSPropertyOp12
 70
     1
102
RTVSPropertyOp13
 70
     1
102
RTVSPropertyOp14
 70
     1
102
RTVSPropertyOp15
 70
     1
102
RTVSPropertyOp16
 70
     1
102
RTVSPropertyOp17
 70
     1
102
RTVSPropertyOp18
 70
     1
102
RTVSPropertyOp19
 70
     1
102
RTVSPropertyOp20
 70
     1
102
RTVSPropertyOp21
 70
     1
102
RTVSPropertyOp22
 70
     1
102
RTVSPropertyOp23
 70
     1
102
RTVSPropertyOp24
 70
     1
102
RTVSPropertyOp25
 70
     1
102
RTVSPropertyOp26
 70
     1
102
RTVSPropertyOp27
 70
     1
102
RTVSPropertyOp28
 70
     1
102
RTVSPropertyOp29
 70
     1
102
RTVSPropertyOp30
 70
     1
102
RTVSPropertyOp31
 70
     1
102
RTVSPropertyOp32
 70
     1
102
RTVSPropertyOp33
 70
     1
102
RTVSPropertyOp34
 70
     1
102
RTVSPropertyOp35
 70
     1
102
RTVSPropertyOp36
 70
     1
102
RTVSPropertyOp37
 70
     1
102
RTVSPropertyOp38
 70
     1
102
RTVSPropertyOp39
 70
     1
102
RTVSPropertyOp40
 70
     1
102
RTVSPropertyOp41
 70
     1
102
RTVSPropertyOp42
 70
     1
102
RTVSPropertyOp43
 70
     1
102
RTVSPropertyOp44
 70
     1
102
RTVSPropertyOp45
 70
     1
102
RTVSPropertyOp46
 70
     1
102
RTVSPropertyOp47
 70
     1
102
RTVSPropertyOp48
 70
     1
102
RTVSPropertyOp49
 70
     1
102
RTVSPropertyOp50
 70
     1
102
RTVSPropertyOp51
 70
     0
102
RTVSPropertyOp52
 70
     0
102
RTVSPropertyOp53
 70
     1
102
RTVSPropertyOp54
 70
     1
102
RTVSPropertyOp55
 70
     1
102
RTVSPropertyOp56
 70
     1
102
RTVSPropertyOp57
 70
     1
102
RTVSPropertyOp58
 70
     1
102
RTVSPropertyOp59
 70
     1
102
RTVSPropertyOp60
 70
     1
102
RTVSPropertyOp61
 70
     1
102
RTVSPropertyOp62
 70
     1
  0
ENDSEC
  0
EOF
