  0
SECTION
  2
HEADER
  9
$ACADVER
  1
AC1015
  9
$ACADMAINTVER
 70
    20
  9
$DWGCODEPAGE
  3
ANSI_932
  9
$INSBASE
 10
0.0
 20
0.0
 30
0.0
  9
$EXTMIN
 10
-0.1281640493871237
 20
-0.0906302920675444
 30
-0.0015258207003583
  9
$EXTMAX
 10
4200.128183607161
 20
2970.090644122207
 30
0.0000000349246037
  9
$LIMMIN
 10
0.0
 20
0.0
  9
$LIMMAX
 10
12.0
 20
9.0
  9
$ORTHOMODE
 70
     0
  9
$REGENMODE
 70
     1
  9
$FILLMODE
 70
     1
  9
$QTEXTMODE
 70
     0
  9
$MIRRTEXT
 70
     0
  9
$LTSCALE
 40
10.0
  9
$ATTMODE
 70
     1
  9
$TEXTSIZE
 40
0.0
  9
$TRACEWID
 40
0.05
  9
$TEXTSTYLE
  7
STANDARD
  9
$CLAYER
  8
0
  9
$CELTYPE
  6
CONTINUOUS
  9
$CECOLOR
 62
   256
  9
$CELTSCALE
 40
1.0
  9
$DISPSILH
 70
     0
  9
$DIMSCALE
 40
1.0
  9
$DIMASZ
 40
0.18
  9
$DIMEXO
 40
0.0625
  9
$DIMDLI
 40
0.38
  9
$DIMRND
 40
0.0
  9
$DIMDLE
 40
0.0
  9
$DIMEXE
 40
0.18
  9
$DIMTP
 40
0.0
  9
$DIMTM
 40
0.0
  9
$DIMTXT
 40
0.18
  9
$DIMCEN
 40
0.09
  9
$DIMTSZ
 40
0.0
  9
$DIMTOL
 70
     0
  9
$DIMLIM
 70
     0
  9
$DIMTIH
 70
     1
  9
$DIMTOH
 70
     1
  9
$DIMSE1
 70
     0
  9
$DIMSE2
 70
     0
  9
$DIMTAD
 70
     0
  9
$DIMZIN
 70
     0
  9
$DIMBLK
  1

  9
$DIMASO
 70
     1
  9
$DIMSHO
 70
     1
  9
$DIMPOST
  1

  9
$DIMAPOST
  1

  9
$DIMALT
 70
     0
  9
$DIMALTD
 70
     2
  9
$DIMALTF
 40
25.4
  9
$DIMLFAC
 40
1.0
  9
$DIMTOFL
 70
     0
  9
$DIMTVP
 40
0.0
  9
$DIMTIX
 70
     0
  9
$DIMSOXD
 70
     0
  9
$DIMSAH
 70
     0
  9
$DIMBLK1
  1

  9
$DIMBLK2
  1

  9
$DIMSTYLE
  2
Standard
  9
$DIMCLRD
 70
     0
  9
$DIMCLRE
 70
     0
  9
$DIMCLRT
 70
     0
  9
$DIMTFAC
 40
1.0
  9
$DIMGAP
 40
0.09
  9
$DIMJUST
 70
     0
  9
$DIMSD1
 70
     0
  9
$DIMSD2
 70
     0
  9
$DIMTOLJ
 70
     1
  9
$DIMTZIN
 70
     0
  9
$DIMALTZ
 70
     0
  9
$DIMALTTZ
 70
     0
  9
$DIMUPT
 70
     0
  9
$DIMDEC
 70
     4
  9
$DIMTDEC
 70
     4
  9
$DIMALTU
 70
     2
  9
$DIMALTTD
 70
     2
  9
$DIMTXSTY
  7
STANDARD
  9
$DIMAUNIT
 70
     0
  9
$DIMADEC
 70
     0
  9
$DIMALTRND
 40
0.0
  9
$DIMAZIN
 70
     0
  9
$DIMDSEP
 70
    46
  9
$DIMATFIT
 70
     3
  9
$DIMFRAC
 70
     0
  9
$DIMLDRBLK
  1

  9
$DIMLUNIT
 70
     2
  9
$DIMLWD
 70
    -2
  9
$DIMLWE
 70
    -2
  9
$DIMTMOVE
 70
     0
  9
$LUNITS
 70
     2
  9
$LUPREC
 70
     4
  9
$SKETCHINC
 40
0.1
  9
$FILLETRAD
 40
0.0
  9
$AUNITS
 70
     0
  9
$AUPREC
 70
     0
  9
$MENU
  1
.
  9
$ELEVATION
 40
0.0
  9
$PELEVATION
 40
0.0
  9
$THICKNESS
 40
0.0
  9
$LIMCHECK
 70
     0
  9
$CHAMFERA
 40
0.0
  9
$CHAMFERB
 40
0.0
  9
$CHAMFERC
 40
0.0
  9
$CHAMFERD
 40
0.0
  9
$SKPOLY
 70
     0
  9
$TDCREATE
 40
2459647.761782408
  9
$TDUCREATE
 40
2459647.386782407
  9
$TDUPDATE
 40
2459647.762037037
  9
$TDUUPDATE
 40
2459647.387037037
  9
$TDINDWG
 40
0.0002546296
  9
$TDUSRTIMER
 40
0.0002546296
  9
$USRTIMER
 70
     1
  9
$ANGBASE
 50
0.0
  9
$ANGDIR
 70
     0
  9
$PDMODE
 70
     0
  9
$PDSIZE
 40
5.0
  9
$PLINEWID
 40
0.0
  9
$SPLFRAME
 70
     0
  9
$SPLINETYPE
 70
     6
  9
$SPLINESEGS
 70
     8
  9
$HANDSEED
  5
46B
  9
$SURFTAB1
 70
     6
  9
$SURFTAB2
 70
     6
  9
$SURFTYPE
 70
     6
  9
$SURFU
 70
     6
  9
$SURFV
 70
     6
  9
$UCSBASE
  2

  9
$UCSNAME
  2

  9
$UCSORG
 10
0.0
 20
0.0
 30
0.0
  9
$UCSXDIR
 10
1.0
 20
0.0
 30
0.0
  9
$UCSYDIR
 10
0.0
 20
1.0
 30
0.0
  9
$UCSORTHOREF
  2

  9
$UCSORTHOVIEW
 70
     0
  9
$UCSORGTOP
 10
0.0
 20
0.0
 30
0.0
  9
$UCSORGBOTTOM
 10
0.0
 20
0.0
 30
0.0
  9
$UCSORGLEFT
 10
0.0
 20
0.0
 30
0.0
  9
$UCSORGRIGHT
 10
0.0
 20
0.0
 30
0.0
  9
$UCSORGFRONT
 10
0.0
 20
0.0
 30
0.0
  9
$UCSORGBACK
 10
0.0
 20
0.0
 30
0.0
  9
$PUCSBASE
  2

  9
$PUCSNAME
  2

  9
$PUCSORG
 10
0.0
 20
0.0
 30
0.0
  9
$PUCSXDIR
 10
1.0
 20
0.0
 30
0.0
  9
$PUCSYDIR
 10
0.0
 20
1.0
 30
0.0
  9
$PUCSORTHOREF
  2

  9
$PUCSORTHOVIEW
 70
     0
  9
$PUCSORGTOP
 10
0.0
 20
0.0
 30
0.0
  9
$PUCSORGBOTTOM
 10
0.0
 20
0.0
 30
0.0
  9
$PUCSORGLEFT
 10
0.0
 20
0.0
 30
0.0
  9
$PUCSORGRIGHT
 10
0.0
 20
0.0
 30
0.0
  9
$PUCSORGFRONT
 10
0.0
 20
0.0
 30
0.0
  9
$PUCSORGBACK
 10
0.0
 20
0.0
 30
0.0
  9
$USERI1
 70
     0
  9
$USERI2
 70
     0
  9
$USERI3
 70
     0
  9
$USERI4
 70
     0
  9
$USERI5
 70
     0
  9
$USERR1
 40
0.0
  9
$USERR2
 40
0.0
  9
$USERR3
 40
0.0
  9
$USERR4
 40
0.0
  9
$USERR5
 40
0.0
  9
$WORLDVIEW
 70
     1
  9
$SHADEDGE
 70
     3
  9
$SHADEDIF
 70
    70
  9
$TILEMODE
 70
     1
  9
$MAXACTVP
 70
    64
  9
$PINSBASE
 10
0.0
 20
0.0
 30
0.0
  9
$PLIMCHECK
 70
     0
  9
$PEXTMIN
 10
1.000000000000000E+20
 20
1.000000000000000E+20
 30
1.000000000000000E+20
  9
$PEXTMAX
 10
-1.000000000000000E+20
 20
-1.000000000000000E+20
 30
-1.000000000000000E+20
  9
$PLIMMIN
 10
0.0
 20
0.0
  9
$PLIMMAX
 10
12.0
 20
9.0
  9
$UNITMODE
 70
     0
  9
$VISRETAIN
 70
     1
  9
$PLINEGEN
 70
     0
  9
$PSLTSCALE
 70
     1
  9
$TREEDEPTH
 70
  3020
  9
$CMLSTYLE
  2
Standard
  9
$CMLJUST
 70
     0
  9
$CMLSCALE
 40
1.0
  9
$PROXYGRAPHICS
 70
     1
  9
$MEASUREMENT
 70
     0
  9
$CELWEIGHT
370
    -1
  9
$ENDCAPS
280
     0
  9
$JOINSTYLE
280
     0
  9
$LWDISPLAY
290
     0
  9
$INSUNITS
 70
     0
  9
$HYPERLINKBASE
  1

  9
$STYLESHEET
  1

  9
$XEDIT
290
     1
  9
$CEPSNTYPE
380
     0
  9
$PSTYLEMODE
290
     1
  9
$FINGERPRINTGUID
  2
{2F8FDA9B-77B4-7B4D-B243-E32915C1500D}
  9
$VERSIONGUID
  2
{ADC504C1-682B-974F-8F17-3BD1284725D0}
  9
$EXTNAMES
290
     1
  9
$PSVPSCALE
 40
0.0
  9
$OLESTARTUP
290
     0
  0
ENDSEC
  0
SECTION
  2
CLASSES
  0
CLASS
  1
ACDBDICTIONARYWDFLT
  2
AcDbDictionaryWithDefault
  3
ObjectDBX Classes
 90
        0
280
     0
281
     0
  0
CLASS
  1
MATERIAL
  2
AcDbMaterial
  3
ObjectDBX Classes
 90
     1153
280
     0
281
     0
  0
CLASS
  1
VISUALSTYLE
  2
AcDbVisualStyle
  3
ObjectDBX Classes
 90
     4095
280
     0
281
     0
  0
CLASS
  1
SCALE
  2
AcDbScale
  3
ObjectDBX Classes
 90
     1153
280
     0
281
     0
  0
CLASS
  1
TABLESTYLE
  2
AcDbTableStyle
  3
ObjectDBX Classes
 90
     4095
280
     0
281
     0
  0
CLASS
  1
MLEADERSTYLE
  2
AcDbMLeaderStyle
  3
ACDB_MLEADERSTYLE_CLASS
 90
     4095
280
     0
281
     0
  0
CLASS
  1
ACDBSECTIONVIEWSTYLE
  2
AcDbSectionViewStyle
  3
ObjectDBX Classes
 90
     1025
280
     0
281
     0
  0
CLASS
  1
ACDBDETAILVIEWSTYLE
  2
AcDbDetailViewStyle
  3
ObjectDBX Classes
 90
     1025
280
     0
281
     0
  0
CLASS
  1
DICTIONARYVAR
  2
AcDbDictionaryVar
  3
ObjectDBX Classes
 90
        0
280
     0
281
     0
  0
CLASS
  1
CELLSTYLEMAP
  2
AcDbCellStyleMap
  3
ObjectDBX Classes
 90
     1152
280
     0
281
     0
  0
CLASS
  1
ACDBPLACEHOLDER
  2
AcDbPlaceHolder
  3
ObjectDBX Classes
 90
        0
280
     0
281
     0
  0
CLASS
  1
LAYOUT
  2
AcDbLayout
  3
ObjectDBX Classes
 90
        0
280
     0
281
     0
  0
ENDSEC
  0
SECTION
  2
TABLES
  0
TABLE
  2
VPORT
  5
8
330
0
100
AcDbSymbolTable
 70
     1
  0
VPORT
  5
8E
330
8
100
AcDbSymbolTableRecord
100
AcDbViewportTableRecord
  2
*Active
 70
     0
 10
0.0
 20
0.0
 11
1.0
 21
1.0
 12
2100.000009778887
 22
1485.00000691507
 13
0.0
 23
0.0
 14
1.0
 24
1.0
 15
0.0
 25
0.0
 16
0.0
 26
0.0
 36
1.0
 17
0.0
 27
0.0
 37
0.0
 40
2991.6524643498
 41
2.285886610373944
 42
50.0
 43
0.0
 44
0.0
 50
0.0
 51
0.0
 71
     0
 72
   100
 73
     1
 74
     0
 75
     1
 76
     0
 77
     0
 78
     0
281
     0
 65
     1
110
0.0
120
0.0
130
0.0
111
1.0
121
0.0
131
0.0
112
0.0
122
1.0
132
0.0
 79
     0
146
0.0
1001
ACAD_NAV_VCDISPLAY
1070
     3
  0
ENDTAB
  0
TABLE
  2
LTYPE
  5
5
330
0
100
AcDbSymbolTable
 70
     9
  0
LTYPE
  5
5A
330
5
100
AcDbSymbolTableRecord
100
AcDbLinetypeTableRecord
  2
ByBlock
 70
     0
  3

 72
    65
 73
     0
 40
0.0
  0
LTYPE
  5
5B
330
5
100
AcDbSymbolTableRecord
100
AcDbLinetypeTableRecord
  2
ByLayer
 70
     0
  3

 72
    65
 73
     0
 40
0.0
  0
LTYPE
  5
5C
330
5
100
AcDbSymbolTableRecord
100
AcDbLinetypeTableRecord
  2
CONTINUOUS
 70
     0
  3
SolidLine
 72
    65
 73
     0
 40
0.0
  0
LTYPE
  5
73
330
5
100
AcDbSymbolTableRecord
100
AcDbLinetypeTableRecord
  2
DOT
 70
     0
  3
--  --  --  --  --  --  --  --     
 72
    65
 73
     2
 40
3.0
 49
1.0
 74
     0
 49
-2.0
 74
     0
  0
LTYPE
  5
74
330
5
100
AcDbSymbolTableRecord
100
AcDbLinetypeTableRecord
  2
DASHED
 70
     0
  3
----    ----    ----    ----    
 72
    65
 73
     2
 40
5.0
 49
2.0
 74
     0
 49
-3.0
 74
     0
  0
LTYPE
  5
75
330
5
100
AcDbSymbolTableRecord
100
AcDbLinetypeTableRecord
  2
DASHED2
 70
     0
  3
------  ------  ------  ------ 
 72
    65
 73
     2
 40
10.0
 49
4.0
 74
     0
 49
-6.0
 74
     0
  0
LTYPE
  5
76
330
5
100
AcDbSymbolTableRecord
100
AcDbLinetypeTableRecord
  2
CENTER
 70
     0
  3
----- - ----- - ----- - ----- - 
 72
    65
 73
     4
 40
10.0
 49
6.0
 74
     0
 49
-3.0
 74
     0
 49
1.0
 74
     0
 49
-3.0
 74
     0
  0
LTYPE
  5
77
330
5
100
AcDbSymbolTableRecord
100
AcDbLinetypeTableRecord
  2
CENTER2
 70
     0
  3
----------  --  ----------  -- 
 72
    65
 73
     4
 40
17.0
 49
12.0
 74
     0
 49
-5.0
 74
     0
 49
2.0
 74
     0
 49
-5.0
 74
     0
  0
LTYPE
  5
78
330
5
100
AcDbSymbolTableRecord
100
AcDbLinetypeTableRecord
  2
PHANTOM
 70
     0
  3
--- - - --- - - --- - - --- - -
 72
    65
 73
     6
 40
13.0
 49
5.0
 74
     0
 49
-3.0
 74
     0
 49
1.0
 74
     0
 49
-3.0
 74
     0
 49
1.0
 74
     0
 49
-3.0
 74
     0
  0
LTYPE
  5
79
330
5
100
AcDbSymbolTableRecord
100
AcDbLinetypeTableRecord
  2
PHANTOM2
 70
     0
  3
--------  -  -  --------  -  -
 72
    65
 73
     6
 40
20.0
 49
6.0
 74
     0
 49
-5.0
 74
     0
 49
2.0
 74
     0
 49
-5.0
 74
     0
 49
2.0
 74
     0
 49
-5.0
 74
     0
  0
LTYPE
  5
7A
330
5
100
AcDbSymbolTableRecord
100
AcDbLinetypeTableRecord
  2
HIDDEN
 70
     0
  3
-   -   -   -   -   -   -   -   
 72
    65
 73
     2
 40
3.0
 49
0.5
 74
     0
 49
-2.5
 74
     0
  0
ENDTAB
  0
TABLE
  2
LAYER
  5
2
330
0
100
AcDbSymbolTable
 70
    13
  0
LAYER
  5
54
102
{ACAD_XDICTIONARY
360
405
102
}
330
2
100
AcDbSymbolTableRecord
100
AcDbLayerTableRecord
  2
0
 70
     0
 62
     7
  6
CONTINUOUS
370
    -3
390
F
  0
LAYER
  5
7F
102
{ACAD_XDICTIONARY
360
407
102
}
330
2
100
AcDbSymbolTableRecord
100
AcDbLayerTableRecord
  2
2-0
 70
     0
 62
     3
  6
CONTINUOUS
370
    -3
390
F
  0
LAYER
  5
80
102
{ACAD_XDICTIONARY
360
409
102
}
330
2
100
AcDbSymbolTableRecord
100
AcDbLayerTableRecord
  2
3-0
 70
     0
 62
     7
  6
CONTINUOUS
370
    -3
390
F
  0
LAYER
  5
81
102
{ACAD_XDICTIONARY
360
40B
102
}
330
2
100
AcDbSymbolTableRecord
100
AcDbLayerTableRecord
  2
4-0
 70
     0
 62
     7
  6
CONTINUOUS
370
    -3
390
F
  0
LAYER
  5
82
102
{ACAD_XDICTIONARY
360
40D
102
}
330
2
100
AcDbSymbolTableRecord
100
AcDbLayerTableRecord
  2
5-0
 70
     0
 62
     7
  6
CONTINUOUS
370
    -3
390
F
  0
LAYER
  5
83
102
{ACAD_XDICTIONARY
360
40F
102
}
330
2
100
AcDbSymbolTableRecord
100
AcDbLayerTableRecord
  2
6-0
 70
     0
 62
    -7
  6
CONTINUOUS
370
    -3
390
F
  0
LAYER
  5
84
102
{ACAD_XDICTIONARY
360
411
102
}
330
2
100
AcDbSymbolTableRecord
100
AcDbLayerTableRecord
  2
7-0
 70
     0
 62
    -7
  6
CONTINUOUS
370
    -3
390
F
  0
LAYER
  5
85
102
{ACAD_XDICTIONARY
360
413
102
}
330
2
100
AcDbSymbolTableRecord
100
AcDbLayerTableRecord
  2
8-0
 70
     0
 62
     7
  6
CONTINUOUS
370
    -3
390
F
  0
LAYER
  5
86
102
{ACAD_XDICTIONARY
360
415
102
}
330
2
100
AcDbSymbolTableRecord
100
AcDbLayerTableRecord
  2
9-0
 70
     0
 62
     7
  6
CONTINUOUS
370
    -3
390
F
  0
LAYER
  5
87
102
{ACAD_XDICTIONARY
360
417
102
}
330
2
100
AcDbSymbolTableRecord
100
AcDbLayerTableRecord
  2
A-0
 70
     0
 62
     1
  6
CONTINUOUS
370
    -3
390
F
  0
LAYER
  5
88
102
{ACAD_XDICTIONARY
360
419
102
}
330
2
100
AcDbSymbolTableRecord
100
AcDbLayerTableRecord
  2
B-0
 70
     0
 62
     6
  6
CENTER
370
    -3
390
F
  0
LAYER
  5
89
102
{ACAD_XDICTIONARY
360
41B
102
}
330
2
100
AcDbSymbolTableRecord
100
AcDbLayerTableRecord
  2
D-0
 70
     0
 62
     5
  6
CONTINUOUS
370
    -3
390
F
  0
LAYER
  5
8F
102
{ACAD_XDICTIONARY
360
41D
102
}
330
2
100
AcDbSymbolTableRecord
100
AcDbLayerTableRecord
  2
1-0
 70
     0
 62
     7
  6
CONTINUOUS
370
    -3
390
F
  0
ENDTAB
  0
TABLE
  2
STYLE
  5
3
330
0
100
AcDbSymbolTable
 70
     6
  0
STYLE
  5
55
330
3
100
AcDbSymbolTableRecord
100
AcDbTextStyleTableRecord
  2
STANDARD
 70
     0
 40
0.0
 41
1.0
 50
0.0
 71
     0
 42
0.0
  3
txt.shx
  4
extfont.shx
  0
STYLE
  5
59
330
3
100
AcDbSymbolTableRecord
100
AcDbTextStyleTableRecord
  2
Annotative
 70
     0
 40
0.0
 41
1.0
 50
0.0
 71
     0
 42
0.2
  3
txt
  4

1001
AcadAnnotative
1000
AnnotativeData
1002
{
1070
     1
1070
     1
1002
}
  0
STYLE
  5
7B
330
3
100
AcDbSymbolTableRecord
100
AcDbTextStyleTableRecord
  2
TATEGAKI
 70
     4
 40
0.0
 41
1.0
 50
0.0
 71
     0
 42
0.0
  3
txt.shx
  4
extfont.shx
  0
STYLE
  5
7C
330
3
100
AcDbSymbolTableRecord
100
AcDbTextStyleTableRecord
  2
DIM
 70
     0
 40
0.0
 41
0.75
 50
0.0
 71
     0
 42
0.0
  3
txt.shx
  4
extfont.shx
  0
STYLE
  5
7D
330
3
100
AcDbSymbolTableRecord
100
AcDbTextStyleTableRecord
  2
_GOTHIC__
 70
     0
 40
0.0
 41
1.0
 50
0.0
 71
     0
 42
0.0
  3
MS Gothic
  4

  0
STYLE
  5
7E
330
3
100
AcDbSymbolTableRecord
100
AcDbTextStyleTableRecord
  2
_TATEGOTHIC_
 70
     4
 40
0.0
 41
1.0
 50
0.0
 71
     0
 42
0.0
  3
@MS Gothic
  4

  0
ENDTAB
  0
TABLE
  2
VIEW
  5
6
330
0
100
AcDbSymbolTable
 70
     0
  0
ENDTAB
  0
TABLE
  2
UCS
  5
7
330
0
100
AcDbSymbolTable
 70
     0
  0
ENDTAB
  0
TABLE
  2
APPID
  5
9
330
0
100
AcDbSymbolTable
 70
     4
  0
APPID
  5
56
330
9
100
AcDbSymbolTableRecord
100
AcDbRegAppTableRecord
  2
ACAD
 70
     0
  0
APPID
  5
5D
330
9
100
AcDbSymbolTableRecord
100
AcDbRegAppTableRecord
  2
AcadAnnotative
 70
     0
  0
APPID
  5
429
330
9
100
AcDbSymbolTableRecord
100
AcDbRegAppTableRecord
  2
ACAD_NAV_VCDISPLAY
 70
     0
  0
APPID
  5
462
330
9
100
AcDbSymbolTableRecord
100
AcDbRegAppTableRecord
  2
ACAD_MLEADERVER
 70
     0
  0
ENDTAB
  0
TABLE
  2
DIMSTYLE
  5
A
330
0
100
AcDbSymbolTable
 70
     2
100
AcDbDimStyleTable
 71
     0
  0
DIMSTYLE
105
57
330
A
100
AcDbSymbolTableRecord
100
AcDbDimStyleTableRecord
  2
Standard
 70
     0
340
55
  0
DIMSTYLE
105
58
330
A
100
AcDbSymbolTableRecord
100
AcDbDimStyleTableRecord
  2
Annotative
 70
     0
340
55
1001
AcadAnnotative
1000
AnnotativeData
1002
{
1070
     1
1070
     1
1002
}
  0
ENDTAB
  0
TABLE
  2
BLOCK_RECORD
  5
1
330
0
100
AcDbSymbolTable
 70
     0
  0
BLOCK_RECORD
  5
6F
330
1
100
AcDbSymbolTableRecord
100
AcDbBlockTableRecord
  2
*Model_Space
340
72
  0
BLOCK_RECORD
  5
6B
330
1
100
AcDbSymbolTableRecord
100
AcDbBlockTableRecord
  2
*Paper_Space
340
6E
  0
ENDTAB
  0
ENDSEC
  0
SECTION
  2
BLOCKS
  0
BLOCK
  5
70
330
6F
100
AcDbEntity
  8
0
100
AcDbBlockBegin
  2
*Model_Space
 70
     0
 10
0.0
 20
0.0
 30
0.0
  3
*Model_Space
  1

  0
ENDBLK
  5
71
330
6F
100
AcDbEntity
  8
0
100
AcDbBlockEnd
  0
BLOCK
  5
6C
330
6B
100
AcDbEntity
 67
     1
  8
0
100
AcDbBlockBegin
  2
*Paper_Space
 70
     0
 10
0.0
 20
0.0
 30
0.0
  3
*Paper_Space
  1

  0
ENDBLK
  5
6D
330
6B
100
AcDbEntity
 67
     1
  8
0
100
AcDbBlockEnd
  0
ENDSEC
  0
SECTION
  2
ENTITIES
  0
LINE
  5
90
330
6F
100
AcDbEntity
  8
1-0
  6
Continuous
 62
     7
100
AcDbLine
 10
0.128173828274
 20
0.090637207137
 30
0.0
 11
4200.128173828274
 21
0.090637207137
 31
0.0
  0
LINE
  5
91
330
6F
100
AcDbEntity
  8
1-0
  6
Continuous
 62
     7
100
AcDbLine
 10
4200.128173828274
 20
0.090637207137
 30
0.0
 11
4200.128173828274
 21
2970.090637207137
 31
0.0
  0
LINE
  5
92
330
6F
100
AcDbEntity
  8
1-0
  6
Continuous
 62
     7
100
AcDbLine
 10
4200.128173828274
 20
2970.090637207137
 30
0.0
 11
0.128173828274
 21
2970.090637207137
 31
0.0
  0
LINE
  5
93
330
6F
100
AcDbEntity
  8
1-0
  6
Continuous
 62
     7
100
AcDbLine
 10
0.128173828274
 20
2970.090637207137
 30
0.0
 11
0.128173828274
 21
0.090637207137
 31
0.0
  0
LINE
  5
94
330
6F
100
AcDbEntity
  8
9-0
  6
Continuous
 62
     7
100
AcDbLine
 10
100.128173778887
 20
100.09063691507
 30
0.0
 11
4100.128173778887
 21
100.09063691507
 31
0.0
  0
LINE
  5
95
330
6F
100
AcDbEntity
  8
9-0
  6
Continuous
 62
     7
100
AcDbLine
 10
2500.128173778887
 20
300.09063691507
 30
0.0
 11
4100.128173778887
 21
300.09063691507
 31
0.0
  0
LINE
  5
96
330
6F
100
AcDbEntity
  8
8-0
  6
Continuous
 62
     7
100
AcDbLine
 10
2500.128173778887
 20
240.09063691507
 30
0.0
 11
3150.128173778887
 21
240.09063691507
 31
0.0
  0
LINE
  5
97
330
6F
100
AcDbEntity
  8
9-0
  6
Continuous
 62
     7
100
AcDbLine
 10
4100.128173778887
 20
100.09063691507
 30
0.0
 11
4100.128173778887
 21
2870.090636915071
 31
0.0
  0
LINE
  5
98
330
6F
100
AcDbEntity
  8
9-0
  6
Continuous
 62
     7
100
AcDbLine
 10
4100.128173778887
 20
2870.090636915071
 30
0.0
 11
100.128173778887
 21
2870.090636915071
 31
0.0
  0
LINE
  5
99
330
6F
100
AcDbEntity
  8
9-0
  6
Continuous
 62
     7
100
AcDbLine
 10
100.128173778887
 20
2870.090636915071
 30
0.0
 11
100.128173778887
 21
100.09063691507
 31
0.0
  0
LINE
  5
9A
330
6F
100
AcDbEntity
  8
8-0
  6
Continuous
 62
     7
100
AcDbLine
 10
3150.128173778887
 20
100.09063691507
 30
0.0
 11
3150.128173778887
 21
300.09063691507
 31
0.0
  0
LINE
  5
9B
330
6F
100
AcDbEntity
  8
9-0
  6
Continuous
 62
     7
100
AcDbLine
 10
2500.128173778887
 20
100.09063691507
 30
0.0
 11
2500.128173778887
 21
300.09063691507
 31
0.0
  0
TEXT
  5
9C
330
6F
100
AcDbEntity
  8
D-0
 62
     5
100
AcDbText
 10
2788.563
 20
252.621
 30
0.0
 40
31.104
  1
品番
100
AcDbText
  0
TEXT
  5
9D
330
6F
100
AcDbEntity
  8
D-0
 62
     5
100
AcDbText
 10
2619.967
 20
145.071
 30
0.0
 40
51.84000000000001
  1
LW-1200 R
100
AcDbText
  0
TEXT
  5
9E
330
6F
100
AcDbEntity
  8
D-0
 62
     5
100
AcDbText
 10
3353.688
 20
192.4109999999999
 30
0.0
 40
62.208
  1
アイオ産業株式会社
100
AcDbText
  0
TEXT
  5
9F
330
6F
100
AcDbEntity
  8
D-0
 62
     5
100
AcDbText
 10
3428.069000000001
 20
124.604
 30
0.0
 40
31.104
  1
アイオシステムキッチン事業部
100
AcDbText
  0
ARC
  5
A0
330
6F
100
AcDbEntity
  8
3-0
  6
Continuous
 62
     7
100
AcDbCircle
 10
3255.78771200376
 20
200.294803481434
 30
0.0
 40
63.24278074506601
100
AcDbArc
 50
319.753
 51
220.247
  0
CIRCLE
  5
A1
330
6F
100
AcDbEntity
  8
3-0
  6
Continuous
 62
     7
100
AcDbCircle
 10
3255.78771200376
 20
200.294803481434
 30
0.0
 40
71.58304716886799
  0
CIRCLE
  5
A2
330
6F
100
AcDbEntity
  8
3-0
  6
Continuous
 62
     7
100
AcDbCircle
 10
3255.78771200376
 20
200.294803481434
 30
0.0
 40
72.000060490058
  0
CIRCLE
  5
A3
330
6F
100
AcDbEntity
  8
3-0
  6
Continuous
 62
     7
100
AcDbCircle
 10
3255.78771200376
 20
200.294803481434
 30
0.0
 40
72.417073811248
  0
CIRCLE
  5
A4
330
6F
100
AcDbEntity
  8
3-0
  6
Continuous
 62
     7
100
AcDbCircle
 10
3255.78771200376
 20
200.294803481434
 30
0.0
 40
72.834087132438
  0
CIRCLE
  5
A5
330
6F
100
AcDbEntity
  8
3-0
  6
Continuous
 62
     7
100
AcDbCircle
 10
3255.78771200376
 20
200.294803481434
 30
0.0
 40
73.251100453628
  0
CIRCLE
  5
A6
330
6F
100
AcDbEntity
  8
3-0
  6
Continuous
 62
     7
100
AcDbCircle
 10
3255.78771200376
 20
200.294803481434
 30
0.0
 40
73.459607114223
  0
CIRCLE
  5
A7
330
6F
100
AcDbEntity
  8
3-0
  6
Continuous
 62
     7
100
AcDbCircle
 10
3255.78771200376
 20
200.294803481434
 30
0.0
 40
73.04259379303299
  0
CIRCLE
  5
A8
330
6F
100
AcDbEntity
  8
3-0
  6
Continuous
 62
     7
100
AcDbCircle
 10
3255.78771200376
 20
200.294803481434
 30
0.0
 40
72.62558047184301
  0
CIRCLE
  5
A9
330
6F
100
AcDbEntity
  8
3-0
  6
Continuous
 62
     7
100
AcDbCircle
 10
3255.78771200376
 20
200.294803481434
 30
0.0
 40
72.20856715065299
  0
CIRCLE
  5
AA
330
6F
100
AcDbEntity
  8
3-0
  6
Continuous
 62
     7
100
AcDbCircle
 10
3255.78771200376
 20
200.294803481434
 30
0.0
 40
71.791553829463
  0
CIRCLE
  5
AB
330
6F
100
AcDbEntity
  8
3-0
  6
Continuous
 62
     7
100
AcDbCircle
 10
3255.78771200376
 20
200.294803481434
 30
0.0
 40
71.791553829463
  0
ARC
  5
AC
330
6F
100
AcDbEntity
  8
3-0
  6
Continuous
 62
     7
100
AcDbCircle
 10
3255.78771200376
 20
200.294803481434
 30
0.0
 40
63.45128740566099
100
AcDbArc
 50
319.753
 51
220.247
  0
CIRCLE
  5
AD
330
6F
100
AcDbEntity
  8
3-0
  6
Continuous
 62
     7
100
AcDbCircle
 10
3255.78771200376
 20
200.294803481434
 30
0.0
 40
71.374540508273
  0
ARC
  5
AE
330
6F
100
AcDbEntity
  8
3-0
  6
Continuous
 62
     7
100
AcDbCircle
 10
3255.78771200376
 20
200.294803481434
 30
0.0
 40
63.03427408447099
100
AcDbArc
 50
319.753
 51
220.247
  0
TEXT
  5
AF
330
6F
100
AcDbEntity
  8
3-0
 62
     7
100
AcDbText
 10
3216.583
 20
142.289
 30
0.0
 40
48.64
  1
A
100
AcDbText
  0
TEXT
  5
B0
330
6F
100
AcDbEntity
  8
3-0
 62
     7
100
AcDbText
 10
3259.074
 20
142.392
 30
0.0
 40
48.64
  1
I
100
AcDbText
  0
TEXT
  5
B1
330
6F
100
AcDbEntity
  8
3-0
 62
     7
100
AcDbText
 10
3269.472
 20
142.357
 30
0.0
 40
48.64
  1
O
100
AcDbText
  0
LINE
  5
B2
330
6F
100
AcDbEntity
  8
D-0
  6
Continuous
 62
     5
100
AcDbLine
 10
2755.070446778887
 20
2720.05220691507
 30
0.0
 11
2755.070446778887
 21
2020.05220691507
 31
0.0
  0
LINE
  5
B3
330
6F
100
AcDbEntity
  8
D-0
  6
Continuous
 62
     5
100
AcDbLine
 10
2755.070446778887
 20
2670.05220691507
 30
0.0
 11
3850.104838778887
 21
2670.05220691507
 31
0.0
  0
LINE
  5
B4
330
6F
100
AcDbEntity
  8
D-0
  6
Continuous
 62
     5
100
AcDbLine
 10
2755.070446778887
 20
2620.05220691507
 30
0.0
 11
3850.104838778887
 21
2620.05220691507
 31
0.0
  0
LINE
  5
B5
330
6F
100
AcDbEntity
  8
D-0
  6
Continuous
 62
     5
100
AcDbLine
 10
2755.070446778887
 20
2470.05220691507
 30
0.0
 11
3850.104838778887
 21
2470.05220691507
 31
0.0
  0
LINE
  5
B6
330
6F
100
AcDbEntity
  8
D-0
  6
Continuous
 62
     5
100
AcDbLine
 10
2755.070446778887
 20
2720.05220691507
 30
0.0
 11
3850.104838778887
 21
2720.05220691507
 31
0.0
  0
TEXT
  5
B7
330
6F
100
AcDbEntity
  8
D-0
 62
     5
100
AcDbText
 10
2794.661
 20
1907.498
 30
0.0
 40
25.92
  1
※　弊社製品はすべてF☆☆☆☆に対応しております。
100
AcDbText
  0
LINE
  5
B8
330
6F
100
AcDbEntity
  8
D-0
  6
Continuous
 62
     5
100
AcDbLine
 10
2755.070446778887
 20
2020.05220691507
 30
0.0
 11
3850.104838778887
 21
2020.05220691507
 31
0.0
  0
LINE
  5
B9
330
6F
100
AcDbEntity
  8
D-0
  6
Continuous
 62
     5
100
AcDbLine
 10
2755.070446778887
 20
2070.05220691507
 30
0.0
 11
3850.104838778887
 21
2070.05220691507
 31
0.0
  0
LINE
  5
BA
330
6F
100
AcDbEntity
  8
D-0
  6
Continuous
 62
     5
100
AcDbLine
 10
2755.070446778887
 20
2120.05220691507
 30
0.0
 11
3850.104838778887
 21
2120.05220691507
 31
0.0
  0
LINE
  5
BB
330
6F
100
AcDbEntity
  8
D-0
  6
Continuous
 62
     5
100
AcDbLine
 10
2755.070446778887
 20
2170.05220691507
 30
0.0
 11
3850.104838778887
 21
2170.05220691507
 31
0.0
  0
LINE
  5
BC
330
6F
100
AcDbEntity
  8
D-0
  6
Continuous
 62
     5
100
AcDbLine
 10
2755.070446778887
 20
2220.05220691507
 30
0.0
 11
3850.104838778887
 21
2220.05220691507
 31
0.0
  0
TEXT
  5
BD
330
6F
100
AcDbEntity
  8
D-0
 62
     5
100
AcDbText
 10
2794.661
 20
2082.498
 30
0.0
 40
25.92
  1
ホース
100
AcDbText
  0
TEXT
  5
BE
330
6F
100
AcDbEntity
  8
D-0
 62
     5
100
AcDbText
 10
2794.661
 20
2032.498
 30
0.0
 40
25.92
  1
包丁差し
100
AcDbText
  0
TEXT
  5
BF
330
6F
100
AcDbEntity
  8
D-0
 62
     5
100
AcDbText
 10
2794.661
 20
2182.498
 30
0.0
 40
25.92
  1
丁番
100
AcDbText
  0
TEXT
  5
C0
330
6F
100
AcDbEntity
  8
D-0
 62
     5
100
AcDbText
 10
2794.661
 20
2132.498
 30
0.0
 40
25.92
  1
排水金具
100
AcDbText
  0
TEXT
  5
C1
330
6F
100
AcDbEntity
  8
D-0
 62
     5
100
AcDbText
 10
2794.661
 20
2432.498
 30
0.0
 40
25.92
  1
扉
100
AcDbText
  0
TEXT
  5
C2
330
6F
100
AcDbEntity
  8
D-0
 62
     5
100
AcDbText
 10
2794.661
 20
2582.498
 30
0.0
 40
25.92
  1
木部本体
100
AcDbText
  0
TEXT
  5
C3
330
6F
100
AcDbEntity
  8
D-0
 62
     5
100
AcDbText
 10
2794.661
 20
2632.498
 30
0.0
 40
25.92
  1
シンク
100
AcDbText
  0
TEXT
  5
C4
330
6F
100
AcDbEntity
  8
D-0
 62
     5
100
AcDbText
 10
2794.661
 20
2682.498
 30
0.0
 40
25.92
  1
天板
100
AcDbText
  0
TEXT
  5
C5
330
6F
100
AcDbEntity
  8
D-0
 62
     5
100
AcDbText
 10
3129.081
 20
2082.498
 30
0.0
 40
25.92
  1
塩化ビニール蛇腹30Φｘ80ｃｍ（回転板付）
100
AcDbText
  0
LINE
  5
C6
330
6F
100
AcDbEntity
  8
D-0
  6
Continuous
 62
     5
100
AcDbLine
 10
3850.104838778887
 20
2720.05220691507
 30
0.0
 11
3850.104838778887
 21
2020.05220691507
 31
0.0
  0
LINE
  5
C7
330
6F
100
AcDbEntity
  8
D-0
  6
Continuous
 62
     5
100
AcDbLine
 10
3098.953824778887
 20
2720.05220691507
 30
0.0
 11
3098.953824778887
 21
2020.05220691507
 31
0.0
  0
TEXT
  5
C8
330
6F
100
AcDbEntity
  8
D-0
 62
     5
100
AcDbText
 10
2967.42
 20
2332.498
 30
0.0
 40
25.92
  1
裏
100
AcDbText
  0
TEXT
  5
C9
330
6F
100
AcDbEntity
  8
D-0
 62
     5
100
AcDbText
 10
3129.081
 20
2332.498
 30
0.0
 40
25.92
  1
ウレタンコート化粧ボード（PB)
100
AcDbText
  0
LINE
  5
CA
330
6F
100
AcDbEntity
  8
D-0
  6
Continuous
 62
     5
100
AcDbLine
 10
2947.481398778887
 20
2620.05220691507
 30
0.0
 11
2947.481398778887
 21
2220.05220691507
 31
0.0
  0
TEXT
  5
CB
330
6F
100
AcDbEntity
  8
D-0
 62
     5
100
AcDbText
 10
3129.081
 20
2282.498
 30
0.0
 40
25.92
  1
木口テープ巻
100
AcDbText
  0
TEXT
  5
CC
330
6F
100
AcDbEntity
  8
D-0
 62
     5
100
AcDbText
 10
3129.081
 20
2182.498
 30
0.0
 40
25.92
  1
スライドヒンジ
100
AcDbText
  0
TEXT
  5
CD
330
6F
100
AcDbEntity
  8
D-0
 62
     5
100
AcDbText
 10
2967.42
 20
2282.498
 30
0.0
 40
25.92
  1
木口
100
AcDbText
  0
TEXT
  5
CE
330
6F
100
AcDbEntity
  8
D-0
 62
     5
100
AcDbText
 10
3129.081
 20
2532.498
 30
0.0
 40
25.92
  1
クリーンイーゴスMDF
100
AcDbText
  0
TEXT
  5
CF
330
6F
100
AcDbEntity
  8
D-0
 62
     5
100
AcDbText
 10
3129.081
 20
2482.498
 30
0.0
 40
25.92
  1
EBコート化粧板
100
AcDbText
  0
TEXT
  5
D0
330
6F
100
AcDbEntity
  8
D-0
 62
     5
100
AcDbText
 10
3129.081
 20
2432.498
 30
0.0
 40
25.92
  1
プレコート化粧ボード（PB)
100
AcDbText
  0
TEXT
  5
D1
330
6F
100
AcDbEntity
  8
D-0
 62
     5
100
AcDbText
 10
3129.081
 20
2582.498
 30
0.0
 40
25.92
  1
ウレタンコート化粧ボード（PB)
100
AcDbText
  0
TEXT
  5
D2
330
6F
100
AcDbEntity
  8
D-0
 62
     5
100
AcDbText
 10
2967.42
 20
2482.498
 30
0.0
 40
25.92
  1
地板
100
AcDbText
  0
TEXT
  5
D3
330
6F
100
AcDbEntity
  8
D-0
 62
     5
100
AcDbText
 10
2967.42
 20
2432.498
 30
0.0
 40
25.92
  1
表
100
AcDbText
  0
TEXT
  5
D4
330
6F
100
AcDbEntity
  8
D-0
 62
     5
100
AcDbText
 10
2967.42
 20
2582.498
 30
0.0
 40
25.92
  1
側板
100
AcDbText
  0
TEXT
  5
D5
330
6F
100
AcDbEntity
  8
D-0
 62
     5
100
AcDbText
 10
2967.42
 20
2532.498
 30
0.0
 40
25.92
  1
背板
100
AcDbText
  0
TEXT
  5
D6
330
6F
100
AcDbEntity
  8
D-0
 62
     5
100
AcDbText
 10
3129.081
 20
2682.498
 30
0.0
 40
25.92
  1
SUS-430 ステンレス0.5ｔ（エンボス仕上）
100
AcDbText
  0
TEXT
  5
D7
330
6F
100
AcDbEntity
  8
D-0
 62
     5
100
AcDbText
 10
3129.081
 20
2632.498
 30
0.0
 40
25.92
  1
SUS-430 ステンレス0.4ｔ　静音シンク
100
AcDbText
  0
TEXT
  5
D8
330
6F
100
AcDbEntity
  8
D-0
 62
     5
100
AcDbText
 10
2969.443
 20
2233.352
 30
0.0
 40
25.92
  1
取っ手
100
AcDbText
  0
TEXT
  5
D9
330
6F
100
AcDbEntity
  8
D-0
 62
     5
100
AcDbText
 10
2795.648
 20
1849.096
 30
0.0
 40
25.92
  1
※　左シンクは本図の左右対称です。
100
AcDbText
  0
TEXT
  5
DA
330
6F
100
AcDbEntity
  8
D-0
 62
     5
100
AcDbText
 10
3131.145
 20
2130.737
 30
0.0
 40
25.92
  1
180Φ大型排水トラップ付（\U+FF76
100
AcDbText
  0
TEXT
  5
DB
330
6F
100
AcDbEntity
  8
D-0
 62
     5
100
AcDbText
 10
3129.798
 20
2235.985
 30
0.0
 40
25.92
  1
アルミ製　ラインハンドル
100
AcDbText
  0
LINE
  5
DC
330
6F
100
AcDbEntity
  8
3-0
  6
DASHED2
 62
     7
100
AcDbLine
 10
2767.508013778887
 20
594.14270991507
 30
0.0
 11
2782.508013778887
 21
594.14270991507
 31
0.0
  0
LINE
  5
DD
330
6F
100
AcDbEntity
  8
3-0
  6
Continuous
 62
     7
100
AcDbLine
 10
2767.508013778887
 20
594.14270991507
 30
0.0
 11
3167.508013778887
 21
594.5251849150699
 31
0.0
  0
LINE
  5
DE
330
6F
100
AcDbEntity
  8
A-0
  6
Continuous
 62
     4
100
AcDbLine
 10
3227.508013828274
 20
1480.787677207137
 30
0.0
 11
3227.508013828274
 21
1610.787677207137
 31
0.0
  0
LINE
  5
DF
330
6F
100
AcDbEntity
  8
A-0
  6
Continuous
 62
     4
100
AcDbLine
 10
2767.508013828274
 20
1480.787677207137
 30
0.0
 11
2767.508013828274
 21
1610.787677207137
 31
0.0
  0
TEXT
  5
E0
330
6F
100
AcDbEntity
  8
A-0
 62
     4
100
AcDbText
 10
2966.73
 20
1611.408
 30
0.0
 40
36.288
  1
460
100
AcDbText
  0
LINE
  5
E1
330
6F
100
AcDbEntity
  8
A-0
  6
Continuous
 62
     4
100
AcDbLine
 10
2767.508014044566
 20
1610.787677094835
 30
0.0
 11
3227.508014044573
 21
1610.787677094835
 31
0.0
  0
CIRCLE
  5
E2
330
6F
100
AcDbEntity
  8
A-0
  6
Continuous
 62
     4
100
AcDbCircle
 10
2767.508014044566
 20
1610.787677094835
 30
0.0
 40
0.25
  0
CIRCLE
  5
E3
330
6F
100
AcDbEntity
  8
A-0
  6
Continuous
 62
     4
100
AcDbCircle
 10
2767.508014044566
 20
1610.787677094835
 30
0.0
 40
0.1875
  0
CIRCLE
  5
E4
330
6F
100
AcDbEntity
  8
A-0
  6
Continuous
 62
     4
100
AcDbCircle
 10
2767.508014044566
 20
1610.787677094835
 30
0.0
 40
0.125
  0
CIRCLE
  5
E5
330
6F
100
AcDbEntity
  8
A-0
  6
Continuous
 62
     4
100
AcDbCircle
 10
2767.508014044566
 20
1610.787677094835
 30
0.0
 40
0.0625
  0
CIRCLE
  5
E6
330
6F
100
AcDbEntity
  8
A-0
  6
Continuous
 62
     4
100
AcDbCircle
 10
3227.508014044573
 20
1610.787677094835
 30
0.0
 40
0.25
  0
CIRCLE
  5
E7
330
6F
100
AcDbEntity
  8
A-0
  6
Continuous
 62
     4
100
AcDbCircle
 10
3227.508014044573
 20
1610.787677094835
 30
0.0
 40
0.1875
  0
CIRCLE
  5
E8
330
6F
100
AcDbEntity
  8
A-0
  6
Continuous
 62
     4
100
AcDbCircle
 10
3227.508014044573
 20
1610.787677094835
 30
0.0
 40
0.125
  0
CIRCLE
  5
E9
330
6F
100
AcDbEntity
  8
A-0
  6
Continuous
 62
     4
100
AcDbCircle
 10
3227.508014044573
 20
1610.787677094835
 30
0.0
 40
0.0625
  0
LINE
  5
EA
330
6F
100
AcDbEntity
  8
3-0
  6
DASHED2
 62
     7
100
AcDbLine
 10
2782.508013778887
 20
699.5251849150699
 30
0.0
 11
3198.508013778887
 21
699.5251849150699
 31
0.0
  0
LINE
  5
EB
330
6F
100
AcDbEntity
  8
A-0
  6
Continuous
 62
     4
100
AcDbLine
 10
3167.508013828274
 20
574.525185207137
 30
0.0
 11
3167.508013828274
 21
444.5251852071369
 31
0.0
  0
LINE
  5
EC
330
6F
100
AcDbEntity
  8
A-0
  6
Continuous
 62
     4
100
AcDbLine
 10
2767.508013828274
 20
574.525185207137
 30
0.0
 11
2767.508013828274
 21
444.5251852071369
 31
0.0
  0
TEXT
  5
ED
330
6F
100
AcDbEntity
  8
A-0
 62
     4
100
AcDbText
 10
2936.73
 20
445.145
 30
0.0
 40
36.288
  1
400
100
AcDbText
  0
LINE
  5
EE
330
6F
100
AcDbEntity
  8
A-0
  6
Continuous
 62
     4
100
AcDbLine
 10
2767.508014044566
 20
444.5251851979699
 30
0.0
 11
3167.508014044567
 21
444.5251851979699
 31
0.0
  0
CIRCLE
  5
EF
330
6F
100
AcDbEntity
  8
A-0
  6
Continuous
 62
     4
100
AcDbCircle
 10
2767.508014044566
 20
444.5251851979699
 30
0.0
 40
0.25
  0
CIRCLE
  5
F0
330
6F
100
AcDbEntity
  8
A-0
  6
Continuous
 62
     4
100
AcDbCircle
 10
2767.508014044566
 20
444.5251851979699
 30
0.0
 40
0.1875
  0
CIRCLE
  5
F1
330
6F
100
AcDbEntity
  8
A-0
  6
Continuous
 62
     4
100
AcDbCircle
 10
2767.508014044566
 20
444.5251851979699
 30
0.0
 40
0.125
  0
CIRCLE
  5
F2
330
6F
100
AcDbEntity
  8
A-0
  6
Continuous
 62
     4
100
AcDbCircle
 10
2767.508014044566
 20
444.5251851979699
 30
0.0
 40
0.0625
  0
CIRCLE
  5
F3
330
6F
100
AcDbEntity
  8
A-0
  6
Continuous
 62
     4
100
AcDbCircle
 10
3167.508014044567
 20
444.5251851979699
 30
0.0
 40
0.25
  0
CIRCLE
  5
F4
330
6F
100
AcDbEntity
  8
A-0
  6
Continuous
 62
     4
100
AcDbCircle
 10
3167.508014044567
 20
444.5251851979699
 30
0.0
 40
0.1875
  0
CIRCLE
  5
F5
330
6F
100
AcDbEntity
  8
A-0
  6
Continuous
 62
     4
100
AcDbCircle
 10
3167.508014044567
 20
444.5251851979699
 30
0.0
 40
0.125
  0
CIRCLE
  5
F6
330
6F
100
AcDbEntity
  8
A-0
  6
Continuous
 62
     4
100
AcDbCircle
 10
3167.508014044567
 20
444.5251851979699
 30
0.0
 40
0.0625
  0
LINE
  5
F7
330
6F
100
AcDbEntity
  8
A-0
  6
Continuous
 62
     4
100
AcDbLine
 10
3219.508013828274
 20
574.525185207137
 30
0.0
 11
3219.508013828274
 21
344.525185207137
 31
0.0
  0
LINE
  5
F8
330
6F
100
AcDbEntity
  8
A-0
  6
Continuous
 62
     4
100
AcDbLine
 10
2767.508013828274
 20
574.525185207137
 30
0.0
 11
2767.508013828274
 21
344.525185207137
 31
0.0
  0
TEXT
  5
F9
330
6F
100
AcDbEntity
  8
A-0
 62
     4
100
AcDbText
 10
2962.73
 20
345.145
 30
0.0
 40
36.288
  1
452
100
AcDbText
  0
LINE
  5
FA
330
6F
100
AcDbEntity
  8
A-0
  6
Continuous
 62
     4
100
AcDbLine
 10
2767.508014044568
 20
344.5251851979699
 30
0.0
 11
3219.508014044565
 21
344.5251851979699
 31
0.0
  0
CIRCLE
  5
FB
330
6F
100
AcDbEntity
  8
A-0
  6
Continuous
 62
     4
100
AcDbCircle
 10
2767.508014044568
 20
344.5251851979699
 30
0.0
 40
0.25
  0
CIRCLE
  5
FC
330
6F
100
AcDbEntity
  8
A-0
  6
Continuous
 62
     4
100
AcDbCircle
 10
2767.508014044568
 20
344.5251851979699
 30
0.0
 40
0.1875
  0
CIRCLE
  5
FD
330
6F
100
AcDbEntity
  8
A-0
  6
Continuous
 62
     4
100
AcDbCircle
 10
2767.508014044568
 20
344.5251851979699
 30
0.0
 40
0.125
  0
CIRCLE
  5
FE
330
6F
100
AcDbEntity
  8
A-0
  6
Continuous
 62
     4
100
AcDbCircle
 10
2767.508014044568
 20
344.5251851979699
 30
0.0
 40
0.0625
  0
CIRCLE
  5
FF
330
6F
100
AcDbEntity
  8
A-0
  6
Continuous
 62
     4
100
AcDbCircle
 10
3219.508014044565
 20
344.5251851979699
 30
0.0
 40
0.25
  0
CIRCLE
  5
100
330
6F
100
AcDbEntity
  8
A-0
  6
Continuous
 62
     4
100
AcDbCircle
 10
3219.508014044565
 20
344.5251851979699
 30
0.0
 40
0.1875
  0
CIRCLE
  5
101
330
6F
100
AcDbEntity
  8
A-0
  6
Continuous
 62
     4
100
AcDbCircle
 10
3219.508014044565
 20
344.5251851979699
 30
0.0
 40
0.125
  0
CIRCLE
  5
102
330
6F
100
AcDbEntity
  8
A-0
  6
Continuous
 62
     4
100
AcDbCircle
 10
3219.508014044565
 20
344.5251851979699
 30
0.0
 40
0.0625
  0
LINE
  5
103
330
6F
100
AcDbEntity
  8
3-0
  6
DASHED2
 62
     7
100
AcDbLine
 10
2782.508013778887
 20
684.52518491507
 30
0.0
 11
3197.508013778887
 21
684.52518491507
 31
0.0
  0
LINE
  5
104
330
6F
100
AcDbEntity
  8
3-0
  6
Continuous
 62
     7
100
AcDbLine
 10
2792.508013778887
 20
1394.52518491507
 30
0.0
 11
3225.508013778887
 21
1394.52518491507
 31
0.0
  0
LINE
  5
105
330
6F
100
AcDbEntity
  8
3-0
  6
Continuous
 62
     7
100
AcDbLine
 10
2767.508013778887
 20
1369.52518491507
 30
0.0
 11
3225.508013778887
 21
1369.52518491507
 31
0.0
  0
LINE
  5
106
330
6F
100
AcDbEntity
  8
3-0
  6
Continuous
 62
     7
100
AcDbLine
 10
2283.237020778887
 20
498.03745891507
 30
0.0
 11
2712.364996778887
 21
498.03745891507
 31
0.0
  0
LINE
  5
107
330
6F
100
AcDbEntity
  8
B-0
  6
CENTER
 62
     6
100
AcDbLine
 10
3010.508013778887
 20
1384.52518491507
 30
0.0
 11
3010.508013778887
 21
564.77142691507
 31
0.0
  0
LINE
  5
108
330
6F
100
AcDbEntity
  8
3-0
  6
DASHED2
 62
     7
100
AcDbLine
 10
2782.508013778887
 20
1369.52518491507
 30
0.0
 11
2782.508303778887
 21
594.1544189150699
 31
0.0
  0
LINE
  5
109
330
6F
100
AcDbEntity
  8
3-0
  6
Continuous
 62
     7
100
AcDbLine
 10
2767.508013778887
 20
1369.52518491507
 30
0.0
 11
2767.508013778887
 21
594.14270991507
 31
0.0
  0
LINE
  5
10A
330
6F
100
AcDbEntity
  8
3-0
  6
Continuous
 62
     7
100
AcDbLine
 10
2712.364996778887
 20
498.03745891507
 30
0.0
 11
2982.407477778887
 21
684.52518491507
 31
0.0
  0
LINE
  5
10B
330
6F
100
AcDbEntity
  8
A-0
  6
Continuous
 62
     4
100
AcDbLine
 10
3010.508013828274
 20
815.1202572071369
 30
0.0
 11
3010.508013828274
 21
800.4519972071369
 31
0.0
  0
LINE
  5
10C
330
6F
100
AcDbEntity
  8
A-0
  6
Continuous
 62
     4
100
AcDbLine
 10
2767.508013828274
 20
930.451997207137
 30
0.0
 11
2767.508013828274
 21
800.4519972071369
 31
0.0
  0
TEXT
  5
10D
330
6F
100
AcDbEntity
  8
A-0
 62
     4
100
AcDbText
 10
2858.23
 20
801.072
 30
0.0
 40
36.288
  1
243
100
AcDbText
  0
LINE
  5
10E
330
6F
100
AcDbEntity
  8
A-0
  6
Continuous
 62
     4
100
AcDbLine
 10
2767.508014044568
 20
800.4519972944001
 30
0.0
 11
3010.508014044566
 21
800.4519972944001
 31
0.0
  0
CIRCLE
  5
10F
330
6F
100
AcDbEntity
  8
A-0
  6
Continuous
 62
     4
100
AcDbCircle
 10
2767.508014044568
 20
800.4519972944001
 30
0.0
 40
0.25
  0
CIRCLE
  5
110
330
6F
100
AcDbEntity
  8
A-0
  6
Continuous
 62
     4
100
AcDbCircle
 10
2767.508014044568
 20
800.4519972944001
 30
0.0
 40
0.1875
  0
CIRCLE
  5
111
330
6F
100
AcDbEntity
  8
A-0
  6
Continuous
 62
     4
100
AcDbCircle
 10
2767.508014044568
 20
800.4519972944001
 30
0.0
 40
0.125
  0
CIRCLE
  5
112
330
6F
100
AcDbEntity
  8
A-0
  6
Continuous
 62
     4
100
AcDbCircle
 10
2767.508014044568
 20
800.4519972944001
 30
0.0
 40
0.0625
  0
CIRCLE
  5
113
330
6F
100
AcDbEntity
  8
A-0
  6
Continuous
 62
     4
100
AcDbCircle
 10
3010.508014044566
 20
800.4519972944001
 30
0.0
 40
0.25
  0
CIRCLE
  5
114
330
6F
100
AcDbEntity
  8
A-0
  6
Continuous
 62
     4
100
AcDbCircle
 10
3010.508014044566
 20
800.4519972944001
 30
0.0
 40
0.1875
  0
CIRCLE
  5
115
330
6F
100
AcDbEntity
  8
A-0
  6
Continuous
 62
     4
100
AcDbCircle
 10
3010.508014044566
 20
800.4519972944001
 30
0.0
 40
0.125
  0
CIRCLE
  5
116
330
6F
100
AcDbEntity
  8
A-0
  6
Continuous
 62
     4
100
AcDbCircle
 10
3010.508014044566
 20
800.4519972944001
 30
0.0
 40
0.0625
  0
LINE
  5
117
330
6F
100
AcDbEntity
  8
3-0
  6
DASHED2
 62
     7
100
AcDbLine
 10
2942.158014044565
 20
704.1969738714469
 30
0.0
 11
2990.258014044566
 21
704.1969738714469
 31
0.0
  0
LINE
  5
118
330
6F
100
AcDbEntity
  8
3-0
  6
DASHED2
 62
     7
100
AcDbLine
 10
2990.258014044566
 20
704.1969738714469
 30
0.0
 11
2990.258014044566
 21
695.302990471122
 31
0.0
  0
LINE
  5
119
330
6F
100
AcDbEntity
  8
3-0
  6
DASHED2
 62
     7
100
AcDbLine
 10
2990.258014044566
 20
695.302990471122
 30
0.0
 11
3030.758014044566
 21
695.302990471122
 31
0.0
  0
LINE
  5
11A
330
6F
100
AcDbEntity
  8
3-0
  6
DASHED2
 62
     7
100
AcDbLine
 10
3030.758014044566
 20
695.302990471122
 30
0.0
 11
3030.758014044566
 21
704.1969738714469
 31
0.0
  0
LINE
  5
11B
330
6F
100
AcDbEntity
  8
3-0
  6
DASHED2
 62
     7
100
AcDbLine
 10
3030.758014044566
 20
704.1969738714469
 30
0.0
 11
3078.858014044566
 21
704.1969738714469
 31
0.0
  0
LINE
  5
11C
330
6F
100
AcDbEntity
  8
3-0
  6
DASHED2
 62
     7
100
AcDbLine
 10
2767.508013778887
 20
619.5251849150699
 30
0.0
 11
2782.508013778887
 21
619.5251849150699
 31
0.0
  0
LINE
  5
11D
330
6F
100
AcDbEntity
  8
3-0
  6
DASHED2
 62
     7
100
AcDbLine
 10
2767.508013778887
 20
594.14270991507
 30
0.0
 11
2782.508303778887
 21
594.1544189150699
 31
0.0
  0
LINE
  5
11E
330
6F
100
AcDbEntity
  8
3-0
  6
DASHED2
 62
     7
100
AcDbLine
 10
2767.508013778887
 20
594.14270991507
 30
0.0
 11
2782.508013778887
 21
619.5251849150699
 31
0.0
  0
LINE
  5
11F
330
6F
100
AcDbEntity
  8
3-0
  6
Continuous
 62
     7
100
AcDbLine
 10
2982.407477778887
 20
684.52518491507
 30
0.0
 11
2922.274180778887
 21
660.93235791507
 31
0.0
  0
LINE
  5
120
330
6F
100
AcDbEntity
  8
3-0
  6
DASHED2
 62
     7
100
AcDbLine
 10
2955.508013778887
 20
699.5251849150699
 30
0.0
 11
2955.508013778887
 21
684.52518491507
 31
0.0
  0
LINE
  5
121
330
6F
100
AcDbEntity
  8
3-0
  6
DASHED2
 62
     7
100
AcDbLine
 10
3065.508013778887
 20
699.5251849150699
 30
0.0
 11
3065.508013778887
 21
684.52518491507
 31
0.0
  0
LINE
  5
122
330
6F
100
AcDbEntity
  8
3-0
  6
DASHED2
 62
     7
100
AcDbLine
 10
3068.208013778887
 20
1239.52518491507
 30
0.0
 11
2952.808013778886
 21
1239.52518491507
 31
0.0
  0
LINE
  5
123
330
6F
100
AcDbEntity
  8
3-0
  6
DASHED2
 62
     7
100
AcDbLine
 10
2767.508013778887
 20
1344.52518491507
 30
0.0
 11
2782.508013778887
 21
1369.52518491507
 31
0.0
  0
LINE
  5
124
330
6F
100
AcDbEntity
  8
3-0
  6
DASHED2
 62
     7
100
AcDbLine
 10
2767.508013778887
 20
1344.52518491507
 30
0.0
 11
2782.508013778887
 21
1344.52518491507
 31
0.0
  0
ARC
  5
125
330
6F
100
AcDbEntity
  8
3-0
  6
Continuous
 62
     7
100
AcDbCircle
 10
2787.508013778887
 20
1479.52518491507
 30
0.0
 40
5.0
100
AcDbArc
 50
0.0
 51
90.0
  0
LINE
  5
126
330
6F
100
AcDbEntity
  8
3-0
  6
Continuous
 62
     7
100
AcDbLine
 10
2792.508013778887
 20
1479.52518491507
 30
0.0
 11
2792.508013778887
 21
1394.52518491507
 31
0.0
  0
LINE
  5
127
330
6F
100
AcDbEntity
  8
3-0
  6
Continuous
 62
     7
100
AcDbLine
 10
2767.508013778887
 20
1484.52518491507
 30
0.0
 11
2767.508013778887
 21
1369.52518491507
 31
0.0
  0
LINE
  5
128
330
6F
100
AcDbEntity
  8
3-0
  6
Continuous
 62
     7
100
AcDbLine
 10
2767.508013778887
 20
1484.52518491507
 30
0.0
 11
2787.508013778887
 21
1484.52518491507
 31
0.0
  0
LINE
  5
129
330
6F
100
AcDbEntity
  8
3-0
  6
Continuous
 62
     7
100
AcDbLine
 10
3168.508013778887
 20
684.52518491507
 30
0.0
 11
3198.508013778887
 21
684.52518491507
 31
0.0
  0
LINE
  5
12A
330
6F
100
AcDbEntity
  8
3-0
  6
Continuous
 62
     7
100
AcDbLine
 10
3158.508013778887
 20
684.52518491507
 30
0.0
 11
3158.508013778887
 21
594.5251849150699
 31
0.0
  0
LINE
  5
12B
330
6F
100
AcDbEntity
  8
3-0
  6
Continuous
 62
     7
100
AcDbLine
 10
3167.508013778887
 20
684.52518491507
 30
0.0
 11
3167.508013778887
 21
594.5251849150699
 31
0.0
  0
LINE
  5
12C
330
6F
100
AcDbEntity
  8
3-0
  6
Continuous
 62
     7
100
AcDbLine
 10
3203.908013778888
 20
684.52518491507
 30
0.0
 11
3219.508013778887
 21
684.52518491507
 31
0.0
  0
LINE
  5
12D
330
6F
100
AcDbEntity
  8
3-0
  6
DASHED2
 62
     7
100
AcDbLine
 10
3188.508013778887
 20
1369.52518491507
 30
0.0
 11
3188.508013778887
 21
1209.52518491507
 31
0.0
  0
ARC
  5
12E
330
6F
100
AcDbEntity
  8
3-0
  6
Continuous
 62
     7
100
AcDbCircle
 10
3225.508013778887
 20
1371.52518491507
 30
0.0
 40
2.0
100
AcDbArc
 50
270.0
 51
0.0
  0
ARC
  5
12F
330
6F
100
AcDbEntity
  8
3-0
  6
Continuous
 62
     7
100
AcDbCircle
 10
3225.508013778887
 20
1392.52518491507
 30
0.0
 40
2.0
100
AcDbArc
 50
0.0
 51
90.0
  0
LINE
  5
130
330
6F
100
AcDbEntity
  8
3-0
  6
Continuous
 62
     7
100
AcDbLine
 10
3205.508013778887
 20
1369.52518491507
 30
0.0
 11
3220.508013778887
 21
1369.52518491507
 31
0.0
  0
LINE
  5
131
330
6F
100
AcDbEntity
  8
3-0
  6
Continuous
 62
     7
100
AcDbLine
 10
3227.508013778887
 20
1392.52518491507
 30
0.0
 11
3227.508013778887
 21
1371.52518491507
 31
0.0
  0
LINE
  5
132
330
6F
100
AcDbEntity
  8
3-0
  6
DASHED2
 62
     7
100
AcDbLine
 10
2825.508014044565
 20
1394.52518519797
 30
0.0
 11
2825.508014044565
 21
1268.52518519797
 31
0.0
  0
ARC
  5
133
330
6F
100
AcDbEntity
  8
3-0
  6
DASHED2
 62
     7
100
AcDbCircle
 10
2845.508013778887
 20
1268.52518491507
 30
0.0
 40
20.0
100
AcDbArc
 50
180.000000000294
 51
270.0000000000009
  0
LINE
  5
134
330
6F
100
AcDbEntity
  8
3-0
  6
DASHED2
 62
     7
100
AcDbLine
 10
2845.508014044566
 20
1248.52518519797
 30
0.0
 11
2952.508014044566
 21
1246.598776434824
 31
0.0
  0
LINE
  5
135
330
6F
100
AcDbEntity
  8
3-0
  6
DASHED2
 62
     7
100
AcDbLine
 10
2952.508014044566
 20
1246.598776434824
 30
0.0
 11
2952.508014044566
 21
1239.52518519797
 31
0.0
  0
LINE
  5
136
330
6F
100
AcDbEntity
  8
3-0
  6
DASHED2
 62
     7
100
AcDbLine
 10
2952.508014044566
 20
1239.52518519797
 30
0.0
 11
3068.508014044566
 21
1239.52518519797
 31
0.0
  0
LINE
  5
137
330
6F
100
AcDbEntity
  8
3-0
  6
DASHED2
 62
     7
100
AcDbLine
 10
3068.508014044566
 20
1239.52518519797
 30
0.0
 11
3068.508014044566
 21
1246.579752584908
 31
0.0
  0
LINE
  5
138
330
6F
100
AcDbEntity
  8
3-0
  6
DASHED2
 62
     7
100
AcDbLine
 10
3068.508014044566
 20
1246.579752584908
 30
0.0
 11
3165.508014044566
 21
1248.52518519797
 31
0.0
  0
ARC
  5
139
330
6F
100
AcDbEntity
  8
3-0
  6
DASHED2
 62
     7
100
AcDbCircle
 10
3165.508013778887
 20
1268.52518491507
 30
0.0
 40
20.0
100
AcDbArc
 50
270.0
 51
359.999999999708
  0
LINE
  5
13A
330
6F
100
AcDbEntity
  8
3-0
  6
DASHED2
 62
     7
100
AcDbLine
 10
3185.508014044566
 20
1268.52518519797
 30
0.0
 11
3185.508014044566
 21
1394.52518519797
 31
0.0
  0
LINE
  5
13B
330
6F
100
AcDbEntity
  8
3-0
  6
DASHED2
 62
     7
100
AcDbLine
 10
3025.508013778887
 20
1058.59877691507
 30
0.0
 11
3025.508013778887
 21
594.5987769150701
 31
0.0
  0
LINE
  5
13C
330
6F
100
AcDbEntity
  8
3-0
  6
DASHED2
 62
     7
100
AcDbLine
 10
2995.508013778887
 20
1058.59877691507
 30
0.0
 11
2995.508013778887
 21
594.5987769150701
 31
0.0
  0
LINE
  5
13D
330
6F
100
AcDbEntity
  8
3-0
  6
DASHED2
 62
     7
100
AcDbLine
 10
3100.508013778887
 20
1241.59877691507
 30
0.0
 11
2920.508013778887
 21
1241.59877691507
 31
0.0
  0
LINE
  5
13E
330
6F
100
AcDbEntity
  8
3-0
  6
DASHED2
 62
     7
100
AcDbLine
 10
2922.755670778887
 20
1227.59877691507
 30
0.0
 11
2932.508013778887
 21
1227.59877691507
 31
0.0
  0
LINE
  5
13F
330
6F
100
AcDbEntity
  8
3-0
  6
DASHED2
 62
     7
100
AcDbLine
 10
2922.755670778887
 20
1241.59877691507
 30
0.0
 11
2922.755670778887
 21
1227.59877691507
 31
0.0
  0
LINE
  5
140
330
6F
100
AcDbEntity
  8
3-0
  6
DASHED2
 62
     7
100
AcDbLine
 10
2920.508013778887
 20
1246.59877691507
 30
0.0
 11
2920.508013778887
 21
1241.59877691507
 31
0.0
  0
LINE
  5
141
330
6F
100
AcDbEntity
  8
3-0
  6
DASHED2
 62
     7
100
AcDbLine
 10
3073.93435734434
 20
1152.598776838684
 30
0.0
 11
3073.93435734434
 21
1099.498776838684
 31
0.0
  0
ARC
  5
142
330
6F
100
AcDbEntity
  8
3-0
  6
DASHED2
 62
     7
100
AcDbCircle
 10
3063.934357778887
 20
1099.49877691507
 30
0.0
 40
10.0
100
AcDbArc
 50
270.0
 51
359.9999999997079
  0
LINE
  5
143
330
6F
100
AcDbEntity
  8
3-0
  6
DASHED2
 62
     7
100
AcDbLine
 10
3063.93435734434
 20
1089.498776838684
 30
0.0
 11
2957.081670744792
 21
1089.498776838684
 31
0.0
  0
ARC
  5
144
330
6F
100
AcDbEntity
  8
3-0
  6
DASHED2
 62
     7
100
AcDbCircle
 10
2957.081670778887
 20
1099.49877691507
 30
0.0
 40
10.0
100
AcDbArc
 50
180.000000000295
 51
270.0000000000029
  0
LINE
  5
145
330
6F
100
AcDbEntity
  8
3-0
  6
DASHED2
 62
     7
100
AcDbLine
 10
2947.081670744791
 20
1099.498776838684
 30
0.0
 11
2947.081670744791
 21
1152.598776838684
 31
0.0
  0
LINE
  5
146
330
6F
100
AcDbEntity
  8
3-0
  6
DASHED2
 62
     7
100
AcDbLine
 10
2980.508014044567
 20
1089.498776838684
 30
0.0
 11
2980.508014044566
 21
1058.598776434824
 31
0.0
  0
LINE
  5
147
330
6F
100
AcDbEntity
  8
3-0
  6
DASHED2
 62
     7
100
AcDbLine
 10
2980.508014044566
 20
1058.598776434824
 30
0.0
 11
3040.508014044568
 21
1058.598776434824
 31
0.0
  0
LINE
  5
148
330
6F
100
AcDbEntity
  8
3-0
  6
DASHED2
 62
     7
100
AcDbLine
 10
3040.508014044568
 20
1058.598776434824
 30
0.0
 11
3040.508014044568
 21
1089.498776838684
 31
0.0
  0
LINE
  5
149
330
6F
100
AcDbEntity
  8
3-0
  6
DASHED2
 62
     7
100
AcDbLine
 10
2932.508013778887
 20
1224.39725291507
 30
0.0
 11
2941.596812778887
 21
1219.39725291507
 31
0.0
  0
LINE
  5
14A
330
6F
100
AcDbEntity
  8
3-0
  6
DASHED2
 62
     7
100
AcDbLine
 10
3079.419214778887
 20
1219.39725291507
 30
0.0
 11
3079.419214778887
 21
1154.81354291507
 31
0.0
  0
LINE
  5
14B
330
6F
100
AcDbEntity
  8
3-0
  6
DASHED2
 62
     7
100
AcDbLine
 10
2941.596812778887
 20
1219.39725291507
 30
0.0
 11
2941.596812778887
 21
1154.81354291507
 31
0.0
  0
LINE
  5
14C
330
6F
100
AcDbEntity
  8
3-0
  6
DASHED2
 62
     7
100
AcDbLine
 10
3079.419215187798
 20
1152.598776838684
 30
0.0
 11
2941.596812901336
 21
1152.598776838684
 31
0.0
  0
LINE
  5
14D
330
6F
100
AcDbEntity
  8
3-0
  6
DASHED2
 62
     7
100
AcDbLine
 10
3079.419214778887
 20
1219.39725291507
 30
0.0
 11
2941.596812778887
 21
1219.39725291507
 31
0.0
  0
LINE
  5
14E
330
6F
100
AcDbEntity
  8
3-0
  6
DASHED2
 62
     7
100
AcDbLine
 10
2932.508013778887
 20
1241.59877691507
 30
0.0
 11
2932.508013778887
 21
1224.39725291507
 31
0.0
  0
LINE
  5
14F
330
6F
100
AcDbEntity
  8
3-0
  6
DASHED2
 62
     7
100
AcDbLine
 10
3088.508013778887
 20
1224.39725291507
 30
0.0
 11
2932.508013778887
 21
1224.39725291507
 31
0.0
  0
LINE
  5
150
330
6F
100
AcDbEntity
  8
3-0
  6
DASHED2
 62
     7
100
AcDbLine
 10
3088.508013778887
 20
1224.39725291507
 30
0.0
 11
3079.419214778887
 21
1219.39725291507
 31
0.0
  0
LINE
  5
151
330
6F
100
AcDbEntity
  8
3-0
  6
DASHED2
 62
     7
100
AcDbLine
 10
3098.260357778887
 20
1227.59877691507
 30
0.0
 11
3088.508013778887
 21
1227.59877691507
 31
0.0
  0
LINE
  5
152
330
6F
100
AcDbEntity
  8
3-0
  6
DASHED2
 62
     7
100
AcDbLine
 10
3088.508013778887
 20
1241.59877691507
 30
0.0
 11
3088.508013778887
 21
1224.39725291507
 31
0.0
  0
LINE
  5
153
330
6F
100
AcDbEntity
  8
3-0
  6
DASHED2
 62
     7
100
AcDbLine
 10
3100.508013778887
 20
1246.59877691507
 30
0.0
 11
3100.508013778887
 21
1241.59877691507
 31
0.0
  0
LINE
  5
154
330
6F
100
AcDbEntity
  8
3-0
  6
DASHED2
 62
     7
100
AcDbLine
 10
3098.260357778887
 20
1241.59877691507
 30
0.0
 11
3098.260357778887
 21
1227.59877691507
 31
0.0
  0
LINE
  5
155
330
6F
100
AcDbEntity
  8
3-0
  6
Continuous
 62
     7
100
AcDbLine
 10
3198.508013778887
 20
1369.52518491507
 30
0.0
 11
3198.508013778887
 21
684.52518491507
 31
0.0
  0
LINE
  5
156
330
6F
100
AcDbEntity
  8
3-0
  6
DASHED2
 62
     7
100
AcDbLine
 10
3188.508013778887
 20
1209.52518491507
 30
0.0
 11
3198.508013778887
 21
1209.52518491507
 31
0.0
  0
LINE
  5
157
330
6F
100
AcDbEntity
  8
3-0
  6
Continuous
 62
     7
100
AcDbLine
 10
3219.508013778887
 20
684.52518491507
 30
0.0
 11
3219.508013778887
 21
1336.52518491507
 31
0.0
  0
LINE
  5
158
330
6F
100
AcDbEntity
  8
3-0
  6
Continuous
 62
     7
100
AcDbLine
 10
3219.508013778887
 20
1306.74028191507
 30
0.0
 11
3219.508013778887
 21
1316.74028191507
 31
0.0
  0
LINE
  5
159
330
6F
100
AcDbEntity
  8
3-0
  6
Continuous
 62
     7
100
AcDbLine
 10
3219.508013778887
 20
1336.52518491507
 30
0.0
 11
3204.508013778887
 21
1336.52518491507
 31
0.0
  0
LINE
  5
15A
330
6F
100
AcDbEntity
  8
3-0
  6
Continuous
 62
     7
100
AcDbLine
 10
3203.908013778888
 20
1336.52518491507
 30
0.0
 11
3219.508013778887
 21
1336.52518491507
 31
0.0
  0
LINE
  5
15B
330
6F
100
AcDbEntity
  8
1-0
  6
Continuous
 62
     7
100
AcDbLine
 10
3203.908013778888
 20
1336.52518491507
 30
0.0
 11
3203.908013778888
 21
1321.52518491507
 31
0.0
  0
LINE
  5
15C
330
6F
100
AcDbEntity
  8
1-0
  6
Continuous
 62
     7
100
AcDbLine
 10
3219.508013778887
 20
1336.52518491507
 30
0.0
 11
3219.508013778887
 21
1330.32518491507
 31
0.0
  0
LINE
  5
15D
330
6F
100
AcDbEntity
  8
1-0
  6
Continuous
 62
     7
100
AcDbLine
 10
3203.908013778888
 20
1336.52518491507
 30
0.0
 11
3203.908013778888
 21
684.52518491507
 31
0.0
  0
LINE
  5
15E
330
6F
100
AcDbEntity
  8
1-0
  6
Continuous
 62
     7
100
AcDbLine
 10
3068.508013778887
 20
1246.52518491507
 30
0.0
 11
2952.508013778887
 21
1246.59877691507
 31
0.0
  0
LINE
  5
15F
330
6F
100
AcDbEntity
  8
A-0
  6
Continuous
 62
     4
100
AcDbLine
 10
2989.008013828274
 20
1394.525185207137
 30
0.0
 11
2978.736244828274
 21
1394.525185207137
 31
0.0
  0
LINE
  5
160
330
6F
100
AcDbEntity
  8
A-0
  6
Continuous
 62
     4
100
AcDbLine
 10
2990.508013828274
 20
1246.561981207137
 30
0.0
 11
2978.736244828274
 21
1246.561981207137
 31
0.0
  0
TEXT
  5
161
330
6F
100
AcDbEntity
  8
A-0
 62
     4
100
AcDbText
 10
2978.116
 20
1286.944
 30
0.0
 40
36.288
  1
148
 50
90.0
100
AcDbText
  0
LINE
  5
162
330
6F
100
AcDbEntity
  8
A-0
  6
Continuous
 62
     4
100
AcDbLine
 10
2978.73624457695
 20
1246.561980816397
 30
0.0
 11
2978.73624457695
 21
1394.52518519797
 31
0.0
  0
CIRCLE
  5
163
330
6F
100
AcDbEntity
  8
A-0
  6
Continuous
 62
     4
100
AcDbCircle
 10
2978.73624457695
 20
1246.561980816397
 30
0.0
 40
0.25
  0
CIRCLE
  5
164
330
6F
100
AcDbEntity
  8
A-0
  6
Continuous
 62
     4
100
AcDbCircle
 10
2978.73624457695
 20
1246.561980816397
 30
0.0
 40
0.1875
  0
CIRCLE
  5
165
330
6F
100
AcDbEntity
  8
A-0
  6
Continuous
 62
     4
100
AcDbCircle
 10
2978.73624457695
 20
1246.561980816397
 30
0.0
 40
0.125
  0
CIRCLE
  5
166
330
6F
100
AcDbEntity
  8
A-0
  6
Continuous
 62
     4
100
AcDbCircle
 10
2978.73624457695
 20
1246.561980816397
 30
0.0
 40
0.0625
  0
CIRCLE
  5
167
330
6F
100
AcDbEntity
  8
A-0
  6
Continuous
 62
     4
100
AcDbCircle
 10
2978.73624457695
 20
1394.52518519797
 30
0.0
 40
0.25
  0
CIRCLE
  5
168
330
6F
100
AcDbEntity
  8
A-0
  6
Continuous
 62
     4
100
AcDbCircle
 10
2978.73624457695
 20
1394.52518519797
 30
0.0
 40
0.1875
  0
CIRCLE
  5
169
330
6F
100
AcDbEntity
  8
A-0
  6
Continuous
 62
     4
100
AcDbCircle
 10
2978.73624457695
 20
1394.52518519797
 30
0.0
 40
0.125
  0
CIRCLE
  5
16A
330
6F
100
AcDbEntity
  8
A-0
  6
Continuous
 62
     4
100
AcDbCircle
 10
2978.73624457695
 20
1394.52518519797
 30
0.0
 40
0.0625
  0
TEXT
  5
16B
330
6F
100
AcDbEntity
  8
D-0
 62
     5
100
AcDbText
 10
2317.294
 20
504.5099999999999
 30
0.0
 40
25.92
  1
排水穴　φ110（工場加工）
100
AcDbText
  0
TEXT
  5
16C
330
6F
100
AcDbEntity
  8
D-0
 62
     5
100
AcDbText
 10
2317.12
 20
461.123
 30
0.0
 40
25.92
  1
（回転板付）
100
AcDbText
  0
TEXT
  5
16D
330
6F
100
AcDbEntity
  8
D-0
 62
     5
100
AcDbText
 10
3126.183
 20
2380.359
 30
0.0
 40
25.92
  1
(SW)は鏡面仕上げ
100
AcDbText
  0
LINE
  5
16E
330
6F
100
AcDbEntity
  8
3-0
  6
DASHED2
 62
     7
100
AcDbLine
 10
3198.508013778887
 20
1004.52518491507
 30
0.0
 11
3198.508013778887
 21
771.52518491507
 31
0.0
  0
LINE
  5
16F
330
6F
100
AcDbEntity
  8
3-0
  6
DASHED2
 62
     7
100
AcDbLine
 10
3198.508013778887
 20
1044.52518491507
 30
0.0
 11
3198.508013778887
 21
831.0251849150699
 31
0.0
  0
TEXT
  5
170
330
6F
100
AcDbEntity
  8
D-0
 62
     5
100
AcDbText
 10
3129.135
 20
2031.252
 30
0.0
 40
25.92
  1
ポリプロピレン製　4本収納
100
AcDbText
  0
TEXT
  5
171
330
6F
100
AcDbEntity
  8
D-0
 62
     5
100
AcDbText
 10
3968.394
 20
48.69699999999999
 30
0.0
 40
31.104
  1
 2022.1
100
AcDbText
  0
LINE
  5
172
330
6F
100
AcDbEntity
  8
3-0
  6
Continuous
 62
     7
100
AcDbLine
 10
1952.806101778887
 20
1369.52518491507
 30
0.0
 11
1952.806101778887
 21
594.5251849150699
 31
0.0
  0
LINE
  5
173
330
6F
100
AcDbEntity
  8
3-0
  6
Continuous
 62
     7
100
AcDbLine
 10
1952.806101778887
 20
594.5251849150699
 30
0.0
 11
757.806101778887
 21
594.5251849150699
 31
0.0
  0
LINE
  5
174
330
6F
100
AcDbEntity
  8
3-0
  6
DASHED2
 62
     7
100
AcDbLine
 10
1168.806101778887
 20
699.5251849150699
 30
0.0
 11
1168.806101778887
 21
821.35704591507
 31
0.0
  0
LINE
  5
175
330
6F
100
AcDbEntity
  8
3-0
  6
DASHED2
 62
     7
100
AcDbLine
 10
1151.306101778887
 20
699.5251849150699
 30
0.0
 11
1151.306101778887
 21
821.35704591507
 31
0.0
  0
LINE
  5
176
330
6F
100
AcDbEntity
  8
3-0
  6
DASHED2
 62
     7
100
AcDbLine
 10
772.8061017788871
 20
699.5251849150699
 30
0.0
 11
772.8061017788871
 21
821.35704591507
 31
0.0
  0
LINE
  5
177
330
6F
100
AcDbEntity
  8
3-0
  6
DASHED2
 62
     7
100
AcDbLine
 10
1937.806101778887
 20
699.5251849150699
 30
0.0
 11
1937.806101778887
 21
821.35704591507
 31
0.0
  0
LINE
  5
178
330
6F
100
AcDbEntity
  8
3-0
  6
Continuous
 62
     7
100
AcDbLine
 10
1259.672186778887
 20
1601.47857091507
 30
0.0
 11
1140.306101778887
 21
1484.52518491507
 31
0.0
  0
LINE
  5
179
330
6F
100
AcDbEntity
  8
3-0
  6
DASHED2
 62
     7
100
AcDbLine
 10
1122.806101778887
 20
1508.26531591507
 30
0.0
 11
1122.806101778887
 21
1585.64823091507
 31
0.0
  0
LINE
  5
17A
330
6F
100
AcDbEntity
  8
3-0
  6
DASHED2
 62
     7
100
AcDbLine
 10
1157.806101778887
 20
1508.26531591507
 30
0.0
 11
1157.806101778887
 21
1585.64823091507
 31
0.0
  0
LINE
  5
17B
330
6F
100
AcDbEntity
  8
B-0
  6
CENTER
 62
     6
100
AcDbLine
 10
1140.306101778887
 20
1605.331681915069
 30
0.0
 11
1140.306101778887
 21
1441.81195991507
 31
0.0
  0
LINE
  5
17C
330
6F
100
AcDbEntity
  8
3-0
  6
Continuous
 62
     7
100
AcDbLine
 10
1955.306101778887
 20
1484.52518491507
 30
0.0
 11
755.306101778887
 21
1484.52518491507
 31
0.0
  0
LINE
  5
17D
330
6F
100
AcDbEntity
  8
3-0
  6
DASHED2
 62
     7
100
AcDbLine
 10
782.806101497186
 20
1394.525185197973
 30
0.0
 11
782.806101497186
 21
1389.525185197973
 31
0.0
  0
LINE
  5
17E
330
6F
100
AcDbEntity
  8
3-0
  6
DASHED2
 62
     7
100
AcDbLine
 10
782.806101497186
 20
1389.525185197973
 30
0.0
 11
1237.306101497182
 21
1389.525185197973
 31
0.0
  0
ARC
  5
17F
330
6F
100
AcDbEntity
  8
3-0
  6
DASHED2
 62
     7
100
AcDbCircle
 10
1237.306101778887
 20
1384.52518491507
 30
0.0
 40
5.0
100
AcDbArc
 50
0.0000000002920064
 51
90.0
  0
LINE
  5
180
330
6F
100
AcDbEntity
  8
3-0
  6
DASHED2
 62
     7
100
AcDbLine
 10
1242.306101497182
 20
1384.525185197973
 30
0.0
 11
1242.306101497181
 21
1266.525185197973
 31
0.0
  0
ARC
  5
181
330
6F
100
AcDbEntity
  8
3-0
  6
DASHED2
 62
     7
100
AcDbCircle
 10
1262.306101778887
 20
1266.52518491507
 30
0.0
 40
20.0
100
AcDbArc
 50
180.000000000292
 51
270.0
  0
LINE
  5
182
330
6F
100
AcDbEntity
  8
3-0
  6
DASHED2
 62
     7
100
AcDbLine
 10
1262.306101497181
 20
1246.525185197973
 30
0.0
 11
1810.306101497186
 21
1246.525185197973
 31
0.0
  0
ARC
  5
183
330
6F
100
AcDbEntity
  8
3-0
  6
DASHED2
 62
     7
100
AcDbCircle
 10
1810.306101778887
 20
1266.52518491507
 30
0.0
 40
20.0
100
AcDbArc
 50
270.0000000000009
 51
359.999999999712
  0
LINE
  5
184
330
6F
100
AcDbEntity
  8
3-0
  6
DASHED2
 62
     7
100
AcDbLine
 10
1830.306101497186
 20
1266.525185197975
 30
0.0
 11
1830.306101497177
 21
1384.525185197973
 31
0.0
  0
ARC
  5
185
330
6F
100
AcDbEntity
  8
3-0
  6
DASHED2
 62
     7
100
AcDbCircle
 10
1835.306101778887
 20
1384.52518491507
 30
0.0
 40
5.0
100
AcDbArc
 50
89.99999999999905
 51
179.9999999997089
  0
LINE
  5
186
330
6F
100
AcDbEntity
  8
3-0
  6
DASHED2
 62
     7
100
AcDbLine
 10
1835.306101497177
 20
1389.525185197973
 30
0.0
 11
1935.306101497184
 21
1389.525185197973
 31
0.0
  0
LINE
  5
187
330
6F
100
AcDbEntity
  8
3-0
  6
DASHED2
 62
     7
100
AcDbLine
 10
1935.306101497184
 20
1389.525185197973
 30
0.0
 11
1935.306101497186
 21
1394.525185197973
 31
0.0
  0
LINE
  5
188
330
6F
100
AcDbEntity
  8
3-0
  6
Continuous
 62
     7
100
AcDbLine
 10
1955.306101778887
 20
1394.52518491507
 30
0.0
 11
755.306101778887
 21
1394.52518491507
 31
0.0
  0
LINE
  5
189
330
6F
100
AcDbEntity
  8
3-0
  6
Continuous
 62
     7
100
AcDbLine
 10
1955.306101778887
 20
1369.52518491507
 30
0.0
 11
755.306101778887
 21
1369.52518491507
 31
0.0
  0
LINE
  5
18A
330
6F
100
AcDbEntity
  8
3-0
  6
Continuous
 62
     7
100
AcDbLine
 10
1140.306101778887
 20
1484.52518491507
 30
0.0
 11
1150.672302778887
 21
1515.34107791507
 31
0.0
  0
LINE
  5
18B
330
6F
100
AcDbEntity
  8
3-0
  6
Continuous
 62
     7
100
AcDbLine
 10
1955.306101778887
 20
1369.52518491507
 30
0.0
 11
1955.306101778887
 21
1484.52518491507
 31
0.0
  0
LINE
  5
18C
330
6F
100
AcDbEntity
  8
3-0
  6
Continuous
 62
     7
100
AcDbLine
 10
1617.526310778887
 20
1601.47857091507
 30
0.0
 11
1259.672186778887
 21
1601.47857091507
 31
0.0
  0
LINE
  5
18D
330
6F
100
AcDbEntity
  8
3-0
  6
DASHED2
 62
     7
100
AcDbLine
 10
1157.806101778887
 20
1585.64823091507
 30
0.0
 11
1122.806101778887
 21
1585.64823091507
 31
0.0
  0
TEXT
  5
18E
330
6F
100
AcDbEntity
  8
D-0
 62
     5
100
AcDbText
 10
1265.396
 20
1616.315
 30
0.0
 40
25.92
  1
背面桟木位置(配管注意）
100
AcDbText
  0
LINE
  5
18F
330
6F
100
AcDbEntity
  8
A-0
  6
Continuous
 62
     4
100
AcDbLine
 10
755.3061018282739
 20
1504.525185207137
 30
0.0
 11
755.3061018282739
 21
1606.400185207137
 31
0.0
  0
LINE
  5
190
330
6F
100
AcDbEntity
  8
A-0
  6
Continuous
 62
     4
100
AcDbLine
 10
1140.306101828274
 20
1605.648231207137
 30
0.0
 11
1140.306101828274
 21
1606.400185207137
 31
0.0
  0
TEXT
  5
191
330
6F
100
AcDbEntity
  8
A-0
 62
     4
100
AcDbText
 10
917.0289999999999
 20
1607.02
 30
0.0
 40
36.288
  1
385
100
AcDbText
  0
LINE
  5
192
330
6F
100
AcDbEntity
  8
A-0
  6
Continuous
 62
     4
100
AcDbLine
 10
1140.306101497184
 20
1606.400185197982
 30
0.0
 11
755.306101497185
 21
1606.400185197982
 31
0.0
  0
CIRCLE
  5
193
330
6F
100
AcDbEntity
  8
A-0
  6
Continuous
 62
     4
100
AcDbCircle
 10
1140.306101497184
 20
1606.400185197982
 30
0.0
 40
0.25
  0
CIRCLE
  5
194
330
6F
100
AcDbEntity
  8
A-0
  6
Continuous
 62
     4
100
AcDbCircle
 10
1140.306101497184
 20
1606.400185197982
 30
0.0
 40
0.1875
  0
CIRCLE
  5
195
330
6F
100
AcDbEntity
  8
A-0
  6
Continuous
 62
     4
100
AcDbCircle
 10
1140.306101497184
 20
1606.400185197982
 30
0.0
 40
0.125
  0
CIRCLE
  5
196
330
6F
100
AcDbEntity
  8
A-0
  6
Continuous
 62
     4
100
AcDbCircle
 10
1140.306101497184
 20
1606.400185197982
 30
0.0
 40
0.0625
  0
CIRCLE
  5
197
330
6F
100
AcDbEntity
  8
A-0
  6
Continuous
 62
     4
100
AcDbCircle
 10
755.306101497185
 20
1606.400185197982
 30
0.0
 40
0.25
  0
CIRCLE
  5
198
330
6F
100
AcDbEntity
  8
A-0
  6
Continuous
 62
     4
100
AcDbCircle
 10
755.306101497185
 20
1606.400185197982
 30
0.0
 40
0.1875
  0
CIRCLE
  5
199
330
6F
100
AcDbEntity
  8
A-0
  6
Continuous
 62
     4
100
AcDbCircle
 10
755.306101497185
 20
1606.400185197982
 30
0.0
 40
0.125
  0
CIRCLE
  5
19A
330
6F
100
AcDbEntity
  8
A-0
  6
Continuous
 62
     4
100
AcDbCircle
 10
755.306101497185
 20
1606.400185197982
 30
0.0
 40
0.0625
  0
LINE
  5
19B
330
6F
100
AcDbEntity
  8
A-0
  6
Continuous
 62
     4
100
AcDbLine
 10
755.3061018282739
 20
1504.525185207137
 30
0.0
 11
755.3061018282739
 21
1706.400185207137
 31
0.0
  0
LINE
  5
19C
330
6F
100
AcDbEntity
  8
A-0
  6
Continuous
 62
     4
100
AcDbLine
 10
1955.306101828274
 20
1504.525185207137
 30
0.0
 11
1955.306101828274
 21
1706.400185207137
 31
0.0
  0
TEXT
  5
19D
330
6F
100
AcDbEntity
  8
A-0
 62
     4
100
AcDbText
 10
1313.329
 20
1707.02
 30
0.0
 40
36.288
  1
1200
100
AcDbText
  0
LINE
  5
19E
330
6F
100
AcDbEntity
  8
A-0
  6
Continuous
 62
     4
100
AcDbLine
 10
1955.306101497184
 20
1706.400185197982
 30
0.0
 11
755.306101497185
 21
1706.400185197982
 31
0.0
  0
CIRCLE
  5
19F
330
6F
100
AcDbEntity
  8
A-0
  6
Continuous
 62
     4
100
AcDbCircle
 10
1955.306101497184
 20
1706.400185197982
 30
0.0
 40
0.25
  0
CIRCLE
  5
1A0
330
6F
100
AcDbEntity
  8
A-0
  6
Continuous
 62
     4
100
AcDbCircle
 10
1955.306101497184
 20
1706.400185197982
 30
0.0
 40
0.1875
  0
CIRCLE
  5
1A1
330
6F
100
AcDbEntity
  8
A-0
  6
Continuous
 62
     4
100
AcDbCircle
 10
1955.306101497184
 20
1706.400185197982
 30
0.0
 40
0.125
  0
CIRCLE
  5
1A2
330
6F
100
AcDbEntity
  8
A-0
  6
Continuous
 62
     4
100
AcDbCircle
 10
1955.306101497184
 20
1706.400185197982
 30
0.0
 40
0.0625
  0
CIRCLE
  5
1A3
330
6F
100
AcDbEntity
  8
A-0
  6
Continuous
 62
     4
100
AcDbCircle
 10
755.306101497185
 20
1706.400185197982
 30
0.0
 40
0.25
  0
CIRCLE
  5
1A4
330
6F
100
AcDbEntity
  8
A-0
  6
Continuous
 62
     4
100
AcDbCircle
 10
755.306101497185
 20
1706.400185197982
 30
0.0
 40
0.1875
  0
CIRCLE
  5
1A5
330
6F
100
AcDbEntity
  8
A-0
  6
Continuous
 62
     4
100
AcDbCircle
 10
755.306101497185
 20
1706.400185197982
 30
0.0
 40
0.125
  0
CIRCLE
  5
1A6
330
6F
100
AcDbEntity
  8
A-0
  6
Continuous
 62
     4
100
AcDbCircle
 10
755.306101497185
 20
1706.400185197982
 30
0.0
 40
0.0625
  0
LINE
  5
1A7
330
6F
100
AcDbEntity
  8
A-0
  6
Continuous
 62
     4
100
AcDbLine
 10
1972.806101828274
 20
594.525185207137
 30
0.0
 11
2102.806101828274
 21
594.525185207137
 31
0.0
  0
LINE
  5
1A8
330
6F
100
AcDbEntity
  8
A-0
  6
Continuous
 62
     4
100
AcDbLine
 10
1972.806101828274
 20
684.525185207137
 30
0.0
 11
2102.806101828274
 21
684.525185207137
 31
0.0
  0
TEXT
  5
1A9
330
6F
100
AcDbEntity
  8
A-0
 62
     4
100
AcDbText
 10
2102.186
 20
617.125
 30
0.0
 40
36.288
  1
90
 50
90.0
100
AcDbText
  0
LINE
  5
1AA
330
6F
100
AcDbEntity
  8
A-0
  6
Continuous
 62
     4
100
AcDbLine
 10
2102.806101497184
 20
684.5251851979729
 30
0.0
 11
2102.806101497184
 21
594.525185197973
 31
0.0
  0
CIRCLE
  5
1AB
330
6F
100
AcDbEntity
  8
A-0
  6
Continuous
 62
     4
100
AcDbCircle
 10
2102.806101497184
 20
684.5251851979729
 30
0.0
 40
0.25
  0
CIRCLE
  5
1AC
330
6F
100
AcDbEntity
  8
A-0
  6
Continuous
 62
     4
100
AcDbCircle
 10
2102.806101497184
 20
684.5251851979729
 30
0.0
 40
0.1875
  0
CIRCLE
  5
1AD
330
6F
100
AcDbEntity
  8
A-0
  6
Continuous
 62
     4
100
AcDbCircle
 10
2102.806101497184
 20
684.5251851979729
 30
0.0
 40
0.125
  0
CIRCLE
  5
1AE
330
6F
100
AcDbEntity
  8
A-0
  6
Continuous
 62
     4
100
AcDbCircle
 10
2102.806101497184
 20
684.5251851979729
 30
0.0
 40
0.0625
  0
CIRCLE
  5
1AF
330
6F
100
AcDbEntity
  8
A-0
  6
Continuous
 62
     4
100
AcDbCircle
 10
2102.806101497184
 20
594.525185197973
 30
0.0
 40
0.25
  0
CIRCLE
  5
1B0
330
6F
100
AcDbEntity
  8
A-0
  6
Continuous
 62
     4
100
AcDbCircle
 10
2102.806101497184
 20
594.525185197973
 30
0.0
 40
0.1875
  0
CIRCLE
  5
1B1
330
6F
100
AcDbEntity
  8
A-0
  6
Continuous
 62
     4
100
AcDbCircle
 10
2102.806101497184
 20
594.525185197973
 30
0.0
 40
0.125
  0
CIRCLE
  5
1B2
330
6F
100
AcDbEntity
  8
A-0
  6
Continuous
 62
     4
100
AcDbCircle
 10
2102.806101497184
 20
594.525185197973
 30
0.0
 40
0.0625
  0
LINE
  5
1B3
330
6F
100
AcDbEntity
  8
A-0
  6
Continuous
 62
     4
100
AcDbLine
 10
1972.806101828274
 20
684.525185207137
 30
0.0
 11
2102.806101828274
 21
684.525185207137
 31
0.0
  0
LINE
  5
1B4
330
6F
100
AcDbEntity
  8
A-0
  6
Continuous
 62
     4
100
AcDbLine
 10
1968.306101828274
 20
1359.525185207137
 30
0.0
 11
2102.806101828274
 21
1359.525185207137
 31
0.0
  0
TEXT
  5
1B5
330
6F
100
AcDbEntity
  8
A-0
 62
     4
100
AcDbText
 10
2102.186
 20
988.4249999999999
 30
0.0
 40
36.288
  1
675
 50
90.0
100
AcDbText
  0
LINE
  5
1B6
330
6F
100
AcDbEntity
  8
A-0
  6
Continuous
 62
     4
100
AcDbLine
 10
2102.806101497184
 20
1359.525185197973
 30
0.0
 11
2102.806101497184
 21
684.5251851979729
 31
0.0
  0
CIRCLE
  5
1B7
330
6F
100
AcDbEntity
  8
A-0
  6
Continuous
 62
     4
100
AcDbCircle
 10
2102.806101497184
 20
1359.525185197973
 30
0.0
 40
0.25
  0
CIRCLE
  5
1B8
330
6F
100
AcDbEntity
  8
A-0
  6
Continuous
 62
     4
100
AcDbCircle
 10
2102.806101497184
 20
1359.525185197973
 30
0.0
 40
0.1875
  0
CIRCLE
  5
1B9
330
6F
100
AcDbEntity
  8
A-0
  6
Continuous
 62
     4
100
AcDbCircle
 10
2102.806101497184
 20
1359.525185197973
 30
0.0
 40
0.125
  0
CIRCLE
  5
1BA
330
6F
100
AcDbEntity
  8
A-0
  6
Continuous
 62
     4
100
AcDbCircle
 10
2102.806101497184
 20
1359.525185197973
 30
0.0
 40
0.0625
  0
CIRCLE
  5
1BB
330
6F
100
AcDbEntity
  8
A-0
  6
Continuous
 62
     4
100
AcDbCircle
 10
2102.806101497184
 20
684.5251851979729
 30
0.0
 40
0.25
  0
CIRCLE
  5
1BC
330
6F
100
AcDbEntity
  8
A-0
  6
Continuous
 62
     4
100
AcDbCircle
 10
2102.806101497184
 20
684.5251851979729
 30
0.0
 40
0.1875
  0
CIRCLE
  5
1BD
330
6F
100
AcDbEntity
  8
A-0
  6
Continuous
 62
     4
100
AcDbCircle
 10
2102.806101497184
 20
684.5251851979729
 30
0.0
 40
0.125
  0
CIRCLE
  5
1BE
330
6F
100
AcDbEntity
  8
A-0
  6
Continuous
 62
     4
100
AcDbCircle
 10
2102.806101497184
 20
684.5251851979729
 30
0.0
 40
0.0625
  0
LINE
  5
1BF
330
6F
100
AcDbEntity
  8
A-0
  6
Continuous
 62
     4
100
AcDbLine
 10
1968.306101828274
 20
1359.525185207137
 30
0.0
 11
2102.806101828274
 21
1359.525185207137
 31
0.0
  0
LINE
  5
1C0
330
6F
100
AcDbEntity
  8
A-0
  6
Continuous
 62
     4
100
AcDbLine
 10
1975.306101828274
 20
1369.525185207137
 30
0.0
 11
2102.806101828274
 21
1369.525185207137
 31
0.0
  0
LINE
  5
1C1
330
6F
100
AcDbEntity
  8
A-0
  6
Continuous
 62
     4
100
AcDbLine
 10
2102.806101828274
 20
1349.525185207137
 30
0.0
 11
2102.806101828274
 21
1339.525185207137
 31
0.0
  0
LINE
  5
1C2
330
6F
100
AcDbEntity
  8
A-0
  6
Continuous
 62
     4
100
AcDbLine
 10
2102.806101828274
 20
1379.525185207137
 30
0.0
 11
2102.806101828274
 21
1389.525185207137
 31
0.0
  0
LINE
  5
1C3
330
6F
100
AcDbEntity
  8
A-0
  6
Continuous
 62
     4
100
AcDbLine
 10
2102.806101828274
 20
1364.525185207137
 30
0.0
 11
2135.630208828274
 21
1355.658269207137
 31
0.0
  0
LINE
  5
1C4
330
6F
100
AcDbEntity
  8
A-0
  6
Continuous
 62
     4
100
AcDbLine
 10
2135.630208828274
 20
1355.658269207137
 30
0.0
 11
2135.630208828274
 21
1296.394309207137
 31
0.0
  0
TEXT
  5
1C5
330
6F
100
AcDbEntity
  8
A-0
 62
     4
100
AcDbText
 10
2135.01
 20
1303.626
 30
0.0
 40
36.288
  1
10
 50
90.0
100
AcDbText
  0
LINE
  5
1C6
330
6F
100
AcDbEntity
  8
A-0
  6
Continuous
 62
     4
100
AcDbLine
 10
2102.806101828274
 20
1359.525185207137
 30
0.0
 11
2102.806101828274
 21
1369.525185207137
 31
0.0
  0
LINE
  5
1C7
330
6F
100
AcDbEntity
  8
A-0
  6
Continuous
 62
     4
100
AcDbLine
 10
2102.806101828274
 20
1359.525185207137
 30
0.0
 11
2102.806101828274
 21
1369.525185207137
 31
0.0
  0
CIRCLE
  5
1C8
330
6F
100
AcDbEntity
  8
A-0
  6
Continuous
 62
     4
100
AcDbCircle
 10
2102.806101497184
 20
1359.525185197973
 30
0.0
 40
0.25
  0
CIRCLE
  5
1C9
330
6F
100
AcDbEntity
  8
A-0
  6
Continuous
 62
     4
100
AcDbCircle
 10
2102.806101497184
 20
1359.525185197973
 30
0.0
 40
0.1875
  0
CIRCLE
  5
1CA
330
6F
100
AcDbEntity
  8
A-0
  6
Continuous
 62
     4
100
AcDbCircle
 10
2102.806101497184
 20
1359.525185197973
 30
0.0
 40
0.125
  0
CIRCLE
  5
1CB
330
6F
100
AcDbEntity
  8
A-0
  6
Continuous
 62
     4
100
AcDbCircle
 10
2102.806101497184
 20
1359.525185197973
 30
0.0
 40
0.0625
  0
ARC
  5
1CC
330
6F
100
AcDbEntity
  8
A-0
 62
     4
100
AcDbCircle
 10
2102.801101497184
 20
1359.525185197973
 30
0.0
 40
2.5
100
AcDbArc
 50
90.11459140653
 51
270.114591405945
  0
LINE
  5
1CD
330
6F
100
AcDbEntity
  8
A-0
 62
     4
100
AcDbLine
 10
2102.80610149721
 20
1354.525185197973
 30
0.0
 11
2102.806101497235
 21
1349.525185197973
 31
0.0
  0
CIRCLE
  5
1CE
330
6F
100
AcDbEntity
  8
A-0
  6
Continuous
 62
     4
100
AcDbCircle
 10
2102.806101497184
 20
1369.525185197973
 30
0.0
 40
0.25
  0
CIRCLE
  5
1CF
330
6F
100
AcDbEntity
  8
A-0
  6
Continuous
 62
     4
100
AcDbCircle
 10
2102.806101497184
 20
1369.525185197973
 30
0.0
 40
0.1875
  0
CIRCLE
  5
1D0
330
6F
100
AcDbEntity
  8
A-0
  6
Continuous
 62
     4
100
AcDbCircle
 10
2102.806101497184
 20
1369.525185197973
 30
0.0
 40
0.125
  0
CIRCLE
  5
1D1
330
6F
100
AcDbEntity
  8
A-0
  6
Continuous
 62
     4
100
AcDbCircle
 10
2102.806101497184
 20
1369.525185197973
 30
0.0
 40
0.0625
  0
ARC
  5
1D2
330
6F
100
AcDbEntity
  8
A-0
 62
     4
100
AcDbCircle
 10
2102.811101497184
 20
1369.525185197973
 30
0.0
 40
2.5
100
AcDbArc
 50
270.1145914065301
 51
90.11459140594496
  0
LINE
  5
1D3
330
6F
100
AcDbEntity
  8
A-0
 62
     4
100
AcDbLine
 10
2102.806101497108
 20
1374.525185197973
 30
0.0
 11
2102.806101497031
 21
1379.525185197973
 31
0.0
  0
LINE
  5
1D4
330
6F
100
AcDbEntity
  8
A-0
  6
Continuous
 62
     4
100
AcDbLine
 10
1975.306101828274
 20
1369.525185207137
 30
0.0
 11
2102.806101828274
 21
1369.525185207137
 31
0.0
  0
LINE
  5
1D5
330
6F
100
AcDbEntity
  8
A-0
  6
Continuous
 62
     4
100
AcDbLine
 10
1975.306101828274
 20
1394.525185207137
 30
0.0
 11
2102.806101828274
 21
1394.525185207137
 31
0.0
  0
LINE
  5
1D6
330
6F
100
AcDbEntity
  8
A-0
  6
Continuous
 62
     4
100
AcDbLine
 10
2102.806101828274
 20
1359.525185207137
 30
0.0
 11
2102.806101828274
 21
1349.525185207137
 31
0.0
  0
LINE
  5
1D7
330
6F
100
AcDbEntity
  8
A-0
  6
Continuous
 62
     4
100
AcDbLine
 10
2102.806101828274
 20
1404.525185207137
 30
0.0
 11
2102.806101828274
 21
1414.525185207137
 31
0.0
  0
LINE
  5
1D8
330
6F
100
AcDbEntity
  8
A-0
  6
Continuous
 62
     4
100
AcDbLine
 10
2102.806101828274
 20
1382.025185207137
 30
0.0
 11
2063.556131828274
 21
1409.754805207137
 31
0.0
  0
LINE
  5
1D9
330
6F
100
AcDbEntity
  8
A-0
  6
Continuous
 62
     4
100
AcDbLine
 10
2063.556131828274
 20
1409.754805207137
 30
0.0
 11
2063.556131828274
 21
1470.440084207137
 31
0.0
  0
TEXT
  5
1DA
330
6F
100
AcDbEntity
  8
A-0
 62
     4
100
AcDbText
 10
2062.936
 20
1417.697
 30
0.0
 40
36.288
  1
25
 50
90.0
100
AcDbText
  0
LINE
  5
1DB
330
6F
100
AcDbEntity
  8
A-0
  6
Continuous
 62
     4
100
AcDbLine
 10
2102.806101828274
 20
1369.525185207137
 30
0.0
 11
2102.806101828274
 21
1394.525185207137
 31
0.0
  0
LINE
  5
1DC
330
6F
100
AcDbEntity
  8
A-0
  6
Continuous
 62
     4
100
AcDbLine
 10
2102.806101828274
 20
1369.525185207137
 30
0.0
 11
2102.806101828274
 21
1394.525185207137
 31
0.0
  0
CIRCLE
  5
1DD
330
6F
100
AcDbEntity
  8
A-0
  6
Continuous
 62
     4
100
AcDbCircle
 10
2102.806101497184
 20
1369.525185197973
 30
0.0
 40
0.25
  0
CIRCLE
  5
1DE
330
6F
100
AcDbEntity
  8
A-0
  6
Continuous
 62
     4
100
AcDbCircle
 10
2102.806101497184
 20
1369.525185197973
 30
0.0
 40
0.1875
  0
CIRCLE
  5
1DF
330
6F
100
AcDbEntity
  8
A-0
  6
Continuous
 62
     4
100
AcDbCircle
 10
2102.806101497184
 20
1369.525185197973
 30
0.0
 40
0.125
  0
CIRCLE
  5
1E0
330
6F
100
AcDbEntity
  8
A-0
  6
Continuous
 62
     4
100
AcDbCircle
 10
2102.806101497184
 20
1369.525185197973
 30
0.0
 40
0.0625
  0
ARC
  5
1E1
330
6F
100
AcDbEntity
  8
A-0
 62
     4
100
AcDbCircle
 10
2102.801101497184
 20
1369.525185197973
 30
0.0
 40
2.5
100
AcDbArc
 50
90.11459140653
 51
270.114591405945
  0
LINE
  5
1E2
330
6F
100
AcDbEntity
  8
A-0
 62
     4
100
AcDbLine
 10
2102.80610149721
 20
1364.525185197973
 30
0.0
 11
2102.806101497235
 21
1359.525185197973
 31
0.0
  0
CIRCLE
  5
1E3
330
6F
100
AcDbEntity
  8
A-0
  6
Continuous
 62
     4
100
AcDbCircle
 10
2102.806101497184
 20
1394.525185197973
 30
0.0
 40
0.25
  0
CIRCLE
  5
1E4
330
6F
100
AcDbEntity
  8
A-0
  6
Continuous
 62
     4
100
AcDbCircle
 10
2102.806101497184
 20
1394.525185197973
 30
0.0
 40
0.1875
  0
CIRCLE
  5
1E5
330
6F
100
AcDbEntity
  8
A-0
  6
Continuous
 62
     4
100
AcDbCircle
 10
2102.806101497184
 20
1394.525185197973
 30
0.0
 40
0.125
  0
CIRCLE
  5
1E6
330
6F
100
AcDbEntity
  8
A-0
  6
Continuous
 62
     4
100
AcDbCircle
 10
2102.806101497184
 20
1394.525185197973
 30
0.0
 40
0.0625
  0
ARC
  5
1E7
330
6F
100
AcDbEntity
  8
A-0
 62
     4
100
AcDbCircle
 10
2102.811101497184
 20
1394.525185197973
 30
0.0
 40
2.5
100
AcDbArc
 50
270.1145914065301
 51
90.11459140594496
  0
LINE
  5
1E8
330
6F
100
AcDbEntity
  8
A-0
 62
     4
100
AcDbLine
 10
2102.806101497108
 20
1399.525185197973
 30
0.0
 11
2102.806101497031
 21
1404.525185197973
 31
0.0
  0
LINE
  5
1E9
330
6F
100
AcDbEntity
  8
A-0
  6
Continuous
 62
     4
100
AcDbLine
 10
1955.306101828274
 20
1349.525185207137
 30
0.0
 11
1955.306101828274
 21
1301.349943207137
 31
0.0
  0
LINE
  5
1EA
330
6F
100
AcDbEntity
  8
A-0
  6
Continuous
 62
     4
100
AcDbLine
 10
1952.806101828274
 20
1349.525185207137
 30
0.0
 11
1952.806101828274
 21
1301.349943207137
 31
0.0
  0
LINE
  5
1EB
330
6F
100
AcDbEntity
  8
A-0
  6
Continuous
 62
     4
100
AcDbLine
 10
1965.306101828274
 20
1301.349943207137
 30
0.0
 11
1975.306101828274
 21
1301.349943207137
 31
0.0
  0
LINE
  5
1EC
330
6F
100
AcDbEntity
  8
A-0
  6
Continuous
 62
     4
100
AcDbLine
 10
1942.806101828274
 20
1301.349943207137
 30
0.0
 11
1932.806101828274
 21
1301.349943207137
 31
0.0
  0
LINE
  5
1ED
330
6F
100
AcDbEntity
  8
A-0
  6
Continuous
 62
     4
100
AcDbLine
 10
1954.056101828274
 20
1301.349943207137
 30
0.0
 11
1971.860057828274
 21
1235.206648207137
 31
0.0
  0
LINE
  5
1EE
330
6F
100
AcDbEntity
  8
A-0
  6
Continuous
 62
     4
100
AcDbLine
 10
1971.860057828274
 20
1235.206648207137
 30
0.0
 11
2055.286453828274
 21
1235.206648207137
 31
0.0
  0
TEXT
  5
1EF
330
6F
100
AcDbEntity
  8
A-0
 62
     4
100
AcDbText
 10
1982.796
 20
1235.827
 30
0.0
 40
36.288
  1
2.5
100
AcDbText
  0
LINE
  5
1F0
330
6F
100
AcDbEntity
  8
A-0
  6
Continuous
 62
     4
100
AcDbLine
 10
1955.306101828274
 20
1301.349943207137
 30
0.0
 11
1952.806101828274
 21
1301.349943207137
 31
0.0
  0
LINE
  5
1F1
330
6F
100
AcDbEntity
  8
A-0
  6
Continuous
 62
     4
100
AcDbLine
 10
1955.306101828274
 20
1301.349943207137
 30
0.0
 11
1952.806101828274
 21
1301.349943207137
 31
0.0
  0
CIRCLE
  5
1F2
330
6F
100
AcDbEntity
  8
A-0
  6
Continuous
 62
     4
100
AcDbCircle
 10
1955.306101497184
 20
1301.349942929981
 30
0.0
 40
0.25
  0
CIRCLE
  5
1F3
330
6F
100
AcDbEntity
  8
A-0
  6
Continuous
 62
     4
100
AcDbCircle
 10
1955.306101497184
 20
1301.349942929981
 30
0.0
 40
0.1875
  0
CIRCLE
  5
1F4
330
6F
100
AcDbEntity
  8
A-0
  6
Continuous
 62
     4
100
AcDbCircle
 10
1955.306101497184
 20
1301.349942929981
 30
0.0
 40
0.125
  0
CIRCLE
  5
1F5
330
6F
100
AcDbEntity
  8
A-0
  6
Continuous
 62
     4
100
AcDbCircle
 10
1955.306101497184
 20
1301.349942929981
 30
0.0
 40
0.0625
  0
ARC
  5
1F6
330
6F
100
AcDbEntity
  8
A-0
 62
     4
100
AcDbCircle
 10
1955.306101497184
 20
1301.344942929981
 30
0.0
 40
2.5
100
AcDbArc
 50
180.1145914065301
 51
0.1145914059449637
  0
LINE
  5
1F7
330
6F
100
AcDbEntity
  8
A-0
 62
     4
100
AcDbLine
 10
1960.306101497184
 20
1301.349942930032
 30
0.0
 11
1965.306101497184
 21
1301.349942930083
 31
0.0
  0
CIRCLE
  5
1F8
330
6F
100
AcDbEntity
  8
A-0
  6
Continuous
 62
     4
100
AcDbCircle
 10
1952.806101497184
 20
1301.349942929981
 30
0.0
 40
0.25
  0
CIRCLE
  5
1F9
330
6F
100
AcDbEntity
  8
A-0
  6
Continuous
 62
     4
100
AcDbCircle
 10
1952.806101497184
 20
1301.349942929981
 30
0.0
 40
0.1875
  0
CIRCLE
  5
1FA
330
6F
100
AcDbEntity
  8
A-0
  6
Continuous
 62
     4
100
AcDbCircle
 10
1952.806101497184
 20
1301.349942929981
 30
0.0
 40
0.125
  0
CIRCLE
  5
1FB
330
6F
100
AcDbEntity
  8
A-0
  6
Continuous
 62
     4
100
AcDbCircle
 10
1952.806101497184
 20
1301.349942929981
 30
0.0
 40
0.0625
  0
ARC
  5
1FC
330
6F
100
AcDbEntity
  8
A-0
 62
     4
100
AcDbCircle
 10
1952.806101497184
 20
1301.354942929981
 30
0.0
 40
2.5
100
AcDbArc
 50
0.1145914065300158
 51
180.114591405945
  0
LINE
  5
1FD
330
6F
100
AcDbEntity
  8
A-0
 62
     4
100
AcDbLine
 10
1947.806101497184
 20
1301.349942929981
 30
0.0
 11
1942.806101497184
 21
1301.349942929981
 31
0.0
  0
LINE
  5
1FE
330
6F
100
AcDbEntity
  8
A-0
  6
Continuous
 62
     4
100
AcDbLine
 10
1972.806101828274
 20
594.525185207137
 30
0.0
 11
2202.806101828274
 21
594.525185207137
 31
0.0
  0
LINE
  5
1FF
330
6F
100
AcDbEntity
  8
A-0
  6
Continuous
 62
     4
100
AcDbLine
 10
1975.306101828274
 20
1394.525185207137
 30
0.0
 11
2202.806101828274
 21
1394.525185207137
 31
0.0
  0
TEXT
  5
200
330
6F
100
AcDbEntity
  8
A-0
 62
     4
100
AcDbText
 10
2202.186
 20
960.9249999999999
 30
0.0
 40
36.288
  1
800
 50
90.0
100
AcDbText
  0
LINE
  5
201
330
6F
100
AcDbEntity
  8
A-0
  6
Continuous
 62
     4
100
AcDbLine
 10
2202.806101497185
 20
1394.525185197973
 30
0.0
 11
2202.806101497184
 21
594.525185197973
 31
0.0
  0
CIRCLE
  5
202
330
6F
100
AcDbEntity
  8
A-0
  6
Continuous
 62
     4
100
AcDbCircle
 10
2202.806101497185
 20
1394.525185197973
 30
0.0
 40
0.25
  0
CIRCLE
  5
203
330
6F
100
AcDbEntity
  8
A-0
  6
Continuous
 62
     4
100
AcDbCircle
 10
2202.806101497185
 20
1394.525185197973
 30
0.0
 40
0.1875
  0
CIRCLE
  5
204
330
6F
100
AcDbEntity
  8
A-0
  6
Continuous
 62
     4
100
AcDbCircle
 10
2202.806101497185
 20
1394.525185197973
 30
0.0
 40
0.125
  0
CIRCLE
  5
205
330
6F
100
AcDbEntity
  8
A-0
  6
Continuous
 62
     4
100
AcDbCircle
 10
2202.806101497185
 20
1394.525185197973
 30
0.0
 40
0.0625
  0
CIRCLE
  5
206
330
6F
100
AcDbEntity
  8
A-0
  6
Continuous
 62
     4
100
AcDbCircle
 10
2202.806101497184
 20
594.525185197973
 30
0.0
 40
0.25
  0
CIRCLE
  5
207
330
6F
100
AcDbEntity
  8
A-0
  6
Continuous
 62
     4
100
AcDbCircle
 10
2202.806101497184
 20
594.525185197973
 30
0.0
 40
0.1875
  0
CIRCLE
  5
208
330
6F
100
AcDbEntity
  8
A-0
  6
Continuous
 62
     4
100
AcDbCircle
 10
2202.806101497184
 20
594.525185197973
 30
0.0
 40
0.125
  0
CIRCLE
  5
209
330
6F
100
AcDbEntity
  8
A-0
  6
Continuous
 62
     4
100
AcDbCircle
 10
2202.806101497184
 20
594.525185197973
 30
0.0
 40
0.0625
  0
LINE
  5
20A
330
6F
100
AcDbEntity
  8
A-0
  6
Continuous
 62
     4
100
AcDbLine
 10
1975.306101828274
 20
1394.525185207137
 30
0.0
 11
2202.806101828274
 21
1394.525185207137
 31
0.0
  0
LINE
  5
20B
330
6F
100
AcDbEntity
  8
A-0
  6
Continuous
 62
     4
100
AcDbLine
 10
1975.306101828274
 20
1484.525185207137
 30
0.0
 11
2202.806101828274
 21
1484.525185207137
 31
0.0
  0
TEXT
  5
20C
330
6F
100
AcDbEntity
  8
A-0
 62
     4
100
AcDbText
 10
2202.186
 20
1417.125
 30
0.0
 40
36.288
  1
90
 50
90.0
100
AcDbText
  0
LINE
  5
20D
330
6F
100
AcDbEntity
  8
A-0
  6
Continuous
 62
     4
100
AcDbLine
 10
2202.806101497185
 20
1484.525185197973
 30
0.0
 11
2202.806101497185
 21
1394.525185197973
 31
0.0
  0
CIRCLE
  5
20E
330
6F
100
AcDbEntity
  8
A-0
  6
Continuous
 62
     4
100
AcDbCircle
 10
2202.806101497185
 20
1484.525185197973
 30
0.0
 40
0.25
  0
CIRCLE
  5
20F
330
6F
100
AcDbEntity
  8
A-0
  6
Continuous
 62
     4
100
AcDbCircle
 10
2202.806101497185
 20
1484.525185197973
 30
0.0
 40
0.1875
  0
CIRCLE
  5
210
330
6F
100
AcDbEntity
  8
A-0
  6
Continuous
 62
     4
100
AcDbCircle
 10
2202.806101497185
 20
1484.525185197973
 30
0.0
 40
0.125
  0
CIRCLE
  5
211
330
6F
100
AcDbEntity
  8
A-0
  6
Continuous
 62
     4
100
AcDbCircle
 10
2202.806101497185
 20
1484.525185197973
 30
0.0
 40
0.0625
  0
CIRCLE
  5
212
330
6F
100
AcDbEntity
  8
A-0
  6
Continuous
 62
     4
100
AcDbCircle
 10
2202.806101497185
 20
1394.525185197973
 30
0.0
 40
0.25
  0
CIRCLE
  5
213
330
6F
100
AcDbEntity
  8
A-0
  6
Continuous
 62
     4
100
AcDbCircle
 10
2202.806101497185
 20
1394.525185197973
 30
0.0
 40
0.1875
  0
CIRCLE
  5
214
330
6F
100
AcDbEntity
  8
A-0
  6
Continuous
 62
     4
100
AcDbCircle
 10
2202.806101497185
 20
1394.525185197973
 30
0.0
 40
0.125
  0
CIRCLE
  5
215
330
6F
100
AcDbEntity
  8
A-0
  6
Continuous
 62
     4
100
AcDbCircle
 10
2202.806101497185
 20
1394.525185197973
 30
0.0
 40
0.0625
  0
LINE
  5
216
330
6F
100
AcDbEntity
  8
3-0
  6
DASHED2
 62
     7
100
AcDbLine
 10
1937.806101778887
 20
699.5251849150699
 30
0.0
 11
772.8061017788871
 21
699.5251849150699
 31
0.0
  0
LINE
  5
217
330
6F
100
AcDbEntity
  8
3-0
  6
Continuous
 62
     7
100
AcDbLine
 10
757.806101778887
 20
1369.52518491507
 30
0.0
 11
757.806101778887
 21
594.5251849150699
 31
0.0
  0
LINE
  5
218
330
6F
100
AcDbEntity
  8
1-0
  6
Continuous
 62
     7
100
AcDbLine
 10
755.306101778887
 20
1484.52518491507
 30
0.0
 11
755.306101778887
 21
1369.52518491507
 31
0.0
  0
LINE
  5
219
330
6F
100
AcDbEntity
  8
A-0
  6
Continuous
 62
     4
100
AcDbLine
 10
757.8061018282738
 20
1349.525185207137
 30
0.0
 11
757.8061018282738
 21
1309.108971207137
 31
0.0
  0
LINE
  5
21A
330
6F
100
AcDbEntity
  8
A-0
  6
Continuous
 62
     4
100
AcDbLine
 10
755.3061018282739
 20
1349.525185207137
 30
0.0
 11
755.3061018282739
 21
1309.108971207137
 31
0.0
  0
TEXT
  5
21B
330
6F
100
AcDbEntity
  8
A-0
 62
     4
100
AcDbText
 10
787.7419999999999
 20
1242.229
 30
0.0
 40
36.288
  1
2.5
100
AcDbText
  0
LINE
  5
21C
330
6F
100
AcDbEntity
  8
A-0
  6
Continuous
 62
     4
100
AcDbLine
 10
755.306101497185
 20
1309.108971665297
 30
0.0
 11
757.8061014971851
 21
1309.108971665297
 31
0.0
  0
CIRCLE
  5
21D
330
6F
100
AcDbEntity
  8
A-0
  6
Continuous
 62
     4
100
AcDbCircle
 10
755.306101497185
 20
1309.108971665297
 30
0.0
 40
0.25
  0
CIRCLE
  5
21E
330
6F
100
AcDbEntity
  8
A-0
  6
Continuous
 62
     4
100
AcDbCircle
 10
755.306101497185
 20
1309.108971665297
 30
0.0
 40
0.1875
  0
CIRCLE
  5
21F
330
6F
100
AcDbEntity
  8
A-0
  6
Continuous
 62
     4
100
AcDbCircle
 10
755.306101497185
 20
1309.108971665297
 30
0.0
 40
0.125
  0
CIRCLE
  5
220
330
6F
100
AcDbEntity
  8
A-0
  6
Continuous
 62
     4
100
AcDbCircle
 10
755.306101497185
 20
1309.108971665297
 30
0.0
 40
0.0625
  0
CIRCLE
  5
221
330
6F
100
AcDbEntity
  8
A-0
  6
Continuous
 62
     4
100
AcDbCircle
 10
757.8061014971851
 20
1309.108971665297
 30
0.0
 40
0.25
  0
CIRCLE
  5
222
330
6F
100
AcDbEntity
  8
A-0
  6
Continuous
 62
     4
100
AcDbCircle
 10
757.8061014971851
 20
1309.108971665297
 30
0.0
 40
0.1875
  0
CIRCLE
  5
223
330
6F
100
AcDbEntity
  8
A-0
  6
Continuous
 62
     4
100
AcDbCircle
 10
757.8061014971851
 20
1309.108971665297
 30
0.0
 40
0.125
  0
CIRCLE
  5
224
330
6F
100
AcDbEntity
  8
A-0
  6
Continuous
 62
     4
100
AcDbCircle
 10
757.8061014971851
 20
1309.108971665297
 30
0.0
 40
0.0625
  0
LINE
  5
225
330
6F
100
AcDbEntity
  8
A-0
  6
Continuous
 62
     4
100
AcDbLine
 10
1295.306101828274
 20
2162.778774207137
 30
0.0
 11
1295.306101828274
 21
2032.778774207137
 31
0.0
  0
LINE
  5
226
330
6F
100
AcDbEntity
  8
A-0
  6
Continuous
 62
     4
100
AcDbLine
 10
1830.306101828274
 20
2162.778774207137
 30
0.0
 11
1830.306101828274
 21
2032.778774207137
 31
0.0
  0
TEXT
  5
227
330
6F
100
AcDbEntity
  8
A-0
 62
     4
100
AcDbText
 10
1532.029
 20
2033.399
 30
0.0
 40
36.288
  1
535
100
AcDbText
  0
LINE
  5
228
330
6F
100
AcDbEntity
  8
A-0
  6
Continuous
 62
     4
100
AcDbLine
 10
1830.306101497186
 20
2032.77877448127
 30
0.0
 11
1295.306101497186
 21
2032.77877448127
 31
0.0
  0
CIRCLE
  5
229
330
6F
100
AcDbEntity
  8
A-0
  6
Continuous
 62
     4
100
AcDbCircle
 10
1830.306101497186
 20
2032.77877448127
 30
0.0
 40
0.25
  0
CIRCLE
  5
22A
330
6F
100
AcDbEntity
  8
A-0
  6
Continuous
 62
     4
100
AcDbCircle
 10
1830.306101497186
 20
2032.77877448127
 30
0.0
 40
0.1875
  0
CIRCLE
  5
22B
330
6F
100
AcDbEntity
  8
A-0
  6
Continuous
 62
     4
100
AcDbCircle
 10
1830.306101497186
 20
2032.77877448127
 30
0.0
 40
0.125
  0
CIRCLE
  5
22C
330
6F
100
AcDbEntity
  8
A-0
  6
Continuous
 62
     4
100
AcDbCircle
 10
1830.306101497186
 20
2032.77877448127
 30
0.0
 40
0.0625
  0
CIRCLE
  5
22D
330
6F
100
AcDbEntity
  8
A-0
  6
Continuous
 62
     4
100
AcDbCircle
 10
1295.306101497186
 20
2032.77877448127
 30
0.0
 40
0.25
  0
CIRCLE
  5
22E
330
6F
100
AcDbEntity
  8
A-0
  6
Continuous
 62
     4
100
AcDbCircle
 10
1295.306101497186
 20
2032.77877448127
 30
0.0
 40
0.1875
  0
CIRCLE
  5
22F
330
6F
100
AcDbEntity
  8
A-0
  6
Continuous
 62
     4
100
AcDbCircle
 10
1295.306101497186
 20
2032.77877448127
 30
0.0
 40
0.125
  0
CIRCLE
  5
230
330
6F
100
AcDbEntity
  8
A-0
  6
Continuous
 62
     4
100
AcDbCircle
 10
1295.306101497186
 20
2032.77877448127
 30
0.0
 40
0.0625
  0
LINE
  5
231
330
6F
100
AcDbEntity
  8
A-0
  6
Continuous
 62
     4
100
AcDbLine
 10
1955.306101828274
 20
2162.778774207137
 30
0.0
 11
1955.306101828274
 21
2032.778774207137
 31
0.0
  0
LINE
  5
232
330
6F
100
AcDbEntity
  8
A-0
  6
Continuous
 62
     4
100
AcDbLine
 10
1830.306101828274
 20
2162.778774207137
 30
0.0
 11
1830.306101828274
 21
2032.778774207137
 31
0.0
  0
LINE
  5
233
330
6F
100
AcDbEntity
  8
A-0
  6
Continuous
 62
     4
100
AcDbLine
 10
1945.306101828274
 20
2032.778774207137
 30
0.0
 11
1840.306101828274
 21
2032.778774207137
 31
0.0
  0
TEXT
  5
234
330
6F
100
AcDbEntity
  8
A-0
 62
     4
100
AcDbText
 10
1863.024
 20
2034.939
 30
0.0
 40
36.288
  1
125
100
AcDbText
  0
CIRCLE
  5
235
330
6F
100
AcDbEntity
  8
A-0
  6
Continuous
 62
     4
100
AcDbCircle
 10
1955.306101497184
 20
2032.77877448127
 30
0.0
 40
0.25
  0
CIRCLE
  5
236
330
6F
100
AcDbEntity
  8
A-0
  6
Continuous
 62
     4
100
AcDbCircle
 10
1955.306101497184
 20
2032.77877448127
 30
0.0
 40
0.1875
  0
CIRCLE
  5
237
330
6F
100
AcDbEntity
  8
A-0
  6
Continuous
 62
     4
100
AcDbCircle
 10
1955.306101497184
 20
2032.77877448127
 30
0.0
 40
0.125
  0
CIRCLE
  5
238
330
6F
100
AcDbEntity
  8
A-0
  6
Continuous
 62
     4
100
AcDbCircle
 10
1955.306101497184
 20
2032.77877448127
 30
0.0
 40
0.0625
  0
ARC
  5
239
330
6F
100
AcDbEntity
  8
A-0
 62
     4
100
AcDbCircle
 10
1955.306101497184
 20
2032.78377448127
 30
0.0
 40
2.5
100
AcDbArc
 50
0.1145914065300158
 51
180.114591405945
  0
LINE
  5
23A
330
6F
100
AcDbEntity
  8
A-0
 62
     4
100
AcDbLine
 10
1950.306101497184
 20
2032.77877448127
 30
0.0
 11
1945.306101497184
 21
2032.77877448127
 31
0.0
  0
CIRCLE
  5
23B
330
6F
100
AcDbEntity
  8
A-0
  6
Continuous
 62
     4
100
AcDbCircle
 10
1830.306101497186
 20
2032.77877448127
 30
0.0
 40
0.25
  0
CIRCLE
  5
23C
330
6F
100
AcDbEntity
  8
A-0
  6
Continuous
 62
     4
100
AcDbCircle
 10
1830.306101497186
 20
2032.77877448127
 30
0.0
 40
0.1875
  0
CIRCLE
  5
23D
330
6F
100
AcDbEntity
  8
A-0
  6
Continuous
 62
     4
100
AcDbCircle
 10
1830.306101497186
 20
2032.77877448127
 30
0.0
 40
0.125
  0
CIRCLE
  5
23E
330
6F
100
AcDbEntity
  8
A-0
  6
Continuous
 62
     4
100
AcDbCircle
 10
1830.306101497186
 20
2032.77877448127
 30
0.0
 40
0.0625
  0
ARC
  5
23F
330
6F
100
AcDbEntity
  8
A-0
 62
     4
100
AcDbCircle
 10
1830.306101497186
 20
2032.77377448127
 30
0.0
 40
2.5
100
AcDbArc
 50
180.1145914065301
 51
0.1145914059449637
  0
LINE
  5
240
330
6F
100
AcDbEntity
  8
A-0
 62
     4
100
AcDbLine
 10
1835.306101497186
 20
2032.778774481321
 30
0.0
 11
1840.306101497185
 21
2032.778774481372
 31
0.0
  0
LINE
  5
241
330
6F
100
AcDbEntity
  8
A-0
  6
Continuous
 62
     4
100
AcDbLine
 10
1295.306101828274
 20
2162.778774207137
 30
0.0
 11
1295.306101828274
 21
2032.778774207137
 31
0.0
  0
LINE
  5
242
330
6F
100
AcDbEntity
  8
A-0
  6
Continuous
 62
     4
100
AcDbLine
 10
755.3061018282739
 20
2162.778774207137
 30
0.0
 11
755.3061018282739
 21
2032.778774207137
 31
0.0
  0
TEXT
  5
243
330
6F
100
AcDbEntity
  8
A-0
 62
     4
100
AcDbText
 10
994.5289999999999
 20
2033.399
 30
0.0
 40
36.288
  1
540
100
AcDbText
  0
LINE
  5
244
330
6F
100
AcDbEntity
  8
A-0
  6
Continuous
 62
     4
100
AcDbLine
 10
755.306101497185
 20
2032.77877448127
 30
0.0
 11
1295.306101497186
 21
2032.77877448127
 31
0.0
  0
CIRCLE
  5
245
330
6F
100
AcDbEntity
  8
A-0
  6
Continuous
 62
     4
100
AcDbCircle
 10
755.306101497185
 20
2032.77877448127
 30
0.0
 40
0.25
  0
CIRCLE
  5
246
330
6F
100
AcDbEntity
  8
A-0
  6
Continuous
 62
     4
100
AcDbCircle
 10
755.306101497185
 20
2032.77877448127
 30
0.0
 40
0.1875
  0
CIRCLE
  5
247
330
6F
100
AcDbEntity
  8
A-0
  6
Continuous
 62
     4
100
AcDbCircle
 10
755.306101497185
 20
2032.77877448127
 30
0.0
 40
0.125
  0
CIRCLE
  5
248
330
6F
100
AcDbEntity
  8
A-0
  6
Continuous
 62
     4
100
AcDbCircle
 10
755.306101497185
 20
2032.77877448127
 30
0.0
 40
0.0625
  0
CIRCLE
  5
249
330
6F
100
AcDbEntity
  8
A-0
  6
Continuous
 62
     4
100
AcDbCircle
 10
1295.306101497186
 20
2032.77877448127
 30
0.0
 40
0.25
  0
CIRCLE
  5
24A
330
6F
100
AcDbEntity
  8
A-0
  6
Continuous
 62
     4
100
AcDbCircle
 10
1295.306101497186
 20
2032.77877448127
 30
0.0
 40
0.1875
  0
CIRCLE
  5
24B
330
6F
100
AcDbEntity
  8
A-0
  6
Continuous
 62
     4
100
AcDbCircle
 10
1295.306101497186
 20
2032.77877448127
 30
0.0
 40
0.125
  0
CIRCLE
  5
24C
330
6F
100
AcDbEntity
  8
A-0
  6
Continuous
 62
     4
100
AcDbCircle
 10
1295.306101497186
 20
2032.77877448127
 30
0.0
 40
0.0625
  0
LINE
  5
24D
330
6F
100
AcDbEntity
  8
A-0
  6
Continuous
 62
     4
100
AcDbLine
 10
755.3061018282739
 20
2062.778774207137
 30
0.0
 11
755.3061018282739
 21
1932.778774207137
 31
0.0
  0
LINE
  5
24E
330
6F
100
AcDbEntity
  8
A-0
  6
Continuous
 62
     4
100
AcDbLine
 10
1955.306101828274
 20
2062.778774207137
 30
0.0
 11
1955.306101828274
 21
1932.778774207137
 31
0.0
  0
TEXT
  5
24F
330
6F
100
AcDbEntity
  8
A-0
 62
     4
100
AcDbText
 10
1313.329
 20
1933.399
 30
0.0
 40
36.288
  1
1200
100
AcDbText
  0
LINE
  5
250
330
6F
100
AcDbEntity
  8
A-0
  6
Continuous
 62
     4
100
AcDbLine
 10
1955.306101497182
 20
1932.778774481269
 30
0.0
 11
755.306101497185
 21
1932.778774481269
 31
0.0
  0
CIRCLE
  5
251
330
6F
100
AcDbEntity
  8
A-0
  6
Continuous
 62
     4
100
AcDbCircle
 10
1955.306101497182
 20
1932.778774481269
 30
0.0
 40
0.25
  0
CIRCLE
  5
252
330
6F
100
AcDbEntity
  8
A-0
  6
Continuous
 62
     4
100
AcDbCircle
 10
1955.306101497182
 20
1932.778774481269
 30
0.0
 40
0.1875
  0
CIRCLE
  5
253
330
6F
100
AcDbEntity
  8
A-0
  6
Continuous
 62
     4
100
AcDbCircle
 10
1955.306101497182
 20
1932.778774481269
 30
0.0
 40
0.125
  0
CIRCLE
  5
254
330
6F
100
AcDbEntity
  8
A-0
  6
Continuous
 62
     4
100
AcDbCircle
 10
1955.306101497182
 20
1932.778774481269
 30
0.0
 40
0.0625
  0
CIRCLE
  5
255
330
6F
100
AcDbEntity
  8
A-0
  6
Continuous
 62
     4
100
AcDbCircle
 10
755.306101497185
 20
1932.778774481269
 30
0.0
 40
0.25
  0
CIRCLE
  5
256
330
6F
100
AcDbEntity
  8
A-0
  6
Continuous
 62
     4
100
AcDbCircle
 10
755.306101497185
 20
1932.778774481269
 30
0.0
 40
0.1875
  0
CIRCLE
  5
257
330
6F
100
AcDbEntity
  8
A-0
  6
Continuous
 62
     4
100
AcDbCircle
 10
755.306101497185
 20
1932.778774481269
 30
0.0
 40
0.125
  0
CIRCLE
  5
258
330
6F
100
AcDbEntity
  8
A-0
  6
Continuous
 62
     4
100
AcDbCircle
 10
755.306101497185
 20
1932.778774481269
 30
0.0
 40
0.0625
  0
ARC
  5
259
330
6F
100
AcDbEntity
  8
3-0
  6
Continuous
 62
     7
100
AcDbCircle
 10
800.3061017788871
 20
2582.77877491507
 30
0.0
 40
21.0
100
AcDbArc
 50
90.0
 51
179.9999999997081
  0
LINE
  5
25A
330
6F
100
AcDbEntity
  8
3-0
  6
Continuous
 62
     7
100
AcDbLine
 10
800.306101497183
 20
2603.778774481277
 30
0.0
 11
1910.306101497184
 21
2603.778774481279
 31
0.0
  0
ARC
  5
25B
330
6F
100
AcDbEntity
  8
3-0
  6
Continuous
 62
     7
100
AcDbCircle
 10
1910.306101778887
 20
2582.77877491507
 30
0.0
 40
21.0
100
AcDbArc
 50
0.0000000002920064
 51
90.0
  0
LINE
  5
25C
330
6F
100
AcDbEntity
  8
3-0
  6
Continuous
 62
     7
100
AcDbLine
 10
1931.306101497184
 20
2582.778774481279
 30
0.0
 11
1931.306101497186
 21
2225.778774481277
 31
0.0
  0
ARC
  5
25D
330
6F
100
AcDbEntity
  8
3-0
  6
Continuous
 62
     7
100
AcDbCircle
 10
1910.306101778887
 20
2225.77877491507
 30
0.0
 40
21.0
100
AcDbArc
 50
270.0
 51
359.9999999997079
  0
LINE
  5
25E
330
6F
100
AcDbEntity
  8
3-0
  6
Continuous
 62
     7
100
AcDbLine
 10
1910.306101497186
 20
2204.778774481277
 30
0.0
 11
800.306101497183
 21
2204.778774481277
 31
0.0
  0
ARC
  5
25F
330
6F
100
AcDbEntity
  8
3-0
  6
Continuous
 62
     7
100
AcDbCircle
 10
800.3061017788871
 20
2225.77877491507
 30
0.0
 40
21.0
100
AcDbArc
 50
180.000000000292
 51
270.0
  0
LINE
  5
260
330
6F
100
AcDbEntity
  8
3-0
  6
Continuous
 62
     7
100
AcDbLine
 10
779.306101497183
 20
2225.778774481277
 30
0.0
 11
779.306101497183
 21
2582.778774481277
 31
0.0
  0
ARC
  5
261
330
6F
100
AcDbEntity
  8
3-0
  6
Continuous
 62
     7
100
AcDbCircle
 10
800.3061017788871
 20
2582.77877491507
 30
0.0
 40
26.0
100
AcDbArc
 50
90.0
 51
179.9999999997081
  0
LINE
  5
262
330
6F
100
AcDbEntity
  8
3-0
  6
Continuous
 62
     7
100
AcDbLine
 10
800.306101497183
 20
2608.778774481277
 30
0.0
 11
1910.306101497184
 21
2608.778774481279
 31
0.0
  0
ARC
  5
263
330
6F
100
AcDbEntity
  8
3-0
  6
Continuous
 62
     7
100
AcDbCircle
 10
1910.306101778887
 20
2582.77877491507
 30
0.0
 40
26.0
100
AcDbArc
 50
0.0000000002920064
 51
90.00000000000095
  0
LINE
  5
264
330
6F
100
AcDbEntity
  8
3-0
  6
Continuous
 62
     7
100
AcDbLine
 10
1936.306101497184
 20
2582.778774481279
 30
0.0
 11
1936.306101497186
 21
2225.778774481277
 31
0.0
  0
ARC
  5
265
330
6F
100
AcDbEntity
  8
3-0
  6
Continuous
 62
     7
100
AcDbCircle
 10
1910.306101778887
 20
2225.77877491507
 30
0.0
 40
26.0
100
AcDbArc
 50
270.0
 51
359.9999999997079
  0
LINE
  5
266
330
6F
100
AcDbEntity
  8
3-0
  6
Continuous
 62
     7
100
AcDbLine
 10
1910.306101497186
 20
2199.778774481277
 30
0.0
 11
800.306101497183
 21
2199.778774481277
 31
0.0
  0
ARC
  5
267
330
6F
100
AcDbEntity
  8
3-0
  6
Continuous
 62
     7
100
AcDbCircle
 10
800.3061017788871
 20
2225.77877491507
 30
0.0
 40
26.0
100
AcDbArc
 50
180.000000000292
 51
270.0
  0
LINE
  5
268
330
6F
100
AcDbEntity
  8
3-0
  6
Continuous
 62
     7
100
AcDbLine
 10
774.3061014971829
 20
2225.778774481277
 30
0.0
 11
774.3061014971829
 21
2582.778774481277
 31
0.0
  0
LINE
  5
269
330
6F
100
AcDbEntity
  8
3-0
  6
Continuous
 62
     7
100
AcDbLine
 10
1955.306101778887
 20
2182.77877491507
 30
0.0
 11
755.306101778887
 21
2182.77877491507
 31
0.0
  0
LINE
  5
26A
330
6F
100
AcDbEntity
  8
3-0
  6
Continuous
 62
     7
100
AcDbLine
 10
755.306101778887
 20
2617.77877491507
 30
0.0
 11
1955.306101778887
 21
2617.77877491507
 31
0.0
  0
LINE
  5
26B
330
6F
100
AcDbEntity
  8
3-0
  6
Continuous
 62
     7
100
AcDbLine
 10
755.306101778887
 20
2642.77877491507
 30
0.0
 11
1955.306101778887
 21
2642.77877491507
 31
0.0
  0
LINE
  5
26C
330
6F
100
AcDbEntity
  8
3-0
  6
Continuous
 62
     7
100
AcDbLine
 10
1955.306101778887
 20
2642.77877491507
 30
0.0
 11
1955.306101778887
 21
2182.77877491507
 31
0.0
  0
LINE
  5
26D
330
6F
100
AcDbEntity
  8
3-0
  6
Continuous
 62
     7
100
AcDbLine
 10
755.306101778887
 20
2183.77877491507
 30
0.0
 11
755.306101778887
 21
2642.77877491507
 31
0.0
  0
LINE
  5
26E
330
6F
100
AcDbEntity
  8
3-0
  6
Continuous
 62
     7
100
AcDbLine
 10
935.306101497186
 20
2232.778774481277
 30
0.0
 11
1272.831614358025
 21
2232.778774481277
 31
0.0
  0
ARC
  5
26F
330
6F
100
AcDbEntity
  8
3-0
  6
Continuous
 62
     7
100
AcDbCircle
 10
1272.831614778887
 20
2237.77877491507
 30
0.0
 40
5.0
100
AcDbArc
 50
270.000000000007
 51
37.79972243502604
  0
ARC
  5
270
330
6F
100
AcDbEntity
  8
3-0
  6
Continuous
 62
     7
100
AcDbCircle
 10
1395.306101778887
 20
2332.77877491507
 30
0.0
 40
150.0
100
AcDbArc
 50
200.7835595960709
 51
217.799722435596
  0
ARC
  5
271
330
6F
100
AcDbEntity
  8
3-0
  6
Continuous
 62
     7
100
AcDbCircle
 10
1250.392333778887
 20
2277.77877491507
 30
0.0
 40
5.0
100
AcDbArc
 50
20.78355959608102
 51
90.00000000001
  0
LINE
  5
272
330
6F
100
AcDbEntity
  8
3-0
  6
Continuous
 62
     7
100
AcDbLine
 10
1250.39233403529
 20
2282.778774481277
 30
0.0
 11
935.306101497186
 21
2282.778774481277
 31
0.0
  0
ARC
  5
273
330
6F
100
AcDbEntity
  8
3-0
  6
Continuous
 62
     7
100
AcDbCircle
 10
935.3061017788871
 20
2277.77877491507
 30
0.0
 40
5.0
100
AcDbArc
 50
90.00000000000095
 51
179.9999999997059
  0
LINE
  5
274
330
6F
100
AcDbEntity
  8
3-0
  6
Continuous
 62
     7
100
AcDbLine
 10
930.3061014971859
 20
2277.778774481276
 30
0.0
 11
930.3061014971859
 21
2237.778774481277
 31
0.0
  0
ARC
  5
275
330
6F
100
AcDbEntity
  8
3-0
  6
Continuous
 62
     7
100
AcDbCircle
 10
935.3061017788871
 20
2237.77877491507
 30
0.0
 40
5.0
100
AcDbArc
 50
180.000000000292
 51
270.0
  0
ARC
  5
276
330
6F
100
AcDbEntity
  8
3-0
  6
Continuous
 62
     7
100
AcDbCircle
 10
1240.306101778887
 20
2421.77877491507
 30
0.0
 40
5.0
100
AcDbArc
 50
0.0000000002920064
 51
90.0
  0
LINE
  5
277
330
6F
100
AcDbEntity
  8
3-0
  6
Continuous
 62
     7
100
AcDbLine
 10
1245.306101497184
 20
2421.778774481279
 30
0.0
 11
1245.306101497184
 21
2381.778774481277
 31
0.0
  0
ARC
  5
278
330
6F
100
AcDbEntity
  8
3-0
  6
Continuous
 62
     7
100
AcDbCircle
 10
1240.306101778887
 20
2381.77877491507
 30
0.0
 40
5.0
100
AcDbArc
 50
270.0
 51
359.9999999997079
  0
LINE
  5
279
330
6F
100
AcDbEntity
  8
3-0
  6
Continuous
 62
     7
100
AcDbLine
 10
1240.306101497184
 20
2376.778774481277
 30
0.0
 11
935.3061014971851
 21
2376.778774481277
 31
0.0
  0
ARC
  5
27A
330
6F
100
AcDbEntity
  8
3-0
  6
Continuous
 62
     7
100
AcDbCircle
 10
935.3061017788871
 20
2381.77877491507
 30
0.0
 40
5.0
100
AcDbArc
 50
180.000000000295
 51
269.9999999999981
  0
LINE
  5
27B
330
6F
100
AcDbEntity
  8
3-0
  6
Continuous
 62
     7
100
AcDbLine
 10
930.306101497185
 20
2381.778774481277
 30
0.0
 11
930.3061014971829
 21
2421.778774481277
 31
0.0
  0
ARC
  5
27C
330
6F
100
AcDbEntity
  8
3-0
  6
Continuous
 62
     7
100
AcDbCircle
 10
935.3061017788871
 20
2421.77877491507
 30
0.0
 40
5.0
100
AcDbArc
 50
90.0
 51
179.9999999997089
  0
LINE
  5
27D
330
6F
100
AcDbEntity
  8
3-0
  6
Continuous
 62
     7
100
AcDbLine
 10
935.306101497183
 20
2426.778774481277
 30
0.0
 11
1240.306101497184
 21
2426.778774481279
 31
0.0
  0
ARC
  5
27E
330
6F
100
AcDbEntity
  8
3-0
  6
Continuous
 62
     7
100
AcDbCircle
 10
1243.237037778887
 20
2309.77877491507
 30
0.0
 40
5.0
100
AcDbArc
 50
270.000000000005
 51
11.15993687186301
  0
ARC
  5
27F
330
6F
100
AcDbEntity
  8
3-0
  6
Continuous
 62
     7
100
AcDbCircle
 10
1395.306101778887
 20
2339.77877491507
 30
0.0
 40
150.0
100
AcDbArc
 50
176.300928937141
 51
191.159936872443
  0
ARC
  5
280
330
6F
100
AcDbEntity
  8
3-0
  6
Continuous
 62
     7
100
AcDbCircle
 10
1240.629018778887
 20
2349.77877491507
 30
0.0
 40
5.0
100
AcDbArc
 50
356.300928937136
 51
89.99999999997802
  0
LINE
  5
281
330
6F
100
AcDbEntity
  8
3-0
  6
Continuous
 62
     7
100
AcDbLine
 10
1240.629018514606
 20
2354.778774481277
 30
0.0
 11
935.306101497186
 21
2354.778774481277
 31
0.0
  0
ARC
  5
282
330
6F
100
AcDbEntity
  8
3-0
  6
Continuous
 62
     7
100
AcDbCircle
 10
935.3061017788871
 20
2349.77877491507
 30
0.0
 40
5.0
100
AcDbArc
 50
90.0
 51
179.9999999997081
  0
LINE
  5
283
330
6F
100
AcDbEntity
  8
3-0
  6
Continuous
 62
     7
100
AcDbLine
 10
930.3061014971859
 20
2349.778774481277
 30
0.0
 11
930.306101497185
 21
2309.778774481276
 31
0.0
  0
ARC
  5
284
330
6F
100
AcDbEntity
  8
3-0
  6
Continuous
 62
     7
100
AcDbCircle
 10
935.3061017788871
 20
2309.77877491507
 30
0.0
 40
5.0
100
AcDbArc
 50
180.000000000293
 51
270.0000000000009
  0
LINE
  5
285
330
6F
100
AcDbEntity
  8
3-0
  6
Continuous
 62
     7
100
AcDbLine
 10
935.3061014971851
 20
2304.778774481277
 30
0.0
 11
1243.237038239729
 21
2304.778774481277
 31
0.0
  0
ARC
  5
286
330
6F
100
AcDbEntity
  8
3-0
  6
Continuous
 62
     7
100
AcDbCircle
 10
1240.306101778887
 20
2493.77877491507
 30
0.0
 40
5.0
100
AcDbArc
 50
0.0000000002920064
 51
90.0
  0
LINE
  5
287
330
6F
100
AcDbEntity
  8
3-0
  6
Continuous
 62
     7
100
AcDbLine
 10
1245.306101497184
 20
2493.778774481279
 30
0.0
 11
1245.306101497184
 21
2453.778774481277
 31
0.0
  0
ARC
  5
288
330
6F
100
AcDbEntity
  8
3-0
  6
Continuous
 62
     7
100
AcDbCircle
 10
1240.306101778887
 20
2453.77877491507
 30
0.0
 40
5.0
100
AcDbArc
 50
270.0
 51
359.9999999997079
  0
LINE
  5
289
330
6F
100
AcDbEntity
  8
3-0
  6
Continuous
 62
     7
100
AcDbLine
 10
1240.306101497184
 20
2448.778774481277
 30
0.0
 11
935.3061014971851
 21
2448.778774481277
 31
0.0
  0
ARC
  5
28A
330
6F
100
AcDbEntity
  8
3-0
  6
Continuous
 62
     7
100
AcDbCircle
 10
935.3061017788871
 20
2453.77877491507
 30
0.0
 40
5.0
100
AcDbArc
 50
180.000000000295
 51
269.9999999999981
  0
LINE
  5
28B
330
6F
100
AcDbEntity
  8
3-0
  6
Continuous
 62
     7
100
AcDbLine
 10
930.306101497185
 20
2453.778774481277
 30
0.0
 11
930.3061014971829
 21
2493.778774481277
 31
0.0
  0
ARC
  5
28C
330
6F
100
AcDbEntity
  8
3-0
  6
Continuous
 62
     7
100
AcDbCircle
 10
935.3061017788871
 20
2493.77877491507
 30
0.0
 40
5.0
100
AcDbArc
 50
90.0
 51
179.9999999997089
  0
LINE
  5
28D
330
6F
100
AcDbEntity
  8
3-0
  6
Continuous
 62
     7
100
AcDbLine
 10
935.306101497183
 20
2498.778774481277
 30
0.0
 11
1240.306101497184
 21
2498.778774481279
 31
0.0
  0
LINE
  5
28E
330
6F
100
AcDbEntity
  8
3-0
  6
Continuous
 62
     7
100
AcDbLine
 10
935.306101497186
 20
2570.778774481277
 30
0.0
 11
1272.831614358025
 21
2570.778774481277
 31
0.0
  0
ARC
  5
28F
330
6F
100
AcDbEntity
  8
3-0
  6
Continuous
 62
     7
100
AcDbCircle
 10
1272.831614778887
 20
2565.77877491507
 30
0.0
 40
5.0
100
AcDbArc
 50
322.20027756498
 51
89.99999999999799
  0
ARC
  5
290
330
6F
100
AcDbEntity
  8
3-0
  6
Continuous
 62
     7
100
AcDbCircle
 10
1395.306101778887
 20
2470.77877491507
 30
0.0
 40
150.0
100
AcDbArc
 50
142.2002775644029
 51
159.216440403929
  0
ARC
  5
291
330
6F
100
AcDbEntity
  8
3-0
  6
Continuous
 62
     7
100
AcDbCircle
 10
1250.392333778887
 20
2525.77877491507
 30
0.0
 40
5.0
100
AcDbArc
 50
270.0000000000161
 51
339.2164404039461
  0
LINE
  5
292
330
6F
100
AcDbEntity
  8
3-0
  6
Continuous
 62
     7
100
AcDbLine
 10
1250.39233403529
 20
2520.778774481277
 30
0.0
 11
935.306101497186
 21
2520.778774481279
 31
0.0
  0
ARC
  5
293
330
6F
100
AcDbEntity
  8
3-0
  6
Continuous
 62
     7
100
AcDbCircle
 10
935.3061017788871
 20
2525.77877491507
 30
0.0
 40
5.0
100
AcDbArc
 50
180.000000000294
 51
269.999999999999
  0
LINE
  5
294
330
6F
100
AcDbEntity
  8
3-0
  6
Continuous
 62
     7
100
AcDbLine
 10
930.3061014971859
 20
2525.778774481279
 30
0.0
 11
930.3061014971859
 21
2565.778774481277
 31
0.0
  0
ARC
  5
295
330
6F
100
AcDbEntity
  8
3-0
  6
Continuous
 62
     7
100
AcDbCircle
 10
935.3061017788871
 20
2565.77877491507
 30
0.0
 40
5.0
100
AcDbArc
 50
90.0
 51
179.9999999997081
  0
ARC
  5
296
330
6F
100
AcDbEntity
  8
3-0
  6
Continuous
 62
     7
100
AcDbCircle
 10
1402.068769778887
 20
2324.03844091507
 30
0.0
 40
100.0
100
AcDbArc
 50
190.550680239651
 51
263.40719648218
  0
ARC
  5
297
330
6F
100
AcDbEntity
  8
3-0
  6
Continuous
 62
     7
100
AcDbCircle
 10
1822.752154778887
 20
2399.78327091507
 30
0.0
 40
527.4455539999999
100
AcDbArc
 50
169.728550516653
 51
190.2720586726821
  0
ARC
  5
298
330
6F
100
AcDbEntity
  8
3-0
  6
Continuous
 62
     7
100
AcDbCircle
 10
1402.068769778887
 20
2475.52258391507
 30
0.0
 40
100.0
100
AcDbArc
 50
96.59280351781902
 51
169.449319760348
  0
ARC
  5
299
330
6F
100
AcDbEntity
  8
3-0
  6
Continuous
 62
     7
100
AcDbCircle
 10
1562.801775778887
 20
1084.78101191507
 30
0.0
 40
1500.0
100
AcDbArc
 50
83.40703013606697
 51
96.59263717170606
  0
ARC
  5
29A
330
6F
100
AcDbEntity
  8
3-0
  6
Continuous
 62
     7
100
AcDbCircle
 10
1723.543432778887
 20
2475.52258391507
 30
0.0
 40
100.0
100
AcDbArc
 50
10.55068023965106
 51
83.40719648218003
  0
ARC
  5
29B
330
6F
100
AcDbEntity
  8
3-0
  6
Continuous
 62
     7
100
AcDbCircle
 10
1302.861047778887
 20
2399.78327091507
 30
0.0
 40
527.4455539999999
100
AcDbArc
 50
349.727941327318
 51
10.27144948334708
  0
ARC
  5
29C
330
6F
100
AcDbEntity
  8
3-0
  6
Continuous
 62
     7
100
AcDbCircle
 10
1723.543432778887
 20
2324.03844091507
 30
0.0
 40
100.0
100
AcDbArc
 50
276.59280351782
 51
349.449319760348
  0
ARC
  5
29D
330
6F
100
AcDbEntity
  8
3-0
  6
Continuous
 62
     7
100
AcDbCircle
 10
1562.806101778887
 20
3714.78051191507
 30
0.0
 40
1500.0
100
AcDbArc
 50
263.407196482181
 51
276.59280351782
  0
LINE
  5
29E
330
6F
100
AcDbEntity
  8
A-0
  6
Continuous
 62
     4
100
AcDbLine
 10
1975.306101828274
 20
2642.778774207137
 30
0.0
 11
2102.806101828274
 21
2642.778774207137
 31
0.0
  0
LINE
  5
29F
330
6F
100
AcDbEntity
  8
A-0
  6
Continuous
 62
     4
100
AcDbLine
 10
1975.306101828274
 20
2617.778774207137
 30
0.0
 11
2102.806101828274
 21
2617.778774207137
 31
0.0
  0
TEXT
  5
2A0
330
6F
100
AcDbEntity
  8
A-0
 62
     4
100
AcDbText
 10
2169.686
 20
2658.471
 30
0.0
 40
36.288
  1
25
 50
90.0
100
AcDbText
  0
LINE
  5
2A1
330
6F
100
AcDbEntity
  8
A-0
  6
Continuous
 62
     4
100
AcDbLine
 10
2102.806101497184
 20
2617.778774481277
 30
0.0
 11
2102.806101497184
 21
2642.778774481277
 31
0.0
  0
CIRCLE
  5
2A2
330
6F
100
AcDbEntity
  8
A-0
  6
Continuous
 62
     4
100
AcDbCircle
 10
2102.806101497184
 20
2617.778774481277
 30
0.0
 40
0.25
  0
CIRCLE
  5
2A3
330
6F
100
AcDbEntity
  8
A-0
  6
Continuous
 62
     4
100
AcDbCircle
 10
2102.806101497184
 20
2617.778774481277
 30
0.0
 40
0.1875
  0
CIRCLE
  5
2A4
330
6F
100
AcDbEntity
  8
A-0
  6
Continuous
 62
     4
100
AcDbCircle
 10
2102.806101497184
 20
2617.778774481277
 30
0.0
 40
0.125
  0
CIRCLE
  5
2A5
330
6F
100
AcDbEntity
  8
A-0
  6
Continuous
 62
     4
100
AcDbCircle
 10
2102.806101497184
 20
2617.778774481277
 30
0.0
 40
0.0625
  0
CIRCLE
  5
2A6
330
6F
100
AcDbEntity
  8
A-0
  6
Continuous
 62
     4
100
AcDbCircle
 10
2102.806101497184
 20
2642.778774481277
 30
0.0
 40
0.25
  0
CIRCLE
  5
2A7
330
6F
100
AcDbEntity
  8
A-0
  6
Continuous
 62
     4
100
AcDbCircle
 10
2102.806101497184
 20
2642.778774481277
 30
0.0
 40
0.1875
  0
CIRCLE
  5
2A8
330
6F
100
AcDbEntity
  8
A-0
  6
Continuous
 62
     4
100
AcDbCircle
 10
2102.806101497184
 20
2642.778774481277
 30
0.0
 40
0.125
  0
CIRCLE
  5
2A9
330
6F
100
AcDbEntity
  8
A-0
  6
Continuous
 62
     4
100
AcDbCircle
 10
2102.806101497184
 20
2642.778774481277
 30
0.0
 40
0.0625
  0
LINE
  5
2AA
330
6F
100
AcDbEntity
  8
A-0
  6
Continuous
 62
     4
100
AcDbLine
 10
1975.306101828274
 20
2617.778774207137
 30
0.0
 11
2102.806101828274
 21
2617.778774207137
 31
0.0
  0
LINE
  5
2AB
330
6F
100
AcDbEntity
  8
A-0
  6
Continuous
 62
     4
100
AcDbLine
 10
1975.306101828274
 20
2584.780512207137
 30
0.0
 11
2102.806101828274
 21
2584.780512207137
 31
0.0
  0
LINE
  5
2AC
330
6F
100
AcDbEntity
  8
A-0
  6
Continuous
 62
     4
100
AcDbLine
 10
2102.806101828274
 20
2627.778774207138
 30
0.0
 11
2102.806101828274
 21
2637.778774207137
 31
0.0
  0
LINE
  5
2AD
330
6F
100
AcDbEntity
  8
A-0
  6
Continuous
 62
     4
100
AcDbLine
 10
2102.806101828274
 20
2574.780512207138
 30
0.0
 11
2102.806101828274
 21
2564.780512207137
 31
0.0
  0
LINE
  5
2AE
330
6F
100
AcDbEntity
  8
A-0
  6
Continuous
 62
     4
100
AcDbLine
 10
2102.806101828274
 20
2601.279643207137
 30
0.0
 11
2135.480314828274
 21
2588.188505207137
 31
0.0
  0
LINE
  5
2AF
330
6F
100
AcDbEntity
  8
A-0
  6
Continuous
 62
     4
100
AcDbLine
 10
2135.480314828274
 20
2588.188505207137
 30
0.0
 11
2135.480314828274
 21
2527.325561207137
 31
0.0
  0
TEXT
  5
2B0
330
6F
100
AcDbEntity
  8
A-0
 62
     4
100
AcDbText
 10
2134.86
 20
2535.357
 30
0.0
 40
36.288
  1
33
 50
90.0
100
AcDbText
  0
LINE
  5
2B1
330
6F
100
AcDbEntity
  8
A-0
  6
Continuous
 62
     4
100
AcDbLine
 10
2102.806101828274
 20
2617.778774207137
 30
0.0
 11
2102.806101828274
 21
2584.780512207137
 31
0.0
  0
LINE
  5
2B2
330
6F
100
AcDbEntity
  8
A-0
  6
Continuous
 62
     4
100
AcDbLine
 10
2102.806101828274
 20
2617.778774207137
 30
0.0
 11
2102.806101828274
 21
2584.780512207137
 31
0.0
  0
CIRCLE
  5
2B3
330
6F
100
AcDbEntity
  8
A-0
  6
Continuous
 62
     4
100
AcDbCircle
 10
2102.806101497184
 20
2617.778774481277
 30
0.0
 40
0.25
  0
CIRCLE
  5
2B4
330
6F
100
AcDbEntity
  8
A-0
  6
Continuous
 62
     4
100
AcDbCircle
 10
2102.806101497184
 20
2617.778774481277
 30
0.0
 40
0.1875
  0
CIRCLE
  5
2B5
330
6F
100
AcDbEntity
  8
A-0
  6
Continuous
 62
     4
100
AcDbCircle
 10
2102.806101497184
 20
2617.778774481277
 30
0.0
 40
0.125
  0
CIRCLE
  5
2B6
330
6F
100
AcDbEntity
  8
A-0
  6
Continuous
 62
     4
100
AcDbCircle
 10
2102.806101497184
 20
2617.778774481277
 30
0.0
 40
0.0625
  0
CIRCLE
  5
2B7
330
6F
100
AcDbEntity
  8
A-0
  6
Continuous
 62
     4
100
AcDbCircle
 10
2102.806101497184
 20
2617.778774481277
 30
0.0
 40
0.25
  0
CIRCLE
  5
2B8
330
6F
100
AcDbEntity
  8
A-0
  6
Continuous
 62
     4
100
AcDbCircle
 10
2102.806101497184
 20
2617.778774481277
 30
0.0
 40
0.1875
  0
CIRCLE
  5
2B9
330
6F
100
AcDbEntity
  8
A-0
  6
Continuous
 62
     4
100
AcDbCircle
 10
2102.806101497184
 20
2617.778774481277
 30
0.0
 40
0.125
  0
CIRCLE
  5
2BA
330
6F
100
AcDbEntity
  8
A-0
  6
Continuous
 62
     4
100
AcDbCircle
 10
2102.806101497184
 20
2617.778774481277
 30
0.0
 40
0.0625
  0
CIRCLE
  5
2BB
330
6F
100
AcDbEntity
  8
A-0
  6
Continuous
 62
     4
100
AcDbCircle
 10
2102.806101497184
 20
2584.780512277347
 30
0.0
 40
0.25
  0
CIRCLE
  5
2BC
330
6F
100
AcDbEntity
  8
A-0
  6
Continuous
 62
     4
100
AcDbCircle
 10
2102.806101497184
 20
2584.780512277347
 30
0.0
 40
0.1875
  0
CIRCLE
  5
2BD
330
6F
100
AcDbEntity
  8
A-0
  6
Continuous
 62
     4
100
AcDbCircle
 10
2102.806101497184
 20
2584.780512277347
 30
0.0
 40
0.125
  0
CIRCLE
  5
2BE
330
6F
100
AcDbEntity
  8
A-0
  6
Continuous
 62
     4
100
AcDbCircle
 10
2102.806101497184
 20
2584.780512277347
 30
0.0
 40
0.0625
  0
CIRCLE
  5
2BF
330
6F
100
AcDbEntity
  8
A-0
  6
Continuous
 62
     4
100
AcDbCircle
 10
2102.806101497184
 20
2584.780512277347
 30
0.0
 40
0.25
  0
CIRCLE
  5
2C0
330
6F
100
AcDbEntity
  8
A-0
  6
Continuous
 62
     4
100
AcDbCircle
 10
2102.806101497184
 20
2584.780512277347
 30
0.0
 40
0.1875
  0
CIRCLE
  5
2C1
330
6F
100
AcDbEntity
  8
A-0
  6
Continuous
 62
     4
100
AcDbCircle
 10
2102.806101497184
 20
2584.780512277347
 30
0.0
 40
0.125
  0
CIRCLE
  5
2C2
330
6F
100
AcDbEntity
  8
A-0
  6
Continuous
 62
     4
100
AcDbCircle
 10
2102.806101497184
 20
2584.780512277347
 30
0.0
 40
0.0625
  0
LINE
  5
2C3
330
6F
100
AcDbEntity
  8
A-0
  6
Continuous
 62
     4
100
AcDbLine
 10
1975.306101828274
 20
2584.780512207137
 30
0.0
 11
2102.806101828274
 21
2584.780512207137
 31
0.0
  0
LINE
  5
2C4
330
6F
100
AcDbEntity
  8
A-0
  6
Continuous
 62
     4
100
AcDbLine
 10
1975.306101828274
 20
2214.780512207137
 30
0.0
 11
2102.806101828274
 21
2214.780512207137
 31
0.0
  0
TEXT
  5
2C5
330
6F
100
AcDbEntity
  8
A-0
 62
     4
100
AcDbText
 10
2102.186
 20
2366.181
 30
0.0
 40
36.288
  1
370
 50
90.0
100
AcDbText
  0
LINE
  5
2C6
330
6F
100
AcDbEntity
  8
A-0
  6
Continuous
 62
     4
100
AcDbLine
 10
2102.806101497184
 20
2214.780512277349
 30
0.0
 11
2102.806101497184
 21
2584.780512277347
 31
0.0
  0
CIRCLE
  5
2C7
330
6F
100
AcDbEntity
  8
A-0
  6
Continuous
 62
     4
100
AcDbCircle
 10
2102.806101497184
 20
2214.780512277349
 30
0.0
 40
0.25
  0
CIRCLE
  5
2C8
330
6F
100
AcDbEntity
  8
A-0
  6
Continuous
 62
     4
100
AcDbCircle
 10
2102.806101497184
 20
2214.780512277349
 30
0.0
 40
0.1875
  0
CIRCLE
  5
2C9
330
6F
100
AcDbEntity
  8
A-0
  6
Continuous
 62
     4
100
AcDbCircle
 10
2102.806101497184
 20
2214.780512277349
 30
0.0
 40
0.125
  0
CIRCLE
  5
2CA
330
6F
100
AcDbEntity
  8
A-0
  6
Continuous
 62
     4
100
AcDbCircle
 10
2102.806101497184
 20
2214.780512277349
 30
0.0
 40
0.0625
  0
CIRCLE
  5
2CB
330
6F
100
AcDbEntity
  8
A-0
  6
Continuous
 62
     4
100
AcDbCircle
 10
2102.806101497184
 20
2584.780512277347
 30
0.0
 40
0.25
  0
CIRCLE
  5
2CC
330
6F
100
AcDbEntity
  8
A-0
  6
Continuous
 62
     4
100
AcDbCircle
 10
2102.806101497184
 20
2584.780512277347
 30
0.0
 40
0.1875
  0
CIRCLE
  5
2CD
330
6F
100
AcDbEntity
  8
A-0
  6
Continuous
 62
     4
100
AcDbCircle
 10
2102.806101497184
 20
2584.780512277347
 30
0.0
 40
0.125
  0
CIRCLE
  5
2CE
330
6F
100
AcDbEntity
  8
A-0
  6
Continuous
 62
     4
100
AcDbCircle
 10
2102.806101497184
 20
2584.780512277347
 30
0.0
 40
0.0625
  0
LINE
  5
2CF
330
6F
100
AcDbEntity
  8
A-0
  6
Continuous
 62
     4
100
AcDbLine
 10
1975.306101828274
 20
2214.780512207137
 30
0.0
 11
2102.806101828274
 21
2214.780512207137
 31
0.0
  0
LINE
  5
2D0
330
6F
100
AcDbEntity
  8
A-0
  6
Continuous
 62
     4
100
AcDbLine
 10
1975.306101828274
 20
2182.778774207137
 30
0.0
 11
2102.806101828274
 21
2182.778774207137
 31
0.0
  0
TEXT
  5
2D1
330
6F
100
AcDbEntity
  8
A-0
 62
     4
100
AcDbText
 10
2169.686
 20
2227.15
 30
0.0
 40
36.288
  1
32
 50
90.0
100
AcDbText
  0
LINE
  5
2D2
330
6F
100
AcDbEntity
  8
A-0
  6
Continuous
 62
     4
100
AcDbLine
 10
2102.806101497184
 20
2182.778774481277
 30
0.0
 11
2102.806101497184
 21
2214.780512277349
 31
0.0
  0
CIRCLE
  5
2D3
330
6F
100
AcDbEntity
  8
A-0
  6
Continuous
 62
     4
100
AcDbCircle
 10
2102.806101497184
 20
2182.778774481277
 30
0.0
 40
0.25
  0
CIRCLE
  5
2D4
330
6F
100
AcDbEntity
  8
A-0
  6
Continuous
 62
     4
100
AcDbCircle
 10
2102.806101497184
 20
2182.778774481277
 30
0.0
 40
0.1875
  0
CIRCLE
  5
2D5
330
6F
100
AcDbEntity
  8
A-0
  6
Continuous
 62
     4
100
AcDbCircle
 10
2102.806101497184
 20
2182.778774481277
 30
0.0
 40
0.125
  0
CIRCLE
  5
2D6
330
6F
100
AcDbEntity
  8
A-0
  6
Continuous
 62
     4
100
AcDbCircle
 10
2102.806101497184
 20
2182.778774481277
 30
0.0
 40
0.0625
  0
CIRCLE
  5
2D7
330
6F
100
AcDbEntity
  8
A-0
  6
Continuous
 62
     4
100
AcDbCircle
 10
2102.806101497184
 20
2214.780512277349
 30
0.0
 40
0.25
  0
CIRCLE
  5
2D8
330
6F
100
AcDbEntity
  8
A-0
  6
Continuous
 62
     4
100
AcDbCircle
 10
2102.806101497184
 20
2214.780512277349
 30
0.0
 40
0.1875
  0
CIRCLE
  5
2D9
330
6F
100
AcDbEntity
  8
A-0
  6
Continuous
 62
     4
100
AcDbCircle
 10
2102.806101497184
 20
2214.780512277349
 30
0.0
 40
0.125
  0
CIRCLE
  5
2DA
330
6F
100
AcDbEntity
  8
A-0
  6
Continuous
 62
     4
100
AcDbCircle
 10
2102.806101497184
 20
2214.780512277349
 30
0.0
 40
0.0625
  0
LINE
  5
2DB
330
6F
100
AcDbEntity
  8
A-0
  6
Continuous
 62
     4
100
AcDbLine
 10
735.3061018282739
 20
2642.778774207137
 30
0.0
 11
595.363368828274
 21
2642.778774207137
 31
0.0
  0
LINE
  5
2DC
330
6F
100
AcDbEntity
  8
A-0
  6
Continuous
 62
     4
100
AcDbLine
 10
735.3061018282739
 20
2182.778774207137
 30
0.0
 11
595.363368828274
 21
2182.778774207137
 31
0.0
  0
TEXT
  5
2DD
330
6F
100
AcDbEntity
  8
A-0
 62
     4
100
AcDbText
 10
594.743
 20
2379.179
 30
0.0
 40
36.288
  1
460
 50
90.0
100
AcDbText
  0
LINE
  5
2DE
330
6F
100
AcDbEntity
  8
A-0
  6
Continuous
 62
     4
100
AcDbLine
 10
595.3633688613519
 20
2182.778774481277
 30
0.0
 11
595.3633688613519
 21
2642.778774481277
 31
0.0
  0
CIRCLE
  5
2DF
330
6F
100
AcDbEntity
  8
A-0
  6
Continuous
 62
     4
100
AcDbCircle
 10
595.3633688613519
 20
2182.778774481277
 30
0.0
 40
0.25
  0
CIRCLE
  5
2E0
330
6F
100
AcDbEntity
  8
A-0
  6
Continuous
 62
     4
100
AcDbCircle
 10
595.3633688613519
 20
2182.778774481277
 30
0.0
 40
0.1875
  0
CIRCLE
  5
2E1
330
6F
100
AcDbEntity
  8
A-0
  6
Continuous
 62
     4
100
AcDbCircle
 10
595.3633688613519
 20
2182.778774481277
 30
0.0
 40
0.125
  0
CIRCLE
  5
2E2
330
6F
100
AcDbEntity
  8
A-0
  6
Continuous
 62
     4
100
AcDbCircle
 10
595.3633688613519
 20
2182.778774481277
 30
0.0
 40
0.0625
  0
CIRCLE
  5
2E3
330
6F
100
AcDbEntity
  8
A-0
  6
Continuous
 62
     4
100
AcDbCircle
 10
595.3633688613519
 20
2642.778774481277
 30
0.0
 40
0.25
  0
CIRCLE
  5
2E4
330
6F
100
AcDbEntity
  8
A-0
  6
Continuous
 62
     4
100
AcDbCircle
 10
595.3633688613519
 20
2642.778774481277
 30
0.0
 40
0.1875
  0
CIRCLE
  5
2E5
330
6F
100
AcDbEntity
  8
A-0
  6
Continuous
 62
     4
100
AcDbCircle
 10
595.3633688613519
 20
2642.778774481277
 30
0.0
 40
0.125
  0
CIRCLE
  5
2E6
330
6F
100
AcDbEntity
  8
A-0
  6
Continuous
 62
     4
100
AcDbCircle
 10
595.3633688613519
 20
2642.778774481277
 30
0.0
 40
0.0625
  0
LINE
  5
2E7
330
6F
100
AcDbEntity
  8
B-0
  6
CENTER
 62
     6
100
AcDbLine
 10
1511.924464778887
 20
2399.77877491507
 30
0.0
 11
1760.306101778887
 21
2399.77877491507
 31
0.0
  0
LINE
  5
2E8
330
6F
100
AcDbEntity
  8
B-0
  6
CENTER
 62
     6
100
AcDbLine
 10
1680.306101778887
 20
2319.77877491507
 30
0.0
 11
1680.306101778887
 21
2728.48673091507
 31
0.0
  0
LINE
  5
2E9
330
6F
100
AcDbEntity
  8
3-0
  6
Continuous
 62
     7
100
AcDbLine
 10
1772.872642656448
 20
2241.553090700386
 30
0.0
 11
1680.306101497186
 21
2399.778774481275
 31
0.0
  0
LINE
  5
2EA
330
6F
100
AcDbEntity
  8
3-0
  6
Continuous
 62
     7
100
AcDbLine
 10
1680.306101497186
 20
2399.778774481275
 30
0.0
 11
1706.094072709629
 21
2379.978321525124
 31
0.0
  0
LINE
  5
2EB
330
6F
100
AcDbEntity
  8
A-0
  6
Continuous
 62
     4
100
AcDbLine
 10
1556.998353828274
 20
2642.778774207137
 30
0.0
 11
1512.681075828274
 21
2642.778774207137
 31
0.0
  0
LINE
  5
2EC
330
6F
100
AcDbEntity
  8
A-0
  6
Continuous
 62
     4
100
AcDbLine
 10
1565.291835828274
 20
2399.778774207137
 30
0.0
 11
1512.681075828274
 21
2399.778774207137
 31
0.0
  0
TEXT
  5
2ED
330
6F
100
AcDbEntity
  8
A-0
 62
     4
100
AcDbText
 10
1512.061
 20
2487.679
 30
0.0
 40
36.288
  1
243
 50
90.0
100
AcDbText
  0
LINE
  5
2EE
330
6F
100
AcDbEntity
  8
A-0
  6
Continuous
 62
     4
100
AcDbLine
 10
1512.681075639859
 20
2399.778774481277
 30
0.0
 11
1512.681075639859
 21
2642.778774481275
 31
0.0
  0
CIRCLE
  5
2EF
330
6F
100
AcDbEntity
  8
A-0
  6
Continuous
 62
     4
100
AcDbCircle
 10
1512.681075639859
 20
2399.778774481277
 30
0.0
 40
0.25
  0
CIRCLE
  5
2F0
330
6F
100
AcDbEntity
  8
A-0
  6
Continuous
 62
     4
100
AcDbCircle
 10
1512.681075639859
 20
2399.778774481277
 30
0.0
 40
0.1875
  0
CIRCLE
  5
2F1
330
6F
100
AcDbEntity
  8
A-0
  6
Continuous
 62
     4
100
AcDbCircle
 10
1512.681075639859
 20
2399.778774481277
 30
0.0
 40
0.125
  0
CIRCLE
  5
2F2
330
6F
100
AcDbEntity
  8
A-0
  6
Continuous
 62
     4
100
AcDbCircle
 10
1512.681075639859
 20
2399.778774481277
 30
0.0
 40
0.0625
  0
CIRCLE
  5
2F3
330
6F
100
AcDbEntity
  8
A-0
  6
Continuous
 62
     4
100
AcDbCircle
 10
1512.681075639859
 20
2642.778774481275
 30
0.0
 40
0.25
  0
CIRCLE
  5
2F4
330
6F
100
AcDbEntity
  8
A-0
  6
Continuous
 62
     4
100
AcDbCircle
 10
1512.681075639859
 20
2642.778774481275
 30
0.0
 40
0.1875
  0
CIRCLE
  5
2F5
330
6F
100
AcDbEntity
  8
A-0
  6
Continuous
 62
     4
100
AcDbCircle
 10
1512.681075639859
 20
2642.778774481275
 30
0.0
 40
0.125
  0
CIRCLE
  5
2F6
330
6F
100
AcDbEntity
  8
A-0
  6
Continuous
 62
     4
100
AcDbCircle
 10
1512.681075639859
 20
2642.778774481275
 30
0.0
 40
0.0625
  0
LINE
  5
2F7
330
6F
100
AcDbEntity
  8
A-0
  6
Continuous
 62
     4
100
AcDbLine
 10
1955.306101828274
 20
2662.778774207137
 30
0.0
 11
1955.306101828274
 21
2722.778774207137
 31
0.0
  0
LINE
  5
2F8
330
6F
100
AcDbEntity
  8
A-0
  6
Continuous
 62
     4
100
AcDbLine
 10
1680.306101828274
 20
2724.921130207138
 30
0.0
 11
1680.306101828274
 21
2722.778774207137
 31
0.0
  0
TEXT
  5
2F9
330
6F
100
AcDbEntity
  8
A-0
 62
     4
100
AcDbText
 10
1787.029
 20
2723.399000000001
 30
0.0
 40
36.288
  1
275
100
AcDbText
  0
LINE
  5
2FA
330
6F
100
AcDbEntity
  8
A-0
  6
Continuous
 62
     4
100
AcDbLine
 10
1680.306101497186
 20
2722.778774481282
 30
0.0
 11
1955.306101497184
 21
2722.778774481282
 31
0.0
  0
CIRCLE
  5
2FB
330
6F
100
AcDbEntity
  8
A-0
  6
Continuous
 62
     4
100
AcDbCircle
 10
1680.306101497186
 20
2722.778774481282
 30
0.0
 40
0.25
  0
CIRCLE
  5
2FC
330
6F
100
AcDbEntity
  8
A-0
  6
Continuous
 62
     4
100
AcDbCircle
 10
1680.306101497186
 20
2722.778774481282
 30
0.0
 40
0.1875
  0
CIRCLE
  5
2FD
330
6F
100
AcDbEntity
  8
A-0
  6
Continuous
 62
     4
100
AcDbCircle
 10
1680.306101497186
 20
2722.778774481282
 30
0.0
 40
0.125
  0
CIRCLE
  5
2FE
330
6F
100
AcDbEntity
  8
A-0
  6
Continuous
 62
     4
100
AcDbCircle
 10
1680.306101497186
 20
2722.778774481282
 30
0.0
 40
0.0625
  0
CIRCLE
  5
2FF
330
6F
100
AcDbEntity
  8
A-0
  6
Continuous
 62
     4
100
AcDbCircle
 10
1955.306101497184
 20
2722.778774481282
 30
0.0
 40
0.25
  0
CIRCLE
  5
300
330
6F
100
AcDbEntity
  8
A-0
  6
Continuous
 62
     4
100
AcDbCircle
 10
1955.306101497184
 20
2722.778774481282
 30
0.0
 40
0.1875
  0
CIRCLE
  5
301
330
6F
100
AcDbEntity
  8
A-0
  6
Continuous
 62
     4
100
AcDbCircle
 10
1955.306101497184
 20
2722.778774481282
 30
0.0
 40
0.125
  0
CIRCLE
  5
302
330
6F
100
AcDbEntity
  8
A-0
  6
Continuous
 62
     4
100
AcDbCircle
 10
1955.306101497184
 20
2722.778774481282
 30
0.0
 40
0.0625
  0
CIRCLE
  5
303
330
6F
100
AcDbEntity
  8
3-0
  6
Continuous
 62
     7
100
AcDbCircle
 10
1680.306101778887
 20
2399.77877491507
 30
0.0
 40
90.0
  0
CIRCLE
  5
304
330
6F
100
AcDbEntity
  8
3-0
  6
Continuous
 62
     7
100
AcDbCircle
 10
1680.306101778887
 20
2399.77877491507
 30
0.0
 40
80.0
  0
TEXT
  5
305
330
6F
100
AcDbEntity
  8
D-0
 62
     5
100
AcDbText
 10
1575.413
 20
2252.874
 30
0.0
 40
25.92
  1
床板排水芯
100
AcDbText
  0
LINE
  5
306
330
6F
100
AcDbEntity
  8
3-0
  6
Continuous
 62
     7
100
AcDbLine
 10
1772.872642778887
 20
2241.55309091507
 30
0.0
 11
1551.613894778887
 21
2241.55309091507
 31
0.0
  0
LINE
  5
307
330
6F
100
AcDbEntity
  8
3-0
  6
Continuous
 62
     7
100
AcDbLine
 10
1554.806101497184
 20
684.5251851979729
 30
0.0
 11
1162.806101497186
 21
684.5251851979729
 31
0.0
  0
LINE
  5
308
330
6F
100
AcDbEntity
  8
3-0
  6
Continuous
 62
     7
100
AcDbLine
 10
1162.806101497186
 20
684.5251851979729
 30
0.0
 11
1162.806101497184
 21
1359.525185197973
 31
0.0
  0
LINE
  5
309
330
6F
100
AcDbEntity
  8
3-0
  6
Continuous
 62
     7
100
AcDbLine
 10
1162.806101497184
 20
1359.525185197973
 30
0.0
 11
1554.806101497186
 21
1359.525185197973
 31
0.0
  0
LINE
  5
30A
330
6F
100
AcDbEntity
  8
3-0
  6
Continuous
 62
     7
100
AcDbLine
 10
1554.806101497186
 20
1359.525185197973
 30
0.0
 11
1554.806101497184
 21
684.5251851979729
 31
0.0
  0
LINE
  5
30B
330
6F
100
AcDbEntity
  8
3-0
  6
CENTER
 62
     8
100
AcDbLine
 10
1554.806101497186
 20
1359.525185197973
 30
0.0
 11
1162.806101497185
 21
1022.025185197973
 31
0.0
  0
LINE
  5
30C
330
6F
100
AcDbEntity
  8
3-0
  6
CENTER
 62
     8
100
AcDbLine
 10
1162.806101497185
 20
1022.025185197973
 30
0.0
 11
1554.806101497184
 21
684.5251851979729
 31
0.0
  0
LINE
  5
30D
330
6F
100
AcDbEntity
  8
3-0
  6
Continuous
 62
     7
100
AcDbLine
 10
1555.806101497184
 20
684.5251851979729
 30
0.0
 11
1947.806101497182
 21
684.5251851979729
 31
0.0
  0
LINE
  5
30E
330
6F
100
AcDbEntity
  8
3-0
  6
Continuous
 62
     7
100
AcDbLine
 10
1947.806101497182
 20
684.5251851979729
 30
0.0
 11
1947.806101497184
 21
1359.525185197973
 31
0.0
  0
LINE
  5
30F
330
6F
100
AcDbEntity
  8
3-0
  6
Continuous
 62
     7
100
AcDbLine
 10
1947.806101497184
 20
1359.525185197973
 30
0.0
 11
1555.806101497182
 21
1359.525185197973
 31
0.0
  0
LINE
  5
310
330
6F
100
AcDbEntity
  8
3-0
  6
Continuous
 62
     7
100
AcDbLine
 10
1555.806101497182
 20
1359.525185197973
 30
0.0
 11
1555.806101497184
 21
684.5251851979729
 31
0.0
  0
LINE
  5
311
330
6F
100
AcDbEntity
  8
3-0
  6
CENTER
 62
     8
100
AcDbLine
 10
1555.806101497182
 20
1359.525185197973
 30
0.0
 11
1947.806101497184
 21
1022.025185197973
 31
0.0
  0
LINE
  5
312
330
6F
100
AcDbEntity
  8
3-0
  6
CENTER
 62
     8
100
AcDbLine
 10
1947.806101497184
 20
1022.025185197973
 30
0.0
 11
1555.806101497184
 21
684.5251851979729
 31
0.0
  0
LINE
  5
313
330
6F
100
AcDbEntity
  8
3-0
  6
Continuous
 62
     7
100
AcDbLine
 10
1157.806101497186
 20
684.5251851979729
 30
0.0
 11
762.8061014971879
 21
684.5251851979729
 31
0.0
  0
LINE
  5
314
330
6F
100
AcDbEntity
  8
3-0
  6
Continuous
 62
     7
100
AcDbLine
 10
762.8061014971879
 20
684.5251851979729
 30
0.0
 11
762.8061014971859
 21
1189.525185197973
 31
0.0
  0
LINE
  5
315
330
6F
100
AcDbEntity
  8
3-0
  6
Continuous
 62
     7
100
AcDbLine
 10
762.8061014971859
 20
1189.525185197973
 30
0.0
 11
1157.806101497188
 21
1189.525185197973
 31
0.0
  0
LINE
  5
316
330
6F
100
AcDbEntity
  8
3-0
  6
Continuous
 62
     7
100
AcDbLine
 10
1157.806101497188
 20
1189.525185197973
 30
0.0
 11
1157.806101497186
 21
684.5251851979729
 31
0.0
  0
LINE
  5
317
330
6F
100
AcDbEntity
  8
3-0
  6
CENTER
 62
     8
100
AcDbLine
 10
1157.806101497188
 20
1189.525185197973
 30
0.0
 11
762.8061014971869
 21
937.0251851979729
 31
0.0
  0
LINE
  5
318
330
6F
100
AcDbEntity
  8
3-0
  6
CENTER
 62
     8
100
AcDbLine
 10
762.8061014971869
 20
937.0251851979729
 30
0.0
 11
1157.806101497186
 21
684.5251851979729
 31
0.0
  0
LINE
  5
319
330
6F
100
AcDbEntity
  8
3-0
  6
Continuous
 62
     7
100
AcDbLine
 10
1157.806101497188
 20
1194.525185197973
 30
0.0
 11
762.8061014971879
 21
1194.525185197973
 31
0.0
  0
LINE
  5
31A
330
6F
100
AcDbEntity
  8
3-0
  6
Continuous
 62
     7
100
AcDbLine
 10
762.8061014971879
 20
1194.525185197973
 30
0.0
 11
762.8061014971879
 21
1359.525185197973
 31
0.0
  0
LINE
  5
31B
330
6F
100
AcDbEntity
  8
3-0
  6
Continuous
 62
     7
100
AcDbLine
 10
762.8061014971879
 20
1359.525185197973
 30
0.0
 11
1157.806101497188
 21
1359.525185197973
 31
0.0
  0
LINE
  5
31C
330
6F
100
AcDbEntity
  8
3-0
  6
Continuous
 62
     7
100
AcDbLine
 10
1157.806101497188
 20
1359.525185197973
 30
0.0
 11
1157.806101497188
 21
1194.525185197973
 31
0.0
  0
LINE
  5
31D
330
6F
100
AcDbEntity
  8
3-0
  6
CENTER
 62
     8
100
AcDbLine
 10
1157.806101778887
 20
1359.52518491507
 30
0.0
 11
762.806101778887
 21
1194.52518491507
 31
0.0
  0
LINE
  5
31E
330
6F
100
AcDbEntity
  8
3-0
  6
DASHED2
 62
     7
100
AcDbLine
 10
1142.806101497188
 20
1209.525185197973
 30
0.0
 11
777.8061014971878
 21
1209.525185197973
 31
0.0
  0
LINE
  5
31F
330
6F
100
AcDbEntity
  8
3-0
  6
DASHED2
 62
     7
100
AcDbLine
 10
777.8061014971878
 20
1209.525185197973
 30
0.0
 11
777.8061014971878
 21
1279.525185197973
 31
0.0
  0
LINE
  5
320
330
6F
100
AcDbEntity
  8
3-0
  6
DASHED2
 62
     7
100
AcDbLine
 10
777.8061014971878
 20
1279.525185197973
 30
0.0
 11
1142.806101497188
 21
1279.525185197973
 31
0.0
  0
LINE
  5
321
330
6F
100
AcDbEntity
  8
3-0
  6
DASHED2
 62
     7
100
AcDbLine
 10
1142.806101497188
 20
1279.525185197973
 30
0.0
 11
1142.806101497188
 21
1209.525185197973
 31
0.0
  0
LINE
  5
322
330
6F
100
AcDbEntity
  8
4-0
  6
Continuous
 62
     7
100
AcDbLine
 10
1947.806101778887
 20
1352.52518491507
 30
0.0
 11
1555.806101778887
 21
1352.52518491507
 31
0.0
  0
LINE
  5
323
330
6F
100
AcDbEntity
  8
4-0
  6
Continuous
 62
     7
100
AcDbLine
 10
1947.806101778887
 20
1332.82518491507
 30
0.0
 11
1555.806101778887
 21
1332.82518491507
 31
0.0
  0
LINE
  5
324
330
6F
100
AcDbEntity
  8
4-0
  6
Continuous
 62
     7
100
AcDbLine
 10
1554.806101778887
 20
1352.52518491507
 30
0.0
 11
1162.806101778887
 21
1352.52518491507
 31
0.0
  0
LINE
  5
325
330
6F
100
AcDbEntity
  8
4-0
  6
Continuous
 62
     7
100
AcDbLine
 10
1554.806101778887
 20
1332.82518491507
 30
0.0
 11
1162.806101778887
 21
1332.82518491507
 31
0.0
  0
LINE
  5
326
330
6F
100
AcDbEntity
  8
4-0
  6
Continuous
 62
     7
100
AcDbLine
 10
1157.806101778887
 20
1352.52518491507
 30
0.0
 11
762.806101778887
 21
1352.52518491507
 31
0.0
  0
LINE
  5
327
330
6F
100
AcDbEntity
  8
4-0
  6
Continuous
 62
     7
100
AcDbLine
 10
1157.806101778887
 20
1332.82518491507
 30
0.0
 11
762.806101778887
 21
1332.82518491507
 31
0.0
  0
LINE
  5
328
330
6F
100
AcDbEntity
  8
4-0
  6
Continuous
 62
     7
100
AcDbLine
 10
1157.806101778887
 20
1182.52518491507
 30
0.0
 11
762.806101778887
 21
1182.52518491507
 31
0.0
  0
LINE
  5
329
330
6F
100
AcDbEntity
  8
4-0
  6
Continuous
 62
     7
100
AcDbLine
 10
1157.806101778887
 20
1162.82518491507
 30
0.0
 11
762.806101778887
 21
1162.82518491507
 31
0.0
  0
LINE
  5
32A
330
6F
100
AcDbEntity
  8
A-0
  6
Continuous
 62
     4
100
AcDbLine
 10
1952.806101828274
 20
574.525185207137
 30
0.0
 11
1952.806101828274
 21
444.5251852071369
 31
0.0
  0
LINE
  5
32B
330
6F
100
AcDbEntity
  8
A-0
  6
Continuous
 62
     4
100
AcDbLine
 10
1947.806101828274
 20
574.525185207137
 30
0.0
 11
1947.806101828274
 21
444.5251852071369
 31
0.0
  0
TEXT
  5
32C
330
6F
100
AcDbEntity
  8
A-0
 62
     4
100
AcDbText
 10
1981.239
 20
377.645
 30
0.0
 40
36.288
  1
5
100
AcDbText
  0
LINE
  5
32D
330
6F
100
AcDbEntity
  8
A-0
  6
Continuous
 62
     4
100
AcDbLine
 10
1947.806101497182
 20
444.525185197973
 30
0.0
 11
1952.806101497184
 21
444.525185197973
 31
0.0
  0
CIRCLE
  5
32E
330
6F
100
AcDbEntity
  8
A-0
  6
Continuous
 62
     4
100
AcDbCircle
 10
1947.806101497182
 20
444.525185197973
 30
0.0
 40
0.25
  0
CIRCLE
  5
32F
330
6F
100
AcDbEntity
  8
A-0
  6
Continuous
 62
     4
100
AcDbCircle
 10
1947.806101497182
 20
444.525185197973
 30
0.0
 40
0.1875
  0
CIRCLE
  5
330
330
6F
100
AcDbEntity
  8
A-0
  6
Continuous
 62
     4
100
AcDbCircle
 10
1947.806101497182
 20
444.525185197973
 30
0.0
 40
0.125
  0
CIRCLE
  5
331
330
6F
100
AcDbEntity
  8
A-0
  6
Continuous
 62
     4
100
AcDbCircle
 10
1947.806101497182
 20
444.525185197973
 30
0.0
 40
0.0625
  0
CIRCLE
  5
332
330
6F
100
AcDbEntity
  8
A-0
  6
Continuous
 62
     4
100
AcDbCircle
 10
1952.806101497184
 20
444.525185197973
 30
0.0
 40
0.25
  0
CIRCLE
  5
333
330
6F
100
AcDbEntity
  8
A-0
  6
Continuous
 62
     4
100
AcDbCircle
 10
1952.806101497184
 20
444.525185197973
 30
0.0
 40
0.1875
  0
CIRCLE
  5
334
330
6F
100
AcDbEntity
  8
A-0
  6
Continuous
 62
     4
100
AcDbCircle
 10
1952.806101497184
 20
444.525185197973
 30
0.0
 40
0.125
  0
CIRCLE
  5
335
330
6F
100
AcDbEntity
  8
A-0
  6
Continuous
 62
     4
100
AcDbCircle
 10
1952.806101497184
 20
444.525185197973
 30
0.0
 40
0.0625
  0
LINE
  5
336
330
6F
100
AcDbEntity
  8
A-0
  6
Continuous
 62
     4
100
AcDbLine
 10
1947.806101828274
 20
574.525185207137
 30
0.0
 11
1947.806101828274
 21
444.5251852071369
 31
0.0
  0
LINE
  5
337
330
6F
100
AcDbEntity
  8
A-0
  6
Continuous
 62
     4
100
AcDbLine
 10
1555.806101828274
 20
574.525185207137
 30
0.0
 11
1555.806101828274
 21
444.5251852071369
 31
0.0
  0
TEXT
  5
338
330
6F
100
AcDbEntity
  8
A-0
 62
     4
100
AcDbText
 10
1721.029
 20
445.145
 30
0.0
 40
36.288
  1
392
100
AcDbText
  0
LINE
  5
339
330
6F
100
AcDbEntity
  8
A-0
  6
Continuous
 62
     4
100
AcDbLine
 10
1555.806101497184
 20
444.525185197973
 30
0.0
 11
1947.806101497182
 21
444.525185197973
 31
0.0
  0
CIRCLE
  5
33A
330
6F
100
AcDbEntity
  8
A-0
  6
Continuous
 62
     4
100
AcDbCircle
 10
1555.806101497184
 20
444.525185197973
 30
0.0
 40
0.25
  0
CIRCLE
  5
33B
330
6F
100
AcDbEntity
  8
A-0
  6
Continuous
 62
     4
100
AcDbCircle
 10
1555.806101497184
 20
444.525185197973
 30
0.0
 40
0.1875
  0
CIRCLE
  5
33C
330
6F
100
AcDbEntity
  8
A-0
  6
Continuous
 62
     4
100
AcDbCircle
 10
1555.806101497184
 20
444.525185197973
 30
0.0
 40
0.125
  0
CIRCLE
  5
33D
330
6F
100
AcDbEntity
  8
A-0
  6
Continuous
 62
     4
100
AcDbCircle
 10
1555.806101497184
 20
444.525185197973
 30
0.0
 40
0.0625
  0
CIRCLE
  5
33E
330
6F
100
AcDbEntity
  8
A-0
  6
Continuous
 62
     4
100
AcDbCircle
 10
1947.806101497182
 20
444.525185197973
 30
0.0
 40
0.25
  0
CIRCLE
  5
33F
330
6F
100
AcDbEntity
  8
A-0
  6
Continuous
 62
     4
100
AcDbCircle
 10
1947.806101497182
 20
444.525185197973
 30
0.0
 40
0.1875
  0
CIRCLE
  5
340
330
6F
100
AcDbEntity
  8
A-0
  6
Continuous
 62
     4
100
AcDbCircle
 10
1947.806101497182
 20
444.525185197973
 30
0.0
 40
0.125
  0
CIRCLE
  5
341
330
6F
100
AcDbEntity
  8
A-0
  6
Continuous
 62
     4
100
AcDbCircle
 10
1947.806101497182
 20
444.525185197973
 30
0.0
 40
0.0625
  0
LINE
  5
342
330
6F
100
AcDbEntity
  8
A-0
  6
Continuous
 62
     4
100
AcDbLine
 10
1555.806101828274
 20
574.525185207137
 30
0.0
 11
1555.806101828274
 21
444.5251852071369
 31
0.0
  0
LINE
  5
343
330
6F
100
AcDbEntity
  8
A-0
  6
Continuous
 62
     4
100
AcDbLine
 10
1554.806101828274
 20
574.525185207137
 30
0.0
 11
1554.806101828274
 21
444.5251852071369
 31
0.0
  0
TEXT
  5
344
330
6F
100
AcDbEntity
  8
A-0
 62
     4
100
AcDbText
 10
1581.887
 20
377.645
 30
0.0
 40
36.288
  1
1
100
AcDbText
  0
LINE
  5
345
330
6F
100
AcDbEntity
  8
A-0
  6
Continuous
 62
     4
100
AcDbLine
 10
1554.806101497184
 20
444.525185197973
 30
0.0
 11
1555.806101497184
 21
444.525185197973
 31
0.0
  0
CIRCLE
  5
346
330
6F
100
AcDbEntity
  8
A-0
  6
Continuous
 62
     4
100
AcDbCircle
 10
1554.806101497184
 20
444.525185197973
 30
0.0
 40
0.25
  0
CIRCLE
  5
347
330
6F
100
AcDbEntity
  8
A-0
  6
Continuous
 62
     4
100
AcDbCircle
 10
1554.806101497184
 20
444.525185197973
 30
0.0
 40
0.1875
  0
CIRCLE
  5
348
330
6F
100
AcDbEntity
  8
A-0
  6
Continuous
 62
     4
100
AcDbCircle
 10
1554.806101497184
 20
444.525185197973
 30
0.0
 40
0.125
  0
CIRCLE
  5
349
330
6F
100
AcDbEntity
  8
A-0
  6
Continuous
 62
     4
100
AcDbCircle
 10
1554.806101497184
 20
444.525185197973
 30
0.0
 40
0.0625
  0
CIRCLE
  5
34A
330
6F
100
AcDbEntity
  8
A-0
  6
Continuous
 62
     4
100
AcDbCircle
 10
1555.806101497184
 20
444.525185197973
 30
0.0
 40
0.25
  0
CIRCLE
  5
34B
330
6F
100
AcDbEntity
  8
A-0
  6
Continuous
 62
     4
100
AcDbCircle
 10
1555.806101497184
 20
444.525185197973
 30
0.0
 40
0.1875
  0
CIRCLE
  5
34C
330
6F
100
AcDbEntity
  8
A-0
  6
Continuous
 62
     4
100
AcDbCircle
 10
1555.806101497184
 20
444.525185197973
 30
0.0
 40
0.125
  0
CIRCLE
  5
34D
330
6F
100
AcDbEntity
  8
A-0
  6
Continuous
 62
     4
100
AcDbCircle
 10
1555.806101497184
 20
444.525185197973
 30
0.0
 40
0.0625
  0
LINE
  5
34E
330
6F
100
AcDbEntity
  8
A-0
  6
Continuous
 62
     4
100
AcDbLine
 10
1554.806101828274
 20
574.525185207137
 30
0.0
 11
1554.806101828274
 21
444.5251852071369
 31
0.0
  0
LINE
  5
34F
330
6F
100
AcDbEntity
  8
A-0
  6
Continuous
 62
     4
100
AcDbLine
 10
1162.806101828274
 20
574.525185207137
 30
0.0
 11
1162.806101828274
 21
444.5251852071369
 31
0.0
  0
TEXT
  5
350
330
6F
100
AcDbEntity
  8
A-0
 62
     4
100
AcDbText
 10
1328.029
 20
445.145
 30
0.0
 40
36.288
  1
392
100
AcDbText
  0
LINE
  5
351
330
6F
100
AcDbEntity
  8
A-0
  6
Continuous
 62
     4
100
AcDbLine
 10
1162.806101497186
 20
444.525185197973
 30
0.0
 11
1554.806101497184
 21
444.525185197973
 31
0.0
  0
CIRCLE
  5
352
330
6F
100
AcDbEntity
  8
A-0
  6
Continuous
 62
     4
100
AcDbCircle
 10
1162.806101497186
 20
444.525185197973
 30
0.0
 40
0.25
  0
CIRCLE
  5
353
330
6F
100
AcDbEntity
  8
A-0
  6
Continuous
 62
     4
100
AcDbCircle
 10
1162.806101497186
 20
444.525185197973
 30
0.0
 40
0.1875
  0
CIRCLE
  5
354
330
6F
100
AcDbEntity
  8
A-0
  6
Continuous
 62
     4
100
AcDbCircle
 10
1162.806101497186
 20
444.525185197973
 30
0.0
 40
0.125
  0
CIRCLE
  5
355
330
6F
100
AcDbEntity
  8
A-0
  6
Continuous
 62
     4
100
AcDbCircle
 10
1162.806101497186
 20
444.525185197973
 30
0.0
 40
0.0625
  0
CIRCLE
  5
356
330
6F
100
AcDbEntity
  8
A-0
  6
Continuous
 62
     4
100
AcDbCircle
 10
1554.806101497184
 20
444.525185197973
 30
0.0
 40
0.25
  0
CIRCLE
  5
357
330
6F
100
AcDbEntity
  8
A-0
  6
Continuous
 62
     4
100
AcDbCircle
 10
1554.806101497184
 20
444.525185197973
 30
0.0
 40
0.1875
  0
CIRCLE
  5
358
330
6F
100
AcDbEntity
  8
A-0
  6
Continuous
 62
     4
100
AcDbCircle
 10
1554.806101497184
 20
444.525185197973
 30
0.0
 40
0.125
  0
CIRCLE
  5
359
330
6F
100
AcDbEntity
  8
A-0
  6
Continuous
 62
     4
100
AcDbCircle
 10
1554.806101497184
 20
444.525185197973
 30
0.0
 40
0.0625
  0
LINE
  5
35A
330
6F
100
AcDbEntity
  8
A-0
  6
Continuous
 62
     4
100
AcDbLine
 10
1162.806101828274
 20
574.525185207137
 30
0.0
 11
1162.806101828274
 21
444.5251852071369
 31
0.0
  0
LINE
  5
35B
330
6F
100
AcDbEntity
  8
A-0
  6
Continuous
 62
     4
100
AcDbLine
 10
1157.806101828274
 20
574.525185207137
 30
0.0
 11
1157.806101828274
 21
444.5251852071369
 31
0.0
  0
TEXT
  5
35C
330
6F
100
AcDbEntity
  8
A-0
 62
     4
100
AcDbText
 10
1191.239
 20
377.645
 30
0.0
 40
36.288
  1
5
100
AcDbText
  0
LINE
  5
35D
330
6F
100
AcDbEntity
  8
A-0
  6
Continuous
 62
     4
100
AcDbLine
 10
1157.806101497186
 20
444.525185197973
 30
0.0
 11
1162.806101497186
 21
444.525185197973
 31
0.0
  0
CIRCLE
  5
35E
330
6F
100
AcDbEntity
  8
A-0
  6
Continuous
 62
     4
100
AcDbCircle
 10
1157.806101497186
 20
444.525185197973
 30
0.0
 40
0.25
  0
CIRCLE
  5
35F
330
6F
100
AcDbEntity
  8
A-0
  6
Continuous
 62
     4
100
AcDbCircle
 10
1157.806101497186
 20
444.525185197973
 30
0.0
 40
0.1875
  0
CIRCLE
  5
360
330
6F
100
AcDbEntity
  8
A-0
  6
Continuous
 62
     4
100
AcDbCircle
 10
1157.806101497186
 20
444.525185197973
 30
0.0
 40
0.125
  0
CIRCLE
  5
361
330
6F
100
AcDbEntity
  8
A-0
  6
Continuous
 62
     4
100
AcDbCircle
 10
1157.806101497186
 20
444.525185197973
 30
0.0
 40
0.0625
  0
CIRCLE
  5
362
330
6F
100
AcDbEntity
  8
A-0
  6
Continuous
 62
     4
100
AcDbCircle
 10
1162.806101497186
 20
444.525185197973
 30
0.0
 40
0.25
  0
CIRCLE
  5
363
330
6F
100
AcDbEntity
  8
A-0
  6
Continuous
 62
     4
100
AcDbCircle
 10
1162.806101497186
 20
444.525185197973
 30
0.0
 40
0.1875
  0
CIRCLE
  5
364
330
6F
100
AcDbEntity
  8
A-0
  6
Continuous
 62
     4
100
AcDbCircle
 10
1162.806101497186
 20
444.525185197973
 30
0.0
 40
0.125
  0
CIRCLE
  5
365
330
6F
100
AcDbEntity
  8
A-0
  6
Continuous
 62
     4
100
AcDbCircle
 10
1162.806101497186
 20
444.525185197973
 30
0.0
 40
0.0625
  0
LINE
  5
366
330
6F
100
AcDbEntity
  8
A-0
  6
Continuous
 62
     4
100
AcDbLine
 10
1157.806101828274
 20
574.525185207137
 30
0.0
 11
1157.806101828274
 21
444.5251852071369
 31
0.0
  0
LINE
  5
367
330
6F
100
AcDbEntity
  8
A-0
  6
Continuous
 62
     4
100
AcDbLine
 10
762.8061018282738
 20
574.525185207137
 30
0.0
 11
762.8061018282738
 21
444.5251852071369
 31
0.0
  0
TEXT
  5
368
330
6F
100
AcDbEntity
  8
A-0
 62
     4
100
AcDbText
 10
929.5289999999999
 20
445.145
 30
0.0
 40
36.288
  1
395
100
AcDbText
  0
LINE
  5
369
330
6F
100
AcDbEntity
  8
A-0
  6
Continuous
 62
     4
100
AcDbLine
 10
762.8061014971879
 20
444.525185197973
 30
0.0
 11
1157.806101497186
 21
444.525185197973
 31
0.0
  0
CIRCLE
  5
36A
330
6F
100
AcDbEntity
  8
A-0
  6
Continuous
 62
     4
100
AcDbCircle
 10
762.8061014971879
 20
444.525185197973
 30
0.0
 40
0.25
  0
CIRCLE
  5
36B
330
6F
100
AcDbEntity
  8
A-0
  6
Continuous
 62
     4
100
AcDbCircle
 10
762.8061014971879
 20
444.525185197973
 30
0.0
 40
0.1875
  0
CIRCLE
  5
36C
330
6F
100
AcDbEntity
  8
A-0
  6
Continuous
 62
     4
100
AcDbCircle
 10
762.8061014971879
 20
444.525185197973
 30
0.0
 40
0.125
  0
CIRCLE
  5
36D
330
6F
100
AcDbEntity
  8
A-0
  6
Continuous
 62
     4
100
AcDbCircle
 10
762.8061014971879
 20
444.525185197973
 30
0.0
 40
0.0625
  0
CIRCLE
  5
36E
330
6F
100
AcDbEntity
  8
A-0
  6
Continuous
 62
     4
100
AcDbCircle
 10
1157.806101497186
 20
444.525185197973
 30
0.0
 40
0.25
  0
CIRCLE
  5
36F
330
6F
100
AcDbEntity
  8
A-0
  6
Continuous
 62
     4
100
AcDbCircle
 10
1157.806101497186
 20
444.525185197973
 30
0.0
 40
0.1875
  0
CIRCLE
  5
370
330
6F
100
AcDbEntity
  8
A-0
  6
Continuous
 62
     4
100
AcDbCircle
 10
1157.806101497186
 20
444.525185197973
 30
0.0
 40
0.125
  0
CIRCLE
  5
371
330
6F
100
AcDbEntity
  8
A-0
  6
Continuous
 62
     4
100
AcDbCircle
 10
1157.806101497186
 20
444.525185197973
 30
0.0
 40
0.0625
  0
LINE
  5
372
330
6F
100
AcDbEntity
  8
A-0
  6
Continuous
 62
     4
100
AcDbLine
 10
762.8061018282738
 20
574.525185207137
 30
0.0
 11
762.8061018282738
 21
444.5251852071369
 31
0.0
  0
LINE
  5
373
330
6F
100
AcDbEntity
  8
A-0
  6
Continuous
 62
     4
100
AcDbLine
 10
757.8061018282738
 20
574.525185207137
 30
0.0
 11
757.8061018282738
 21
444.5251852071369
 31
0.0
  0
LINE
  5
374
330
6F
100
AcDbEntity
  8
A-0
  6
Continuous
 62
     4
100
AcDbLine
 10
772.8061018282739
 20
444.5251852071369
 30
0.0
 11
782.8061018282738
 21
444.5251852071369
 31
0.0
  0
LINE
  5
375
330
6F
100
AcDbEntity
  8
A-0
  6
Continuous
 62
     4
100
AcDbLine
 10
747.8061018282739
 20
444.5251852071369
 30
0.0
 11
737.8061018282738
 21
444.5251852071369
 31
0.0
  0
LINE
  5
376
330
6F
100
AcDbEntity
  8
A-0
  6
Continuous
 62
     4
100
AcDbLine
 10
760.3061018282739
 20
444.5251852071369
 30
0.0
 11
789.5929268282738
 21
381.591800207137
 31
0.0
  0
LINE
  5
377
330
6F
100
AcDbEntity
  8
A-0
  6
Continuous
 62
     4
100
AcDbLine
 10
789.5929268282738
 20
381.591800207137
 30
0.0
 11
827.7147548282739
 21
381.591800207137
 31
0.0
  0
TEXT
  5
378
330
6F
100
AcDbEntity
  8
A-0
 62
     4
100
AcDbText
 10
800.276
 20
382.212
 30
0.0
 40
36.288
  1
5
100
AcDbText
  0
LINE
  5
379
330
6F
100
AcDbEntity
  8
A-0
  6
Continuous
 62
     4
100
AcDbLine
 10
762.8061018282738
 20
444.5251852071369
 30
0.0
 11
757.8061018282738
 21
444.5251852071369
 31
0.0
  0
LINE
  5
37A
330
6F
100
AcDbEntity
  8
A-0
  6
Continuous
 62
     4
100
AcDbLine
 10
762.8061018282738
 20
444.5251852071369
 30
0.0
 11
757.8061018282738
 21
444.5251852071369
 31
0.0
  0
CIRCLE
  5
37B
330
6F
100
AcDbEntity
  8
A-0
  6
Continuous
 62
     4
100
AcDbCircle
 10
762.8061014971879
 20
444.525185197973
 30
0.0
 40
0.25
  0
CIRCLE
  5
37C
330
6F
100
AcDbEntity
  8
A-0
  6
Continuous
 62
     4
100
AcDbCircle
 10
762.8061014971879
 20
444.525185197973
 30
0.0
 40
0.1875
  0
CIRCLE
  5
37D
330
6F
100
AcDbEntity
  8
A-0
  6
Continuous
 62
     4
100
AcDbCircle
 10
762.8061014971879
 20
444.525185197973
 30
0.0
 40
0.125
  0
CIRCLE
  5
37E
330
6F
100
AcDbEntity
  8
A-0
  6
Continuous
 62
     4
100
AcDbCircle
 10
762.8061014971879
 20
444.525185197973
 30
0.0
 40
0.0625
  0
ARC
  5
37F
330
6F
100
AcDbEntity
  8
A-0
 62
     4
100
AcDbCircle
 10
762.8061014971879
 20
444.520185197973
 30
0.0
 40
2.5
100
AcDbArc
 50
180.1145914065301
 51
0.1145914059449637
  0
LINE
  5
380
330
6F
100
AcDbEntity
  8
A-0
 62
     4
100
AcDbLine
 10
767.8061014971879
 20
444.5251851980239
 30
0.0
 11
772.8061014971879
 21
444.5251851980749
 31
0.0
  0
CIRCLE
  5
381
330
6F
100
AcDbEntity
  8
A-0
  6
Continuous
 62
     4
100
AcDbCircle
 10
757.8061014971851
 20
444.525185197973
 30
0.0
 40
0.25
  0
CIRCLE
  5
382
330
6F
100
AcDbEntity
  8
A-0
  6
Continuous
 62
     4
100
AcDbCircle
 10
757.8061014971851
 20
444.525185197973
 30
0.0
 40
0.1875
  0
CIRCLE
  5
383
330
6F
100
AcDbEntity
  8
A-0
  6
Continuous
 62
     4
100
AcDbCircle
 10
757.8061014971851
 20
444.525185197973
 30
0.0
 40
0.125
  0
CIRCLE
  5
384
330
6F
100
AcDbEntity
  8
A-0
  6
Continuous
 62
     4
100
AcDbCircle
 10
757.8061014971851
 20
444.525185197973
 30
0.0
 40
0.0625
  0
ARC
  5
385
330
6F
100
AcDbEntity
  8
A-0
 62
     4
100
AcDbCircle
 10
757.8061014971851
 20
444.530185197973
 30
0.0
 40
2.5
100
AcDbArc
 50
0.1145914065300158
 51
180.114591405945
  0
LINE
  5
386
330
6F
100
AcDbEntity
  8
A-0
 62
     4
100
AcDbLine
 10
752.806101497185
 20
444.525185197973
 30
0.0
 11
747.806101497185
 21
444.525185197973
 31
0.0
  0
LINE
  5
387
330
6F
100
AcDbEntity
  8
A-0
  6
Continuous
 62
     4
100
AcDbLine
 10
1952.806101828274
 20
574.525185207137
 30
0.0
 11
1952.806101828274
 21
344.525185207137
 31
0.0
  0
LINE
  5
388
330
6F
100
AcDbEntity
  8
A-0
  6
Continuous
 62
     4
100
AcDbLine
 10
757.8061018282738
 20
574.525185207137
 30
0.0
 11
757.8061018282738
 21
344.525185207137
 31
0.0
  0
TEXT
  5
389
330
6F
100
AcDbEntity
  8
A-0
 62
     4
100
AcDbText
 10
1313.329
 20
345.145
 30
0.0
 40
36.288
  1
1195
100
AcDbText
  0
LINE
  5
38A
330
6F
100
AcDbEntity
  8
A-0
  6
Continuous
 62
     4
100
AcDbLine
 10
757.8061014971851
 20
344.525185197973
 30
0.0
 11
1952.806101497184
 21
344.525185197973
 31
0.0
  0
CIRCLE
  5
38B
330
6F
100
AcDbEntity
  8
A-0
  6
Continuous
 62
     4
100
AcDbCircle
 10
757.8061014971851
 20
344.525185197973
 30
0.0
 40
0.25
  0
CIRCLE
  5
38C
330
6F
100
AcDbEntity
  8
A-0
  6
Continuous
 62
     4
100
AcDbCircle
 10
757.8061014971851
 20
344.525185197973
 30
0.0
 40
0.1875
  0
CIRCLE
  5
38D
330
6F
100
AcDbEntity
  8
A-0
  6
Continuous
 62
     4
100
AcDbCircle
 10
757.8061014971851
 20
344.525185197973
 30
0.0
 40
0.125
  0
CIRCLE
  5
38E
330
6F
100
AcDbEntity
  8
A-0
  6
Continuous
 62
     4
100
AcDbCircle
 10
757.8061014971851
 20
344.525185197973
 30
0.0
 40
0.0625
  0
CIRCLE
  5
38F
330
6F
100
AcDbEntity
  8
A-0
  6
Continuous
 62
     4
100
AcDbCircle
 10
1952.806101497184
 20
344.525185197973
 30
0.0
 40
0.25
  0
CIRCLE
  5
390
330
6F
100
AcDbEntity
  8
A-0
  6
Continuous
 62
     4
100
AcDbCircle
 10
1952.806101497184
 20
344.525185197973
 30
0.0
 40
0.1875
  0
CIRCLE
  5
391
330
6F
100
AcDbEntity
  8
A-0
  6
Continuous
 62
     4
100
AcDbCircle
 10
1952.806101497184
 20
344.525185197973
 30
0.0
 40
0.125
  0
CIRCLE
  5
392
330
6F
100
AcDbEntity
  8
A-0
  6
Continuous
 62
     4
100
AcDbCircle
 10
1952.806101497184
 20
344.525185197973
 30
0.0
 40
0.0625
  0
LINE
  5
393
330
6F
100
AcDbEntity
  8
B-0
  6
CENTER
 62
     6
100
AcDbLine
 10
1680.386410778887
 20
1304.83742691507
 30
0.0
 11
1680.306101778887
 21
578.6812499150699
 31
0.0
  0
LINE
  5
394
330
6F
100
AcDbEntity
  8
A-0
  6
Continuous
 62
     4
100
AcDbLine
 10
1643.970917828274
 20
1058.520401207137
 30
0.0
 11
1610.419249828274
 21
1058.520401207137
 31
0.0
  0
LINE
  5
395
330
6F
100
AcDbEntity
  8
A-0
  6
Continuous
 62
     4
100
AcDbLine
 10
1556.236109828274
 20
594.525185207137
 30
0.0
 11
1610.419249828274
 21
594.525185207137
 31
0.0
  0
TEXT
  5
396
330
6F
100
AcDbEntity
  8
A-0
 62
     4
100
AcDbText
 10
1609.799
 20
792.923
 30
0.0
 40
36.288
  1
464
 50
90.0
100
AcDbText
  0
LINE
  5
397
330
6F
100
AcDbEntity
  8
A-0
  6
Continuous
 62
     4
100
AcDbLine
 10
1610.419249902028
 20
594.525185197973
 30
0.0
 11
1610.419249902028
 21
1058.520401170143
 31
0.0
  0
CIRCLE
  5
398
330
6F
100
AcDbEntity
  8
A-0
  6
Continuous
 62
     4
100
AcDbCircle
 10
1610.419249902028
 20
594.525185197973
 30
0.0
 40
0.25
  0
CIRCLE
  5
399
330
6F
100
AcDbEntity
  8
A-0
  6
Continuous
 62
     4
100
AcDbCircle
 10
1610.419249902028
 20
594.525185197973
 30
0.0
 40
0.1875
  0
CIRCLE
  5
39A
330
6F
100
AcDbEntity
  8
A-0
  6
Continuous
 62
     4
100
AcDbCircle
 10
1610.419249902028
 20
594.525185197973
 30
0.0
 40
0.125
  0
CIRCLE
  5
39B
330
6F
100
AcDbEntity
  8
A-0
  6
Continuous
 62
     4
100
AcDbCircle
 10
1610.419249902028
 20
594.525185197973
 30
0.0
 40
0.0625
  0
CIRCLE
  5
39C
330
6F
100
AcDbEntity
  8
A-0
  6
Continuous
 62
     4
100
AcDbCircle
 10
1610.419249902028
 20
1058.520401170143
 30
0.0
 40
0.25
  0
CIRCLE
  5
39D
330
6F
100
AcDbEntity
  8
A-0
  6
Continuous
 62
     4
100
AcDbCircle
 10
1610.419249902028
 20
1058.520401170143
 30
0.0
 40
0.1875
  0
CIRCLE
  5
39E
330
6F
100
AcDbEntity
  8
A-0
  6
Continuous
 62
     4
100
AcDbCircle
 10
1610.419249902028
 20
1058.520401170143
 30
0.0
 40
0.125
  0
CIRCLE
  5
39F
330
6F
100
AcDbEntity
  8
A-0
  6
Continuous
 62
     4
100
AcDbCircle
 10
1610.419249902028
 20
1058.520401170143
 30
0.0
 40
0.0625
  0
LINE
  5
3A0
330
6F
100
AcDbEntity
  8
3-0
  6
DASHED2
 62
     7
100
AcDbLine
 10
1695.641965778887
 20
1058.52040091507
 30
0.0
 11
1695.641965778887
 21
594.5251849150699
 31
0.0
  0
LINE
  5
3A1
330
6F
100
AcDbEntity
  8
3-0
  6
DASHED2
 62
     7
100
AcDbLine
 10
1616.877003968964
 20
1152.520401574002
 30
0.0
 11
1616.877003968964
 21
1099.420401574002
 31
0.0
  0
ARC
  5
3A2
330
6F
100
AcDbEntity
  8
3-0
  6
DASHED2
 62
     7
100
AcDbCircle
 10
1626.877003778887
 20
1099.42040191507
 30
0.0
 40
10.0
100
AcDbArc
 50
180.000000000292
 51
270.0
  0
LINE
  5
3A3
330
6F
100
AcDbEntity
  8
3-0
  6
DASHED2
 62
     7
100
AcDbLine
 10
1626.877003968964
 20
1089.420401574002
 30
0.0
 11
1733.729690568512
 21
1089.420401574002
 31
0.0
  0
ARC
  5
3A4
330
6F
100
AcDbEntity
  8
3-0
  6
DASHED2
 62
     7
100
AcDbCircle
 10
1733.729690778887
 20
1099.42040191507
 30
0.0
 40
10.0
100
AcDbArc
 50
270.0
 51
359.999999999708
  0
LINE
  5
3A5
330
6F
100
AcDbEntity
  8
3-0
  6
DASHED2
 62
     7
100
AcDbLine
 10
1743.729690568512
 20
1099.420401574002
 30
0.0
 11
1743.729690568512
 21
1152.520401574002
 31
0.0
  0
LINE
  5
3A6
330
6F
100
AcDbEntity
  8
3-0
  6
DASHED2
 62
     7
100
AcDbLine
 10
1710.303347268736
 20
1089.420401574002
 30
0.0
 11
1710.303347268738
 21
1058.520401170143
 31
0.0
  0
LINE
  5
3A7
330
6F
100
AcDbEntity
  8
3-0
  6
DASHED2
 62
     7
100
AcDbLine
 10
1710.303347268738
 20
1058.520401170143
 30
0.0
 11
1650.303347268736
 21
1058.520401170143
 31
0.0
  0
LINE
  5
3A8
330
6F
100
AcDbEntity
  8
3-0
  6
DASHED2
 62
     7
100
AcDbLine
 10
1650.303347268736
 20
1058.520401170143
 30
0.0
 11
1650.303347268736
 21
1089.420401574002
 31
0.0
  0
LINE
  5
3A9
330
6F
100
AcDbEntity
  8
3-0
  6
DASHED2
 62
     7
100
AcDbLine
 10
1611.392145778887
 20
1219.31887691507
 30
0.0
 11
1749.214548778887
 21
1219.31887691507
 31
0.0
  0
LINE
  5
3AA
330
6F
100
AcDbEntity
  8
3-0
  6
DASHED2
 62
     7
100
AcDbLine
 10
1602.303346778887
 20
1224.31887691507
 30
0.0
 11
1758.303346778887
 21
1224.31887691507
 31
0.0
  0
LINE
  5
3AB
330
6F
100
AcDbEntity
  8
3-0
  6
DASHED2
 62
     7
100
AcDbLine
 10
1590.303346778887
 20
1241.52040091507
 30
0.0
 11
1770.303346778887
 21
1241.52040091507
 31
0.0
  0
LINE
  5
3AC
330
6F
100
AcDbEntity
  8
3-0
  6
DASHED2
 62
     7
100
AcDbLine
 10
1611.392146125506
 20
1152.520401574002
 30
0.0
 11
1749.214548411968
 21
1152.520401574002
 31
0.0
  0
LINE
  5
3AD
330
6F
100
AcDbEntity
  8
3-0
  6
DASHED2
 62
     7
100
AcDbLine
 10
1758.303346778887
 20
1224.31887691507
 30
0.0
 11
1749.214548778887
 21
1219.31887691507
 31
0.0
  0
LINE
  5
3AE
330
6F
100
AcDbEntity
  8
3-0
  6
DASHED2
 62
     7
100
AcDbLine
 10
1749.214548778887
 20
1219.31887691507
 30
0.0
 11
1749.214548778887
 21
1154.73516791507
 31
0.0
  0
LINE
  5
3AF
330
6F
100
AcDbEntity
  8
3-0
  6
DASHED2
 62
     7
100
AcDbLine
 10
1768.055690778887
 20
1241.52040091507
 30
0.0
 11
1768.055690778887
 21
1227.52040091507
 31
0.0
  0
LINE
  5
3B0
330
6F
100
AcDbEntity
  8
3-0
  6
DASHED2
 62
     7
100
AcDbLine
 10
1768.055690778887
 20
1227.52040091507
 30
0.0
 11
1758.303346778887
 21
1227.52040091507
 31
0.0
  0
LINE
  5
3B1
330
6F
100
AcDbEntity
  8
3-0
  6
DASHED2
 62
     7
100
AcDbLine
 10
1758.303346778887
 20
1241.52040091507
 30
0.0
 11
1758.303346778887
 21
1224.31887691507
 31
0.0
  0
LINE
  5
3B2
330
6F
100
AcDbEntity
  8
3-0
  6
DASHED2
 62
     7
100
AcDbLine
 10
1770.303346778887
 20
1246.52040091507
 30
0.0
 11
1770.303346778887
 21
1241.52040091507
 31
0.0
  0
LINE
  5
3B3
330
6F
100
AcDbEntity
  8
3-0
  6
DASHED2
 62
     7
100
AcDbLine
 10
1602.303346778887
 20
1224.31887691507
 30
0.0
 11
1611.392145778887
 21
1219.31887691507
 31
0.0
  0
LINE
  5
3B4
330
6F
100
AcDbEntity
  8
3-0
  6
DASHED2
 62
     7
100
AcDbLine
 10
1611.392145778887
 20
1219.31887691507
 30
0.0
 11
1611.392145778887
 21
1154.73516791507
 31
0.0
  0
LINE
  5
3B5
330
6F
100
AcDbEntity
  8
3-0
  6
DASHED2
 62
     7
100
AcDbLine
 10
1592.551003778887
 20
1241.52040091507
 30
0.0
 11
1592.551003778887
 21
1227.52040091507
 31
0.0
  0
LINE
  5
3B6
330
6F
100
AcDbEntity
  8
3-0
  6
DASHED2
 62
     7
100
AcDbLine
 10
1592.551003778887
 20
1227.52040091507
 30
0.0
 11
1602.303346778887
 21
1227.52040091507
 31
0.0
  0
LINE
  5
3B7
330
6F
100
AcDbEntity
  8
3-0
  6
DASHED2
 62
     7
100
AcDbLine
 10
1602.303346778887
 20
1241.52040091507
 30
0.0
 11
1602.303346778887
 21
1224.31887691507
 31
0.0
  0
LINE
  5
3B8
330
6F
100
AcDbEntity
  8
3-0
  6
DASHED2
 62
     7
100
AcDbLine
 10
1590.303346778887
 20
1246.52040091507
 30
0.0
 11
1590.303346778887
 21
1241.52040091507
 31
0.0
  0
LINE
  5
3B9
330
6F
100
AcDbEntity
  8
1-0
  6
DASHED2
 62
     7
100
AcDbLine
 10
1665.641965778887
 20
1058.52040091507
 30
0.0
 11
1665.641965778887
 21
594.5251849150699
 31
0.0
  0
TEXT
  5
3BA
330
6F
100
AcDbEntity
  8
D-0
 62
     5
100
AcDbText
 10
1309.646
 20
1007.364
 30
0.0
 40
25.92
  1
包丁差
100
AcDbText
  0
LINE
  5
3BB
330
6F
100
AcDbEntity
  8
5-0
  6
DASHED2
 62
     7
100
AcDbLine
 10
1291.806101778887
 20
819.52518491507
 30
0.0
 11
1535.806101778887
 21
819.52518491507
 31
0.0
  0
LINE
  5
3BC
330
6F
100
AcDbEntity
  8
5-0
  6
DASHED2
 62
     7
100
AcDbLine
 10
1283.806101778887
 20
827.52518491507
 30
0.0
 11
1283.806101778887
 21
1049.52518491507
 31
0.0
  0
LINE
  5
3BD
330
6F
100
AcDbEntity
  8
5-0
  6
DASHED2
 62
     7
100
AcDbLine
 10
1543.806101778887
 20
1049.52518491507
 30
0.0
 11
1543.806101778887
 21
827.52518491507
 31
0.0
  0
ARC
  5
3BE
330
6F
100
AcDbEntity
  8
5-0
  6
DOT
 62
     7
100
AcDbCircle
 10
1291.806101778887
 20
827.52518491507
 30
0.0
 40
8.0
100
AcDbArc
 50
180.0
 51
270.0
  0
ARC
  5
3BF
330
6F
100
AcDbEntity
  8
5-0
  6
DOT
 62
     7
100
AcDbCircle
 10
1535.806101778887
 20
827.52518491507
 30
0.0
 40
8.0
100
AcDbArc
 50
270.0
 51
0.0
  0
ARC
  5
3C0
330
6F
100
AcDbEntity
  8
5-0
  6
DASHED2
 62
     7
100
AcDbCircle
 10
1542.806101778887
 20
1048.52518491507
 30
0.0
 40
1.0
100
AcDbArc
 50
0.0
 51
90.0
  0
ARC
  5
3C1
330
6F
100
AcDbEntity
  8
5-0
  6
DASHED2
 62
     7
100
AcDbCircle
 10
1284.806101778887
 20
1048.52518491507
 30
0.0
 40
1.0
100
AcDbArc
 50
90.0
 51
180.0
  0
ARC
  5
3C2
330
6F
100
AcDbEntity
  8
5-0
  6
DASHED2
 62
     7
100
AcDbCircle
 10
1538.806101778887
 20
854.52518491507
 30
0.0
 40
7.0
100
AcDbArc
 50
90.0
 51
270.0
  0
LINE
  5
3C3
330
6F
100
AcDbEntity
  8
5-0
  6
DASHED2
 62
     7
100
AcDbLine
 10
1538.806101778887
 20
861.52518491507
 30
0.0
 11
1543.806101778887
 21
861.52518491507
 31
0.0
  0
LINE
  5
3C4
330
6F
100
AcDbEntity
  8
5-0
  6
DASHED2
 62
     7
100
AcDbLine
 10
1538.806101778887
 20
847.52518491507
 30
0.0
 11
1543.806101778887
 21
847.52518491507
 31
0.0
  0
CIRCLE
  5
3C5
330
6F
100
AcDbEntity
  8
5-0
  6
DASHED2
 62
     7
100
AcDbCircle
 10
1538.806101778887
 20
854.52518491507
 30
0.0
 40
2.0
  0
ARC
  5
3C6
330
6F
100
AcDbEntity
  8
5-0
  6
DASHED2
 62
     7
100
AcDbCircle
 10
1538.806101778887
 20
1014.52518491507
 30
0.0
 40
7.0
100
AcDbArc
 50
90.0
 51
270.0
  0
LINE
  5
3C7
330
6F
100
AcDbEntity
  8
5-0
  6
DASHED2
 62
     7
100
AcDbLine
 10
1538.806101778887
 20
1021.52518491507
 30
0.0
 11
1543.806101778887
 21
1021.52518491507
 31
0.0
  0
LINE
  5
3C8
330
6F
100
AcDbEntity
  8
5-0
  6
DASHED2
 62
     7
100
AcDbLine
 10
1538.806101778887
 20
1007.52518491507
 30
0.0
 11
1543.806101778887
 21
1007.52518491507
 31
0.0
  0
CIRCLE
  5
3C9
330
6F
100
AcDbEntity
  8
5-0
  6
DASHED2
 62
     7
100
AcDbCircle
 10
1538.806101778887
 20
1014.52518491507
 30
0.0
 40
2.0
  0
ARC
  5
3CA
330
6F
100
AcDbEntity
  8
5-0
  6
DASHED2
 62
     7
100
AcDbCircle
 10
1288.806101778887
 20
854.52518491507
 30
0.0
 40
7.0
100
AcDbArc
 50
270.0
 51
90.0
  0
LINE
  5
3CB
330
6F
100
AcDbEntity
  8
5-0
  6
DASHED2
 62
     7
100
AcDbLine
 10
1288.806101778887
 20
861.52518491507
 30
0.0
 11
1283.806101778887
 21
861.52518491507
 31
0.0
  0
LINE
  5
3CC
330
6F
100
AcDbEntity
  8
5-0
  6
DASHED2
 62
     7
100
AcDbLine
 10
1288.806101778887
 20
847.52518491507
 30
0.0
 11
1283.806101778887
 21
847.52518491507
 31
0.0
  0
CIRCLE
  5
3CD
330
6F
100
AcDbEntity
  8
5-0
  6
DASHED2
 62
     7
100
AcDbCircle
 10
1288.806101778887
 20
854.52518491507
 30
0.0
 40
2.0
  0
ARC
  5
3CE
330
6F
100
AcDbEntity
  8
5-0
  6
DASHED2
 62
     7
100
AcDbCircle
 10
1288.806101778887
 20
1014.52518491507
 30
0.0
 40
7.0
100
AcDbArc
 50
270.0
 51
90.0
  0
LINE
  5
3CF
330
6F
100
AcDbEntity
  8
5-0
  6
DASHED2
 62
     7
100
AcDbLine
 10
1288.806101778887
 20
1021.52518491507
 30
0.0
 11
1283.806101778887
 21
1021.52518491507
 31
0.0
  0
LINE
  5
3D0
330
6F
100
AcDbEntity
  8
5-0
  6
DASHED2
 62
     7
100
AcDbLine
 10
1288.806101778887
 20
1007.52518491507
 30
0.0
 11
1283.806101778887
 21
1007.52518491507
 31
0.0
  0
CIRCLE
  5
3D1
330
6F
100
AcDbEntity
  8
5-0
  6
DASHED2
 62
     7
100
AcDbCircle
 10
1288.806101778887
 20
1014.52518491507
 30
0.0
 40
2.0
  0
LINE
  5
3D2
330
6F
100
AcDbEntity
  8
5-0
  6
DASHED2
 62
     7
100
AcDbLine
 10
1286.806101778887
 20
1052.52518491507
 30
0.0
 11
1540.806101778887
 21
1052.52518491507
 31
0.0
  0
ARC
  5
3D3
330
6F
100
AcDbEntity
  8
5-0
  6
DASHED2
 62
     7
100
AcDbCircle
 10
1286.806101778887
 20
1049.52518491507
 30
0.0
 40
3.0
100
AcDbArc
 50
90.0
 51
180.0
  0
ARC
  5
3D4
330
6F
100
AcDbEntity
  8
5-0
  6
DASHED2
 62
     7
100
AcDbCircle
 10
1540.806101778887
 20
1049.52518491507
 30
0.0
 40
3.0
100
AcDbArc
 50
0.0
 51
90.0
  0
LINE
  5
3D5
330
6F
100
AcDbEntity
  8
1-0
  6
Continuous
 62
     4
100
AcDbLine
 10
1436.495621828274
 20
1052.525185207137
 30
0.0
 11
1437.081808828274
 21
1052.525185207137
 31
0.0
  0
LINE
  5
3D6
330
6F
100
AcDbEntity
  8
1-0
  6
Continuous
 62
     4
100
AcDbLine
 10
1420.685506828274
 20
684.525185207137
 30
0.0
 11
1437.081808828274
 21
684.525185207137
 31
0.0
  0
TEXT
  5
3D7
330
6F
100
AcDbEntity
  8
1-0
 62
     4
100
AcDbText
 10
1436.462
 20
834.9249999999999
 30
0.0
 40
36.288
  1
368
 50
90.0
100
AcDbText
  0
LINE
  5
3D8
330
6F
100
AcDbEntity
  8
1-0
  6
Continuous
 62
     4
100
AcDbLine
 10
1437.081809107085
 20
684.5251851979729
 30
0.0
 11
1437.081809107085
 21
1052.525185197973
 31
0.0
  0
CIRCLE
  5
3D9
330
6F
100
AcDbEntity
  8
1-0
  6
Continuous
 62
     4
100
AcDbCircle
 10
1437.081809107085
 20
684.5251851979729
 30
0.0
 40
0.25
  0
CIRCLE
  5
3DA
330
6F
100
AcDbEntity
  8
1-0
  6
Continuous
 62
     4
100
AcDbCircle
 10
1437.081809107085
 20
684.5251851979729
 30
0.0
 40
0.1875
  0
CIRCLE
  5
3DB
330
6F
100
AcDbEntity
  8
1-0
  6
Continuous
 62
     4
100
AcDbCircle
 10
1437.081809107085
 20
684.5251851979729
 30
0.0
 40
0.125
  0
CIRCLE
  5
3DC
330
6F
100
AcDbEntity
  8
1-0
  6
Continuous
 62
     4
100
AcDbCircle
 10
1437.081809107085
 20
684.5251851979729
 30
0.0
 40
0.0625
  0
CIRCLE
  5
3DD
330
6F
100
AcDbEntity
  8
1-0
  6
Continuous
 62
     4
100
AcDbCircle
 10
1437.081809107085
 20
1052.525185197973
 30
0.0
 40
0.25
  0
CIRCLE
  5
3DE
330
6F
100
AcDbEntity
  8
1-0
  6
Continuous
 62
     4
100
AcDbCircle
 10
1437.081809107085
 20
1052.525185197973
 30
0.0
 40
0.1875
  0
CIRCLE
  5
3DF
330
6F
100
AcDbEntity
  8
1-0
  6
Continuous
 62
     4
100
AcDbCircle
 10
1437.081809107085
 20
1052.525185197973
 30
0.0
 40
0.125
  0
CIRCLE
  5
3E0
330
6F
100
AcDbEntity
  8
1-0
  6
Continuous
 62
     4
100
AcDbCircle
 10
1437.081809107085
 20
1052.525185197973
 30
0.0
 40
0.0625
  0
LINE
  5
3E1
330
6F
100
AcDbEntity
  8
3-0
  6
DASHED2
 62
     7
100
AcDbLine
 10
3165.712481778887
 20
1049.52518491507
 30
0.0
 11
3201.908013778887
 21
1049.52518491507
 31
0.0
  0
ARC
  5
3E2
330
6F
100
AcDbEntity
  8
3-0
  6
DASHED2
 62
     7
100
AcDbCircle
 10
3165.712481778887
 20
1048.52518491507
 30
0.0
 40
1.0
100
AcDbArc
 50
90.0
 51
180.0
  0
LINE
  5
3E3
330
6F
100
AcDbEntity
  8
3-0
  6
DASHED2
 62
     7
100
AcDbLine
 10
3164.712481778887
 20
1030.52518491507
 30
0.0
 11
3164.712481778887
 21
1048.52518491507
 31
0.0
  0
LINE
  5
3E4
330
6F
100
AcDbEntity
  8
3-0
  6
DASHED2
 62
     7
100
AcDbLine
 10
3164.768575778887
 20
1029.52518491507
 30
0.0
 11
3164.712481778887
 21
1029.52518491507
 31
0.0
  0
LINE
  5
3E5
330
6F
100
AcDbEntity
  8
3-0
  6
DASHED2
 62
     7
100
AcDbLine
 10
3164.768575778887
 20
1030.19497291507
 30
0.0
 11
3164.768575778887
 21
827.52518491507
 31
0.0
  0
LINE
  5
3E6
330
6F
100
AcDbEntity
  8
3-0
  6
DASHED2
 62
     7
100
AcDbLine
 10
3172.712481778887
 20
819.52518491507
 30
0.0
 11
3203.908013778888
 21
819.52518491507
 31
0.0
  0
ARC
  5
3E7
330
6F
100
AcDbEntity
  8
3-0
  6
DASHED2
 62
     7
100
AcDbCircle
 10
3172.712481778887
 20
827.52518491507
 30
0.0
 40
8.0
100
AcDbArc
 50
231.318
 51
270.0
  0
ARC
  5
3E8
330
6F
100
AcDbEntity
  8
3-0
  6
DASHED2
 62
     7
100
AcDbCircle
 10
3172.768575778887
 20
827.52518491507
 30
0.0
 40
8.0
100
AcDbArc
 50
180.0
 51
230.801
  0
LINE
  5
3E9
330
6F
100
AcDbEntity
  8
3-0
  6
DASHED2
 62
     7
100
AcDbLine
 10
3182.655273778887
 20
1023.52518491507
 30
0.0
 11
3203.908013778888
 21
1023.52518491507
 31
0.0
  0
LINE
  5
3EA
330
6F
100
AcDbEntity
  8
3-0
  6
DASHED2
 62
     7
100
AcDbLine
 10
3182.655273778887
 20
1005.52518491507
 30
0.0
 11
3203.908013778888
 21
1005.52518491507
 31
0.0
  0
LINE
  5
3EB
330
6F
100
AcDbEntity
  8
3-0
  6
DASHED2
 62
     7
100
AcDbLine
 10
3182.655273778887
 20
863.52518491507
 30
0.0
 11
3203.908013778888
 21
863.52518491507
 31
0.0
  0
LINE
  5
3EC
330
6F
100
AcDbEntity
  8
3-0
  6
DASHED2
 62
     7
100
AcDbLine
 10
3182.655273778887
 20
845.52518491507
 30
0.0
 11
3203.908013778888
 21
845.52518491507
 31
0.0
  0
TEXT
  5
3ED
330
6F
100
AcDbEntity
  8
D-0
 62
     2
100
AcDbText
 10
3020.64
 20
459.4549999999999
 30
0.0
 40
25.92
  1
※
100
AcDbText
  0
TEXT
  5
3EE
330
6F
100
AcDbEntity
  8
D-0
 62
     2
100
AcDbText
 10
3257.349
 20
458.748
 30
0.0
 40
25.92
  1
※巾木奥行(D)(M)(A)はD406
100
AcDbText
  0
LINE
  5
3EF
330
6F
100
AcDbEntity
  8
4-0
  6
Continuous
 62
     7
100
AcDbLine
 10
3218.638013778888
 20
1364.52518491507
 30
0.0
 11
3204.508013778887
 21
1364.52518491507
 31
0.0
  0
LINE
  5
3F0
330
6F
100
AcDbEntity
  8
4-0
  6
Continuous
 62
     7
100
AcDbLine
 10
3202.757300778887
 20
1364.52518491507
 30
0.0
 11
3219.684370778887
 21
1364.52518491507
 31
0.0
  0
LINE
  5
3F1
330
6F
100
AcDbEntity
  8
4-0
  6
Continuous
 62
     7
100
AcDbLine
 10
3209.358287778887
 20
1362.52518491507
 30
0.0
 11
3215.978789778887
 21
1362.52518491507
 31
0.0
  0
LINE
  5
3F2
330
6F
100
AcDbEntity
  8
4-0
  6
Continuous
 62
     7
100
AcDbLine
 10
3202.790905778887
 20
1318.92518491507
 30
0.0
 11
3203.908013778888
 21
1318.92518491507
 31
0.0
  0
LINE
  5
3F3
330
6F
100
AcDbEntity
  8
4-0
  6
Continuous
 62
     7
100
AcDbLine
 10
3201.908013778887
 20
1363.72045091507
 30
0.0
 11
3201.908013778887
 21
1319.69951891507
 31
0.0
  0
LINE
  5
3F4
330
6F
100
AcDbEntity
  8
4-0
  6
Continuous
 62
     7
100
AcDbLine
 10
3203.908013778888
 20
1336.52518491507
 30
0.0
 11
3203.908013778888
 21
1318.92518491507
 31
0.0
  0
ARC
  5
3F5
330
6F
100
AcDbEntity
  8
4-0
  6
Continuous
 62
     7
100
AcDbCircle
 10
3202.808895778887
 20
1319.83619891507
 30
0.0
 40
0.9111909999999999
100
AcDbArc
 50
188.627
 51
268.869
  0
ARC
  5
3F6
330
6F
100
AcDbEntity
  8
4-0
  6
Continuous
 62
     7
100
AcDbCircle
 10
3202.789026778887
 20
1363.64118191507
 30
0.0
 40
0.884572
100
AcDbArc
 50
87.94499999999999
 51
174.859
  0
LINE
  5
3F7
330
6F
100
AcDbEntity
  8
4-0
  6
Continuous
 62
     7
100
AcDbLine
 10
3219.884009778887
 20
1364.34486191507
 30
0.0
 11
3220.643542778887
 21
1358.04351191507
 31
0.0
  0
LINE
  5
3F8
330
6F
100
AcDbEntity
  8
4-0
  6
Continuous
 62
     7
100
AcDbLine
 10
3216.482455778887
 20
1362.16561791507
 30
0.0
 11
3217.012094778887
 21
1357.87400591507
 31
0.0
  0
ARC
  5
3F9
330
6F
100
AcDbEntity
  8
4-0
  6
Continuous
 62
     7
100
AcDbCircle
 10
3217.706823778887
 20
1357.95974391507
 30
0.0
 40
0.7
100
AcDbArc
 50
187.035
 51
270.0
  0
ARC
  5
3FA
330
6F
100
AcDbEntity
  8
4-0
  6
Continuous
 62
     7
100
AcDbCircle
 10
3215.968798778887
 20
1361.97864991507
 30
0.0
 40
0.546626
100
AcDbArc
 50
20.001
 51
88.953
  0
ARC
  5
3FB
330
6F
100
AcDbEntity
  8
4-0
  6
Continuous
 62
     7
100
AcDbCircle
 10
3210.051305778887
 20
1357.13642191507
 30
0.0
 40
5.433143
100
AcDbArc
 50
97.32800000000001
 51
175.897
  0
LINE
  5
3FC
330
6F
100
AcDbEntity
  8
4-0
  6
Continuous
 62
     7
100
AcDbLine
 10
3204.632089778887
 20
1357.52518491507
 30
0.0
 11
3204.630435778887
 21
1343.20567691507
 31
0.0
  0
ARC
  5
3FD
330
6F
100
AcDbEntity
  8
4-0
  6
Continuous
 62
     7
100
AcDbCircle
 10
3219.623571778887
 20
1364.25719991507
 30
0.0
 40
0.274796
100
AcDbArc
 50
18.603
 51
77.217
  0
LINE
  5
3FE
330
6F
100
AcDbEntity
  8
4-0
  6
Continuous
 62
     7
100
AcDbLine
 10
3217.706823778887
 20
1357.25974391507
 30
0.0
 11
3219.948572778887
 21
1357.25974391507
 31
0.0
  0
ARC
  5
3FF
330
6F
100
AcDbEntity
  8
4-0
  6
Continuous
 62
     7
100
AcDbCircle
 10
3219.948572778887
 20
1357.95974391507
 30
0.0
 40
0.7
100
AcDbArc
 50
270.0
 51
6.873000000000001
  0
ARC
  5
400
330
6F
100
AcDbEntity
  8
4-0
  6
Continuous
 62
     7
100
AcDbCircle
 10
3210.291236778887
 20
1343.84374691507
 30
0.0
 40
5.7
100
AcDbArc
 50
186.431
 51
256.176
  0
ARC
  5
401
330
6F
100
AcDbEntity
  8
4-0
  6
Continuous
 62
     7
100
AcDbCircle
 10
3208.924693778886
 20
1336.31240891507
 30
0.0
 40
1.999706999999999
100
AcDbArc
 50
6.107999999999998
 51
89.846
  0
LINE
  5
402
330
6F
100
AcDbEntity
  8
3-0
  6
Continuous
 62
     7
100
AcDbLine
 10
3203.908013778888
 20
1336.52518491507
 30
0.0
 11
3219.508013778887
 21
1336.52518491507
 31
0.0
  0
ENDSEC
  0
SECTION
  2
OBJECTS
  0
DICTIONARY
  5
C
330
0
100
AcDbDictionary
281
     1
  3
ACAD_CIP_PREVIOUS_PRODUCT_INFO
350
404
  3
ACAD_COLOR
350
62
  3
ACAD_DETAILVIEWSTYLE
350
69
  3
ACAD_GROUP
350
D
  3
ACAD_LAYOUT
350
61
  3
ACAD_MATERIAL
350
10
  3
ACAD_MLEADERSTYLE
350
65
  3
ACAD_MLINESTYLE
350
5E
  3
ACAD_PLOTSETTINGS
350
60
  3
ACAD_PLOTSTYLENAME
350
E
  3
ACAD_SCALELIST
350
42
  3
ACAD_SECTIONVIEWSTYLE
350
67
  3
ACAD_TABLESTYLE
350
63
  3
ACAD_VISUALSTYLE
350
29
  3
ACDB_RECOMPOSE_DATA
350
42C
  3
AcDbVariableDictionary
350
41F
  3
DWGPROPS
350
42D
  0
DICTIONARY
  5
405
330
54
100
AcDbDictionary
280
     1
281
     1
  3
ADSK_XREC_LAYER_RECONCILED
360
406
  0
DICTIONARY
  5
407
330
7F
100
AcDbDictionary
280
     1
281
     1
  3
ADSK_XREC_LAYER_RECONCILED
360
408
  0
DICTIONARY
  5
409
330
80
100
AcDbDictionary
280
     1
281
     1
  3
ADSK_XREC_LAYER_RECONCILED
360
40A
  0
DICTIONARY
  5
40B
330
81
100
AcDbDictionary
280
     1
281
     1
  3
ADSK_XREC_LAYER_RECONCILED
360
40C
  0
DICTIONARY
  5
40D
330
82
100
AcDbDictionary
280
     1
281
     1
  3
ADSK_XREC_LAYER_RECONCILED
360
40E
  0
DICTIONARY
  5
40F
330
83
100
AcDbDictionary
280
     1
281
     1
  3
ADSK_XREC_LAYER_RECONCILED
360
410
  0
DICTIONARY
  5
411
330
84
100
AcDbDictionary
280
     1
281
     1
  3
ADSK_XREC_LAYER_RECONCILED
360
412
  0
DICTIONARY
  5
413
330
85
100
AcDbDictionary
280
     1
281
     1
  3
ADSK_XREC_LAYER_RECONCILED
360
414
  0
DICTIONARY
  5
415
330
86
100
AcDbDictionary
280
     1
281
     1
  3
ADSK_XREC_LAYER_RECONCILED
360
416
  0
DICTIONARY
  5
417
330
87
100
AcDbDictionary
280
     1
281
     1
  3
ADSK_XREC_LAYER_RECONCILED
360
418
  0
DICTIONARY
  5
419
330
88
100
AcDbDictionary
280
     1
281
     1
  3
ADSK_XREC_LAYER_RECONCILED
360
41A
  0
DICTIONARY
  5
41B
330
89
100
AcDbDictionary
280
     1
281
     1
  3
ADSK_XREC_LAYER_RECONCILED
360
41C
  0
DICTIONARY
  5
41D
330
8F
100
AcDbDictionary
280
     1
281
     1
  3
ADSK_XREC_LAYER_RECONCILED
360
41E
  0
XRECORD
  5
404
102
{ACAD_REACTORS
330
C
102
}
330
C
100
AcDbXrecord
280
     1
300
ACDLT
300
2020
300

  0
DICTIONARY
  5
62
102
{ACAD_REACTORS
330
C
102
}
330
C
100
AcDbDictionary
281
     1
  0
DICTIONARY
  5
69
102
{ACAD_REACTORS
330
C
102
}
330
C
100
AcDbDictionary
281
     1
  3
Imperial24
350
6A
  0
DICTIONARY
  5
D
102
{ACAD_REACTORS
330
C
102
}
330
C
100
AcDbDictionary
281
     1
  0
DICTIONARY
  5
61
102
{ACAD_REACTORS
330
C
102
}
330
C
100
AcDbDictionary
281
     1
  3
Model
350
72
  3
レイアウト1
350
6E
  0
DICTIONARY
  5
10
102
{ACAD_REACTORS
330
C
102
}
330
C
100
AcDbDictionary
281
     1
  3
ByBlock
350
19
  3
ByLayer
350
11
  3
Global
350
21
  0
DICTIONARY
  5
65
102
{ACAD_REACTORS
330
C
102
}
330
C
100
AcDbDictionary
281
     1
  3
Standard
350
66
  0
DICTIONARY
  5
5E
102
{ACAD_REACTORS
330
C
102
}
330
C
100
AcDbDictionary
281
     1
  3
Standard
350
5F
  0
DICTIONARY
  5
60
102
{ACAD_REACTORS
330
C
102
}
330
C
100
AcDbDictionary
281
     1
  0
ACDBDICTIONARYWDFLT
  5
E
102
{ACAD_REACTORS
330
C
102
}
330
C
100
AcDbDictionary
281
     1
  3
Normal
350
F
100
AcDbDictionaryWithDefault
340
F
  0
DICTIONARY
  5
42
102
{ACAD_REACTORS
330
C
102
}
330
C
100
AcDbDictionary
281
     1
  3
A0
350
43
  3
A1
350
44
  3
A2
350
45
  3
A3
350
46
  3
A4
350
47
  3
A5
350
48
  3
A6
350
49
  3
A7
350
4A
  3
A8
350
4B
  3
A9
350
4C
  3
B0
350
4D
  3
B1
350
4E
  3
B2
350
4F
  3
B3
350
50
  3
B4
350
51
  3
B5
350
52
  3
B6
350
53
  0
DICTIONARY
  5
67
102
{ACAD_REACTORS
330
C
102
}
330
C
100
AcDbDictionary
281
     1
  3
Imperial24
350
68
  0
DICTIONARY
  5
63
102
{ACAD_REACTORS
330
C
102
}
330
C
100
AcDbDictionary
281
     1
  3
Standard
350
64
  0
DICTIONARY
  5
29
102
{ACAD_REACTORS
330
C
102
}
330
C
100
AcDbDictionary
281
     1
  3
2dWireframe
350
2F
  3
Basic
350
2E
  3
Brighten
350
35
  3
ColorChange
350
39
  3
Conceptual
350
32
  3
Dim
350
34
  3
EdgeColorOff
350
41
  3
Facepattern
350
38
  3
Flat
350
2A
  3
FlatWithEdges
350
2B
  3
Gouraud
350
2C
  3
GouraudWithEdges
350
2D
  3
Hidden
350
31
  3
JitterOff
350
3F
  3
Linepattern
350
37
  3
OverhangOff
350
40
  3
Realistic
350
33
  3
Shaded
350
3E
  3
Shaded with edges
350
3D
  3
Shades of Gray
350
3A
  3
Sketchy
350
3B
  3
Thicken
350
36
  3
Wireframe
350
30
  3
X-Ray
350
3C
  0
XRECORD
  5
42C
102
{ACAD_REACTORS
330
C
102
}
330
C
100
AcDbXrecord
280
     1
 90
        1
330
64
  0
DICTIONARY
  5
41F
102
{ACAD_REACTORS
330
C
102
}
330
C
100
AcDbDictionary
281
     1
  3
CANNOSCALE
350
424
  3
CMLEADERSTYLE
350
421
  3
CTABLESTYLE
350
420
  3
CVIEWDETAILSTYLE
350
422
  3
CVIEWSECTIONSTYLE
350
423
  3
DIMASSOC
350
427
  3
INDEXCTL
350
426
  3
SORTENTS
350
425
  3
XCLIPFRAME
350
428
  0
XRECORD
  5
42D
102
{ACAD_REACTORS
330
C
102
}
330
C
100
AcDbXrecord
280
     1
  1
DWGPROPS COOKIE
  2

  3

  4

  6

  7

  8
suzuki
  9

300
=
301
=
302
=
303
=
304
=
305
=
306
=
307
=
308
=
309
=
 40
0.0002546296296296
 41
2459647.761782408
 42
2459647.762037037
  1

 90
        0
  0
XRECORD
  5
406
102
{ACAD_REACTORS
330
405
102
}
330
405
100
AcDbXrecord
280
     1
290
     1
  0
XRECORD
  5
408
102
{ACAD_REACTORS
330
407
102
}
330
407
100
AcDbXrecord
280
     1
290
     1
  0
XRECORD
  5
40A
102
{ACAD_REACTORS
330
409
102
}
330
409
100
AcDbXrecord
280
     1
290
     1
  0
XRECORD
  5
40C
102
{ACAD_REACTORS
330
40B
102
}
330
40B
100
AcDbXrecord
280
     1
290
     1
  0
XRECORD
  5
40E
102
{ACAD_REACTORS
330
40D
102
}
330
40D
100
AcDbXrecord
280
     1
290
     1
  0
XRECORD
  5
410
102
{ACAD_REACTORS
330
40F
102
}
330
40F
100
AcDbXrecord
280
     1
290
     1
  0
XRECORD
  5
412
102
{ACAD_REACTORS
330
411
102
}
330
411
100
AcDbXrecord
280
     1
290
     1
  0
XRECORD
  5
414
102
{ACAD_REACTORS
330
413
102
}
330
413
100
AcDbXrecord
280
     1
290
     1
  0
XRECORD
  5
416
102
{ACAD_REACTORS
330
415
102
}
330
415
100
AcDbXrecord
280
     1
290
     1
  0
XRECORD
  5
418
102
{ACAD_REACTORS
330
417
102
}
330
417
100
AcDbXrecord
280
     1
290
     1
  0
XRECORD
  5
41A
102
{ACAD_REACTORS
330
419
102
}
330
419
100
AcDbXrecord
280
     1
290
     1
  0
XRECORD
  5
41C
102
{ACAD_REACTORS
330
41B
102
}
330
41B
100
AcDbXrecord
280
     1
290
     1
  0
XRECORD
  5
41E
102
{ACAD_REACTORS
330
41D
102
}
330
41D
100
AcDbXrecord
280
     1
290
     1
  0
ACDBDETAILVIEWSTYLE
  5
6A
102
{ACAD_XDICTIONARY
360
465
102
}
102
{ACAD_REACTORS
330
69
102
}
330
69
100
AcDbModelDocViewStyle
 70
     0
  3
Imperial24
290
     0
100
AcDbDetailViewStyle
 70
     0
 71
     0
 90
        3
 71
     1
340
55
 40
0.24
340
0
 40
0.24
300

 40
0.36
280
     3
 71
     2
340
5C
 90
       25
 71
     3
340
55
 40
0.24
 90
        1
 40
0.75
 90
        1
300
%<\AcVar ViewType \f "%tc1">% %<\AcVar ViewDetailId>%\PSCALE %<\AcVar ViewScale \f "%sn">%
 71
     4
340
5C
 90
       25
340
5C
 90
       25
280
     0
  0
LAYOUT
  5
72
102
{ACAD_XDICTIONARY
360
469
102
}
102
{ACAD_REACTORS
330
61
102
}
330
61
100
AcDbPlotSettings
  1

  2
DocuCentre-V 4070
  4

  6

 40
0.0
 41
0.0
 42
0.0
 43
0.0
 44
0.0
 45
0.0
 46
0.0
 47
0.0
 48
0.0
 49
0.0
140
0.0
141
0.0
142
1.0
143
1.0
 70
  1712
 72
     0
 73
     0
 74
     0
  7

 75
     0
147
1.0
148
0.0
149
0.0
100
AcDbLayout
  1
Model
 70
     1
 71
     0
 10
0.0
 20
0.0
 11
12.0
 21
9.0
 12
0.0
 22
0.0
 32
0.0
 14
0.0
 24
0.0
 34
0.0
 15
0.0
 25
0.0
 35
0.0
146
0.0
 13
0.0
 23
0.0
 33
0.0
 16
1.0
 26
0.0
 36
0.0
 17
0.0
 27
1.0
 37
0.0
 76
     0
330
6F
331
8E
  0
LAYOUT
  5
6E
102
{ACAD_XDICTIONARY
360
467
102
}
102
{ACAD_REACTORS
330
61
102
}
330
61
100
AcDbPlotSettings
  1

  2
DocuCentre-V 4070
  4

  6

 40
0.0
 41
0.0
 42
0.0
 43
0.0
 44
0.0
 45
0.0
 46
0.0
 47
0.0
 48
0.0
 49
0.0
140
0.0
141
0.0
142
1.0
143
1.0
 70
   688
 72
     0
 73
     0
 74
     5
  7

 75
    16
147
1.0
148
0.0
149
0.0
100
AcDbLayout
  1
レイアウト1
 70
     1
 71
     1
 10
0.0
 20
0.0
 11
12.0
 21
9.0
 12
0.0
 22
0.0
 32
0.0
 14
1.000000000000000E+20
 24
1.000000000000000E+20
 34
1.000000000000000E+20
 15
-1.000000000000000E+20
 25
-1.000000000000000E+20
 35
-1.000000000000000E+20
146
0.0
 13
0.0
 23
0.0
 33
0.0
 16
1.0
 26
0.0
 36
0.0
 17
0.0
 27
1.0
 37
0.0
 76
     0
330
6B
  0
MATERIAL
  5
19
102
{ACAD_XDICTIONARY
360
1A
102
}
102
{ACAD_REACTORS
330
10
102
}
330
10
100
AcDbMaterial
  1
ByBlock
 72
     0
 43
0.0208333333333333
 43
0.0
 43
0.0
 43
0.0
 43
0.0
 43
0.0208333333333333
 43
0.0
 43
0.0
 43
0.0
 43
0.0
 43
1.0
 43
0.0
 43
0.0
 43
0.0
 43
0.0
 43
1.0
 77
     0
 47
0.0208333333333333
 47
0.0
 47
0.0
 47
0.0
 47
0.0
 47
0.0208333333333333
 47
0.0
 47
0.0
 47
0.0
 47
0.0
 47
1.0
 47
0.0
 47
0.0
 47
0.0
 47
0.0
 47
1.0
171
     0
 49
0.0208333333333333
 49
0.0
 49
0.0
 49
0.0
 49
0.0
 49
0.0208333333333333
 49
0.0
 49
0.0
 49
0.0
 49
0.0
 49
1.0
 49
0.0
 49
0.0
 49
0.0
 49
0.0
 49
1.0
175
     0
142
0.0208333333333333
142
0.0
142
0.0
142
0.0
142
0.0
142
0.0208333333333333
142
0.0
142
0.0
142
0.0
142
0.0
142
1.0
142
0.0
142
0.0
142
0.0
142
0.0
142
1.0
179
     0
144
0.0208333333333333
144
0.0
144
0.0
144
0.0
144
0.0
144
0.0208333333333333
144
0.0
144
0.0
144
0.0
144
0.0
144
1.0
144
0.0
144
0.0
144
0.0
144
0.0
144
1.0
147
0.0208333333333333
147
0.0
147
0.0
147
0.0
147
0.0
147
0.0208333333333333
147
0.0
147
0.0
147
0.0
147
0.0
147
1.0
147
0.0
147
0.0
147
0.0
147
0.0
147
1.0
  0
MATERIAL
  5
11
102
{ACAD_XDICTIONARY
360
12
102
}
102
{ACAD_REACTORS
330
10
102
}
330
10
100
AcDbMaterial
  1
ByLayer
 72
     0
 43
0.0208333333333333
 43
0.0
 43
0.0
 43
0.0
 43
0.0
 43
0.0208333333333333
 43
0.0
 43
0.0
 43
0.0
 43
0.0
 43
1.0
 43
0.0
 43
0.0
 43
0.0
 43
0.0
 43
1.0
 77
     0
 47
0.0208333333333333
 47
0.0
 47
0.0
 47
0.0
 47
0.0
 47
0.0208333333333333
 47
0.0
 47
0.0
 47
0.0
 47
0.0
 47
1.0
 47
0.0
 47
0.0
 47
0.0
 47
0.0
 47
1.0
171
     0
 49
0.0208333333333333
 49
0.0
 49
0.0
 49
0.0
 49
0.0
 49
0.0208333333333333
 49
0.0
 49
0.0
 49
0.0
 49
0.0
 49
1.0
 49
0.0
 49
0.0
 49
0.0
 49
0.0
 49
1.0
175
     0
142
0.0208333333333333
142
0.0
142
0.0
142
0.0
142
0.0
142
0.0208333333333333
142
0.0
142
0.0
142
0.0
142
0.0
142
1.0
142
0.0
142
0.0
142
0.0
142
0.0
142
1.0
179
     0
144
0.0208333333333333
144
0.0
144
0.0
144
0.0
144
0.0
144
0.0208333333333333
144
0.0
144
0.0
144
0.0
144
0.0
144
1.0
144
0.0
144
0.0
144
0.0
144
0.0
144
1.0
147
0.0208333333333333
147
0.0
147
0.0
147
0.0
147
0.0
147
0.0208333333333333
147
0.0
147
0.0
147
0.0
147
0.0
147
1.0
147
0.0
147
0.0
147
0.0
147
0.0
147
1.0
  0
MATERIAL
  5
21
102
{ACAD_XDICTIONARY
360
22
102
}
102
{ACAD_REACTORS
330
10
102
}
330
10
100
AcDbMaterial
  1
Global
 72
     0
 43
0.0208333333333333
 43
0.0
 43
0.0
 43
0.0
 43
0.0
 43
0.0208333333333333
 43
0.0
 43
0.0
 43
0.0
 43
0.0
 43
1.0
 43
0.0
 43
0.0
 43
0.0
 43
0.0
 43
1.0
 77
     0
 47
0.0208333333333333
 47
0.0
 47
0.0
 47
0.0
 47
0.0
 47
0.0208333333333333
 47
0.0
 47
0.0
 47
0.0
 47
0.0
 47
1.0
 47
0.0
 47
0.0
 47
0.0
 47
0.0
 47
1.0
171
     0
 49
0.0208333333333333
 49
0.0
 49
0.0
 49
0.0
 49
0.0
 49
0.0208333333333333
 49
0.0
 49
0.0
 49
0.0
 49
0.0
 49
1.0
 49
0.0
 49
0.0
 49
0.0
 49
0.0
 49
1.0
175
     0
142
0.0208333333333333
142
0.0
142
0.0
142
0.0
142
0.0
142
0.0208333333333333
142
0.0
142
0.0
142
0.0
142
0.0
142
1.0
142
0.0
142
0.0
142
0.0
142
0.0
142
1.0
179
     0
144
0.0208333333333333
144
0.0
144
0.0
144
0.0
144
0.0
144
0.0208333333333333
144
0.0
144
0.0
144
0.0
144
0.0
144
1.0
144
0.0
144
0.0
144
0.0
144
0.0
144
1.0
147
0.0208333333333333
147
0.0
147
0.0
147
0.0
147
0.0
147
0.0208333333333333
147
0.0
147
0.0
147
0.0
147
0.0
147
1.0
147
0.0
147
0.0
147
0.0
147
0.0
147
1.0
  0
MLEADERSTYLE
  5
66
102
{ACAD_REACTORS
330
65
102
}
330
65
100
AcDbMLeaderStyle
170
     2
171
     1
172
     0
 90
        2
 40
0.0
 41
0.0
173
     1
 91
-1056964608
340
5A
 92
       -2
290
     1
 42
0.09
291
     1
 43
0.36
  3
Standard
 44
0.18
300

342
55
174
     1
178
     6
175
     1
176
     0
 93
-1056964608
 45
0.18
292
     0
297
     0
 46
0.18
 94
-1056964608
 47
1.0
 49
1.0
140
1.0
293
     1
141
0.0
294
     1
177
     0
142
1.0
295
     0
296
     0
143
0.125
1001
ACAD_MLEADERVER
1070
     2
  0
MLINESTYLE
  5
5F
102
{ACAD_REACTORS
330
5E
102
}
330
5E
100
AcDbMlineStyle
  2
STANDARD
 70
     0
  3

 62
   256
 51
90.0
 52
90.0
 71
     2
 49
0.5
 62
   256
  6
BYLAYER
 49
-0.5
 62
   256
  6
BYLAYER
  0
ACDBPLACEHOLDER
  5
F
102
{ACAD_REACTORS
330
E
102
}
330
E
  0
SCALE
  5
43
102
{ACAD_REACTORS
330
42
102
}
330
42
100
AcDbScale
 70
     0
300
1:1
140
1.0
141
1.0
290
     1
  0
SCALE
  5
44
102
{ACAD_REACTORS
330
42
102
}
330
42
100
AcDbScale
 70
     0
300
1/128" = 1'-0"
140
0.0078125
141
12.0
290
     0
  0
SCALE
  5
45
102
{ACAD_REACTORS
330
42
102
}
330
42
100
AcDbScale
 70
     0
300
1/64" = 1'-0"
140
0.015625
141
12.0
290
     0
  0
SCALE
  5
46
102
{ACAD_REACTORS
330
42
102
}
330
42
100
AcDbScale
 70
     0
300
1/32" = 1'-0"
140
0.03125
141
12.0
290
     0
  0
SCALE
  5
47
102
{ACAD_REACTORS
330
42
102
}
330
42
100
AcDbScale
 70
     0
300
1/16" = 1'-0"
140
0.0625
141
12.0
290
     0
  0
SCALE
  5
48
102
{ACAD_REACTORS
330
42
102
}
330
42
100
AcDbScale
 70
     0
300
3/32" = 1'-0"
140
0.09375
141
12.0
290
     0
  0
SCALE
  5
49
102
{ACAD_REACTORS
330
42
102
}
330
42
100
AcDbScale
 70
     0
300
1/8" = 1'-0"
140
0.125
141
12.0
290
     0
  0
SCALE
  5
4A
102
{ACAD_REACTORS
330
42
102
}
330
42
100
AcDbScale
 70
     0
300
3/16" = 1'-0"
140
0.1875
141
12.0
290
     0
  0
SCALE
  5
4B
102
{ACAD_REACTORS
330
42
102
}
330
42
100
AcDbScale
 70
     0
300
1/4" = 1'-0"
140
0.25
141
12.0
290
     0
  0
SCALE
  5
4C
102
{ACAD_REACTORS
330
42
102
}
330
42
100
AcDbScale
 70
     0
300
3/8" = 1'-0"
140
0.375
141
12.0
290
     0
  0
SCALE
  5
4D
102
{ACAD_REACTORS
330
42
102
}
330
42
100
AcDbScale
 70
     0
300
1/2" = 1'-0"
140
0.5
141
12.0
290
     0
  0
SCALE
  5
4E
102
{ACAD_REACTORS
330
42
102
}
330
42
100
AcDbScale
 70
     0
300
3/4" = 1'-0"
140
0.75
141
12.0
290
     0
  0
SCALE
  5
4F
102
{ACAD_REACTORS
330
42
102
}
330
42
100
AcDbScale
 70
     0
300
1" = 1'-0"
140
1.0
141
12.0
290
     0
  0
SCALE
  5
50
102
{ACAD_REACTORS
330
42
102
}
330
42
100
AcDbScale
 70
     0
300
1-1/2" = 1'-0"
140
1.5
141
12.0
290
     0
  0
SCALE
  5
51
102
{ACAD_REACTORS
330
42
102
}
330
42
100
AcDbScale
 70
     0
300
3" = 1'-0"
140
3.0
141
12.0
290
     0
  0
SCALE
  5
52
102
{ACAD_REACTORS
330
42
102
}
330
42
100
AcDbScale
 70
     0
300
6" = 1'-0"
140
6.0
141
12.0
290
     0
  0
SCALE
  5
53
102
{ACAD_REACTORS
330
42
102
}
330
42
100
AcDbScale
 70
     0
300
1'-0" = 1'-0"
140
12.0
141
12.0
290
     0
  0
ACDBSECTIONVIEWSTYLE
  5
68
102
{ACAD_XDICTIONARY
360
463
102
}
102
{ACAD_REACTORS
330
67
102
}
330
67
100
AcDbModelDocViewStyle
 70
     0
  3
Imperial24
290
     0
100
AcDbSectionViewStyle
 70
     0
 71
     0
 90
       78
 71
     1
340
55
 40
0.24
340
0
340
0
 40
0.24
300
I, O, Q, S, X, Z
 40
0.48
 90
        3
 40
0.18
 90
        1
 71
     2
340
5C
 90
       25
340
5C
 90
       50
 40
0.24
 40
0.0
 40
0.24
 71
     3
340
55
 40
0.24
 90
        1
 40
0.75
 90
        1
300
%<\AcVar ViewType \f "%tc1">% %<\AcVar ViewSectionStartId>%-%<\AcVar ViewSectionEndId>%\PSCALE %<\AcVar ViewScale \f "%sn">%
 71
     4
300
ANSI31
 40
1.0
 90
        0
290
     0
290
     0
 90
        6
 40
0.0
 40
1.570796326794896
 40
0.2617993877991494
 40
1.308996938995747
 40
-0.2617993877991494
 40
1.832595714594046
  0
TABLESTYLE
  5
64
102
{ACAD_XDICTIONARY
360
42A
102
}
102
{ACAD_REACTORS
330
63
102
}
330
63
100
AcDbTableStyle
  3
Standard
 70
     0
 71
     0
 40
0.06
 41
0.06
280
     0
281
     0
  7
STANDARD
140
0.18
170
     2
 62
     0
 63
     7
283
     0
274
    -2
284
     1
 64
     0
275
    -2
285
     1
 65
     0
276
    -2
286
     1
 66
     0
277
    -2
287
     1
 67
     0
278
    -2
288
     1
 68
     0
279
    -2
289
     1
 69
     0
  7
STANDARD
140
0.25
170
     5
 62
     0
 63
     7
283
     0
274
    -2
284
     1
 64
     0
275
    -2
285
     1
 65
     0
276
    -2
286
     1
 66
     0
277
    -2
287
     1
 67
     0
278
    -2
288
     1
 68
     0
279
    -2
289
     1
 69
     0
  7
STANDARD
140
0.18
170
     5
 62
     0
 63
     7
283
     0
274
    -2
284
     1
 64
     0
275
    -2
285
     1
 65
     0
276
    -2
286
     1
 66
     0
277
    -2
287
     1
 67
     0
278
    -2
288
     1
 68
     0
279
    -2
289
     1
 69
     0
  0
VISUALSTYLE
  5
2F
102
{ACAD_XDICTIONARY
360
43B
102
}
102
{ACAD_REACTORS
330
29
102
}
330
29
100
AcDbVisualStyle
  2
2dWireframe
 70
     4
 71
     0
 72
     2
 73
     0
 90
        0
 40
-0.6
 41
-30.0
 62
     5
 63
     7
 74
     1
 91
        4
 64
     7
 65
   257
 75
     1
175
     1
 42
1.0
 92
        0
 66
   257
 43
1.0
 76
     1
 77
     6
 78
     2
 67
     7
 79
     5
170
     0
171
     0
290
     0
174
     0
 93
        1
 44
0.0
173
     0
291
     0
 45
0.0
1001
ACAD
1000
AcDbSavedByObjectVersion
1070
     0
  0
VISUALSTYLE
  5
2E
102
{ACAD_XDICTIONARY
360
439
102
}
102
{ACAD_REACTORS
330
29
102
}
330
29
100
AcDbVisualStyle
  2
Basic
 70
     7
 71
     1
 72
     0
 73
     1
 90
        0
 40
-0.6
 41
-30.0
 62
     5
 63
     7
 74
     0
 91
        4
 64
     7
 65
   257
 75
     1
175
     1
 42
1.0
 92
        8
 66
     7
 43
1.0
 76
     1
 77
     6
 78
     2
 67
     7
 79
     5
170
     0
171
     0
290
     0
174
     0
 93
        1
 44
0.0
173
     0
291
     1
 45
0.0
1001
ACAD
1000
AcDbSavedByObjectVersion
1070
     0
  0
VISUALSTYLE
  5
35
102
{ACAD_XDICTIONARY
360
447
102
}
102
{ACAD_REACTORS
330
29
102
}
330
29
100
AcDbVisualStyle
  2
Brighten
 70
    12
 71
     2
 72
     2
 73
     0
 90
        0
 40
-0.6
 41
-30.0
 62
     5
 63
     7
 74
     1
 91
        4
 64
     7
 65
   257
 75
     1
175
     1
 42
1.0
 92
        8
 66
     7
 43
1.0
 76
     1
 77
     6
 78
     2
 67
     7
 79
     5
170
     0
171
     0
290
     0
174
     0
 93
        1
 44
50.0
173
     0
291
     1
 45
0.0
1001
ACAD
1000
AcDbSavedByObjectVersion
1070
     0
  0
VISUALSTYLE
  5
39
102
{ACAD_XDICTIONARY
360
44F
102
}
102
{ACAD_REACTORS
330
29
102
}
330
29
100
AcDbVisualStyle
  2
ColorChange
 70
    16
 71
     2
 72
     2
 73
     3
 90
        0
 40
-0.6
 41
-30.0
 62
     5
 63
     8
 74
     1
 91
        4
 64
     7
 65
   257
 75
     1
175
     1
 42
1.0
 92
        8
 66
     8
 43
1.0
 76
     1
 77
     6
 78
     2
 67
     7
 79
     5
170
     0
171
     0
290
     0
174
     0
 93
        1
 44
0.0
173
     0
291
     1
 45
0.0
1001
ACAD
1000
AcDbSavedByObjectVersion
1070
     0
  0
VISUALSTYLE
  5
32
102
{ACAD_XDICTIONARY
360
441
102
}
102
{ACAD_REACTORS
330
29
102
}
330
29
100
AcDbVisualStyle
  2
Conceptual
 70
     9
 71
     3
 72
     2
 73
     0
 90
        0
 40
-0.6
 41
-30.0
 62
     5
 63
     7
 74
     2
 91
        2
 64
     7
 65
   257
 75
     1
175
     1
 42
179.0
 92
        8
 66
     7
 43
1.0
 76
     1
 77
     6
 78
     2
 67
     7
 79
     3
170
     0
171
     0
290
     0
174
     0
 93
        1
 44
0.0
173
     0
291
     0
 45
0.0
1001
ACAD
1000
AcDbSavedByObjectVersion
1070
     0
  0
VISUALSTYLE
  5
34
102
{ACAD_XDICTIONARY
360
445
102
}
102
{ACAD_REACTORS
330
29
102
}
330
29
100
AcDbVisualStyle
  2
Dim
 70
    11
 71
     2
 72
     2
 73
     0
 90
        0
 40
-0.6
 41
-30.0
 62
     5
 63
     7
 74
     1
 91
        4
 64
     7
 65
   257
 75
     1
175
     1
 42
1.0
 92
        8
 66
     7
 43
1.0
 76
     1
 77
     6
 78
     2
 67
     7
 79
     5
170
     0
171
     0
290
     0
174
     0
 93
        1
 44
-50.0
173
     0
291
     1
 45
0.0
1001
ACAD
1000
AcDbSavedByObjectVersion
1070
     0
  0
VISUALSTYLE
  5
41
102
{ACAD_XDICTIONARY
360
45F
102
}
102
{ACAD_REACTORS
330
29
102
}
330
29
100
AcDbVisualStyle
  2
EdgeColorOff
 70
    22
 71
     2
 72
     2
 73
     0
 90
        0
 40
-0.6
 41
-30.0
 62
     5
 63
     7
 74
     1
 91
        4
 64
     7
 65
   257
 75
     1
175
     1
 42
1.0
 92
        8
 66
     7
 43
1.0
 76
     1
 77
     6
 78
     2
 67
     7
 79
     5
170
     0
171
     0
290
     0
174
     0
 93
        1
 44
0.0
173
     0
291
     1
 45
0.0
1001
ACAD
1000
AcDbSavedByObjectVersion
1070
     0
  0
VISUALSTYLE
  5
38
102
{ACAD_XDICTIONARY
360
44D
102
}
102
{ACAD_REACTORS
330
29
102
}
330
29
100
AcDbVisualStyle
  2
Facepattern
 70
    15
 71
     2
 72
     2
 73
     0
 90
        0
 40
-0.6
 41
-30.0
 62
     5
 63
     7
 74
     1
 91
        4
 64
     7
 65
   257
 75
     1
175
     1
 42
1.0
 92
        8
 66
     7
 43
1.0
 76
     1
 77
     6
 78
     2
 67
     7
 79
     5
170
     0
171
     0
290
     0
174
     0
 93
        1
 44
0.0
173
     0
291
     1
 45
0.0
1001
ACAD
1000
AcDbSavedByObjectVersion
1070
     0
  0
VISUALSTYLE
  5
2A
102
{ACAD_XDICTIONARY
360
431
102
}
102
{ACAD_REACTORS
330
29
102
}
330
29
100
AcDbVisualStyle
  2
Flat
 70
     0
 71
     2
 72
     1
 73
     1
 90
        2
 40
-0.6
 41
30.0
 62
     5
 63
     7
 74
     0
 91
        0
 64
     7
 65
   257
 75
     1
175
     1
 42
1.0
 92
        8
 66
     7
 43
1.0
 76
     1
 77
     6
 78
     2
 67
     7
 79
     5
170
     0
171
     0
290
     0
174
     0
 93
       13
 44
0.0
173
     0
291
     1
 45
0.0
1001
ACAD
1000
AcDbSavedByObjectVersion
1070
     0
  0
VISUALSTYLE
  5
2B
102
{ACAD_XDICTIONARY
360
433
102
}
102
{ACAD_REACTORS
330
29
102
}
330
29
100
AcDbVisualStyle
  2
FlatWithEdges
 70
     1
 71
     2
 72
     1
 73
     1
 90
        2
 40
-0.6
 41
30.0
 62
     5
 63
     7
 74
     1
 91
        0
 64
     7
 65
   257
 75
     1
175
     1
 42
1.0
 92
        0
 66
   257
 43
1.0
 76
     1
 77
     6
 78
     2
 67
     7
 79
     5
170
     0
171
     0
290
     0
174
     0
 93
       13
 44
0.0
173
     0
291
     1
 45
0.0
1001
ACAD
1000
AcDbSavedByObjectVersion
1070
     0
  0
VISUALSTYLE
  5
2C
102
{ACAD_XDICTIONARY
360
435
102
}
102
{ACAD_REACTORS
330
29
102
}
330
29
100
AcDbVisualStyle
  2
Gouraud
 70
     2
 71
     2
 72
     2
 73
     1
 90
        2
 40
-0.6
 41
30.0
 62
     5
 63
     7
 74
     0
 91
        0
 64
     7
 65
   257
 75
     1
175
     1
 42
1.0
 92
        0
 66
     7
 43
1.0
 76
     1
 77
     6
 78
     2
 67
     7
 79
     5
170
     0
171
     0
290
     0
174
     0
 93
       13
 44
0.0
173
     0
291
     1
 45
0.0
1001
ACAD
1000
AcDbSavedByObjectVersion
1070
     0
  0
VISUALSTYLE
  5
2D
102
{ACAD_XDICTIONARY
360
437
102
}
102
{ACAD_REACTORS
330
29
102
}
330
29
100
AcDbVisualStyle
  2
GouraudWithEdges
 70
     3
 71
     2
 72
     2
 73
     1
 90
        2
 40
-0.6
 41
30.0
 62
     5
 63
     7
 74
     1
 91
        0
 64
     7
 65
   257
 75
     1
175
     1
 42
1.0
 92
        0
 66
   257
 43
1.0
 76
     1
 77
     6
 78
     2
 67
     7
 79
     5
170
     0
171
     0
290
     0
174
     0
 93
       13
 44
0.0
173
     0
291
     1
 45
0.0
1001
ACAD
1000
AcDbSavedByObjectVersion
1070
     0
  0
VISUALSTYLE
  5
31
102
{ACAD_XDICTIONARY
360
43F
102
}
102
{ACAD_REACTORS
330
29
102
}
330
29
100
AcDbVisualStyle
  2
Hidden
 70
     6
 71
     1
 72
     2
 73
     2
 90
        0
 40
-0.6
 41
-30.0
 62
     5
 63
     7
 74
     2
 91
        2
 64
     7
 65
   257
 75
     2
175
     1
 42
40.0
 92
        0
 66
   257
 43
1.0
 76
     1
 77
     6
 78
     2
 67
     7
 79
     3
170
     0
171
     0
290
     0
174
     0
 93
        1
 44
0.0
173
     0
291
     0
 45
0.0
1001
ACAD
1000
AcDbSavedByObjectVersion
1070
     0
  0
VISUALSTYLE
  5
3F
102
{ACAD_XDICTIONARY
360
45B
102
}
102
{ACAD_REACTORS
330
29
102
}
330
29
100
AcDbVisualStyle
  2
JitterOff
 70
    20
 71
     2
 72
     2
 73
     0
 90
        0
 40
-0.6
 41
-30.0
 62
     5
 63
     7
 74
     1
 91
        4
 64
     7
 65
   257
 75
     1
175
     1
 42
1.0
 92
       10
 66
     7
 43
1.0
 76
     1
 77
     6
 78
     2
 67
     7
 79
     5
170
     0
171
     0
290
     0
174
     0
 93
        1
 44
0.0
173
     0
291
     1
 45
0.0
1001
ACAD
1000
AcDbSavedByObjectVersion
1070
     0
  0
VISUALSTYLE
  5
37
102
{ACAD_XDICTIONARY
360
44B
102
}
102
{ACAD_REACTORS
330
29
102
}
330
29
100
AcDbVisualStyle
  2
Linepattern
 70
    14
 71
     2
 72
     2
 73
     0
 90
        0
 40
-0.6
 41
-30.0
 62
     5
 63
     7
 74
     1
 91
        4
 64
     7
 65
   257
 75
     7
175
     7
 42
1.0
 92
        8
 66
     7
 43
1.0
 76
     1
 77
     6
 78
     2
 67
     7
 79
     5
170
     0
171
     0
290
     0
174
     0
 93
        1
 44
0.0
173
     0
291
     1
 45
0.0
1001
ACAD
1000
AcDbSavedByObjectVersion
1070
     0
  0
VISUALSTYLE
  5
40
102
{ACAD_XDICTIONARY
360
45D
102
}
102
{ACAD_REACTORS
330
29
102
}
330
29
100
AcDbVisualStyle
  2
OverhangOff
 70
    21
 71
     2
 72
     2
 73
     0
 90
        0
 40
-0.6
 41
-30.0
 62
     5
 63
     7
 74
     1
 91
        4
 64
     7
 65
   257
 75
     1
175
     1
 42
1.0
 92
        9
 66
     7
 43
1.0
 76
     1
 77
     6
 78
     2
 67
     7
 79
     5
170
     0
171
     0
290
     0
174
     0
 93
        1
 44
0.0
173
     0
291
     1
 45
0.0
1001
ACAD
1000
AcDbSavedByObjectVersion
1070
     0
  0
VISUALSTYLE
  5
33
102
{ACAD_XDICTIONARY
360
443
102
}
102
{ACAD_REACTORS
330
29
102
}
330
29
100
AcDbVisualStyle
  2
Realistic
 70
     8
 71
     2
 72
     3
 73
     0
 90
        2
 40
-0.6
 41
30.0
 62
     5
 63
     7
 74
     0
 91
        0
 64
     7
 65
   257
 75
     1
175
     1
 42
1.0
 92
        8
 66
   257
 43
1.0
 76
     1
 77
     6
 78
     2
 67
     7
 79
     3
170
     0
171
     0
290
     0
174
     0
 93
       13
 44
0.0
173
     0
291
     0
 45
0.0
1001
ACAD
1000
AcDbSavedByObjectVersion
1070
     0
  0
VISUALSTYLE
  5
3E
102
{ACAD_XDICTIONARY
360
459
102
}
102
{ACAD_REACTORS
330
29
102
}
330
29
100
AcDbVisualStyle
  2
Shaded
 70
    27
 71
     2
 72
     2
 73
     1
 90
        2
 40
-0.6
 41
30.0
 62
     5
 63
     7
 74
     0
 91
        4
 64
     7
 65
   257
 75
     1
175
     1
 42
1.0
 92
        8
 66
   257
 43
1.0
 76
     1
 77
     6
 78
     2
 67
     8
 79
     3
170
     0
171
     0
290
     0
174
     0
 93
        5
 44
0.0
173
     0
291
     0
 45
0.0
1001
ACAD
1000
AcDbSavedByObjectVersion
1070
     0
  0
VISUALSTYLE
  5
3D
102
{ACAD_XDICTIONARY
360
457
102
}
102
{ACAD_REACTORS
330
29
102
}
330
29
100
AcDbVisualStyle
  2
Shaded with edges
 70
    26
 71
     2
 72
     2
 73
     1
 90
        2
 40
-0.6
 41
30.0
 62
     5
 63
     7
 74
     1
 91
        2
 64
     7
 65
   257
 75
     2
175
     1
 42
1.0
 92
        8
 66
   257
 43
1.0
 76
     1
 77
     6
 78
     2
 67
     7
 79
     3
170
     0
171
     0
290
     0
174
     0
 93
        5
 44
0.0
173
     0
291
     0
 45
0.0
1001
ACAD
1000
AcDbSavedByObjectVersion
1070
     0
  0
VISUALSTYLE
  5
3A
102
{ACAD_XDICTIONARY
360
451
102
}
102
{ACAD_REACTORS
330
29
102
}
330
29
100
AcDbVisualStyle
  2
Shades of Gray
 70
    23
 71
     2
 72
     2
 73
     3
 90
        0
 40
-0.6
 41
-30.0
 62
     5
 63
     7
 74
     2
 91
        2
 64
     7
 65
     7
 75
     1
175
     1
 42
40.0
 92
        8
 66
     7
 43
1.0
 76
     1
 77
     6
 78
     2
 67
     7
 79
     3
170
     0
171
     0
290
     0
174
     0
 93
        1
 44
0.0
173
     0
291
     0
 45
0.0
1001
ACAD
1000
AcDbSavedByObjectVersion
1070
     0
  0
VISUALSTYLE
  5
3B
102
{ACAD_XDICTIONARY
360
453
102
}
102
{ACAD_REACTORS
330
29
102
}
330
29
100
AcDbVisualStyle
  2
Sketchy
 70
    24
 71
     1
 72
     2
 73
     2
 90
        0
 40
-0.6
 41
-30.0
 62
     5
 63
     7
 74
     2
 91
        2
 64
     7
 65
     7
 75
     1
175
     1
 42
40.0
 92
       11
 66
     7
 43
1.0
 76
     1
 77
     6
 78
     2
 67
     7
 79
     6
170
     0
171
     0
290
     0
174
     0
 93
        1
 44
0.0
173
     0
291
     0
 45
0.0
1001
ACAD
1000
AcDbSavedByObjectVersion
1070
     0
  0
VISUALSTYLE
  5
36
102
{ACAD_XDICTIONARY
360
449
102
}
102
{ACAD_REACTORS
330
29
102
}
330
29
100
AcDbVisualStyle
  2
Thicken
 70
    13
 71
     2
 72
     2
 73
     0
 90
        0
 40
-0.6
 41
-30.0
 62
     5
 63
     7
 74
     1
 91
        4
 64
     7
 65
   257
 75
     1
175
     1
 42
1.0
 92
       12
 66
     7
 43
1.0
 76
     1
 77
     6
 78
     2
 67
     7
 79
     5
170
     0
171
     0
290
     0
174
     0
 93
        1
 44
0.0
173
     0
291
     1
 45
0.0
1001
ACAD
1000
AcDbSavedByObjectVersion
1070
     0
  0
VISUALSTYLE
  5
30
102
{ACAD_XDICTIONARY
360
43D
102
}
102
{ACAD_REACTORS
330
29
102
}
330
29
100
AcDbVisualStyle
  2
Wireframe
 70
     5
 71
     0
 72
     2
 73
     0
 90
        0
 40
-0.6
 41
-30.0
 62
     5
 63
     7
 74
     1
 91
        4
 64
     7
 65
   257
 75
     1
175
     1
 42
1.0
 92
        0
 66
   257
 43
1.0
 76
     1
 77
     6
 78
     2
 67
     7
 79
     3
170
     0
171
     0
290
     0
174
     0
 93
        1
 44
0.0
173
     0
291
     0
 45
0.0
1001
ACAD
1000
AcDbSavedByObjectVersion
1070
     0
  0
VISUALSTYLE
  5
3C
102
{ACAD_XDICTIONARY
360
455
102
}
102
{ACAD_REACTORS
330
29
102
}
330
29
100
AcDbVisualStyle
  2
X-Ray
 70
    25
 71
     2
 72
     2
 73
     1
 90
        1
 40
0.5
 41
-30.0
 62
     5
 63
     7
 74
     1
 91
        0
 64
     7
 65
   257
 75
     1
175
     1
 42
1.0
 92
        8
 66
     7
 43
1.0
 76
     1
 77
     6
 78
     2
 67
     7
 79
     3
170
     0
171
     0
290
     0
174
     0
 93
       13
 44
0.0
173
     0
291
     0
 45
0.0
1001
ACAD
1000
AcDbSavedByObjectVersion
1070
     0
  0
DICTIONARYVAR
  5
424
102
{ACAD_REACTORS
330
41F
102
}
330
41F
100
DictionaryVariables
280
     0
  1
1:1
  0
DICTIONARYVAR
  5
421
102
{ACAD_REACTORS
330
41F
102
}
330
41F
100
DictionaryVariables
280
     0
  1
STANDARD
  0
DICTIONARYVAR
  5
420
102
{ACAD_REACTORS
330
41F
102
}
330
41F
100
DictionaryVariables
280
     0
  1
STANDARD
  0
DICTIONARYVAR
  5
422
102
{ACAD_REACTORS
330
41F
102
}
330
41F
100
DictionaryVariables
280
     0
  1
Imperial24
  0
DICTIONARYVAR
  5
423
102
{ACAD_REACTORS
330
41F
102
}
330
41F
100
DictionaryVariables
280
     0
  1
Imperial24
  0
DICTIONARYVAR
  5
427
102
{ACAD_REACTORS
330
41F
102
}
330
41F
100
DictionaryVariables
280
     0
  1
1
  0
DICTIONARYVAR
  5
426
102
{ACAD_REACTORS
330
41F
102
}
330
41F
100
DictionaryVariables
280
     0
  1
0
  0
DICTIONARYVAR
  5
425
102
{ACAD_REACTORS
330
41F
102
}
330
41F
100
DictionaryVariables
280
     0
  1
127
  0
DICTIONARYVAR
  5
428
102
{ACAD_REACTORS
330
41F
102
}
330
41F
100
DictionaryVariables
280
     0
  1
2
  0
DICTIONARY
  5
465
330
6A
100
AcDbDictionary
280
     1
281
     1
  3
ACAD_XREC_ROUNDTRIP
360
466
  0
DICTIONARY
  5
469
330
72
100
AcDbDictionary
280
     1
281
     1
  3
ACAD_XREC_ROUNDTRIP
360
46A
  0
DICTIONARY
  5
467
330
6E
100
AcDbDictionary
280
     1
281
     1
  3
ACAD_XREC_ROUNDTRIP
360
468
  0
DICTIONARY
  5
1A
330
19
100
AcDbDictionary
280
     1
281
     1
  3
ACAD_XREC_ROUNDTRIP
360
42F
  3
BUMPTILE
360
1C
  3
DIFFUSETILE
360
1B
  3
OPACITYTILE
360
1F
  3
REFLECTIONTILE
360
1E
  3
REFRACTIONTILE
360
20
  3
SPECULARTILE
360
1D
  0
DICTIONARY
  5
12
330
11
100
AcDbDictionary
280
     1
281
     1
  3
ACAD_XREC_ROUNDTRIP
360
42E
  3
BUMPTILE
360
14
  3
DIFFUSETILE
360
13
  3
OPACITYTILE
360
17
  3
REFLECTIONTILE
360
16
  3
REFRACTIONTILE
360
18
  3
SPECULARTILE
360
15
  0
DICTIONARY
  5
22
330
21
100
AcDbDictionary
280
     1
281
     1
  3
ACAD_XREC_ROUNDTRIP
360
430
  3
BUMPTILE
360
24
  3
DIFFUSETILE
360
23
  3
OPACITYTILE
360
27
  3
REFLECTIONTILE
360
26
  3
REFRACTIONTILE
360
28
  3
SPECULARTILE
360
25
  0
DICTIONARY
  5
463
330
68
100
AcDbDictionary
280
     1
281
     1
  3
ACAD_XREC_ROUNDTRIP
360
464
  0
DICTIONARY
  5
42A
330
64
100
AcDbDictionary
280
     1
281
     1
  3
ACAD_ROUNDTRIP_2008_TABLESTYLE_CELLSTYLEMAP
360
42B
  3
ACAD_XREC_ROUNDTRIP
360
461
  0
DICTIONARY
  5
43B
330
2F
100
AcDbDictionary
280
     1
281
     1
  3
ACAD_XREC_ROUNDTRIP
360
43C
  0
DICTIONARY
  5
439
330
2E
100
AcDbDictionary
280
     1
281
     1
  3
ACAD_XREC_ROUNDTRIP
360
43A
  0
DICTIONARY
  5
447
330
35
100
AcDbDictionary
280
     1
281
     1
  3
ACAD_XREC_ROUNDTRIP
360
448
  0
DICTIONARY
  5
44F
330
39
100
AcDbDictionary
280
     1
281
     1
  3
ACAD_XREC_ROUNDTRIP
360
450
  0
DICTIONARY
  5
441
330
32
100
AcDbDictionary
280
     1
281
     1
  3
ACAD_XREC_ROUNDTRIP
360
442
  0
DICTIONARY
  5
445
330
34
100
AcDbDictionary
280
     1
281
     1
  3
ACAD_XREC_ROUNDTRIP
360
446
  0
DICTIONARY
  5
45F
330
41
100
AcDbDictionary
280
     1
281
     1
  3
ACAD_XREC_ROUNDTRIP
360
460
  0
DICTIONARY
  5
44D
330
38
100
AcDbDictionary
280
     1
281
     1
  3
ACAD_XREC_ROUNDTRIP
360
44E
  0
DICTIONARY
  5
431
330
2A
100
AcDbDictionary
280
     1
281
     1
  3
ACAD_XREC_ROUNDTRIP
360
432
  0
DICTIONARY
  5
433
330
2B
100
AcDbDictionary
280
     1
281
     1
  3
ACAD_XREC_ROUNDTRIP
360
434
  0
DICTIONARY
  5
435
330
2C
100
AcDbDictionary
280
     1
281
     1
  3
ACAD_XREC_ROUNDTRIP
360
436
  0
DICTIONARY
  5
437
330
2D
100
AcDbDictionary
280
     1
281
     1
  3
ACAD_XREC_ROUNDTRIP
360
438
  0
DICTIONARY
  5
43F
330
31
100
AcDbDictionary
280
     1
281
     1
  3
ACAD_XREC_ROUNDTRIP
360
440
  0
DICTIONARY
  5
45B
330
3F
100
AcDbDictionary
280
     1
281
     1
  3
ACAD_XREC_ROUNDTRIP
360
45C
  0
DICTIONARY
  5
44B
330
37
100
AcDbDictionary
280
     1
281
     1
  3
ACAD_XREC_ROUNDTRIP
360
44C
  0
DICTIONARY
  5
45D
330
40
100
AcDbDictionary
280
     1
281
     1
  3
ACAD_XREC_ROUNDTRIP
360
45E
  0
DICTIONARY
  5
443
330
33
100
AcDbDictionary
280
     1
281
     1
  3
ACAD_XREC_ROUNDTRIP
360
444
  0
DICTIONARY
  5
459
330
3E
100
AcDbDictionary
280
     1
281
     1
  3
ACAD_XREC_ROUNDTRIP
360
45A
  0
DICTIONARY
  5
457
330
3D
100
AcDbDictionary
280
     1
281
     1
  3
ACAD_XREC_ROUNDTRIP
360
458
  0
DICTIONARY
  5
451
330
3A
100
AcDbDictionary
280
     1
281
     1
  3
ACAD_XREC_ROUNDTRIP
360
452
  0
DICTIONARY
  5
453
330
3B
100
AcDbDictionary
280
     1
281
     1
  3
ACAD_XREC_ROUNDTRIP
360
454
  0
DICTIONARY
  5
449
330
36
100
AcDbDictionary
280
     1
281
     1
  3
ACAD_XREC_ROUNDTRIP
360
44A
  0
DICTIONARY
  5
43D
330
30
100
AcDbDictionary
280
     1
281
     1
  3
ACAD_XREC_ROUNDTRIP
360
43E
  0
DICTIONARY
  5
455
330
3C
100
AcDbDictionary
280
     1
281
     1
  3
ACAD_XREC_ROUNDTRIP
360
456
  0
XRECORD
  5
466
102
{ACAD_REACTORS
330
465
102
}
330
465
100
AcDbXrecord
280
     1
102
DISPLAYNAME
  1
Imperial24
102
FLAGS
 90
        0
  0
XRECORD
  5
46A
102
{ACAD_REACTORS
330
469
102
}
330
469
100
AcDbXrecord
280
     1
102
SHADEPLOT
 70
     0
102
SHADEPLOTRESLEVEL
 70
     2
102
SHADEPLOTCUSTOMDPI
 70
   300
  0
XRECORD
  5
468
102
{ACAD_REACTORS
330
467
102
}
330
467
100
AcDbXrecord
280
     1
102
SHADEPLOT
 70
     0
102
SHADEPLOTRESLEVEL
 70
     2
102
SHADEPLOTCUSTOMDPI
 70
   300
  0
XRECORD
  5
42F
102
{ACAD_REACTORS
330
1A
102
}
330
1A
100
AcDbXrecord
280
     1
102
MATERIAL
148
0.0
149
0.0
149
0.0
 93
        0
 94
      127
282
     0
 72
     0
 77
     0
171
     0
175
     0
179
     0
273
     0
  0
XRECORD
  5
1C
102
{ACAD_REACTORS
330
1A
102
}
330
1A
100
AcDbXrecord
280
     1
270
     1
271
     1
  0
XRECORD
  5
1B
102
{ACAD_REACTORS
330
1A
102
}
330
1A
100
AcDbXrecord
280
     1
270
     1
271
     1
  0
XRECORD
  5
1F
102
{ACAD_REACTORS
330
1A
102
}
330
1A
100
AcDbXrecord
280
     1
270
     1
271
     1
  0
XRECORD
  5
1E
102
{ACAD_REACTORS
330
1A
102
}
330
1A
100
AcDbXrecord
280
     1
270
     1
271
     1
  0
XRECORD
  5
20
102
{ACAD_REACTORS
330
1A
102
}
330
1A
100
AcDbXrecord
280
     1
270
     1
271
     1
  0
XRECORD
  5
1D
102
{ACAD_REACTORS
330
1A
102
}
330
1A
100
AcDbXrecord
280
     1
270
     1
271
     1
  0
XRECORD
  5
42E
102
{ACAD_REACTORS
330
12
102
}
330
12
100
AcDbXrecord
280
     1
102
MATERIAL
148
0.0
149
0.0
149
0.0
 93
        0
 94
      127
282
     0
 72
     0
 77
     0
171
     0
175
     0
179
     0
273
     0
  0
XRECORD
  5
14
102
{ACAD_REACTORS
330
12
102
}
330
12
100
AcDbXrecord
280
     1
270
     1
271
     1
  0
XRECORD
  5
13
102
{ACAD_REACTORS
330
12
102
}
330
12
100
AcDbXrecord
280
     1
270
     1
271
     1
  0
XRECORD
  5
17
102
{ACAD_REACTORS
330
12
102
}
330
12
100
AcDbXrecord
280
     1
270
     1
271
     1
  0
XRECORD
  5
16
102
{ACAD_REACTORS
330
12
102
}
330
12
100
AcDbXrecord
280
     1
270
     1
271
     1
  0
XRECORD
  5
18
102
{ACAD_REACTORS
330
12
102
}
330
12
100
AcDbXrecord
280
     1
270
     1
271
     1
  0
XRECORD
  5
15
102
{ACAD_REACTORS
330
12
102
}
330
12
100
AcDbXrecord
280
     1
270
     1
271
     1
  0
XRECORD
  5
430
102
{ACAD_REACTORS
330
22
102
}
330
22
100
AcDbXrecord
280
     1
102
MATERIAL
148
0.0
149
0.0
149
0.0
 93
        0
 94
      127
282
     0
 72
     0
 77
     0
171
     0
175
     0
179
     0
273
     0
  0
XRECORD
  5
24
102
{ACAD_REACTORS
330
22
102
}
330
22
100
AcDbXrecord
280
     1
270
     1
271
     1
  0
XRECORD
  5
23
102
{ACAD_REACTORS
330
22
102
}
330
22
100
AcDbXrecord
280
     1
270
     1
271
     1
  0
XRECORD
  5
27
102
{ACAD_REACTORS
330
22
102
}
330
22
100
AcDbXrecord
280
     1
270
     1
271
     1
  0
XRECORD
  5
26
102
{ACAD_REACTORS
330
22
102
}
330
22
100
AcDbXrecord
280
     1
270
     1
271
     1
  0
XRECORD
  5
28
102
{ACAD_REACTORS
330
22
102
}
330
22
100
AcDbXrecord
280
     1
270
     1
271
     1
  0
XRECORD
  5
25
102
{ACAD_REACTORS
330
22
102
}
330
22
100
AcDbXrecord
280
     1
270
     1
271
     1
  0
XRECORD
  5
464
102
{ACAD_REACTORS
330
463
102
}
330
463
100
AcDbXrecord
280
     1
102
DISPLAYNAME
  1
Imperial24
102
FLAGS
 90
        0
  0
CELLSTYLEMAP
  5
42B
102
{ACAD_REACTORS
330
42A
102
}
330
42A
100
AcDbCellStyleMap
 90
        3
300
CELLSTYLE
  1
TABLEFORMAT_BEGIN
 90
        5
170
     1
 91
        0
 92
    32768
 62
   257
 93
        1
300
CONTENTFORMAT
  1
CONTENTFORMAT_BEGIN
 90
        0
 91
        0
 92
      512
 93
        0
300

 40
0.0
140
1.0
 94
        5
 62
     0
340
55
144
0.25
309
CONTENTFORMAT_END
171
     0
 94
        0
309
TABLEFORMAT_END
  1
CELLSTYLE_BEGIN
 90
        1
 91
        1
300
_TITLE
309
CELLSTYLE_END
300
CELLSTYLE
  1
TABLEFORMAT_BEGIN
 90
        5
170
     1
 91
        0
 92
        0
 62
   257
 93
        1
300
CONTENTFORMAT
  1
CONTENTFORMAT_BEGIN
 90
        0
 91
        0
 92
      512
 93
        0
300

 40
0.0
140
1.0
 94
        5
 62
     0
340
55
144
0.18
309
CONTENTFORMAT_END
171
     0
 94
        0
309
TABLEFORMAT_END
  1
CELLSTYLE_BEGIN
 90
        2
 91
        1
300
_HEADER
309
CELLSTYLE_END
300
CELLSTYLE
  1
TABLEFORMAT_BEGIN
 90
        5
170
     1
 91
        0
 92
        0
 62
   257
 93
        1
300
CONTENTFORMAT
  1
CONTENTFORMAT_BEGIN
 90
        0
 91
        0
 92
      512
 93
        0
300

 40
0.0
140
1.0
 94
        2
 62
     0
340
55
144
0.18
309
CONTENTFORMAT_END
171
     0
 94
        0
309
TABLEFORMAT_END
  1
CELLSTYLE_BEGIN
 90
        3
 91
        2
300
_DATA
309
CELLSTYLE_END
  0
XRECORD
  5
461
102
{ACAD_REACTORS
330
42A
102
}
330
42A
100
AcDbXrecord
280
     1
102
ACAD_ROUNDTRIP_PRE2007_TABLESTYLE
 90
      512
 91
        0
  1

 92
      512
 93
        0
  2

 94
      512
 95
        0
  3

  0
XRECORD
  5
43C
102
{ACAD_REACTORS
330
43B
102
}
330
43B
100
AcDbXrecord
280
     1
102
RTVSPost2010Prop28
280
     1
102
RTVSPost2010PropOp28
 70
     1
102
RTVSPost2010Prop29
280
     1
102
RTVSPost2010PropOp29
 70
     1
102
RTVSPost2010Prop30
280
     0
102
RTVSPost2010PropOp30
 70
     1
102
RTVSPost2010Prop31
280
     0
102
RTVSPost2010PropOp31
 70
     1
102
RTVSPost2010Prop32
280
     0
102
RTVSPost2010PropOp32
 70
     1
102
RTVSPost2010Prop33
280
     0
102
RTVSPost2010PropOp33
 70
     1
102
RTVSPost2010Prop34
280
     0
102
RTVSPost2010PropOp34
 70
     1
102
RTVSPost2010Prop35
280
     0
102
RTVSPost2010PropOp35
 70
     1
102
RTVSPost2010Prop36
280
     0
102
RTVSPost2010PropOp36
 70
     1
102
RTVSPost2010Prop37
 90
       50
102
RTVSPost2010PropOp37
 70
     1
102
RTVSPost2010Prop38
140
0.0
102
RTVSPost2010PropOp38
 70
     1
102
RTVSPost2010Prop39
140
1.0
102
RTVSPost2010PropOp39
 70
     1
102
RTVSPost2010Prop40
 90
        0
102
RTVSPost2010PropOp40
 70
     1
102
RTVSPost2010Prop41ColorIndex
 90
       18
102
RTVSPost2010Prop41ColorRGB
 90
        0
102
RTVSPost2010PropOp41
 70
     1
102
RTVSPost2010Prop42
 90
       50
102
RTVSPost2010PropOp42
 70
     1
102
RTVSPost2010Prop43
 90
        3
102
RTVSPost2010PropOp43
 70
     1
102
RTVSPost2010Prop44ColorIndex
 90
        5
102
RTVSPost2010Prop44ColorRGB
 90
      255
102
RTVSPost2010PropOp44
 70
     1
102
RTVSPost2010Prop45
280
     0
102
RTVSPost2010PropOp45
 70
     1
102
RTVSPost2010Prop46
 90
       50
102
RTVSPost2010PropOp46
 70
     1
102
RTVSPost2010Prop47
 90
       50
102
RTVSPost2010PropOp47
 70
     1
102
RTVSPost2010Prop48
 90
       50
102
RTVSPost2010PropOp48
 70
     1
102
RTVSPost2010Prop49
280
     0
102
RTVSPost2010PropOp49
 70
     1
102
RTVSPost2010Prop50
 90
       50
102
RTVSPost2010PropOp50
 70
     1
102
RTVSPost2010Prop51ColorIndex
 90
      256
102
RTVSPost2010Prop51ColorRGB
 90
-16777216
102
RTVSPost2010PropOp51
 70
     0
102
RTVSPost2010Prop52
140
1.0
102
RTVSPost2010PropOp52
 70
     0
102
RTVSPost2010Prop53
 90
        2
102
RTVSPost2010PropOp53
 70
     1
102
RTVSPost2010Prop54
  1
strokes_ogs.tif
102
RTVSPost2010PropOp54
 70
     1
102
RTVSPost2010Prop55
280
     0
102
RTVSPost2010PropOp55
 70
     1
102
RTVSPost2010Prop56
140
1.0
102
RTVSPost2010PropOp56
 70
     1
102
RTVSPost2010Prop57
140
1.0
102
RTVSPost2010PropOp57
 70
     1
102
RTVSPropertyOp0
 70
     1
102
RTVSPropertyOp1
 70
     1
102
RTVSPropertyOp2
 70
     1
102
RTVSPropertyOp3
 70
     1
102
RTVSPropertyOp4
 70
     1
102
RTVSPropertyOp5
 70
     1
102
RTVSPropertyOp6
 70
     1
102
RTVSPropertyOp7
 70
     1
102
RTVSPropertyOp8
 70
     1
102
RTVSPropertyOp9
 70
     1
102
RTVSPropertyOp10
 70
     1
102
RTVSPropertyOp11
 70
     1
102
RTVSPropertyOp12
 70
     1
102
RTVSPropertyOp13
 70
     1
102
RTVSPropertyOp14
 70
     1
102
RTVSPropertyOp15
 70
     1
102
RTVSPropertyOp16
 70
     1
102
RTVSPropertyOp17
 70
     1
102
RTVSPropertyOp18
 70
     1
102
RTVSPropertyOp19
 70
     1
102
RTVSPropertyOp20
 70
     1
102
RTVSPropertyOp21
 70
     1
102
RTVSPropertyOp22
 70
     1
102
RTVSPropertyOp23
 70
     1
102
RTVSPropertyOp24
 70
     1
102
RTVSPropertyOp25
 70
     1
102
RTVSPropertyOp26
 70
     1
102
RTVSPropertyOp27
 70
     1
102
RTVSPropertyOp28
 70
     1
102
RTVSPropertyOp29
 70
     1
102
RTVSPropertyOp30
 70
     1
102
RTVSPropertyOp31
 70
     1
102
RTVSPropertyOp32
 70
     1
102
RTVSPropertyOp33
 70
     1
102
RTVSPropertyOp34
 70
     1
102
RTVSPropertyOp35
 70
     1
102
RTVSPropertyOp36
 70
     1
102
RTVSPropertyOp37
 70
     1
102
RTVSPropertyOp38
 70
     1
102
RTVSPropertyOp39
 70
     1
102
RTVSPropertyOp40
 70
     1
102
RTVSPropertyOp41
 70
     1
102
RTVSPropertyOp42
 70
     1
102
RTVSPropertyOp43
 70
     1
102
RTVSPropertyOp44
 70
     1
102
RTVSPropertyOp45
 70
     1
102
RTVSPropertyOp46
 70
     1
102
RTVSPropertyOp47
 70
     1
102
RTVSPropertyOp48
 70
     1
102
RTVSPropertyOp49
 70
     1
102
RTVSPropertyOp50
 70
     1
102
RTVSPropertyOp51
 70
     0
102
RTVSPropertyOp52
 70
     0
102
RTVSPropertyOp53
 70
     1
102
RTVSPropertyOp54
 70
     1
102
RTVSPropertyOp55
 70
     1
102
RTVSPropertyOp56
 70
     1
102
RTVSPropertyOp57
 70
     1
102
RTVSPropertyOp58
 70
     1
102
RTVSPropertyOp59
 70
     1
102
RTVSPropertyOp60
 70
     1
102
RTVSPropertyOp61
 70
     1
102
RTVSPropertyOp62
 70
     1
  0
XRECORD
  5
43A
102
{ACAD_REACTORS
330
439
102
}
330
439
100
AcDbXrecord
280
     1
102
RTVSPost2010Prop28
280
     0
102
RTVSPost2010PropOp28
 70
     1
102
RTVSPost2010Prop29
280
     1
102
RTVSPost2010PropOp29
 70
     1
102
RTVSPost2010Prop30
280
     1
102
RTVSPost2010PropOp30
 70
     1
102
RTVSPost2010Prop31
280
     0
102
RTVSPost2010PropOp31
 70
     1
102
RTVSPost2010Prop32
280
     0
102
RTVSPost2010PropOp32
 70
     1
102
RTVSPost2010Prop33
280
     0
102
RTVSPost2010PropOp33
 70
     1
102
RTVSPost2010Prop34
280
     0
102
RTVSPost2010PropOp34
 70
     1
102
RTVSPost2010Prop35
280
     0
102
RTVSPost2010PropOp35
 70
     1
102
RTVSPost2010Prop36
280
     0
102
RTVSPost2010PropOp36
 70
     1
102
RTVSPost2010Prop37
 90
       50
102
RTVSPost2010PropOp37
 70
     1
102
RTVSPost2010Prop38
140
0.0
102
RTVSPost2010PropOp38
 70
     1
102
RTVSPost2010Prop39
140
1.0
102
RTVSPost2010PropOp39
 70
     1
102
RTVSPost2010Prop40
 90
        0
102
RTVSPost2010PropOp40
 70
     1
102
RTVSPost2010Prop41ColorIndex
 90
       18
102
RTVSPost2010Prop41ColorRGB
 90
        0
102
RTVSPost2010PropOp41
 70
     1
102
RTVSPost2010Prop42
 90
       50
102
RTVSPost2010PropOp42
 70
     1
102
RTVSPost2010Prop43
 90
        3
102
RTVSPost2010PropOp43
 70
     1
102
RTVSPost2010Prop44ColorIndex
 90
        5
102
RTVSPost2010Prop44ColorRGB
 90
      255
102
RTVSPost2010PropOp44
 70
     1
102
RTVSPost2010Prop45
280
     0
102
RTVSPost2010PropOp45
 70
     1
102
RTVSPost2010Prop46
 90
       50
102
RTVSPost2010PropOp46
 70
     1
102
RTVSPost2010Prop47
 90
       50
102
RTVSPost2010PropOp47
 70
     1
102
RTVSPost2010Prop48
 90
       50
102
RTVSPost2010PropOp48
 70
     1
102
RTVSPost2010Prop49
280
     0
102
RTVSPost2010PropOp49
 70
     1
102
RTVSPost2010Prop50
 90
       50
102
RTVSPost2010PropOp50
 70
     1
102
RTVSPost2010Prop51ColorIndex
 90
      256
102
RTVSPost2010Prop51ColorRGB
 90
-16777216
102
RTVSPost2010PropOp51
 70
     0
102
RTVSPost2010Prop52
140
1.0
102
RTVSPost2010PropOp52
 70
     0
102
RTVSPost2010Prop53
 90
        2
102
RTVSPost2010PropOp53
 70
     1
102
RTVSPost2010Prop54
  1
strokes_ogs.tif
102
RTVSPost2010PropOp54
 70
     1
102
RTVSPost2010Prop55
280
     0
102
RTVSPost2010PropOp55
 70
     1
102
RTVSPost2010Prop56
140
1.0
102
RTVSPost2010PropOp56
 70
     1
102
RTVSPost2010Prop57
140
1.0
102
RTVSPost2010PropOp57
 70
     1
102
RTVSPropertyOp0
 70
     1
102
RTVSPropertyOp1
 70
     1
102
RTVSPropertyOp2
 70
     1
102
RTVSPropertyOp3
 70
     1
102
RTVSPropertyOp4
 70
     1
102
RTVSPropertyOp5
 70
     1
102
RTVSPropertyOp6
 70
     1
102
RTVSPropertyOp7
 70
     1
102
RTVSPropertyOp8
 70
     1
102
RTVSPropertyOp9
 70
     1
102
RTVSPropertyOp10
 70
     1
102
RTVSPropertyOp11
 70
     1
102
RTVSPropertyOp12
 70
     1
102
RTVSPropertyOp13
 70
     1
102
RTVSPropertyOp14
 70
     1
102
RTVSPropertyOp15
 70
     1
102
RTVSPropertyOp16
 70
     1
102
RTVSPropertyOp17
 70
     1
102
RTVSPropertyOp18
 70
     1
102
RTVSPropertyOp19
 70
     1
102
RTVSPropertyOp20
 70
     1
102
RTVSPropertyOp21
 70
     1
102
RTVSPropertyOp22
 70
     1
102
RTVSPropertyOp23
 70
     1
102
RTVSPropertyOp24
 70
     1
102
RTVSPropertyOp25
 70
     1
102
RTVSPropertyOp26
 70
     1
102
RTVSPropertyOp27
 70
     1
102
RTVSPropertyOp28
 70
     1
102
RTVSPropertyOp29
 70
     1
102
RTVSPropertyOp30
 70
     1
102
RTVSPropertyOp31
 70
     1
102
RTVSPropertyOp32
 70
     1
102
RTVSPropertyOp33
 70
     1
102
RTVSPropertyOp34
 70
     1
102
RTVSPropertyOp35
 70
     1
102
RTVSPropertyOp36
 70
     1
102
RTVSPropertyOp37
 70
     1
102
RTVSPropertyOp38
 70
     1
102
RTVSPropertyOp39
 70
     1
102
RTVSPropertyOp40
 70
     1
102
RTVSPropertyOp41
 70
     1
102
RTVSPropertyOp42
 70
     1
102
RTVSPropertyOp43
 70
     1
102
RTVSPropertyOp44
 70
     1
102
RTVSPropertyOp45
 70
     1
102
RTVSPropertyOp46
 70
     1
102
RTVSPropertyOp47
 70
     1
102
RTVSPropertyOp48
 70
     1
102
RTVSPropertyOp49
 70
     1
102
RTVSPropertyOp50
 70
     1
102
RTVSPropertyOp51
 70
     0
102
RTVSPropertyOp52
 70
     0
102
RTVSPropertyOp53
 70
     1
102
RTVSPropertyOp54
 70
     1
102
RTVSPropertyOp55
 70
     1
102
RTVSPropertyOp56
 70
     1
102
RTVSPropertyOp57
 70
     1
102
RTVSPropertyOp58
 70
     1
102
RTVSPropertyOp59
 70
     1
102
RTVSPropertyOp60
 70
     1
102
RTVSPropertyOp61
 70
     1
102
RTVSPropertyOp62
 70
     1
  0
XRECORD
  5
448
102
{ACAD_REACTORS
330
447
102
}
330
447
100
AcDbXrecord
280
     1
102
RTVSPost2010Prop28
280
     0
102
RTVSPost2010PropOp28
 70
     1
102
RTVSPost2010Prop29
280
     1
102
RTVSPost2010PropOp29
 70
     1
102
RTVSPost2010Prop30
280
     1
102
RTVSPost2010PropOp30
 70
     1
102
RTVSPost2010Prop31
280
     0
102
RTVSPost2010PropOp31
 70
     1
102
RTVSPost2010Prop32
280
     0
102
RTVSPost2010PropOp32
 70
     1
102
RTVSPost2010Prop33
280
     0
102
RTVSPost2010PropOp33
 70
     1
102
RTVSPost2010Prop34
280
     0
102
RTVSPost2010PropOp34
 70
     1
102
RTVSPost2010Prop35
280
     0
102
RTVSPost2010PropOp35
 70
     1
102
RTVSPost2010Prop36
280
     0
102
RTVSPost2010PropOp36
 70
     1
102
RTVSPost2010Prop37
 90
       50
102
RTVSPost2010PropOp37
 70
     1
102
RTVSPost2010Prop38
140
0.0
102
RTVSPost2010PropOp38
 70
     1
102
RTVSPost2010Prop39
140
1.0
102
RTVSPost2010PropOp39
 70
     1
102
RTVSPost2010Prop40
 90
        0
102
RTVSPost2010PropOp40
 70
     1
102
RTVSPost2010Prop41ColorIndex
 90
       18
102
RTVSPost2010Prop41ColorRGB
 90
        0
102
RTVSPost2010PropOp41
 70
     1
102
RTVSPost2010Prop42
 90
       50
102
RTVSPost2010PropOp42
 70
     1
102
RTVSPost2010Prop43
 90
        3
102
RTVSPost2010PropOp43
 70
     1
102
RTVSPost2010Prop44ColorIndex
 90
        5
102
RTVSPost2010Prop44ColorRGB
 90
      255
102
RTVSPost2010PropOp44
 70
     1
102
RTVSPost2010Prop45
280
     0
102
RTVSPost2010PropOp45
 70
     1
102
RTVSPost2010Prop46
 90
       50
102
RTVSPost2010PropOp46
 70
     1
102
RTVSPost2010Prop47
 90
       50
102
RTVSPost2010PropOp47
 70
     1
102
RTVSPost2010Prop48
 90
       50
102
RTVSPost2010PropOp48
 70
     1
102
RTVSPost2010Prop49
280
     0
102
RTVSPost2010PropOp49
 70
     1
102
RTVSPost2010Prop50
 90
       50
102
RTVSPost2010PropOp50
 70
     1
102
RTVSPost2010Prop51ColorIndex
 90
      256
102
RTVSPost2010Prop51ColorRGB
 90
-16777216
102
RTVSPost2010PropOp51
 70
     0
102
RTVSPost2010Prop52
140
1.0
102
RTVSPost2010PropOp52
 70
     0
102
RTVSPost2010Prop53
 90
        2
102
RTVSPost2010PropOp53
 70
     1
102
RTVSPost2010Prop54
  1
strokes_ogs.tif
102
RTVSPost2010PropOp54
 70
     1
102
RTVSPost2010Prop55
280
     0
102
RTVSPost2010PropOp55
 70
     1
102
RTVSPost2010Prop56
140
1.0
102
RTVSPost2010PropOp56
 70
     1
102
RTVSPost2010Prop57
140
1.0
102
RTVSPost2010PropOp57
 70
     1
102
RTVSPropertyOp0
 70
     1
102
RTVSPropertyOp1
 70
     1
102
RTVSPropertyOp2
 70
     1
102
RTVSPropertyOp3
 70
     1
102
RTVSPropertyOp4
 70
     1
102
RTVSPropertyOp5
 70
     1
102
RTVSPropertyOp6
 70
     1
102
RTVSPropertyOp7
 70
     1
102
RTVSPropertyOp8
 70
     1
102
RTVSPropertyOp9
 70
     1
102
RTVSPropertyOp10
 70
     1
102
RTVSPropertyOp11
 70
     1
102
RTVSPropertyOp12
 70
     1
102
RTVSPropertyOp13
 70
     1
102
RTVSPropertyOp14
 70
     1
102
RTVSPropertyOp15
 70
     1
102
RTVSPropertyOp16
 70
     1
102
RTVSPropertyOp17
 70
     1
102
RTVSPropertyOp18
 70
     1
102
RTVSPropertyOp19
 70
     1
102
RTVSPropertyOp20
 70
     1
102
RTVSPropertyOp21
 70
     1
102
RTVSPropertyOp22
 70
     1
102
RTVSPropertyOp23
 70
     1
102
RTVSPropertyOp24
 70
     1
102
RTVSPropertyOp25
 70
     1
102
RTVSPropertyOp26
 70
     1
102
RTVSPropertyOp27
 70
     1
102
RTVSPropertyOp28
 70
     1
102
RTVSPropertyOp29
 70
     1
102
RTVSPropertyOp30
 70
     1
102
RTVSPropertyOp31
 70
     1
102
RTVSPropertyOp32
 70
     1
102
RTVSPropertyOp33
 70
     1
102
RTVSPropertyOp34
 70
     1
102
RTVSPropertyOp35
 70
     1
102
RTVSPropertyOp36
 70
     1
102
RTVSPropertyOp37
 70
     1
102
RTVSPropertyOp38
 70
     1
102
RTVSPropertyOp39
 70
     1
102
RTVSPropertyOp40
 70
     1
102
RTVSPropertyOp41
 70
     1
102
RTVSPropertyOp42
 70
     1
102
RTVSPropertyOp43
 70
     1
102
RTVSPropertyOp44
 70
     1
102
RTVSPropertyOp45
 70
     1
102
RTVSPropertyOp46
 70
     1
102
RTVSPropertyOp47
 70
     1
102
RTVSPropertyOp48
 70
     1
102
RTVSPropertyOp49
 70
     1
102
RTVSPropertyOp50
 70
     1
102
RTVSPropertyOp51
 70
     0
102
RTVSPropertyOp52
 70
     0
102
RTVSPropertyOp53
 70
     1
102
RTVSPropertyOp54
 70
     1
102
RTVSPropertyOp55
 70
     1
102
RTVSPropertyOp56
 70
     1
102
RTVSPropertyOp57
 70
     1
102
RTVSPropertyOp58
 70
     1
102
RTVSPropertyOp59
 70
     1
102
RTVSPropertyOp60
 70
     1
102
RTVSPropertyOp61
 70
     1
102
RTVSPropertyOp62
 70
     1
  0
XRECORD
  5
450
102
{ACAD_REACTORS
330
44F
102
}
330
44F
100
AcDbXrecord
280
     1
102
RTVSPost2010Prop28
280
     0
102
RTVSPost2010PropOp28
 70
     1
102
RTVSPost2010Prop29
280
     1
102
RTVSPost2010PropOp29
 70
     1
102
RTVSPost2010Prop30
280
     1
102
RTVSPost2010PropOp30
 70
     1
102
RTVSPost2010Prop31
280
     0
102
RTVSPost2010PropOp31
 70
     1
102
RTVSPost2010Prop32
280
     0
102
RTVSPost2010PropOp32
 70
     1
102
RTVSPost2010Prop33
280
     0
102
RTVSPost2010PropOp33
 70
     1
102
RTVSPost2010Prop34
280
     0
102
RTVSPost2010PropOp34
 70
     1
102
RTVSPost2010Prop35
280
     0
102
RTVSPost2010PropOp35
 70
     1
102
RTVSPost2010Prop36
280
     0
102
RTVSPost2010PropOp36
 70
     1
102
RTVSPost2010Prop37
 90
       50
102
RTVSPost2010PropOp37
 70
     1
102
RTVSPost2010Prop38
140
0.0
102
RTVSPost2010PropOp38
 70
     1
102
RTVSPost2010Prop39
140
1.0
102
RTVSPost2010PropOp39
 70
     1
102
RTVSPost2010Prop40
 90
        0
102
RTVSPost2010PropOp40
 70
     1
102
RTVSPost2010Prop41ColorIndex
 90
       18
102
RTVSPost2010Prop41ColorRGB
 90
        0
102
RTVSPost2010PropOp41
 70
     1
102
RTVSPost2010Prop42
 90
       50
102
RTVSPost2010PropOp42
 70
     1
102
RTVSPost2010Prop43
 90
        3
102
RTVSPost2010PropOp43
 70
     1
102
RTVSPost2010Prop44ColorIndex
 90
        5
102
RTVSPost2010Prop44ColorRGB
 90
      255
102
RTVSPost2010PropOp44
 70
     1
102
RTVSPost2010Prop45
280
     0
102
RTVSPost2010PropOp45
 70
     1
102
RTVSPost2010Prop46
 90
       50
102
RTVSPost2010PropOp46
 70
     1
102
RTVSPost2010Prop47
 90
       50
102
RTVSPost2010PropOp47
 70
     1
102
RTVSPost2010Prop48
 90
       50
102
RTVSPost2010PropOp48
 70
     1
102
RTVSPost2010Prop49
280
     0
102
RTVSPost2010PropOp49
 70
     1
102
RTVSPost2010Prop50
 90
       50
102
RTVSPost2010PropOp50
 70
     1
102
RTVSPost2010Prop51ColorIndex
 90
      256
102
RTVSPost2010Prop51ColorRGB
 90
-16777216
102
RTVSPost2010PropOp51
 70
     0
102
RTVSPost2010Prop52
140
1.0
102
RTVSPost2010PropOp52
 70
     0
102
RTVSPost2010Prop53
 90
        2
102
RTVSPost2010PropOp53
 70
     1
102
RTVSPost2010Prop54
  1
strokes_ogs.tif
102
RTVSPost2010PropOp54
 70
     1
102
RTVSPost2010Prop55
280
     0
102
RTVSPost2010PropOp55
 70
     1
102
RTVSPost2010Prop56
140
1.0
102
RTVSPost2010PropOp56
 70
     1
102
RTVSPost2010Prop57
140
1.0
102
RTVSPost2010PropOp57
 70
     1
102
RTVSPropertyOp0
 70
     1
102
RTVSPropertyOp1
 70
     1
102
RTVSPropertyOp2
 70
     1
102
RTVSPropertyOp3
 70
     1
102
RTVSPropertyOp4
 70
     1
102
RTVSPropertyOp5
 70
     1
102
RTVSPropertyOp6
 70
     1
102
RTVSPropertyOp7
 70
     1
102
RTVSPropertyOp8
 70
     1
102
RTVSPropertyOp9
 70
     1
102
RTVSPropertyOp10
 70
     1
102
RTVSPropertyOp11
 70
     1
102
RTVSPropertyOp12
 70
     1
102
RTVSPropertyOp13
 70
     1
102
RTVSPropertyOp14
 70
     1
102
RTVSPropertyOp15
 70
     1
102
RTVSPropertyOp16
 70
     1
102
RTVSPropertyOp17
 70
     1
102
RTVSPropertyOp18
 70
     1
102
RTVSPropertyOp19
 70
     1
102
RTVSPropertyOp20
 70
     1
102
RTVSPropertyOp21
 70
     1
102
RTVSPropertyOp22
 70
     1
102
RTVSPropertyOp23
 70
     1
102
RTVSPropertyOp24
 70
     1
102
RTVSPropertyOp25
 70
     1
102
RTVSPropertyOp26
 70
     1
102
RTVSPropertyOp27
 70
     1
102
RTVSPropertyOp28
 70
     1
102
RTVSPropertyOp29
 70
     1
102
RTVSPropertyOp30
 70
     1
102
RTVSPropertyOp31
 70
     1
102
RTVSPropertyOp32
 70
     1
102
RTVSPropertyOp33
 70
     1
102
RTVSPropertyOp34
 70
     1
102
RTVSPropertyOp35
 70
     1
102
RTVSPropertyOp36
 70
     1
102
RTVSPropertyOp37
 70
     1
102
RTVSPropertyOp38
 70
     1
102
RTVSPropertyOp39
 70
     1
102
RTVSPropertyOp40
 70
     1
102
RTVSPropertyOp41
 70
     1
102
RTVSPropertyOp42
 70
     1
102
RTVSPropertyOp43
 70
     1
102
RTVSPropertyOp44
 70
     1
102
RTVSPropertyOp45
 70
     1
102
RTVSPropertyOp46
 70
     1
102
RTVSPropertyOp47
 70
     1
102
RTVSPropertyOp48
 70
     1
102
RTVSPropertyOp49
 70
     1
102
RTVSPropertyOp50
 70
     1
102
RTVSPropertyOp51
 70
     0
102
RTVSPropertyOp52
 70
     0
102
RTVSPropertyOp53
 70
     1
102
RTVSPropertyOp54
 70
     1
102
RTVSPropertyOp55
 70
     1
102
RTVSPropertyOp56
 70
     1
102
RTVSPropertyOp57
 70
     1
102
RTVSPropertyOp58
 70
     1
102
RTVSPropertyOp59
 70
     1
102
RTVSPropertyOp60
 70
     1
102
RTVSPropertyOp61
 70
     1
102
RTVSPropertyOp62
 70
     1
  0
XRECORD
  5
442
102
{ACAD_REACTORS
330
441
102
}
330
441
100
AcDbXrecord
280
     1
102
RTVSPost2010Prop28
280
     0
102
RTVSPost2010PropOp28
 70
     1
102
RTVSPost2010Prop29
280
     1
102
RTVSPost2010PropOp29
 70
     1
102
RTVSPost2010Prop30
280
     1
102
RTVSPost2010PropOp30
 70
     1
102
RTVSPost2010Prop31
280
     0
102
RTVSPost2010PropOp31
 70
     1
102
RTVSPost2010Prop32
280
     0
102
RTVSPost2010PropOp32
 70
     1
102
RTVSPost2010Prop33
280
     0
102
RTVSPost2010PropOp33
 70
     1
102
RTVSPost2010Prop34
280
     0
102
RTVSPost2010PropOp34
 70
     1
102
RTVSPost2010Prop35
280
     0
102
RTVSPost2010PropOp35
 70
     1
102
RTVSPost2010Prop36
280
     0
102
RTVSPost2010PropOp36
 70
     1
102
RTVSPost2010Prop37
 90
       50
102
RTVSPost2010PropOp37
 70
     1
102
RTVSPost2010Prop38
140
0.0
102
RTVSPost2010PropOp38
 70
     1
102
RTVSPost2010Prop39
140
1.0
102
RTVSPost2010PropOp39
 70
     1
102
RTVSPost2010Prop40
 90
        0
102
RTVSPost2010PropOp40
 70
     1
102
RTVSPost2010Prop41ColorIndex
 90
       18
102
RTVSPost2010Prop41ColorRGB
 90
        0
102
RTVSPost2010PropOp41
 70
     1
102
RTVSPost2010Prop42
 90
       50
102
RTVSPost2010PropOp42
 70
     1
102
RTVSPost2010Prop43
 90
        3
102
RTVSPost2010PropOp43
 70
     1
102
RTVSPost2010Prop44ColorIndex
 90
        5
102
RTVSPost2010Prop44ColorRGB
 90
      255
102
RTVSPost2010PropOp44
 70
     1
102
RTVSPost2010Prop45
280
     0
102
RTVSPost2010PropOp45
 70
     1
102
RTVSPost2010Prop46
 90
       50
102
RTVSPost2010PropOp46
 70
     1
102
RTVSPost2010Prop47
 90
       50
102
RTVSPost2010PropOp47
 70
     1
102
RTVSPost2010Prop48
 90
       50
102
RTVSPost2010PropOp48
 70
     1
102
RTVSPost2010Prop49
280
     0
102
RTVSPost2010PropOp49
 70
     1
102
RTVSPost2010Prop50
 90
       50
102
RTVSPost2010PropOp50
 70
     1
102
RTVSPost2010Prop51ColorIndex
 90
      256
102
RTVSPost2010Prop51ColorRGB
 90
-16777216
102
RTVSPost2010PropOp51
 70
     0
102
RTVSPost2010Prop52
140
1.0
102
RTVSPost2010PropOp52
 70
     0
102
RTVSPost2010Prop53
 90
        2
102
RTVSPost2010PropOp53
 70
     1
102
RTVSPost2010Prop54
  1
strokes_ogs.tif
102
RTVSPost2010PropOp54
 70
     1
102
RTVSPost2010Prop55
280
     0
102
RTVSPost2010PropOp55
 70
     1
102
RTVSPost2010Prop56
140
1.0
102
RTVSPost2010PropOp56
 70
     1
102
RTVSPost2010Prop57
140
1.0
102
RTVSPost2010PropOp57
 70
     1
102
RTVSPropertyOp0
 70
     1
102
RTVSPropertyOp1
 70
     1
102
RTVSPropertyOp2
 70
     1
102
RTVSPropertyOp3
 70
     1
102
RTVSPropertyOp4
 70
     1
102
RTVSPropertyOp5
 70
     1
102
RTVSPropertyOp6
 70
     1
102
RTVSPropertyOp7
 70
     1
102
RTVSPropertyOp8
 70
     1
102
RTVSPropertyOp9
 70
     1
102
RTVSPropertyOp10
 70
     1
102
RTVSPropertyOp11
 70
     1
102
RTVSPropertyOp12
 70
     1
102
RTVSPropertyOp13
 70
     1
102
RTVSPropertyOp14
 70
     1
102
RTVSPropertyOp15
 70
     1
102
RTVSPropertyOp16
 70
     1
102
RTVSPropertyOp17
 70
     1
102
RTVSPropertyOp18
 70
     1
102
RTVSPropertyOp19
 70
     1
102
RTVSPropertyOp20
 70
     1
102
RTVSPropertyOp21
 70
     1
102
RTVSPropertyOp22
 70
     1
102
RTVSPropertyOp23
 70
     1
102
RTVSPropertyOp24
 70
     1
102
RTVSPropertyOp25
 70
     1
102
RTVSPropertyOp26
 70
     1
102
RTVSPropertyOp27
 70
     1
102
RTVSPropertyOp28
 70
     1
102
RTVSPropertyOp29
 70
     1
102
RTVSPropertyOp30
 70
     1
102
RTVSPropertyOp31
 70
     1
102
RTVSPropertyOp32
 70
     1
102
RTVSPropertyOp33
 70
     1
102
RTVSPropertyOp34
 70
     1
102
RTVSPropertyOp35
 70
     1
102
RTVSPropertyOp36
 70
     1
102
RTVSPropertyOp37
 70
     1
102
RTVSPropertyOp38
 70
     1
102
RTVSPropertyOp39
 70
     1
102
RTVSPropertyOp40
 70
     1
102
RTVSPropertyOp41
 70
     1
102
RTVSPropertyOp42
 70
     1
102
RTVSPropertyOp43
 70
     1
102
RTVSPropertyOp44
 70
     1
102
RTVSPropertyOp45
 70
     1
102
RTVSPropertyOp46
 70
     1
102
RTVSPropertyOp47
 70
     1
102
RTVSPropertyOp48
 70
     1
102
RTVSPropertyOp49
 70
     1
102
RTVSPropertyOp50
 70
     1
102
RTVSPropertyOp51
 70
     0
102
RTVSPropertyOp52
 70
     0
102
RTVSPropertyOp53
 70
     1
102
RTVSPropertyOp54
 70
     1
102
RTVSPropertyOp55
 70
     1
102
RTVSPropertyOp56
 70
     1
102
RTVSPropertyOp57
 70
     1
102
RTVSPropertyOp58
 70
     1
102
RTVSPropertyOp59
 70
     1
102
RTVSPropertyOp60
 70
     1
102
RTVSPropertyOp61
 70
     1
102
RTVSPropertyOp62
 70
     1
  0
XRECORD
  5
446
102
{ACAD_REACTORS
330
445
102
}
330
445
100
AcDbXrecord
280
     1
102
RTVSPost2010Prop28
280
     0
102
RTVSPost2010PropOp28
 70
     1
102
RTVSPost2010Prop29
280
     1
102
RTVSPost2010PropOp29
 70
     1
102
RTVSPost2010Prop30
280
     1
102
RTVSPost2010PropOp30
 70
     1
102
RTVSPost2010Prop31
280
     0
102
RTVSPost2010PropOp31
 70
     1
102
RTVSPost2010Prop32
280
     0
102
RTVSPost2010PropOp32
 70
     1
102
RTVSPost2010Prop33
280
     0
102
RTVSPost2010PropOp33
 70
     1
102
RTVSPost2010Prop34
280
     0
102
RTVSPost2010PropOp34
 70
     1
102
RTVSPost2010Prop35
280
     0
102
RTVSPost2010PropOp35
 70
     1
102
RTVSPost2010Prop36
280
     0
102
RTVSPost2010PropOp36
 70
     1
102
RTVSPost2010Prop37
 90
       50
102
RTVSPost2010PropOp37
 70
     1
102
RTVSPost2010Prop38
140
0.0
102
RTVSPost2010PropOp38
 70
     1
102
RTVSPost2010Prop39
140
1.0
102
RTVSPost2010PropOp39
 70
     1
102
RTVSPost2010Prop40
 90
        0
102
RTVSPost2010PropOp40
 70
     1
102
RTVSPost2010Prop41ColorIndex
 90
       18
102
RTVSPost2010Prop41ColorRGB
 90
        0
102
RTVSPost2010PropOp41
 70
     1
102
RTVSPost2010Prop42
 90
       50
102
RTVSPost2010PropOp42
 70
     1
102
RTVSPost2010Prop43
 90
        3
102
RTVSPost2010PropOp43
 70
     1
102
RTVSPost2010Prop44ColorIndex
 90
        5
102
RTVSPost2010Prop44ColorRGB
 90
      255
102
RTVSPost2010PropOp44
 70
     1
102
RTVSPost2010Prop45
280
     0
102
RTVSPost2010PropOp45
 70
     1
102
RTVSPost2010Prop46
 90
       50
102
RTVSPost2010PropOp46
 70
     1
102
RTVSPost2010Prop47
 90
       50
102
RTVSPost2010PropOp47
 70
     1
102
RTVSPost2010Prop48
 90
       50
102
RTVSPost2010PropOp48
 70
     1
102
RTVSPost2010Prop49
280
     0
102
RTVSPost2010PropOp49
 70
     1
102
RTVSPost2010Prop50
 90
       50
102
RTVSPost2010PropOp50
 70
     1
102
RTVSPost2010Prop51ColorIndex
 90
      256
102
RTVSPost2010Prop51ColorRGB
 90
-16777216
102
RTVSPost2010PropOp51
 70
     0
102
RTVSPost2010Prop52
140
1.0
102
RTVSPost2010PropOp52
 70
     0
102
RTVSPost2010Prop53
 90
        2
102
RTVSPost2010PropOp53
 70
     1
102
RTVSPost2010Prop54
  1
strokes_ogs.tif
102
RTVSPost2010PropOp54
 70
     1
102
RTVSPost2010Prop55
280
     0
102
RTVSPost2010PropOp55
 70
     1
102
RTVSPost2010Prop56
140
1.0
102
RTVSPost2010PropOp56
 70
     1
102
RTVSPost2010Prop57
140
1.0
102
RTVSPost2010PropOp57
 70
     1
102
RTVSPropertyOp0
 70
     1
102
RTVSPropertyOp1
 70
     1
102
RTVSPropertyOp2
 70
     1
102
RTVSPropertyOp3
 70
     1
102
RTVSPropertyOp4
 70
     1
102
RTVSPropertyOp5
 70
     1
102
RTVSPropertyOp6
 70
     1
102
RTVSPropertyOp7
 70
     1
102
RTVSPropertyOp8
 70
     1
102
RTVSPropertyOp9
 70
     1
102
RTVSPropertyOp10
 70
     1
102
RTVSPropertyOp11
 70
     1
102
RTVSPropertyOp12
 70
     1
102
RTVSPropertyOp13
 70
     1
102
RTVSPropertyOp14
 70
     1
102
RTVSPropertyOp15
 70
     1
102
RTVSPropertyOp16
 70
     1
102
RTVSPropertyOp17
 70
     1
102
RTVSPropertyOp18
 70
     1
102
RTVSPropertyOp19
 70
     1
102
RTVSPropertyOp20
 70
     1
102
RTVSPropertyOp21
 70
     1
102
RTVSPropertyOp22
 70
     1
102
RTVSPropertyOp23
 70
     1
102
RTVSPropertyOp24
 70
     1
102
RTVSPropertyOp25
 70
     1
102
RTVSPropertyOp26
 70
     1
102
RTVSPropertyOp27
 70
     1
102
RTVSPropertyOp28
 70
     1
102
RTVSPropertyOp29
 70
     1
102
RTVSPropertyOp30
 70
     1
102
RTVSPropertyOp31
 70
     1
102
RTVSPropertyOp32
 70
     1
102
RTVSPropertyOp33
 70
     1
102
RTVSPropertyOp34
 70
     1
102
RTVSPropertyOp35
 70
     1
102
RTVSPropertyOp36
 70
     1
102
RTVSPropertyOp37
 70
     1
102
RTVSPropertyOp38
 70
     1
102
RTVSPropertyOp39
 70
     1
102
RTVSPropertyOp40
 70
     1
102
RTVSPropertyOp41
 70
     1
102
RTVSPropertyOp42
 70
     1
102
RTVSPropertyOp43
 70
     1
102
RTVSPropertyOp44
 70
     1
102
RTVSPropertyOp45
 70
     1
102
RTVSPropertyOp46
 70
     1
102
RTVSPropertyOp47
 70
     1
102
RTVSPropertyOp48
 70
     1
102
RTVSPropertyOp49
 70
     1
102
RTVSPropertyOp50
 70
     1
102
RTVSPropertyOp51
 70
     0
102
RTVSPropertyOp52
 70
     0
102
RTVSPropertyOp53
 70
     1
102
RTVSPropertyOp54
 70
     1
102
RTVSPropertyOp55
 70
     1
102
RTVSPropertyOp56
 70
     1
102
RTVSPropertyOp57
 70
     1
102
RTVSPropertyOp58
 70
     1
102
RTVSPropertyOp59
 70
     1
102
RTVSPropertyOp60
 70
     1
102
RTVSPropertyOp61
 70
     1
102
RTVSPropertyOp62
 70
     1
  0
XRECORD
  5
460
102
{ACAD_REACTORS
330
45F
102
}
330
45F
100
AcDbXrecord
280
     1
102
RTVSPost2010Prop28
280
     0
102
RTVSPost2010PropOp28
 70
     1
102
RTVSPost2010Prop29
280
     1
102
RTVSPost2010PropOp29
 70
     1
102
RTVSPost2010Prop30
280
     1
102
RTVSPost2010PropOp30
 70
     1
102
RTVSPost2010Prop31
280
     0
102
RTVSPost2010PropOp31
 70
     1
102
RTVSPost2010Prop32
280
     0
102
RTVSPost2010PropOp32
 70
     1
102
RTVSPost2010Prop33
280
     0
102
RTVSPost2010PropOp33
 70
     1
102
RTVSPost2010Prop34
280
     0
102
RTVSPost2010PropOp34
 70
     1
102
RTVSPost2010Prop35
280
     0
102
RTVSPost2010PropOp35
 70
     1
102
RTVSPost2010Prop36
280
     0
102
RTVSPost2010PropOp36
 70
     1
102
RTVSPost2010Prop37
 90
       50
102
RTVSPost2010PropOp37
 70
     0
102
RTVSPost2010Prop38
140
0.0
102
RTVSPost2010PropOp38
 70
     0
102
RTVSPost2010Prop39
140
1.0
102
RTVSPost2010PropOp39
 70
     0
102
RTVSPost2010Prop40
 90
        0
102
RTVSPost2010PropOp40
 70
     0
102
RTVSPost2010Prop41ColorIndex
 90
       18
102
RTVSPost2010Prop41ColorRGB
 90
        0
102
RTVSPost2010PropOp41
 70
     0
102
RTVSPost2010Prop42
 90
       50
102
RTVSPost2010PropOp42
 70
     0
102
RTVSPost2010Prop43
 90
        3
102
RTVSPost2010PropOp43
 70
     0
102
RTVSPost2010Prop44ColorIndex
 90
        5
102
RTVSPost2010Prop44ColorRGB
 90
      255
102
RTVSPost2010PropOp44
 70
     0
102
RTVSPost2010Prop45
280
     0
102
RTVSPost2010PropOp45
 70
     1
102
RTVSPost2010Prop46
 90
       50
102
RTVSPost2010PropOp46
 70
     0
102
RTVSPost2010Prop47
 90
       50
102
RTVSPost2010PropOp47
 70
     0
102
RTVSPost2010Prop48
 90
       50
102
RTVSPost2010PropOp48
 70
     0
102
RTVSPost2010Prop49
280
     0
102
RTVSPost2010PropOp49
 70
     1
102
RTVSPost2010Prop50
 90
       50
102
RTVSPost2010PropOp50
 70
     0
102
RTVSPost2010Prop51ColorIndex
 90
      256
102
RTVSPost2010Prop51ColorRGB
 90
-16777216
102
RTVSPost2010PropOp51
 70
     0
102
RTVSPost2010Prop52
140
1.0
102
RTVSPost2010PropOp52
 70
     0
102
RTVSPost2010Prop53
 90
        2
102
RTVSPost2010PropOp53
 70
     0
102
RTVSPost2010Prop54
  1
strokes_ogs.tif
102
RTVSPost2010PropOp54
 70
     0
102
RTVSPost2010Prop55
280
     0
102
RTVSPost2010PropOp55
 70
     1
102
RTVSPost2010Prop56
140
1.0
102
RTVSPost2010PropOp56
 70
     0
102
RTVSPost2010Prop57
140
1.0
102
RTVSPost2010PropOp57
 70
     0
102
RTVSPropertyOp0
 70
     0
102
RTVSPropertyOp1
 70
     0
102
RTVSPropertyOp2
 70
     0
102
RTVSPropertyOp3
 70
     0
102
RTVSPropertyOp4
 70
     0
102
RTVSPropertyOp5
 70
     0
102
RTVSPropertyOp6
 70
     0
102
RTVSPropertyOp7
 70
     0
102
RTVSPropertyOp8
 70
     0
102
RTVSPropertyOp9
 70
     0
102
RTVSPropertyOp10
 70
     0
102
RTVSPropertyOp11
 70
     0
102
RTVSPropertyOp12
 70
     0
102
RTVSPropertyOp13
 70
     0
102
RTVSPropertyOp14
 70
     2
102
RTVSPropertyOp15
 70
     0
102
RTVSPropertyOp16
 70
     0
102
RTVSPropertyOp17
 70
     0
102
RTVSPropertyOp18
 70
     0
102
RTVSPropertyOp19
 70
     0
102
RTVSPropertyOp20
 70
     0
102
RTVSPropertyOp21
 70
     0
102
RTVSPropertyOp22
 70
     0
102
RTVSPropertyOp23
 70
     0
102
RTVSPropertyOp24
 70
     0
102
RTVSPropertyOp25
 70
     0
102
RTVSPropertyOp26
 70
     0
102
RTVSPropertyOp27
 70
     0
102
RTVSPropertyOp28
 70
     1
102
RTVSPropertyOp29
 70
     1
102
RTVSPropertyOp30
 70
     1
102
RTVSPropertyOp31
 70
     1
102
RTVSPropertyOp32
 70
     1
102
RTVSPropertyOp33
 70
     1
102
RTVSPropertyOp34
 70
     1
102
RTVSPropertyOp35
 70
     1
102
RTVSPropertyOp36
 70
     1
102
RTVSPropertyOp37
 70
     0
102
RTVSPropertyOp38
 70
     0
102
RTVSPropertyOp39
 70
     0
102
RTVSPropertyOp40
 70
     0
102
RTVSPropertyOp41
 70
     0
102
RTVSPropertyOp42
 70
     0
102
RTVSPropertyOp43
 70
     0
102
RTVSPropertyOp44
 70
     0
102
RTVSPropertyOp45
 70
     1
102
RTVSPropertyOp46
 70
     0
102
RTVSPropertyOp47
 70
     0
102
RTVSPropertyOp48
 70
     0
102
RTVSPropertyOp49
 70
     1
102
RTVSPropertyOp50
 70
     0
102
RTVSPropertyOp51
 70
     0
102
RTVSPropertyOp52
 70
     0
102
RTVSPropertyOp53
 70
     0
102
RTVSPropertyOp54
 70
     0
102
RTVSPropertyOp55
 70
     1
102
RTVSPropertyOp56
 70
     0
102
RTVSPropertyOp57
 70
     0
102
RTVSPropertyOp58
 70
     0
102
RTVSPropertyOp59
 70
     0
102
RTVSPropertyOp60
 70
     0
102
RTVSPropertyOp61
 70
     0
102
RTVSPropertyOp62
 70
     0
  0
XRECORD
  5
44E
102
{ACAD_REACTORS
330
44D
102
}
330
44D
100
AcDbXrecord
280
     1
102
RTVSPost2010Prop28
280
     0
102
RTVSPost2010PropOp28
 70
     1
102
RTVSPost2010Prop29
280
     1
102
RTVSPost2010PropOp29
 70
     1
102
RTVSPost2010Prop30
280
     1
102
RTVSPost2010PropOp30
 70
     1
102
RTVSPost2010Prop31
280
     0
102
RTVSPost2010PropOp31
 70
     1
102
RTVSPost2010Prop32
280
     0
102
RTVSPost2010PropOp32
 70
     1
102
RTVSPost2010Prop33
280
     0
102
RTVSPost2010PropOp33
 70
     1
102
RTVSPost2010Prop34
280
     0
102
RTVSPost2010PropOp34
 70
     1
102
RTVSPost2010Prop35
280
     0
102
RTVSPost2010PropOp35
 70
     1
102
RTVSPost2010Prop36
280
     0
102
RTVSPost2010PropOp36
 70
     1
102
RTVSPost2010Prop37
 90
       50
102
RTVSPost2010PropOp37
 70
     1
102
RTVSPost2010Prop38
140
0.0
102
RTVSPost2010PropOp38
 70
     1
102
RTVSPost2010Prop39
140
1.0
102
RTVSPost2010PropOp39
 70
     1
102
RTVSPost2010Prop40
 90
        0
102
RTVSPost2010PropOp40
 70
     1
102
RTVSPost2010Prop41ColorIndex
 90
       18
102
RTVSPost2010Prop41ColorRGB
 90
        0
102
RTVSPost2010PropOp41
 70
     1
102
RTVSPost2010Prop42
 90
       50
102
RTVSPost2010PropOp42
 70
     1
102
RTVSPost2010Prop43
 90
        3
102
RTVSPost2010PropOp43
 70
     1
102
RTVSPost2010Prop44ColorIndex
 90
        5
102
RTVSPost2010Prop44ColorRGB
 90
      255
102
RTVSPost2010PropOp44
 70
     1
102
RTVSPost2010Prop45
280
     0
102
RTVSPost2010PropOp45
 70
     1
102
RTVSPost2010Prop46
 90
       50
102
RTVSPost2010PropOp46
 70
     1
102
RTVSPost2010Prop47
 90
       50
102
RTVSPost2010PropOp47
 70
     1
102
RTVSPost2010Prop48
 90
       50
102
RTVSPost2010PropOp48
 70
     1
102
RTVSPost2010Prop49
280
     0
102
RTVSPost2010PropOp49
 70
     1
102
RTVSPost2010Prop50
 90
       50
102
RTVSPost2010PropOp50
 70
     1
102
RTVSPost2010Prop51ColorIndex
 90
      256
102
RTVSPost2010Prop51ColorRGB
 90
-16777216
102
RTVSPost2010PropOp51
 70
     0
102
RTVSPost2010Prop52
140
1.0
102
RTVSPost2010PropOp52
 70
     0
102
RTVSPost2010Prop53
 90
        2
102
RTVSPost2010PropOp53
 70
     1
102
RTVSPost2010Prop54
  1
strokes_ogs.tif
102
RTVSPost2010PropOp54
 70
     1
102
RTVSPost2010Prop55
280
     0
102
RTVSPost2010PropOp55
 70
     1
102
RTVSPost2010Prop56
140
1.0
102
RTVSPost2010PropOp56
 70
     1
102
RTVSPost2010Prop57
140
1.0
102
RTVSPost2010PropOp57
 70
     1
102
RTVSPropertyOp0
 70
     1
102
RTVSPropertyOp1
 70
     1
102
RTVSPropertyOp2
 70
     1
102
RTVSPropertyOp3
 70
     1
102
RTVSPropertyOp4
 70
     1
102
RTVSPropertyOp5
 70
     1
102
RTVSPropertyOp6
 70
     1
102
RTVSPropertyOp7
 70
     1
102
RTVSPropertyOp8
 70
     1
102
RTVSPropertyOp9
 70
     1
102
RTVSPropertyOp10
 70
     1
102
RTVSPropertyOp11
 70
     1
102
RTVSPropertyOp12
 70
     1
102
RTVSPropertyOp13
 70
     1
102
RTVSPropertyOp14
 70
     1
102
RTVSPropertyOp15
 70
     1
102
RTVSPropertyOp16
 70
     1
102
RTVSPropertyOp17
 70
     1
102
RTVSPropertyOp18
 70
     1
102
RTVSPropertyOp19
 70
     1
102
RTVSPropertyOp20
 70
     1
102
RTVSPropertyOp21
 70
     1
102
RTVSPropertyOp22
 70
     1
102
RTVSPropertyOp23
 70
     1
102
RTVSPropertyOp24
 70
     1
102
RTVSPropertyOp25
 70
     1
102
RTVSPropertyOp26
 70
     1
102
RTVSPropertyOp27
 70
     1
102
RTVSPropertyOp28
 70
     1
102
RTVSPropertyOp29
 70
     1
102
RTVSPropertyOp30
 70
     1
102
RTVSPropertyOp31
 70
     1
102
RTVSPropertyOp32
 70
     1
102
RTVSPropertyOp33
 70
     1
102
RTVSPropertyOp34
 70
     1
102
RTVSPropertyOp35
 70
     1
102
RTVSPropertyOp36
 70
     1
102
RTVSPropertyOp37
 70
     1
102
RTVSPropertyOp38
 70
     1
102
RTVSPropertyOp39
 70
     1
102
RTVSPropertyOp40
 70
     1
102
RTVSPropertyOp41
 70
     1
102
RTVSPropertyOp42
 70
     1
102
RTVSPropertyOp43
 70
     1
102
RTVSPropertyOp44
 70
     1
102
RTVSPropertyOp45
 70
     1
102
RTVSPropertyOp46
 70
     1
102
RTVSPropertyOp47
 70
     1
102
RTVSPropertyOp48
 70
     1
102
RTVSPropertyOp49
 70
     1
102
RTVSPropertyOp50
 70
     1
102
RTVSPropertyOp51
 70
     0
102
RTVSPropertyOp52
 70
     0
102
RTVSPropertyOp53
 70
     1
102
RTVSPropertyOp54
 70
     1
102
RTVSPropertyOp55
 70
     1
102
RTVSPropertyOp56
 70
     1
102
RTVSPropertyOp57
 70
     1
102
RTVSPropertyOp58
 70
     1
102
RTVSPropertyOp59
 70
     1
102
RTVSPropertyOp60
 70
     1
102
RTVSPropertyOp61
 70
     1
102
RTVSPropertyOp62
 70
     1
  0
XRECORD
  5
432
102
{ACAD_REACTORS
330
431
102
}
330
431
100
AcDbXrecord
280
     1
102
RTVSPost2010Prop28
280
     0
102
RTVSPost2010PropOp28
 70
     1
102
RTVSPost2010Prop29
280
     1
102
RTVSPost2010PropOp29
 70
     1
102
RTVSPost2010Prop30
280
     1
102
RTVSPost2010PropOp30
 70
     1
102
RTVSPost2010Prop31
280
     0
102
RTVSPost2010PropOp31
 70
     1
102
RTVSPost2010Prop32
280
     0
102
RTVSPost2010PropOp32
 70
     1
102
RTVSPost2010Prop33
280
     0
102
RTVSPost2010PropOp33
 70
     1
102
RTVSPost2010Prop34
280
     0
102
RTVSPost2010PropOp34
 70
     1
102
RTVSPost2010Prop35
280
     0
102
RTVSPost2010PropOp35
 70
     1
102
RTVSPost2010Prop36
280
     0
102
RTVSPost2010PropOp36
 70
     1
102
RTVSPost2010Prop37
 90
       50
102
RTVSPost2010PropOp37
 70
     1
102
RTVSPost2010Prop38
140
0.0
102
RTVSPost2010PropOp38
 70
     1
102
RTVSPost2010Prop39
140
1.0
102
RTVSPost2010PropOp39
 70
     1
102
RTVSPost2010Prop40
 90
        0
102
RTVSPost2010PropOp40
 70
     1
102
RTVSPost2010Prop41ColorIndex
 90
       18
102
RTVSPost2010Prop41ColorRGB
 90
        0
102
RTVSPost2010PropOp41
 70
     1
102
RTVSPost2010Prop42
 90
       50
102
RTVSPost2010PropOp42
 70
     1
102
RTVSPost2010Prop43
 90
        3
102
RTVSPost2010PropOp43
 70
     1
102
RTVSPost2010Prop44ColorIndex
 90
        5
102
RTVSPost2010Prop44ColorRGB
 90
      255
102
RTVSPost2010PropOp44
 70
     1
102
RTVSPost2010Prop45
280
     0
102
RTVSPost2010PropOp45
 70
     1
102
RTVSPost2010Prop46
 90
       50
102
RTVSPost2010PropOp46
 70
     1
102
RTVSPost2010Prop47
 90
       50
102
RTVSPost2010PropOp47
 70
     1
102
RTVSPost2010Prop48
 90
       50
102
RTVSPost2010PropOp48
 70
     1
102
RTVSPost2010Prop49
280
     0
102
RTVSPost2010PropOp49
 70
     1
102
RTVSPost2010Prop50
 90
       50
102
RTVSPost2010PropOp50
 70
     1
102
RTVSPost2010Prop51ColorIndex
 90
      256
102
RTVSPost2010Prop51ColorRGB
 90
-16777216
102
RTVSPost2010PropOp51
 70
     0
102
RTVSPost2010Prop52
140
1.0
102
RTVSPost2010PropOp52
 70
     0
102
RTVSPost2010Prop53
 90
        2
102
RTVSPost2010PropOp53
 70
     1
102
RTVSPost2010Prop54
  1
strokes_ogs.tif
102
RTVSPost2010PropOp54
 70
     1
102
RTVSPost2010Prop55
280
     0
102
RTVSPost2010PropOp55
 70
     1
102
RTVSPost2010Prop56
140
1.0
102
RTVSPost2010PropOp56
 70
     1
102
RTVSPost2010Prop57
140
1.0
102
RTVSPost2010PropOp57
 70
     1
102
RTVSPropertyOp0
 70
     1
102
RTVSPropertyOp1
 70
     1
102
RTVSPropertyOp2
 70
     1
102
RTVSPropertyOp3
 70
     1
102
RTVSPropertyOp4
 70
     1
102
RTVSPropertyOp5
 70
     1
102
RTVSPropertyOp6
 70
     1
102
RTVSPropertyOp7
 70
     1
102
RTVSPropertyOp8
 70
     1
102
RTVSPropertyOp9
 70
     1
102
RTVSPropertyOp10
 70
     1
102
RTVSPropertyOp11
 70
     1
102
RTVSPropertyOp12
 70
     1
102
RTVSPropertyOp13
 70
     1
102
RTVSPropertyOp14
 70
     1
102
RTVSPropertyOp15
 70
     1
102
RTVSPropertyOp16
 70
     1
102
RTVSPropertyOp17
 70
     1
102
RTVSPropertyOp18
 70
     1
102
RTVSPropertyOp19
 70
     1
102
RTVSPropertyOp20
 70
     1
102
RTVSPropertyOp21
 70
     1
102
RTVSPropertyOp22
 70
     1
102
RTVSPropertyOp23
 70
     1
102
RTVSPropertyOp24
 70
     1
102
RTVSPropertyOp25
 70
     1
102
RTVSPropertyOp26
 70
     1
102
RTVSPropertyOp27
 70
     1
102
RTVSPropertyOp28
 70
     1
102
RTVSPropertyOp29
 70
     1
102
RTVSPropertyOp30
 70
     1
102
RTVSPropertyOp31
 70
     1
102
RTVSPropertyOp32
 70
     1
102
RTVSPropertyOp33
 70
     1
102
RTVSPropertyOp34
 70
     1
102
RTVSPropertyOp35
 70
     1
102
RTVSPropertyOp36
 70
     1
102
RTVSPropertyOp37
 70
     1
102
RTVSPropertyOp38
 70
     1
102
RTVSPropertyOp39
 70
     1
102
RTVSPropertyOp40
 70
     1
102
RTVSPropertyOp41
 70
     1
102
RTVSPropertyOp42
 70
     1
102
RTVSPropertyOp43
 70
     1
102
RTVSPropertyOp44
 70
     1
102
RTVSPropertyOp45
 70
     1
102
RTVSPropertyOp46
 70
     1
102
RTVSPropertyOp47
 70
     1
102
RTVSPropertyOp48
 70
     1
102
RTVSPropertyOp49
 70
     1
102
RTVSPropertyOp50
 70
     1
102
RTVSPropertyOp51
 70
     0
102
RTVSPropertyOp52
 70
     0
102
RTVSPropertyOp53
 70
     1
102
RTVSPropertyOp54
 70
     1
102
RTVSPropertyOp55
 70
     1
102
RTVSPropertyOp56
 70
     1
102
RTVSPropertyOp57
 70
     1
102
RTVSPropertyOp58
 70
     1
102
RTVSPropertyOp59
 70
     1
102
RTVSPropertyOp60
 70
     1
102
RTVSPropertyOp61
 70
     1
102
RTVSPropertyOp62
 70
     1
  0
XRECORD
  5
434
102
{ACAD_REACTORS
330
433
102
}
330
433
100
AcDbXrecord
280
     1
102
RTVSPost2010Prop28
280
     0
102
RTVSPost2010PropOp28
 70
     1
102
RTVSPost2010Prop29
280
     1
102
RTVSPost2010PropOp29
 70
     1
102
RTVSPost2010Prop30
280
     1
102
RTVSPost2010PropOp30
 70
     1
102
RTVSPost2010Prop31
280
     0
102
RTVSPost2010PropOp31
 70
     1
102
RTVSPost2010Prop32
280
     0
102
RTVSPost2010PropOp32
 70
     1
102
RTVSPost2010Prop33
280
     0
102
RTVSPost2010PropOp33
 70
     1
102
RTVSPost2010Prop34
280
     0
102
RTVSPost2010PropOp34
 70
     1
102
RTVSPost2010Prop35
280
     0
102
RTVSPost2010PropOp35
 70
     1
102
RTVSPost2010Prop36
280
     0
102
RTVSPost2010PropOp36
 70
     1
102
RTVSPost2010Prop37
 90
       50
102
RTVSPost2010PropOp37
 70
     1
102
RTVSPost2010Prop38
140
0.0
102
RTVSPost2010PropOp38
 70
     1
102
RTVSPost2010Prop39
140
1.0
102
RTVSPost2010PropOp39
 70
     1
102
RTVSPost2010Prop40
 90
        0
102
RTVSPost2010PropOp40
 70
     1
102
RTVSPost2010Prop41ColorIndex
 90
       18
102
RTVSPost2010Prop41ColorRGB
 90
        0
102
RTVSPost2010PropOp41
 70
     1
102
RTVSPost2010Prop42
 90
       50
102
RTVSPost2010PropOp42
 70
     1
102
RTVSPost2010Prop43
 90
        3
102
RTVSPost2010PropOp43
 70
     1
102
RTVSPost2010Prop44ColorIndex
 90
        5
102
RTVSPost2010Prop44ColorRGB
 90
      255
102
RTVSPost2010PropOp44
 70
     1
102
RTVSPost2010Prop45
280
     0
102
RTVSPost2010PropOp45
 70
     1
102
RTVSPost2010Prop46
 90
       50
102
RTVSPost2010PropOp46
 70
     1
102
RTVSPost2010Prop47
 90
       50
102
RTVSPost2010PropOp47
 70
     1
102
RTVSPost2010Prop48
 90
       50
102
RTVSPost2010PropOp48
 70
     1
102
RTVSPost2010Prop49
280
     0
102
RTVSPost2010PropOp49
 70
     1
102
RTVSPost2010Prop50
 90
       50
102
RTVSPost2010PropOp50
 70
     1
102
RTVSPost2010Prop51ColorIndex
 90
      256
102
RTVSPost2010Prop51ColorRGB
 90
-16777216
102
RTVSPost2010PropOp51
 70
     0
102
RTVSPost2010Prop52
140
1.0
102
RTVSPost2010PropOp52
 70
     0
102
RTVSPost2010Prop53
 90
        2
102
RTVSPost2010PropOp53
 70
     1
102
RTVSPost2010Prop54
  1
strokes_ogs.tif
102
RTVSPost2010PropOp54
 70
     1
102
RTVSPost2010Prop55
280
     0
102
RTVSPost2010PropOp55
 70
     1
102
RTVSPost2010Prop56
140
1.0
102
RTVSPost2010PropOp56
 70
     1
102
RTVSPost2010Prop57
140
1.0
102
RTVSPost2010PropOp57
 70
     1
102
RTVSPropertyOp0
 70
     1
102
RTVSPropertyOp1
 70
     1
102
RTVSPropertyOp2
 70
     1
102
RTVSPropertyOp3
 70
     1
102
RTVSPropertyOp4
 70
     1
102
RTVSPropertyOp5
 70
     1
102
RTVSPropertyOp6
 70
     1
102
RTVSPropertyOp7
 70
     1
102
RTVSPropertyOp8
 70
     1
102
RTVSPropertyOp9
 70
     1
102
RTVSPropertyOp10
 70
     1
102
RTVSPropertyOp11
 70
     1
102
RTVSPropertyOp12
 70
     1
102
RTVSPropertyOp13
 70
     1
102
RTVSPropertyOp14
 70
     1
102
RTVSPropertyOp15
 70
     1
102
RTVSPropertyOp16
 70
     1
102
RTVSPropertyOp17
 70
     1
102
RTVSPropertyOp18
 70
     1
102
RTVSPropertyOp19
 70
     1
102
RTVSPropertyOp20
 70
     1
102
RTVSPropertyOp21
 70
     1
102
RTVSPropertyOp22
 70
     1
102
RTVSPropertyOp23
 70
     1
102
RTVSPropertyOp24
 70
     1
102
RTVSPropertyOp25
 70
     1
102
RTVSPropertyOp26
 70
     1
102
RTVSPropertyOp27
 70
     1
102
RTVSPropertyOp28
 70
     1
102
RTVSPropertyOp29
 70
     1
102
RTVSPropertyOp30
 70
     1
102
RTVSPropertyOp31
 70
     1
102
RTVSPropertyOp32
 70
     1
102
RTVSPropertyOp33
 70
     1
102
RTVSPropertyOp34
 70
     1
102
RTVSPropertyOp35
 70
     1
102
RTVSPropertyOp36
 70
     1
102
RTVSPropertyOp37
 70
     1
102
RTVSPropertyOp38
 70
     1
102
RTVSPropertyOp39
 70
     1
102
RTVSPropertyOp40
 70
     1
102
RTVSPropertyOp41
 70
     1
102
RTVSPropertyOp42
 70
     1
102
RTVSPropertyOp43
 70
     1
102
RTVSPropertyOp44
 70
     1
102
RTVSPropertyOp45
 70
     1
102
RTVSPropertyOp46
 70
     1
102
RTVSPropertyOp47
 70
     1
102
RTVSPropertyOp48
 70
     1
102
RTVSPropertyOp49
 70
     1
102
RTVSPropertyOp50
 70
     1
102
RTVSPropertyOp51
 70
     0
102
RTVSPropertyOp52
 70
     0
102
RTVSPropertyOp53
 70
     1
102
RTVSPropertyOp54
 70
     1
102
RTVSPropertyOp55
 70
     1
102
RTVSPropertyOp56
 70
     1
102
RTVSPropertyOp57
 70
     1
102
RTVSPropertyOp58
 70
     1
102
RTVSPropertyOp59
 70
     1
102
RTVSPropertyOp60
 70
     1
102
RTVSPropertyOp61
 70
     1
102
RTVSPropertyOp62
 70
     1
  0
XRECORD
  5
436
102
{ACAD_REACTORS
330
435
102
}
330
435
100
AcDbXrecord
280
     1
102
RTVSPost2010Prop28
280
     0
102
RTVSPost2010PropOp28
 70
     1
102
RTVSPost2010Prop29
280
     1
102
RTVSPost2010PropOp29
 70
     1
102
RTVSPost2010Prop30
280
     1
102
RTVSPost2010PropOp30
 70
     1
102
RTVSPost2010Prop31
280
     0
102
RTVSPost2010PropOp31
 70
     1
102
RTVSPost2010Prop32
280
     0
102
RTVSPost2010PropOp32
 70
     1
102
RTVSPost2010Prop33
280
     0
102
RTVSPost2010PropOp33
 70
     1
102
RTVSPost2010Prop34
280
     0
102
RTVSPost2010PropOp34
 70
     1
102
RTVSPost2010Prop35
280
     0
102
RTVSPost2010PropOp35
 70
     1
102
RTVSPost2010Prop36
280
     0
102
RTVSPost2010PropOp36
 70
     1
102
RTVSPost2010Prop37
 90
       50
102
RTVSPost2010PropOp37
 70
     1
102
RTVSPost2010Prop38
140
0.0
102
RTVSPost2010PropOp38
 70
     1
102
RTVSPost2010Prop39
140
1.0
102
RTVSPost2010PropOp39
 70
     1
102
RTVSPost2010Prop40
 90
        0
102
RTVSPost2010PropOp40
 70
     1
102
RTVSPost2010Prop41ColorIndex
 90
       18
102
RTVSPost2010Prop41ColorRGB
 90
        0
102
RTVSPost2010PropOp41
 70
     1
102
RTVSPost2010Prop42
 90
       50
102
RTVSPost2010PropOp42
 70
     1
102
RTVSPost2010Prop43
 90
        3
102
RTVSPost2010PropOp43
 70
     1
102
RTVSPost2010Prop44ColorIndex
 90
        5
102
RTVSPost2010Prop44ColorRGB
 90
      255
102
RTVSPost2010PropOp44
 70
     1
102
RTVSPost2010Prop45
280
     0
102
RTVSPost2010PropOp45
 70
     1
102
RTVSPost2010Prop46
 90
       50
102
RTVSPost2010PropOp46
 70
     1
102
RTVSPost2010Prop47
 90
       50
102
RTVSPost2010PropOp47
 70
     1
102
RTVSPost2010Prop48
 90
       50
102
RTVSPost2010PropOp48
 70
     1
102
RTVSPost2010Prop49
280
     0
102
RTVSPost2010PropOp49
 70
     1
102
RTVSPost2010Prop50
 90
       50
102
RTVSPost2010PropOp50
 70
     1
102
RTVSPost2010Prop51ColorIndex
 90
      256
102
RTVSPost2010Prop51ColorRGB
 90
-16777216
102
RTVSPost2010PropOp51
 70
     0
102
RTVSPost2010Prop52
140
1.0
102
RTVSPost2010PropOp52
 70
     0
102
RTVSPost2010Prop53
 90
        2
102
RTVSPost2010PropOp53
 70
     1
102
RTVSPost2010Prop54
  1
strokes_ogs.tif
102
RTVSPost2010PropOp54
 70
     1
102
RTVSPost2010Prop55
280
     0
102
RTVSPost2010PropOp55
 70
     1
102
RTVSPost2010Prop56
140
1.0
102
RTVSPost2010PropOp56
 70
     1
102
RTVSPost2010Prop57
140
1.0
102
RTVSPost2010PropOp57
 70
     1
102
RTVSPropertyOp0
 70
     1
102
RTVSPropertyOp1
 70
     1
102
RTVSPropertyOp2
 70
     1
102
RTVSPropertyOp3
 70
     1
102
RTVSPropertyOp4
 70
     1
102
RTVSPropertyOp5
 70
     1
102
RTVSPropertyOp6
 70
     1
102
RTVSPropertyOp7
 70
     1
102
RTVSPropertyOp8
 70
     1
102
RTVSPropertyOp9
 70
     1
102
RTVSPropertyOp10
 70
     1
102
RTVSPropertyOp11
 70
     1
102
RTVSPropertyOp12
 70
     1
102
RTVSPropertyOp13
 70
     1
102
RTVSPropertyOp14
 70
     1
102
RTVSPropertyOp15
 70
     1
102
RTVSPropertyOp16
 70
     1
102
RTVSPropertyOp17
 70
     1
102
RTVSPropertyOp18
 70
     1
102
RTVSPropertyOp19
 70
     1
102
RTVSPropertyOp20
 70
     1
102
RTVSPropertyOp21
 70
     1
102
RTVSPropertyOp22
 70
     1
102
RTVSPropertyOp23
 70
     1
102
RTVSPropertyOp24
 70
     1
102
RTVSPropertyOp25
 70
     1
102
RTVSPropertyOp26
 70
     1
102
RTVSPropertyOp27
 70
     1
102
RTVSPropertyOp28
 70
     1
102
RTVSPropertyOp29
 70
     1
102
RTVSPropertyOp30
 70
     1
102
RTVSPropertyOp31
 70
     1
102
RTVSPropertyOp32
 70
     1
102
RTVSPropertyOp33
 70
     1
102
RTVSPropertyOp34
 70
     1
102
RTVSPropertyOp35
 70
     1
102
RTVSPropertyOp36
 70
     1
102
RTVSPropertyOp37
 70
     1
102
RTVSPropertyOp38
 70
     1
102
RTVSPropertyOp39
 70
     1
102
RTVSPropertyOp40
 70
     1
102
RTVSPropertyOp41
 70
     1
102
RTVSPropertyOp42
 70
     1
102
RTVSPropertyOp43
 70
     1
102
RTVSPropertyOp44
 70
     1
102
RTVSPropertyOp45
 70
     1
102
RTVSPropertyOp46
 70
     1
102
RTVSPropertyOp47
 70
     1
102
RTVSPropertyOp48
 70
     1
102
RTVSPropertyOp49
 70
     1
102
RTVSPropertyOp50
 70
     1
102
RTVSPropertyOp51
 70
     0
102
RTVSPropertyOp52
 70
     0
102
RTVSPropertyOp53
 70
     1
102
RTVSPropertyOp54
 70
     1
102
RTVSPropertyOp55
 70
     1
102
RTVSPropertyOp56
 70
     1
102
RTVSPropertyOp57
 70
     1
102
RTVSPropertyOp58
 70
     1
102
RTVSPropertyOp59
 70
     1
102
RTVSPropertyOp60
 70
     1
102
RTVSPropertyOp61
 70
     1
102
RTVSPropertyOp62
 70
     1
  0
XRECORD
  5
438
102
{ACAD_REACTORS
330
437
102
}
330
437
100
AcDbXrecord
280
     1
102
RTVSPost2010Prop28
280
     0
102
RTVSPost2010PropOp28
 70
     1
102
RTVSPost2010Prop29
280
     1
102
RTVSPost2010PropOp29
 70
     1
102
RTVSPost2010Prop30
280
     1
102
RTVSPost2010PropOp30
 70
     1
102
RTVSPost2010Prop31
280
     0
102
RTVSPost2010PropOp31
 70
     1
102
RTVSPost2010Prop32
280
     0
102
RTVSPost2010PropOp32
 70
     1
102
RTVSPost2010Prop33
280
     0
102
RTVSPost2010PropOp33
 70
     1
102
RTVSPost2010Prop34
280
     0
102
RTVSPost2010PropOp34
 70
     1
102
RTVSPost2010Prop35
280
     0
102
RTVSPost2010PropOp35
 70
     1
102
RTVSPost2010Prop36
280
     0
102
RTVSPost2010PropOp36
 70
     1
102
RTVSPost2010Prop37
 90
       50
102
RTVSPost2010PropOp37
 70
     1
102
RTVSPost2010Prop38
140
0.0
102
RTVSPost2010PropOp38
 70
     1
102
RTVSPost2010Prop39
140
1.0
102
RTVSPost2010PropOp39
 70
     1
102
RTVSPost2010Prop40
 90
        0
102
RTVSPost2010PropOp40
 70
     1
102
RTVSPost2010Prop41ColorIndex
 90
       18
102
RTVSPost2010Prop41ColorRGB
 90
        0
102
RTVSPost2010PropOp41
 70
     1
102
RTVSPost2010Prop42
 90
       50
102
RTVSPost2010PropOp42
 70
     1
102
RTVSPost2010Prop43
 90
        3
102
RTVSPost2010PropOp43
 70
     1
102
RTVSPost2010Prop44ColorIndex
 90
        5
102
RTVSPost2010Prop44ColorRGB
 90
      255
102
RTVSPost2010PropOp44
 70
     1
102
RTVSPost2010Prop45
280
     0
102
RTVSPost2010PropOp45
 70
     1
102
RTVSPost2010Prop46
 90
       50
102
RTVSPost2010PropOp46
 70
     1
102
RTVSPost2010Prop47
 90
       50
102
RTVSPost2010PropOp47
 70
     1
102
RTVSPost2010Prop48
 90
       50
102
RTVSPost2010PropOp48
 70
     1
102
RTVSPost2010Prop49
280
     0
102
RTVSPost2010PropOp49
 70
     1
102
RTVSPost2010Prop50
 90
       50
102
RTVSPost2010PropOp50
 70
     1
102
RTVSPost2010Prop51ColorIndex
 90
      256
102
RTVSPost2010Prop51ColorRGB
 90
-16777216
102
RTVSPost2010PropOp51
 70
     0
102
RTVSPost2010Prop52
140
1.0
102
RTVSPost2010PropOp52
 70
     0
102
RTVSPost2010Prop53
 90
        2
102
RTVSPost2010PropOp53
 70
     1
102
RTVSPost2010Prop54
  1
strokes_ogs.tif
102
RTVSPost2010PropOp54
 70
     1
102
RTVSPost2010Prop55
280
     0
102
RTVSPost2010PropOp55
 70
     1
102
RTVSPost2010Prop56
140
1.0
102
RTVSPost2010PropOp56
 70
     1
102
RTVSPost2010Prop57
140
1.0
102
RTVSPost2010PropOp57
 70
     1
102
RTVSPropertyOp0
 70
     1
102
RTVSPropertyOp1
 70
     1
102
RTVSPropertyOp2
 70
     1
102
RTVSPropertyOp3
 70
     1
102
RTVSPropertyOp4
 70
     1
102
RTVSPropertyOp5
 70
     1
102
RTVSPropertyOp6
 70
     1
102
RTVSPropertyOp7
 70
     1
102
RTVSPropertyOp8
 70
     1
102
RTVSPropertyOp9
 70
     1
102
RTVSPropertyOp10
 70
     1
102
RTVSPropertyOp11
 70
     1
102
RTVSPropertyOp12
 70
     1
102
RTVSPropertyOp13
 70
     1
102
RTVSPropertyOp14
 70
     1
102
RTVSPropertyOp15
 70
     1
102
RTVSPropertyOp16
 70
     1
102
RTVSPropertyOp17
 70
     1
102
RTVSPropertyOp18
 70
     1
102
RTVSPropertyOp19
 70
     1
102
RTVSPropertyOp20
 70
     1
102
RTVSPropertyOp21
 70
     1
102
RTVSPropertyOp22
 70
     1
102
RTVSPropertyOp23
 70
     1
102
RTVSPropertyOp24
 70
     1
102
RTVSPropertyOp25
 70
     1
102
RTVSPropertyOp26
 70
     1
102
RTVSPropertyOp27
 70
     1
102
RTVSPropertyOp28
 70
     1
102
RTVSPropertyOp29
 70
     1
102
RTVSPropertyOp30
 70
     1
102
RTVSPropertyOp31
 70
     1
102
RTVSPropertyOp32
 70
     1
102
RTVSPropertyOp33
 70
     1
102
RTVSPropertyOp34
 70
     1
102
RTVSPropertyOp35
 70
     1
102
RTVSPropertyOp36
 70
     1
102
RTVSPropertyOp37
 70
     1
102
RTVSPropertyOp38
 70
     1
102
RTVSPropertyOp39
 70
     1
102
RTVSPropertyOp40
 70
     1
102
RTVSPropertyOp41
 70
     1
102
RTVSPropertyOp42
 70
     1
102
RTVSPropertyOp43
 70
     1
102
RTVSPropertyOp44
 70
     1
102
RTVSPropertyOp45
 70
     1
102
RTVSPropertyOp46
 70
     1
102
RTVSPropertyOp47
 70
     1
102
RTVSPropertyOp48
 70
     1
102
RTVSPropertyOp49
 70
     1
102
RTVSPropertyOp50
 70
     1
102
RTVSPropertyOp51
 70
     0
102
RTVSPropertyOp52
 70
     0
102
RTVSPropertyOp53
 70
     1
102
RTVSPropertyOp54
 70
     1
102
RTVSPropertyOp55
 70
     1
102
RTVSPropertyOp56
 70
     1
102
RTVSPropertyOp57
 70
     1
102
RTVSPropertyOp58
 70
     1
102
RTVSPropertyOp59
 70
     1
102
RTVSPropertyOp60
 70
     1
102
RTVSPropertyOp61
 70
     1
102
RTVSPropertyOp62
 70
     1
  0
XRECORD
  5
440
102
{ACAD_REACTORS
330
43F
102
}
330
43F
100
AcDbXrecord
280
     1
102
RTVSPost2010Prop28
280
     0
102
RTVSPost2010PropOp28
 70
     1
102
RTVSPost2010Prop29
280
     1
102
RTVSPost2010PropOp29
 70
     1
102
RTVSPost2010Prop30
280
     1
102
RTVSPost2010PropOp30
 70
     1
102
RTVSPost2010Prop31
280
     0
102
RTVSPost2010PropOp31
 70
     1
102
RTVSPost2010Prop32
280
     0
102
RTVSPost2010PropOp32
 70
     1
102
RTVSPost2010Prop33
280
     0
102
RTVSPost2010PropOp33
 70
     1
102
RTVSPost2010Prop34
280
     0
102
RTVSPost2010PropOp34
 70
     1
102
RTVSPost2010Prop35
280
     0
102
RTVSPost2010PropOp35
 70
     1
102
RTVSPost2010Prop36
280
     0
102
RTVSPost2010PropOp36
 70
     1
102
RTVSPost2010Prop37
 90
       50
102
RTVSPost2010PropOp37
 70
     1
102
RTVSPost2010Prop38
140
0.0
102
RTVSPost2010PropOp38
 70
     1
102
RTVSPost2010Prop39
140
1.0
102
RTVSPost2010PropOp39
 70
     1
102
RTVSPost2010Prop40
 90
        0
102
RTVSPost2010PropOp40
 70
     1
102
RTVSPost2010Prop41ColorIndex
 90
       18
102
RTVSPost2010Prop41ColorRGB
 90
        0
102
RTVSPost2010PropOp41
 70
     1
102
RTVSPost2010Prop42
 90
       50
102
RTVSPost2010PropOp42
 70
     1
102
RTVSPost2010Prop43
 90
        3
102
RTVSPost2010PropOp43
 70
     1
102
RTVSPost2010Prop44ColorIndex
 90
        5
102
RTVSPost2010Prop44ColorRGB
 90
      255
102
RTVSPost2010PropOp44
 70
     1
102
RTVSPost2010Prop45
280
     0
102
RTVSPost2010PropOp45
 70
     1
102
RTVSPost2010Prop46
 90
       50
102
RTVSPost2010PropOp46
 70
     1
102
RTVSPost2010Prop47
 90
       50
102
RTVSPost2010PropOp47
 70
     1
102
RTVSPost2010Prop48
 90
       50
102
RTVSPost2010PropOp48
 70
     1
102
RTVSPost2010Prop49
280
     0
102
RTVSPost2010PropOp49
 70
     1
102
RTVSPost2010Prop50
 90
       50
102
RTVSPost2010PropOp50
 70
     1
102
RTVSPost2010Prop51ColorIndex
 90
      256
102
RTVSPost2010Prop51ColorRGB
 90
-16777216
102
RTVSPost2010PropOp51
 70
     0
102
RTVSPost2010Prop52
140
1.0
102
RTVSPost2010PropOp52
 70
     0
102
RTVSPost2010Prop53
 90
        2
102
RTVSPost2010PropOp53
 70
     1
102
RTVSPost2010Prop54
  1
strokes_ogs.tif
102
RTVSPost2010PropOp54
 70
     1
102
RTVSPost2010Prop55
280
     0
102
RTVSPost2010PropOp55
 70
     1
102
RTVSPost2010Prop56
140
1.0
102
RTVSPost2010PropOp56
 70
     1
102
RTVSPost2010Prop57
140
1.0
102
RTVSPost2010PropOp57
 70
     1
102
RTVSPropertyOp0
 70
     1
102
RTVSPropertyOp1
 70
     1
102
RTVSPropertyOp2
 70
     1
102
RTVSPropertyOp3
 70
     1
102
RTVSPropertyOp4
 70
     1
102
RTVSPropertyOp5
 70
     1
102
RTVSPropertyOp6
 70
     1
102
RTVSPropertyOp7
 70
     1
102
RTVSPropertyOp8
 70
     1
102
RTVSPropertyOp9
 70
     1
102
RTVSPropertyOp10
 70
     1
102
RTVSPropertyOp11
 70
     1
102
RTVSPropertyOp12
 70
     1
102
RTVSPropertyOp13
 70
     1
102
RTVSPropertyOp14
 70
     1
102
RTVSPropertyOp15
 70
     1
102
RTVSPropertyOp16
 70
     1
102
RTVSPropertyOp17
 70
     1
102
RTVSPropertyOp18
 70
     1
102
RTVSPropertyOp19
 70
     1
102
RTVSPropertyOp20
 70
     1
102
RTVSPropertyOp21
 70
     1
102
RTVSPropertyOp22
 70
     1
102
RTVSPropertyOp23
 70
     1
102
RTVSPropertyOp24
 70
     1
102
RTVSPropertyOp25
 70
     1
102
RTVSPropertyOp26
 70
     1
102
RTVSPropertyOp27
 70
     1
102
RTVSPropertyOp28
 70
     1
102
RTVSPropertyOp29
 70
     1
102
RTVSPropertyOp30
 70
     1
102
RTVSPropertyOp31
 70
     1
102
RTVSPropertyOp32
 70
     1
102
RTVSPropertyOp33
 70
     1
102
RTVSPropertyOp34
 70
     1
102
RTVSPropertyOp35
 70
     1
102
RTVSPropertyOp36
 70
     1
102
RTVSPropertyOp37
 70
     1
102
RTVSPropertyOp38
 70
     1
102
RTVSPropertyOp39
 70
     1
102
RTVSPropertyOp40
 70
     1
102
RTVSPropertyOp41
 70
     1
102
RTVSPropertyOp42
 70
     1
102
RTVSPropertyOp43
 70
     1
102
RTVSPropertyOp44
 70
     1
102
RTVSPropertyOp45
 70
     1
102
RTVSPropertyOp46
 70
     1
102
RTVSPropertyOp47
 70
     1
102
RTVSPropertyOp48
 70
     1
102
RTVSPropertyOp49
 70
     1
102
RTVSPropertyOp50
 70
     1
102
RTVSPropertyOp51
 70
     0
102
RTVSPropertyOp52
 70
     0
102
RTVSPropertyOp53
 70
     1
102
RTVSPropertyOp54
 70
     1
102
RTVSPropertyOp55
 70
     1
102
RTVSPropertyOp56
 70
     1
102
RTVSPropertyOp57
 70
     1
102
RTVSPropertyOp58
 70
     1
102
RTVSPropertyOp59
 70
     1
102
RTVSPropertyOp60
 70
     1
102
RTVSPropertyOp61
 70
     1
102
RTVSPropertyOp62
 70
     1
  0
XRECORD
  5
45C
102
{ACAD_REACTORS
330
45B
102
}
330
45B
100
AcDbXrecord
280
     1
102
RTVSPost2010Prop28
280
     0
102
RTVSPost2010PropOp28
 70
     1
102
RTVSPost2010Prop29
280
     1
102
RTVSPost2010PropOp29
 70
     1
102
RTVSPost2010Prop30
280
     1
102
RTVSPost2010PropOp30
 70
     1
102
RTVSPost2010Prop31
280
     0
102
RTVSPost2010PropOp31
 70
     1
102
RTVSPost2010Prop32
280
     0
102
RTVSPost2010PropOp32
 70
     1
102
RTVSPost2010Prop33
280
     0
102
RTVSPost2010PropOp33
 70
     1
102
RTVSPost2010Prop34
280
     0
102
RTVSPost2010PropOp34
 70
     1
102
RTVSPost2010Prop35
280
     0
102
RTVSPost2010PropOp35
 70
     1
102
RTVSPost2010Prop36
280
     0
102
RTVSPost2010PropOp36
 70
     1
102
RTVSPost2010Prop37
 90
       50
102
RTVSPost2010PropOp37
 70
     0
102
RTVSPost2010Prop38
140
0.0
102
RTVSPost2010PropOp38
 70
     0
102
RTVSPost2010Prop39
140
1.0
102
RTVSPost2010PropOp39
 70
     0
102
RTVSPost2010Prop40
 90
        0
102
RTVSPost2010PropOp40
 70
     0
102
RTVSPost2010Prop41ColorIndex
 90
       18
102
RTVSPost2010Prop41ColorRGB
 90
        0
102
RTVSPost2010PropOp41
 70
     0
102
RTVSPost2010Prop42
 90
       50
102
RTVSPost2010PropOp42
 70
     0
102
RTVSPost2010Prop43
 90
        3
102
RTVSPost2010PropOp43
 70
     0
102
RTVSPost2010Prop44ColorIndex
 90
        5
102
RTVSPost2010Prop44ColorRGB
 90
      255
102
RTVSPost2010PropOp44
 70
     0
102
RTVSPost2010Prop45
280
     0
102
RTVSPost2010PropOp45
 70
     1
102
RTVSPost2010Prop46
 90
       50
102
RTVSPost2010PropOp46
 70
     0
102
RTVSPost2010Prop47
 90
       50
102
RTVSPost2010PropOp47
 70
     0
102
RTVSPost2010Prop48
 90
       50
102
RTVSPost2010PropOp48
 70
     0
102
RTVSPost2010Prop49
280
     0
102
RTVSPost2010PropOp49
 70
     1
102
RTVSPost2010Prop50
 90
       50
102
RTVSPost2010PropOp50
 70
     0
102
RTVSPost2010Prop51ColorIndex
 90
      256
102
RTVSPost2010Prop51ColorRGB
 90
-16777216
102
RTVSPost2010PropOp51
 70
     0
102
RTVSPost2010Prop52
140
1.0
102
RTVSPost2010PropOp52
 70
     0
102
RTVSPost2010Prop53
 90
        2
102
RTVSPost2010PropOp53
 70
     0
102
RTVSPost2010Prop54
  1
strokes_ogs.tif
102
RTVSPost2010PropOp54
 70
     0
102
RTVSPost2010Prop55
280
     0
102
RTVSPost2010PropOp55
 70
     1
102
RTVSPost2010Prop56
140
1.0
102
RTVSPost2010PropOp56
 70
     0
102
RTVSPost2010Prop57
140
1.0
102
RTVSPost2010PropOp57
 70
     0
102
RTVSPropertyOp0
 70
     0
102
RTVSPropertyOp1
 70
     0
102
RTVSPropertyOp2
 70
     0
102
RTVSPropertyOp3
 70
     0
102
RTVSPropertyOp4
 70
     0
102
RTVSPropertyOp5
 70
     0
102
RTVSPropertyOp6
 70
     0
102
RTVSPropertyOp7
 70
     0
102
RTVSPropertyOp8
 70
     0
102
RTVSPropertyOp9
 70
     0
102
RTVSPropertyOp10
 70
     0
102
RTVSPropertyOp11
 70
     0
102
RTVSPropertyOp12
 70
     0
102
RTVSPropertyOp13
 70
     0
102
RTVSPropertyOp14
 70
     2
102
RTVSPropertyOp15
 70
     0
102
RTVSPropertyOp16
 70
     0
102
RTVSPropertyOp17
 70
     0
102
RTVSPropertyOp18
 70
     0
102
RTVSPropertyOp19
 70
     0
102
RTVSPropertyOp20
 70
     0
102
RTVSPropertyOp21
 70
     0
102
RTVSPropertyOp22
 70
     0
102
RTVSPropertyOp23
 70
     0
102
RTVSPropertyOp24
 70
     0
102
RTVSPropertyOp25
 70
     0
102
RTVSPropertyOp26
 70
     0
102
RTVSPropertyOp27
 70
     0
102
RTVSPropertyOp28
 70
     1
102
RTVSPropertyOp29
 70
     1
102
RTVSPropertyOp30
 70
     1
102
RTVSPropertyOp31
 70
     1
102
RTVSPropertyOp32
 70
     1
102
RTVSPropertyOp33
 70
     1
102
RTVSPropertyOp34
 70
     1
102
RTVSPropertyOp35
 70
     1
102
RTVSPropertyOp36
 70
     1
102
RTVSPropertyOp37
 70
     0
102
RTVSPropertyOp38
 70
     0
102
RTVSPropertyOp39
 70
     0
102
RTVSPropertyOp40
 70
     0
102
RTVSPropertyOp41
 70
     0
102
RTVSPropertyOp42
 70
     0
102
RTVSPropertyOp43
 70
     0
102
RTVSPropertyOp44
 70
     0
102
RTVSPropertyOp45
 70
     1
102
RTVSPropertyOp46
 70
     0
102
RTVSPropertyOp47
 70
     0
102
RTVSPropertyOp48
 70
     0
102
RTVSPropertyOp49
 70
     1
102
RTVSPropertyOp50
 70
     0
102
RTVSPropertyOp51
 70
     0
102
RTVSPropertyOp52
 70
     0
102
RTVSPropertyOp53
 70
     0
102
RTVSPropertyOp54
 70
     0
102
RTVSPropertyOp55
 70
     1
102
RTVSPropertyOp56
 70
     0
102
RTVSPropertyOp57
 70
     0
102
RTVSPropertyOp58
 70
     0
102
RTVSPropertyOp59
 70
     0
102
RTVSPropertyOp60
 70
     0
102
RTVSPropertyOp61
 70
     0
102
RTVSPropertyOp62
 70
     0
  0
XRECORD
  5
44C
102
{ACAD_REACTORS
330
44B
102
}
330
44B
100
AcDbXrecord
280
     1
102
RTVSPost2010Prop28
280
     0
102
RTVSPost2010PropOp28
 70
     1
102
RTVSPost2010Prop29
280
     1
102
RTVSPost2010PropOp29
 70
     1
102
RTVSPost2010Prop30
280
     1
102
RTVSPost2010PropOp30
 70
     1
102
RTVSPost2010Prop31
280
     0
102
RTVSPost2010PropOp31
 70
     1
102
RTVSPost2010Prop32
280
     0
102
RTVSPost2010PropOp32
 70
     1
102
RTVSPost2010Prop33
280
     0
102
RTVSPost2010PropOp33
 70
     1
102
RTVSPost2010Prop34
280
     0
102
RTVSPost2010PropOp34
 70
     1
102
RTVSPost2010Prop35
280
     0
102
RTVSPost2010PropOp35
 70
     1
102
RTVSPost2010Prop36
280
     0
102
RTVSPost2010PropOp36
 70
     1
102
RTVSPost2010Prop37
 90
       50
102
RTVSPost2010PropOp37
 70
     1
102
RTVSPost2010Prop38
140
0.0
102
RTVSPost2010PropOp38
 70
     1
102
RTVSPost2010Prop39
140
1.0
102
RTVSPost2010PropOp39
 70
     1
102
RTVSPost2010Prop40
 90
        0
102
RTVSPost2010PropOp40
 70
     1
102
RTVSPost2010Prop41ColorIndex
 90
       18
102
RTVSPost2010Prop41ColorRGB
 90
        0
102
RTVSPost2010PropOp41
 70
     1
102
RTVSPost2010Prop42
 90
       50
102
RTVSPost2010PropOp42
 70
     1
102
RTVSPost2010Prop43
 90
        3
102
RTVSPost2010PropOp43
 70
     1
102
RTVSPost2010Prop44ColorIndex
 90
        5
102
RTVSPost2010Prop44ColorRGB
 90
      255
102
RTVSPost2010PropOp44
 70
     1
102
RTVSPost2010Prop45
280
     0
102
RTVSPost2010PropOp45
 70
     1
102
RTVSPost2010Prop46
 90
       50
102
RTVSPost2010PropOp46
 70
     1
102
RTVSPost2010Prop47
 90
       50
102
RTVSPost2010PropOp47
 70
     1
102
RTVSPost2010Prop48
 90
       50
102
RTVSPost2010PropOp48
 70
     1
102
RTVSPost2010Prop49
280
     0
102
RTVSPost2010PropOp49
 70
     1
102
RTVSPost2010Prop50
 90
       50
102
RTVSPost2010PropOp50
 70
     1
102
RTVSPost2010Prop51ColorIndex
 90
      256
102
RTVSPost2010Prop51ColorRGB
 90
-16777216
102
RTVSPost2010PropOp51
 70
     0
102
RTVSPost2010Prop52
140
1.0
102
RTVSPost2010PropOp52
 70
     0
102
RTVSPost2010Prop53
 90
        2
102
RTVSPost2010PropOp53
 70
     1
102
RTVSPost2010Prop54
  1
strokes_ogs.tif
102
RTVSPost2010PropOp54
 70
     1
102
RTVSPost2010Prop55
280
     0
102
RTVSPost2010PropOp55
 70
     1
102
RTVSPost2010Prop56
140
1.0
102
RTVSPost2010PropOp56
 70
     1
102
RTVSPost2010Prop57
140
1.0
102
RTVSPost2010PropOp57
 70
     1
102
RTVSPropertyOp0
 70
     1
102
RTVSPropertyOp1
 70
     1
102
RTVSPropertyOp2
 70
     1
102
RTVSPropertyOp3
 70
     1
102
RTVSPropertyOp4
 70
     1
102
RTVSPropertyOp5
 70
     1
102
RTVSPropertyOp6
 70
     1
102
RTVSPropertyOp7
 70
     1
102
RTVSPropertyOp8
 70
     1
102
RTVSPropertyOp9
 70
     1
102
RTVSPropertyOp10
 70
     1
102
RTVSPropertyOp11
 70
     1
102
RTVSPropertyOp12
 70
     1
102
RTVSPropertyOp13
 70
     1
102
RTVSPropertyOp14
 70
     1
102
RTVSPropertyOp15
 70
     1
102
RTVSPropertyOp16
 70
     1
102
RTVSPropertyOp17
 70
     1
102
RTVSPropertyOp18
 70
     1
102
RTVSPropertyOp19
 70
     1
102
RTVSPropertyOp20
 70
     1
102
RTVSPropertyOp21
 70
     1
102
RTVSPropertyOp22
 70
     1
102
RTVSPropertyOp23
 70
     1
102
RTVSPropertyOp24
 70
     1
102
RTVSPropertyOp25
 70
     1
102
RTVSPropertyOp26
 70
     1
102
RTVSPropertyOp27
 70
     1
102
RTVSPropertyOp28
 70
     1
102
RTVSPropertyOp29
 70
     1
102
RTVSPropertyOp30
 70
     1
102
RTVSPropertyOp31
 70
     1
102
RTVSPropertyOp32
 70
     1
102
RTVSPropertyOp33
 70
     1
102
RTVSPropertyOp34
 70
     1
102
RTVSPropertyOp35
 70
     1
102
RTVSPropertyOp36
 70
     1
102
RTVSPropertyOp37
 70
     1
102
RTVSPropertyOp38
 70
     1
102
RTVSPropertyOp39
 70
     1
102
RTVSPropertyOp40
 70
     1
102
RTVSPropertyOp41
 70
     1
102
RTVSPropertyOp42
 70
     1
102
RTVSPropertyOp43
 70
     1
102
RTVSPropertyOp44
 70
     1
102
RTVSPropertyOp45
 70
     1
102
RTVSPropertyOp46
 70
     1
102
RTVSPropertyOp47
 70
     1
102
RTVSPropertyOp48
 70
     1
102
RTVSPropertyOp49
 70
     1
102
RTVSPropertyOp50
 70
     1
102
RTVSPropertyOp51
 70
     0
102
RTVSPropertyOp52
 70
     0
102
RTVSPropertyOp53
 70
     1
102
RTVSPropertyOp54
 70
     1
102
RTVSPropertyOp55
 70
     1
102
RTVSPropertyOp56
 70
     1
102
RTVSPropertyOp57
 70
     1
102
RTVSPropertyOp58
 70
     1
102
RTVSPropertyOp59
 70
     1
102
RTVSPropertyOp60
 70
     1
102
RTVSPropertyOp61
 70
     1
102
RTVSPropertyOp62
 70
     1
  0
XRECORD
  5
45E
102
{ACAD_REACTORS
330
45D
102
}
330
45D
100
AcDbXrecord
280
     1
102
RTVSPost2010Prop28
280
     0
102
RTVSPost2010PropOp28
 70
     1
102
RTVSPost2010Prop29
280
     1
102
RTVSPost2010PropOp29
 70
     1
102
RTVSPost2010Prop30
280
     1
102
RTVSPost2010PropOp30
 70
     1
102
RTVSPost2010Prop31
280
     0
102
RTVSPost2010PropOp31
 70
     1
102
RTVSPost2010Prop32
280
     0
102
RTVSPost2010PropOp32
 70
     1
102
RTVSPost2010Prop33
280
     0
102
RTVSPost2010PropOp33
 70
     1
102
RTVSPost2010Prop34
280
     0
102
RTVSPost2010PropOp34
 70
     1
102
RTVSPost2010Prop35
280
     0
102
RTVSPost2010PropOp35
 70
     1
102
RTVSPost2010Prop36
280
     0
102
RTVSPost2010PropOp36
 70
     1
102
RTVSPost2010Prop37
 90
       50
102
RTVSPost2010PropOp37
 70
     0
102
RTVSPost2010Prop38
140
0.0
102
RTVSPost2010PropOp38
 70
     0
102
RTVSPost2010Prop39
140
1.0
102
RTVSPost2010PropOp39
 70
     0
102
RTVSPost2010Prop40
 90
        0
102
RTVSPost2010PropOp40
 70
     0
102
RTVSPost2010Prop41ColorIndex
 90
       18
102
RTVSPost2010Prop41ColorRGB
 90
        0
102
RTVSPost2010PropOp41
 70
     0
102
RTVSPost2010Prop42
 90
       50
102
RTVSPost2010PropOp42
 70
     0
102
RTVSPost2010Prop43
 90
        3
102
RTVSPost2010PropOp43
 70
     0
102
RTVSPost2010Prop44ColorIndex
 90
        5
102
RTVSPost2010Prop44ColorRGB
 90
      255
102
RTVSPost2010PropOp44
 70
     0
102
RTVSPost2010Prop45
280
     0
102
RTVSPost2010PropOp45
 70
     1
102
RTVSPost2010Prop46
 90
       50
102
RTVSPost2010PropOp46
 70
     0
102
RTVSPost2010Prop47
 90
       50
102
RTVSPost2010PropOp47
 70
     0
102
RTVSPost2010Prop48
 90
       50
102
RTVSPost2010PropOp48
 70
     0
102
RTVSPost2010Prop49
280
     0
102
RTVSPost2010PropOp49
 70
     1
102
RTVSPost2010Prop50
 90
       50
102
RTVSPost2010PropOp50
 70
     0
102
RTVSPost2010Prop51ColorIndex
 90
      256
102
RTVSPost2010Prop51ColorRGB
 90
-16777216
102
RTVSPost2010PropOp51
 70
     0
102
RTVSPost2010Prop52
140
1.0
102
RTVSPost2010PropOp52
 70
     0
102
RTVSPost2010Prop53
 90
        2
102
RTVSPost2010PropOp53
 70
     0
102
RTVSPost2010Prop54
  1
strokes_ogs.tif
102
RTVSPost2010PropOp54
 70
     0
102
RTVSPost2010Prop55
280
     0
102
RTVSPost2010PropOp55
 70
     1
102
RTVSPost2010Prop56
140
1.0
102
RTVSPost2010PropOp56
 70
     0
102
RTVSPost2010Prop57
140
1.0
102
RTVSPost2010PropOp57
 70
     0
102
RTVSPropertyOp0
 70
     0
102
RTVSPropertyOp1
 70
     0
102
RTVSPropertyOp2
 70
     0
102
RTVSPropertyOp3
 70
     0
102
RTVSPropertyOp4
 70
     0
102
RTVSPropertyOp5
 70
     0
102
RTVSPropertyOp6
 70
     0
102
RTVSPropertyOp7
 70
     0
102
RTVSPropertyOp8
 70
     0
102
RTVSPropertyOp9
 70
     0
102
RTVSPropertyOp10
 70
     0
102
RTVSPropertyOp11
 70
     0
102
RTVSPropertyOp12
 70
     0
102
RTVSPropertyOp13
 70
     0
102
RTVSPropertyOp14
 70
     2
102
RTVSPropertyOp15
 70
     0
102
RTVSPropertyOp16
 70
     0
102
RTVSPropertyOp17
 70
     0
102
RTVSPropertyOp18
 70
     0
102
RTVSPropertyOp19
 70
     0
102
RTVSPropertyOp20
 70
     0
102
RTVSPropertyOp21
 70
     0
102
RTVSPropertyOp22
 70
     0
102
RTVSPropertyOp23
 70
     0
102
RTVSPropertyOp24
 70
     0
102
RTVSPropertyOp25
 70
     0
102
RTVSPropertyOp26
 70
     0
102
RTVSPropertyOp27
 70
     0
102
RTVSPropertyOp28
 70
     1
102
RTVSPropertyOp29
 70
     1
102
RTVSPropertyOp30
 70
     1
102
RTVSPropertyOp31
 70
     1
102
RTVSPropertyOp32
 70
     1
102
RTVSPropertyOp33
 70
     1
102
RTVSPropertyOp34
 70
     1
102
RTVSPropertyOp35
 70
     1
102
RTVSPropertyOp36
 70
     1
102
RTVSPropertyOp37
 70
     0
102
RTVSPropertyOp38
 70
     0
102
RTVSPropertyOp39
 70
     0
102
RTVSPropertyOp40
 70
     0
102
RTVSPropertyOp41
 70
     0
102
RTVSPropertyOp42
 70
     0
102
RTVSPropertyOp43
 70
     0
102
RTVSPropertyOp44
 70
     0
102
RTVSPropertyOp45
 70
     1
102
RTVSPropertyOp46
 70
     0
102
RTVSPropertyOp47
 70
     0
102
RTVSPropertyOp48
 70
     0
102
RTVSPropertyOp49
 70
     1
102
RTVSPropertyOp50
 70
     0
102
RTVSPropertyOp51
 70
     0
102
RTVSPropertyOp52
 70
     0
102
RTVSPropertyOp53
 70
     0
102
RTVSPropertyOp54
 70
     0
102
RTVSPropertyOp55
 70
     1
102
RTVSPropertyOp56
 70
     0
102
RTVSPropertyOp57
 70
     0
102
RTVSPropertyOp58
 70
     0
102
RTVSPropertyOp59
 70
     0
102
RTVSPropertyOp60
 70
     0
102
RTVSPropertyOp61
 70
     0
102
RTVSPropertyOp62
 70
     0
  0
XRECORD
  5
444
102
{ACAD_REACTORS
330
443
102
}
330
443
100
AcDbXrecord
280
     1
102
RTVSPost2010Prop28
280
     0
102
RTVSPost2010PropOp28
 70
     1
102
RTVSPost2010Prop29
280
     1
102
RTVSPost2010PropOp29
 70
     1
102
RTVSPost2010Prop30
280
     1
102
RTVSPost2010PropOp30
 70
     1
102
RTVSPost2010Prop31
280
     0
102
RTVSPost2010PropOp31
 70
     1
102
RTVSPost2010Prop32
280
     0
102
RTVSPost2010PropOp32
 70
     1
102
RTVSPost2010Prop33
280
     0
102
RTVSPost2010PropOp33
 70
     1
102
RTVSPost2010Prop34
280
     0
102
RTVSPost2010PropOp34
 70
     1
102
RTVSPost2010Prop35
280
     0
102
RTVSPost2010PropOp35
 70
     1
102
RTVSPost2010Prop36
280
     0
102
RTVSPost2010PropOp36
 70
     1
102
RTVSPost2010Prop37
 90
       50
102
RTVSPost2010PropOp37
 70
     1
102
RTVSPost2010Prop38
140
0.0
102
RTVSPost2010PropOp38
 70
     1
102
RTVSPost2010Prop39
140
1.0
102
RTVSPost2010PropOp39
 70
     1
102
RTVSPost2010Prop40
 90
        0
102
RTVSPost2010PropOp40
 70
     1
102
RTVSPost2010Prop41ColorIndex
 90
       18
102
RTVSPost2010Prop41ColorRGB
 90
        0
102
RTVSPost2010PropOp41
 70
     1
102
RTVSPost2010Prop42
 90
       50
102
RTVSPost2010PropOp42
 70
     1
102
RTVSPost2010Prop43
 90
        3
102
RTVSPost2010PropOp43
 70
     1
102
RTVSPost2010Prop44ColorIndex
 90
        5
102
RTVSPost2010Prop44ColorRGB
 90
      255
102
RTVSPost2010PropOp44
 70
     1
102
RTVSPost2010Prop45
280
     0
102
RTVSPost2010PropOp45
 70
     1
102
RTVSPost2010Prop46
 90
       50
102
RTVSPost2010PropOp46
 70
     1
102
RTVSPost2010Prop47
 90
       50
102
RTVSPost2010PropOp47
 70
     1
102
RTVSPost2010Prop48
 90
       50
102
RTVSPost2010PropOp48
 70
     1
102
RTVSPost2010Prop49
280
     0
102
RTVSPost2010PropOp49
 70
     1
102
RTVSPost2010Prop50
 90
       50
102
RTVSPost2010PropOp50
 70
     1
102
RTVSPost2010Prop51ColorIndex
 90
      256
102
RTVSPost2010Prop51ColorRGB
 90
-16777216
102
RTVSPost2010PropOp51
 70
     0
102
RTVSPost2010Prop52
140
1.0
102
RTVSPost2010PropOp52
 70
     0
102
RTVSPost2010Prop53
 90
        2
102
RTVSPost2010PropOp53
 70
     1
102
RTVSPost2010Prop54
  1
strokes_ogs.tif
102
RTVSPost2010PropOp54
 70
     1
102
RTVSPost2010Prop55
280
     0
102
RTVSPost2010PropOp55
 70
     1
102
RTVSPost2010Prop56
140
1.0
102
RTVSPost2010PropOp56
 70
     1
102
RTVSPost2010Prop57
140
1.0
102
RTVSPost2010PropOp57
 70
     1
102
RTVSPropertyOp0
 70
     1
102
RTVSPropertyOp1
 70
     1
102
RTVSPropertyOp2
 70
     1
102
RTVSPropertyOp3
 70
     1
102
RTVSPropertyOp4
 70
     1
102
RTVSPropertyOp5
 70
     1
102
RTVSPropertyOp6
 70
     1
102
RTVSPropertyOp7
 70
     1
102
RTVSPropertyOp8
 70
     1
102
RTVSPropertyOp9
 70
     1
102
RTVSPropertyOp10
 70
     1
102
RTVSPropertyOp11
 70
     1
102
RTVSPropertyOp12
 70
     1
102
RTVSPropertyOp13
 70
     1
102
RTVSPropertyOp14
 70
     1
102
RTVSPropertyOp15
 70
     1
102
RTVSPropertyOp16
 70
     1
102
RTVSPropertyOp17
 70
     1
102
RTVSPropertyOp18
 70
     1
102
RTVSPropertyOp19
 70
     1
102
RTVSPropertyOp20
 70
     1
102
RTVSPropertyOp21
 70
     1
102
RTVSPropertyOp22
 70
     1
102
RTVSPropertyOp23
 70
     1
102
RTVSPropertyOp24
 70
     1
102
RTVSPropertyOp25
 70
     1
102
RTVSPropertyOp26
 70
     1
102
RTVSPropertyOp27
 70
     1
102
RTVSPropertyOp28
 70
     1
102
RTVSPropertyOp29
 70
     1
102
RTVSPropertyOp30
 70
     1
102
RTVSPropertyOp31
 70
     1
102
RTVSPropertyOp32
 70
     1
102
RTVSPropertyOp33
 70
     1
102
RTVSPropertyOp34
 70
     1
102
RTVSPropertyOp35
 70
     1
102
RTVSPropertyOp36
 70
     1
102
RTVSPropertyOp37
 70
     1
102
RTVSPropertyOp38
 70
     1
102
RTVSPropertyOp39
 70
     1
102
RTVSPropertyOp40
 70
     1
102
RTVSPropertyOp41
 70
     1
102
RTVSPropertyOp42
 70
     1
102
RTVSPropertyOp43
 70
     1
102
RTVSPropertyOp44
 70
     1
102
RTVSPropertyOp45
 70
     1
102
RTVSPropertyOp46
 70
     1
102
RTVSPropertyOp47
 70
     1
102
RTVSPropertyOp48
 70
     1
102
RTVSPropertyOp49
 70
     1
102
RTVSPropertyOp50
 70
     1
102
RTVSPropertyOp51
 70
     0
102
RTVSPropertyOp52
 70
     0
102
RTVSPropertyOp53
 70
     1
102
RTVSPropertyOp54
 70
     1
102
RTVSPropertyOp55
 70
     1
102
RTVSPropertyOp56
 70
     1
102
RTVSPropertyOp57
 70
     1
102
RTVSPropertyOp58
 70
     1
102
RTVSPropertyOp59
 70
     1
102
RTVSPropertyOp60
 70
     1
102
RTVSPropertyOp61
 70
     1
102
RTVSPropertyOp62
 70
     1
  0
XRECORD
  5
45A
102
{ACAD_REACTORS
330
459
102
}
330
459
100
AcDbXrecord
280
     1
102
RTVSPost2010Prop28
280
     0
102
RTVSPost2010PropOp28
 70
     1
102
RTVSPost2010Prop29
280
     1
102
RTVSPost2010PropOp29
 70
     1
102
RTVSPost2010Prop30
280
     1
102
RTVSPost2010PropOp30
 70
     1
102
RTVSPost2010Prop31
280
     0
102
RTVSPost2010PropOp31
 70
     1
102
RTVSPost2010Prop32
280
     0
102
RTVSPost2010PropOp32
 70
     1
102
RTVSPost2010Prop33
280
     0
102
RTVSPost2010PropOp33
 70
     1
102
RTVSPost2010Prop34
280
     0
102
RTVSPost2010PropOp34
 70
     1
102
RTVSPost2010Prop35
280
     0
102
RTVSPost2010PropOp35
 70
     1
102
RTVSPost2010Prop36
280
     0
102
RTVSPost2010PropOp36
 70
     1
102
RTVSPost2010Prop37
 90
       50
102
RTVSPost2010PropOp37
 70
     1
102
RTVSPost2010Prop38
140
0.0
102
RTVSPost2010PropOp38
 70
     1
102
RTVSPost2010Prop39
140
1.0
102
RTVSPost2010PropOp39
 70
     1
102
RTVSPost2010Prop40
 90
        0
102
RTVSPost2010PropOp40
 70
     1
102
RTVSPost2010Prop41ColorIndex
 90
       18
102
RTVSPost2010Prop41ColorRGB
 90
        0
102
RTVSPost2010PropOp41
 70
     1
102
RTVSPost2010Prop42
 90
       50
102
RTVSPost2010PropOp42
 70
     1
102
RTVSPost2010Prop43
 90
        3
102
RTVSPost2010PropOp43
 70
     1
102
RTVSPost2010Prop44ColorIndex
 90
        5
102
RTVSPost2010Prop44ColorRGB
 90
      255
102
RTVSPost2010PropOp44
 70
     1
102
RTVSPost2010Prop45
280
     0
102
RTVSPost2010PropOp45
 70
     1
102
RTVSPost2010Prop46
 90
       50
102
RTVSPost2010PropOp46
 70
     1
102
RTVSPost2010Prop47
 90
       50
102
RTVSPost2010PropOp47
 70
     1
102
RTVSPost2010Prop48
 90
       50
102
RTVSPost2010PropOp48
 70
     1
102
RTVSPost2010Prop49
280
     0
102
RTVSPost2010PropOp49
 70
     1
102
RTVSPost2010Prop50
 90
       50
102
RTVSPost2010PropOp50
 70
     1
102
RTVSPost2010Prop51ColorIndex
 90
      256
102
RTVSPost2010Prop51ColorRGB
 90
-16777216
102
RTVSPost2010PropOp51
 70
     0
102
RTVSPost2010Prop52
140
1.0
102
RTVSPost2010PropOp52
 70
     0
102
RTVSPost2010Prop53
 90
        2
102
RTVSPost2010PropOp53
 70
     1
102
RTVSPost2010Prop54
  1
strokes_ogs.tif
102
RTVSPost2010PropOp54
 70
     1
102
RTVSPost2010Prop55
280
     0
102
RTVSPost2010PropOp55
 70
     1
102
RTVSPost2010Prop56
140
1.0
102
RTVSPost2010PropOp56
 70
     1
102
RTVSPost2010Prop57
140
1.0
102
RTVSPost2010PropOp57
 70
     1
102
RTVSPropertyOp0
 70
     1
102
RTVSPropertyOp1
 70
     1
102
RTVSPropertyOp2
 70
     1
102
RTVSPropertyOp3
 70
     1
102
RTVSPropertyOp4
 70
     1
102
RTVSPropertyOp5
 70
     1
102
RTVSPropertyOp6
 70
     1
102
RTVSPropertyOp7
 70
     1
102
RTVSPropertyOp8
 70
     1
102
RTVSPropertyOp9
 70
     1
102
RTVSPropertyOp10
 70
     1
102
RTVSPropertyOp11
 70
     1
102
RTVSPropertyOp12
 70
     1
102
RTVSPropertyOp13
 70
     1
102
RTVSPropertyOp14
 70
     1
102
RTVSPropertyOp15
 70
     1
102
RTVSPropertyOp16
 70
     1
102
RTVSPropertyOp17
 70
     1
102
RTVSPropertyOp18
 70
     1
102
RTVSPropertyOp19
 70
     1
102
RTVSPropertyOp20
 70
     1
102
RTVSPropertyOp21
 70
     1
102
RTVSPropertyOp22
 70
     1
102
RTVSPropertyOp23
 70
     1
102
RTVSPropertyOp24
 70
     1
102
RTVSPropertyOp25
 70
     1
102
RTVSPropertyOp26
 70
     1
102
RTVSPropertyOp27
 70
     1
102
RTVSPropertyOp28
 70
     1
102
RTVSPropertyOp29
 70
     1
102
RTVSPropertyOp30
 70
     1
102
RTVSPropertyOp31
 70
     1
102
RTVSPropertyOp32
 70
     1
102
RTVSPropertyOp33
 70
     1
102
RTVSPropertyOp34
 70
     1
102
RTVSPropertyOp35
 70
     1
102
RTVSPropertyOp36
 70
     1
102
RTVSPropertyOp37
 70
     1
102
RTVSPropertyOp38
 70
     1
102
RTVSPropertyOp39
 70
     1
102
RTVSPropertyOp40
 70
     1
102
RTVSPropertyOp41
 70
     1
102
RTVSPropertyOp42
 70
     1
102
RTVSPropertyOp43
 70
     1
102
RTVSPropertyOp44
 70
     1
102
RTVSPropertyOp45
 70
     1
102
RTVSPropertyOp46
 70
     1
102
RTVSPropertyOp47
 70
     1
102
RTVSPropertyOp48
 70
     1
102
RTVSPropertyOp49
 70
     1
102
RTVSPropertyOp50
 70
     1
102
RTVSPropertyOp51
 70
     0
102
RTVSPropertyOp52
 70
     0
102
RTVSPropertyOp53
 70
     1
102
RTVSPropertyOp54
 70
     1
102
RTVSPropertyOp55
 70
     1
102
RTVSPropertyOp56
 70
     1
102
RTVSPropertyOp57
 70
     1
102
RTVSPropertyOp58
 70
     1
102
RTVSPropertyOp59
 70
     1
102
RTVSPropertyOp60
 70
     1
102
RTVSPropertyOp61
 70
     1
102
RTVSPropertyOp62
 70
     1
  0
XRECORD
  5
458
102
{ACAD_REACTORS
330
457
102
}
330
457
100
AcDbXrecord
280
     1
102
RTVSPost2010Prop28
280
     0
102
RTVSPost2010PropOp28
 70
     1
102
RTVSPost2010Prop29
280
     1
102
RTVSPost2010PropOp29
 70
     1
102
RTVSPost2010Prop30
280
     1
102
RTVSPost2010PropOp30
 70
     1
102
RTVSPost2010Prop31
280
     0
102
RTVSPost2010PropOp31
 70
     1
102
RTVSPost2010Prop32
280
     0
102
RTVSPost2010PropOp32
 70
     1
102
RTVSPost2010Prop33
280
     0
102
RTVSPost2010PropOp33
 70
     1
102
RTVSPost2010Prop34
280
     0
102
RTVSPost2010PropOp34
 70
     1
102
RTVSPost2010Prop35
280
     0
102
RTVSPost2010PropOp35
 70
     1
102
RTVSPost2010Prop36
280
     0
102
RTVSPost2010PropOp36
 70
     1
102
RTVSPost2010Prop37
 90
       50
102
RTVSPost2010PropOp37
 70
     1
102
RTVSPost2010Prop38
140
0.0
102
RTVSPost2010PropOp38
 70
     1
102
RTVSPost2010Prop39
140
1.0
102
RTVSPost2010PropOp39
 70
     1
102
RTVSPost2010Prop40
 90
        0
102
RTVSPost2010PropOp40
 70
     1
102
RTVSPost2010Prop41ColorIndex
 90
       18
102
RTVSPost2010Prop41ColorRGB
 90
        0
102
RTVSPost2010PropOp41
 70
     1
102
RTVSPost2010Prop42
 90
       50
102
RTVSPost2010PropOp42
 70
     1
102
RTVSPost2010Prop43
 90
        3
102
RTVSPost2010PropOp43
 70
     1
102
RTVSPost2010Prop44ColorIndex
 90
        5
102
RTVSPost2010Prop44ColorRGB
 90
      255
102
RTVSPost2010PropOp44
 70
     1
102
RTVSPost2010Prop45
280
     0
102
RTVSPost2010PropOp45
 70
     1
102
RTVSPost2010Prop46
 90
       50
102
RTVSPost2010PropOp46
 70
     1
102
RTVSPost2010Prop47
 90
       50
102
RTVSPost2010PropOp47
 70
     1
102
RTVSPost2010Prop48
 90
       50
102
RTVSPost2010PropOp48
 70
     1
102
RTVSPost2010Prop49
280
     0
102
RTVSPost2010PropOp49
 70
     1
102
RTVSPost2010Prop50
 90
       50
102
RTVSPost2010PropOp50
 70
     1
102
RTVSPost2010Prop51ColorIndex
 90
      256
102
RTVSPost2010Prop51ColorRGB
 90
-16777216
102
RTVSPost2010PropOp51
 70
     0
102
RTVSPost2010Prop52
140
1.0
102
RTVSPost2010PropOp52
 70
     0
102
RTVSPost2010Prop53
 90
        2
102
RTVSPost2010PropOp53
 70
     1
102
RTVSPost2010Prop54
  1
strokes_ogs.tif
102
RTVSPost2010PropOp54
 70
     1
102
RTVSPost2010Prop55
280
     0
102
RTVSPost2010PropOp55
 70
     1
102
RTVSPost2010Prop56
140
1.0
102
RTVSPost2010PropOp56
 70
     1
102
RTVSPost2010Prop57
140
1.0
102
RTVSPost2010PropOp57
 70
     1
102
RTVSPropertyOp0
 70
     1
102
RTVSPropertyOp1
 70
     1
102
RTVSPropertyOp2
 70
     1
102
RTVSPropertyOp3
 70
     1
102
RTVSPropertyOp4
 70
     1
102
RTVSPropertyOp5
 70
     1
102
RTVSPropertyOp6
 70
     1
102
RTVSPropertyOp7
 70
     1
102
RTVSPropertyOp8
 70
     1
102
RTVSPropertyOp9
 70
     1
102
RTVSPropertyOp10
 70
     1
102
RTVSPropertyOp11
 70
     1
102
RTVSPropertyOp12
 70
     1
102
RTVSPropertyOp13
 70
     1
102
RTVSPropertyOp14
 70
     1
102
RTVSPropertyOp15
 70
     1
102
RTVSPropertyOp16
 70
     1
102
RTVSPropertyOp17
 70
     1
102
RTVSPropertyOp18
 70
     1
102
RTVSPropertyOp19
 70
     1
102
RTVSPropertyOp20
 70
     1
102
RTVSPropertyOp21
 70
     1
102
RTVSPropertyOp22
 70
     1
102
RTVSPropertyOp23
 70
     1
102
RTVSPropertyOp24
 70
     1
102
RTVSPropertyOp25
 70
     1
102
RTVSPropertyOp26
 70
     1
102
RTVSPropertyOp27
 70
     1
102
RTVSPropertyOp28
 70
     1
102
RTVSPropertyOp29
 70
     1
102
RTVSPropertyOp30
 70
     1
102
RTVSPropertyOp31
 70
     1
102
RTVSPropertyOp32
 70
     1
102
RTVSPropertyOp33
 70
     1
102
RTVSPropertyOp34
 70
     1
102
RTVSPropertyOp35
 70
     1
102
RTVSPropertyOp36
 70
     1
102
RTVSPropertyOp37
 70
     1
102
RTVSPropertyOp38
 70
     1
102
RTVSPropertyOp39
 70
     1
102
RTVSPropertyOp40
 70
     1
102
RTVSPropertyOp41
 70
     1
102
RTVSPropertyOp42
 70
     1
102
RTVSPropertyOp43
 70
     1
102
RTVSPropertyOp44
 70
     1
102
RTVSPropertyOp45
 70
     1
102
RTVSPropertyOp46
 70
     1
102
RTVSPropertyOp47
 70
     1
102
RTVSPropertyOp48
 70
     1
102
RTVSPropertyOp49
 70
     1
102
RTVSPropertyOp50
 70
     1
102
RTVSPropertyOp51
 70
     0
102
RTVSPropertyOp52
 70
     0
102
RTVSPropertyOp53
 70
     1
102
RTVSPropertyOp54
 70
     1
102
RTVSPropertyOp55
 70
     1
102
RTVSPropertyOp56
 70
     1
102
RTVSPropertyOp57
 70
     1
102
RTVSPropertyOp58
 70
     1
102
RTVSPropertyOp59
 70
     1
102
RTVSPropertyOp60
 70
     1
102
RTVSPropertyOp61
 70
     1
102
RTVSPropertyOp62
 70
     1
  0
XRECORD
  5
452
102
{ACAD_REACTORS
330
451
102
}
330
451
100
AcDbXrecord
280
     1
102
RTVSPost2010Prop28
280
     0
102
RTVSPost2010PropOp28
 70
     1
102
RTVSPost2010Prop29
280
     1
102
RTVSPost2010PropOp29
 70
     1
102
RTVSPost2010Prop30
280
     1
102
RTVSPost2010PropOp30
 70
     1
102
RTVSPost2010Prop31
280
     0
102
RTVSPost2010PropOp31
 70
     1
102
RTVSPost2010Prop32
280
     0
102
RTVSPost2010PropOp32
 70
     1
102
RTVSPost2010Prop33
280
     0
102
RTVSPost2010PropOp33
 70
     1
102
RTVSPost2010Prop34
280
     0
102
RTVSPost2010PropOp34
 70
     1
102
RTVSPost2010Prop35
280
     0
102
RTVSPost2010PropOp35
 70
     1
102
RTVSPost2010Prop36
280
     0
102
RTVSPost2010PropOp36
 70
     1
102
RTVSPost2010Prop37
 90
       50
102
RTVSPost2010PropOp37
 70
     1
102
RTVSPost2010Prop38
140
0.0
102
RTVSPost2010PropOp38
 70
     1
102
RTVSPost2010Prop39
140
1.0
102
RTVSPost2010PropOp39
 70
     1
102
RTVSPost2010Prop40
 90
        0
102
RTVSPost2010PropOp40
 70
     1
102
RTVSPost2010Prop41ColorIndex
 90
       18
102
RTVSPost2010Prop41ColorRGB
 90
        0
102
RTVSPost2010PropOp41
 70
     1
102
RTVSPost2010Prop42
 90
       50
102
RTVSPost2010PropOp42
 70
     1
102
RTVSPost2010Prop43
 90
        3
102
RTVSPost2010PropOp43
 70
     1
102
RTVSPost2010Prop44ColorIndex
 90
        5
102
RTVSPost2010Prop44ColorRGB
 90
      255
102
RTVSPost2010PropOp44
 70
     1
102
RTVSPost2010Prop45
280
     0
102
RTVSPost2010PropOp45
 70
     1
102
RTVSPost2010Prop46
 90
       50
102
RTVSPost2010PropOp46
 70
     1
102
RTVSPost2010Prop47
 90
       50
102
RTVSPost2010PropOp47
 70
     1
102
RTVSPost2010Prop48
 90
       50
102
RTVSPost2010PropOp48
 70
     1
102
RTVSPost2010Prop49
280
     0
102
RTVSPost2010PropOp49
 70
     1
102
RTVSPost2010Prop50
 90
       50
102
RTVSPost2010PropOp50
 70
     1
102
RTVSPost2010Prop51ColorIndex
 90
      256
102
RTVSPost2010Prop51ColorRGB
 90
-16777216
102
RTVSPost2010PropOp51
 70
     0
102
RTVSPost2010Prop52
140
1.0
102
RTVSPost2010PropOp52
 70
     0
102
RTVSPost2010Prop53
 90
        2
102
RTVSPost2010PropOp53
 70
     1
102
RTVSPost2010Prop54
  1
strokes_ogs.tif
102
RTVSPost2010PropOp54
 70
     1
102
RTVSPost2010Prop55
280
     0
102
RTVSPost2010PropOp55
 70
     1
102
RTVSPost2010Prop56
140
1.0
102
RTVSPost2010PropOp56
 70
     1
102
RTVSPost2010Prop57
140
1.0
102
RTVSPost2010PropOp57
 70
     1
102
RTVSPropertyOp0
 70
     1
102
RTVSPropertyOp1
 70
     1
102
RTVSPropertyOp2
 70
     1
102
RTVSPropertyOp3
 70
     1
102
RTVSPropertyOp4
 70
     1
102
RTVSPropertyOp5
 70
     1
102
RTVSPropertyOp6
 70
     1
102
RTVSPropertyOp7
 70
     1
102
RTVSPropertyOp8
 70
     1
102
RTVSPropertyOp9
 70
     1
102
RTVSPropertyOp10
 70
     1
102
RTVSPropertyOp11
 70
     1
102
RTVSPropertyOp12
 70
     1
102
RTVSPropertyOp13
 70
     1
102
RTVSPropertyOp14
 70
     1
102
RTVSPropertyOp15
 70
     1
102
RTVSPropertyOp16
 70
     1
102
RTVSPropertyOp17
 70
     1
102
RTVSPropertyOp18
 70
     1
102
RTVSPropertyOp19
 70
     1
102
RTVSPropertyOp20
 70
     1
102
RTVSPropertyOp21
 70
     1
102
RTVSPropertyOp22
 70
     1
102
RTVSPropertyOp23
 70
     1
102
RTVSPropertyOp24
 70
     1
102
RTVSPropertyOp25
 70
     1
102
RTVSPropertyOp26
 70
     1
102
RTVSPropertyOp27
 70
     1
102
RTVSPropertyOp28
 70
     1
102
RTVSPropertyOp29
 70
     1
102
RTVSPropertyOp30
 70
     1
102
RTVSPropertyOp31
 70
     1
102
RTVSPropertyOp32
 70
     1
102
RTVSPropertyOp33
 70
     1
102
RTVSPropertyOp34
 70
     1
102
RTVSPropertyOp35
 70
     1
102
RTVSPropertyOp36
 70
     1
102
RTVSPropertyOp37
 70
     1
102
RTVSPropertyOp38
 70
     1
102
RTVSPropertyOp39
 70
     1
102
RTVSPropertyOp40
 70
     1
102
RTVSPropertyOp41
 70
     1
102
RTVSPropertyOp42
 70
     1
102
RTVSPropertyOp43
 70
     1
102
RTVSPropertyOp44
 70
     1
102
RTVSPropertyOp45
 70
     1
102
RTVSPropertyOp46
 70
     1
102
RTVSPropertyOp47
 70
     1
102
RTVSPropertyOp48
 70
     1
102
RTVSPropertyOp49
 70
     1
102
RTVSPropertyOp50
 70
     1
102
RTVSPropertyOp51
 70
     0
102
RTVSPropertyOp52
 70
     0
102
RTVSPropertyOp53
 70
     1
102
RTVSPropertyOp54
 70
     1
102
RTVSPropertyOp55
 70
     1
102
RTVSPropertyOp56
 70
     1
102
RTVSPropertyOp57
 70
     1
102
RTVSPropertyOp58
 70
     1
102
RTVSPropertyOp59
 70
     1
102
RTVSPropertyOp60
 70
     1
102
RTVSPropertyOp61
 70
     1
102
RTVSPropertyOp62
 70
     1
  0
XRECORD
  5
454
102
{ACAD_REACTORS
330
453
102
}
330
453
100
AcDbXrecord
280
     1
102
RTVSPost2010Prop28
280
     0
102
RTVSPost2010PropOp28
 70
     1
102
RTVSPost2010Prop29
280
     1
102
RTVSPost2010PropOp29
 70
     1
102
RTVSPost2010Prop30
280
     1
102
RTVSPost2010PropOp30
 70
     1
102
RTVSPost2010Prop31
280
     0
102
RTVSPost2010PropOp31
 70
     1
102
RTVSPost2010Prop32
280
     0
102
RTVSPost2010PropOp32
 70
     1
102
RTVSPost2010Prop33
280
     0
102
RTVSPost2010PropOp33
 70
     1
102
RTVSPost2010Prop34
280
     0
102
RTVSPost2010PropOp34
 70
     1
102
RTVSPost2010Prop35
280
     0
102
RTVSPost2010PropOp35
 70
     1
102
RTVSPost2010Prop36
280
     0
102
RTVSPost2010PropOp36
 70
     1
102
RTVSPost2010Prop37
 90
       50
102
RTVSPost2010PropOp37
 70
     1
102
RTVSPost2010Prop38
140
0.0
102
RTVSPost2010PropOp38
 70
     1
102
RTVSPost2010Prop39
140
1.0
102
RTVSPost2010PropOp39
 70
     1
102
RTVSPost2010Prop40
 90
        0
102
RTVSPost2010PropOp40
 70
     1
102
RTVSPost2010Prop41ColorIndex
 90
       18
102
RTVSPost2010Prop41ColorRGB
 90
        0
102
RTVSPost2010PropOp41
 70
     1
102
RTVSPost2010Prop42
 90
       50
102
RTVSPost2010PropOp42
 70
     1
102
RTVSPost2010Prop43
 90
        3
102
RTVSPost2010PropOp43
 70
     1
102
RTVSPost2010Prop44ColorIndex
 90
        5
102
RTVSPost2010Prop44ColorRGB
 90
      255
102
RTVSPost2010PropOp44
 70
     1
102
RTVSPost2010Prop45
280
     0
102
RTVSPost2010PropOp45
 70
     1
102
RTVSPost2010Prop46
 90
       50
102
RTVSPost2010PropOp46
 70
     1
102
RTVSPost2010Prop47
 90
       50
102
RTVSPost2010PropOp47
 70
     1
102
RTVSPost2010Prop48
 90
       50
102
RTVSPost2010PropOp48
 70
     1
102
RTVSPost2010Prop49
280
     0
102
RTVSPost2010PropOp49
 70
     1
102
RTVSPost2010Prop50
 90
       50
102
RTVSPost2010PropOp50
 70
     1
102
RTVSPost2010Prop51ColorIndex
 90
      256
102
RTVSPost2010Prop51ColorRGB
 90
-16777216
102
RTVSPost2010PropOp51
 70
     0
102
RTVSPost2010Prop52
140
1.0
102
RTVSPost2010PropOp52
 70
     0
102
RTVSPost2010Prop53
 90
        2
102
RTVSPost2010PropOp53
 70
     1
102
RTVSPost2010Prop54
  1
strokes_ogs.tif
102
RTVSPost2010PropOp54
 70
     1
102
RTVSPost2010Prop55
280
     0
102
RTVSPost2010PropOp55
 70
     1
102
RTVSPost2010Prop56
140
1.0
102
RTVSPost2010PropOp56
 70
     1
102
RTVSPost2010Prop57
140
1.0
102
RTVSPost2010PropOp57
 70
     1
102
RTVSPropertyOp0
 70
     1
102
RTVSPropertyOp1
 70
     1
102
RTVSPropertyOp2
 70
     1
102
RTVSPropertyOp3
 70
     1
102
RTVSPropertyOp4
 70
     1
102
RTVSPropertyOp5
 70
     1
102
RTVSPropertyOp6
 70
     1
102
RTVSPropertyOp7
 70
     1
102
RTVSPropertyOp8
 70
     1
102
RTVSPropertyOp9
 70
     1
102
RTVSPropertyOp10
 70
     1
102
RTVSPropertyOp11
 70
     1
102
RTVSPropertyOp12
 70
     1
102
RTVSPropertyOp13
 70
     1
102
RTVSPropertyOp14
 70
     1
102
RTVSPropertyOp15
 70
     1
102
RTVSPropertyOp16
 70
     1
102
RTVSPropertyOp17
 70
     1
102
RTVSPropertyOp18
 70
     1
102
RTVSPropertyOp19
 70
     1
102
RTVSPropertyOp20
 70
     1
102
RTVSPropertyOp21
 70
     1
102
RTVSPropertyOp22
 70
     1
102
RTVSPropertyOp23
 70
     1
102
RTVSPropertyOp24
 70
     1
102
RTVSPropertyOp25
 70
     1
102
RTVSPropertyOp26
 70
     1
102
RTVSPropertyOp27
 70
     1
102
RTVSPropertyOp28
 70
     1
102
RTVSPropertyOp29
 70
     1
102
RTVSPropertyOp30
 70
     1
102
RTVSPropertyOp31
 70
     1
102
RTVSPropertyOp32
 70
     1
102
RTVSPropertyOp33
 70
     1
102
RTVSPropertyOp34
 70
     1
102
RTVSPropertyOp35
 70
     1
102
RTVSPropertyOp36
 70
     1
102
RTVSPropertyOp37
 70
     1
102
RTVSPropertyOp38
 70
     1
102
RTVSPropertyOp39
 70
     1
102
RTVSPropertyOp40
 70
     1
102
RTVSPropertyOp41
 70
     1
102
RTVSPropertyOp42
 70
     1
102
RTVSPropertyOp43
 70
     1
102
RTVSPropertyOp44
 70
     1
102
RTVSPropertyOp45
 70
     1
102
RTVSPropertyOp46
 70
     1
102
RTVSPropertyOp47
 70
     1
102
RTVSPropertyOp48
 70
     1
102
RTVSPropertyOp49
 70
     1
102
RTVSPropertyOp50
 70
     1
102
RTVSPropertyOp51
 70
     0
102
RTVSPropertyOp52
 70
     0
102
RTVSPropertyOp53
 70
     1
102
RTVSPropertyOp54
 70
     1
102
RTVSPropertyOp55
 70
     1
102
RTVSPropertyOp56
 70
     1
102
RTVSPropertyOp57
 70
     1
102
RTVSPropertyOp58
 70
     1
102
RTVSPropertyOp59
 70
     1
102
RTVSPropertyOp60
 70
     1
102
RTVSPropertyOp61
 70
     1
102
RTVSPropertyOp62
 70
     1
  0
XRECORD
  5
44A
102
{ACAD_REACTORS
330
449
102
}
330
449
100
AcDbXrecord
280
     1
102
RTVSPost2010Prop28
280
     0
102
RTVSPost2010PropOp28
 70
     1
102
RTVSPost2010Prop29
280
     1
102
RTVSPost2010PropOp29
 70
     1
102
RTVSPost2010Prop30
280
     1
102
RTVSPost2010PropOp30
 70
     1
102
RTVSPost2010Prop31
280
     0
102
RTVSPost2010PropOp31
 70
     1
102
RTVSPost2010Prop32
280
     0
102
RTVSPost2010PropOp32
 70
     1
102
RTVSPost2010Prop33
280
     0
102
RTVSPost2010PropOp33
 70
     1
102
RTVSPost2010Prop34
280
     0
102
RTVSPost2010PropOp34
 70
     1
102
RTVSPost2010Prop35
280
     0
102
RTVSPost2010PropOp35
 70
     1
102
RTVSPost2010Prop36
280
     0
102
RTVSPost2010PropOp36
 70
     1
102
RTVSPost2010Prop37
 90
       50
102
RTVSPost2010PropOp37
 70
     1
102
RTVSPost2010Prop38
140
0.0
102
RTVSPost2010PropOp38
 70
     1
102
RTVSPost2010Prop39
140
1.0
102
RTVSPost2010PropOp39
 70
     1
102
RTVSPost2010Prop40
 90
        0
102
RTVSPost2010PropOp40
 70
     1
102
RTVSPost2010Prop41ColorIndex
 90
       18
102
RTVSPost2010Prop41ColorRGB
 90
        0
102
RTVSPost2010PropOp41
 70
     1
102
RTVSPost2010Prop42
 90
       50
102
RTVSPost2010PropOp42
 70
     1
102
RTVSPost2010Prop43
 90
        3
102
RTVSPost2010PropOp43
 70
     1
102
RTVSPost2010Prop44ColorIndex
 90
        5
102
RTVSPost2010Prop44ColorRGB
 90
      255
102
RTVSPost2010PropOp44
 70
     1
102
RTVSPost2010Prop45
280
     0
102
RTVSPost2010PropOp45
 70
     1
102
RTVSPost2010Prop46
 90
       50
102
RTVSPost2010PropOp46
 70
     1
102
RTVSPost2010Prop47
 90
       50
102
RTVSPost2010PropOp47
 70
     1
102
RTVSPost2010Prop48
 90
       50
102
RTVSPost2010PropOp48
 70
     1
102
RTVSPost2010Prop49
280
     0
102
RTVSPost2010PropOp49
 70
     1
102
RTVSPost2010Prop50
 90
       50
102
RTVSPost2010PropOp50
 70
     1
102
RTVSPost2010Prop51ColorIndex
 90
      256
102
RTVSPost2010Prop51ColorRGB
 90
-16777216
102
RTVSPost2010PropOp51
 70
     0
102
RTVSPost2010Prop52
140
1.0
102
RTVSPost2010PropOp52
 70
     0
102
RTVSPost2010Prop53
 90
        2
102
RTVSPost2010PropOp53
 70
     1
102
RTVSPost2010Prop54
  1
strokes_ogs.tif
102
RTVSPost2010PropOp54
 70
     1
102
RTVSPost2010Prop55
280
     0
102
RTVSPost2010PropOp55
 70
     1
102
RTVSPost2010Prop56
140
1.0
102
RTVSPost2010PropOp56
 70
     1
102
RTVSPost2010Prop57
140
1.0
102
RTVSPost2010PropOp57
 70
     1
102
RTVSPropertyOp0
 70
     1
102
RTVSPropertyOp1
 70
     1
102
RTVSPropertyOp2
 70
     1
102
RTVSPropertyOp3
 70
     1
102
RTVSPropertyOp4
 70
     1
102
RTVSPropertyOp5
 70
     1
102
RTVSPropertyOp6
 70
     1
102
RTVSPropertyOp7
 70
     1
102
RTVSPropertyOp8
 70
     1
102
RTVSPropertyOp9
 70
     1
102
RTVSPropertyOp10
 70
     1
102
RTVSPropertyOp11
 70
     1
102
RTVSPropertyOp12
 70
     1
102
RTVSPropertyOp13
 70
     1
102
RTVSPropertyOp14
 70
     1
102
RTVSPropertyOp15
 70
     1
102
RTVSPropertyOp16
 70
     1
102
RTVSPropertyOp17
 70
     1
102
RTVSPropertyOp18
 70
     1
102
RTVSPropertyOp19
 70
     1
102
RTVSPropertyOp20
 70
     1
102
RTVSPropertyOp21
 70
     1
102
RTVSPropertyOp22
 70
     1
102
RTVSPropertyOp23
 70
     1
102
RTVSPropertyOp24
 70
     1
102
RTVSPropertyOp25
 70
     1
102
RTVSPropertyOp26
 70
     1
102
RTVSPropertyOp27
 70
     1
102
RTVSPropertyOp28
 70
     1
102
RTVSPropertyOp29
 70
     1
102
RTVSPropertyOp30
 70
     1
102
RTVSPropertyOp31
 70
     1
102
RTVSPropertyOp32
 70
     1
102
RTVSPropertyOp33
 70
     1
102
RTVSPropertyOp34
 70
     1
102
RTVSPropertyOp35
 70
     1
102
RTVSPropertyOp36
 70
     1
102
RTVSPropertyOp37
 70
     1
102
RTVSPropertyOp38
 70
     1
102
RTVSPropertyOp39
 70
     1
102
RTVSPropertyOp40
 70
     1
102
RTVSPropertyOp41
 70
     1
102
RTVSPropertyOp42
 70
     1
102
RTVSPropertyOp43
 70
     1
102
RTVSPropertyOp44
 70
     1
102
RTVSPropertyOp45
 70
     1
102
RTVSPropertyOp46
 70
     1
102
RTVSPropertyOp47
 70
     1
102
RTVSPropertyOp48
 70
     1
102
RTVSPropertyOp49
 70
     1
102
RTVSPropertyOp50
 70
     1
102
RTVSPropertyOp51
 70
     0
102
RTVSPropertyOp52
 70
     0
102
RTVSPropertyOp53
 70
     1
102
RTVSPropertyOp54
 70
     1
102
RTVSPropertyOp55
 70
     1
102
RTVSPropertyOp56
 70
     1
102
RTVSPropertyOp57
 70
     1
102
RTVSPropertyOp58
 70
     1
102
RTVSPropertyOp59
 70
     1
102
RTVSPropertyOp60
 70
     1
102
RTVSPropertyOp61
 70
     1
102
RTVSPropertyOp62
 70
     1
  0
XRECORD
  5
43E
102
{ACAD_REACTORS
330
43D
102
}
330
43D
100
AcDbXrecord
280
     1
102
RTVSPost2010Prop28
280
     0
102
RTVSPost2010PropOp28
 70
     1
102
RTVSPost2010Prop29
280
     1
102
RTVSPost2010PropOp29
 70
     1
102
RTVSPost2010Prop30
280
     1
102
RTVSPost2010PropOp30
 70
     1
102
RTVSPost2010Prop31
280
     0
102
RTVSPost2010PropOp31
 70
     1
102
RTVSPost2010Prop32
280
     0
102
RTVSPost2010PropOp32
 70
     1
102
RTVSPost2010Prop33
280
     0
102
RTVSPost2010PropOp33
 70
     1
102
RTVSPost2010Prop34
280
     0
102
RTVSPost2010PropOp34
 70
     1
102
RTVSPost2010Prop35
280
     0
102
RTVSPost2010PropOp35
 70
     1
102
RTVSPost2010Prop36
280
     0
102
RTVSPost2010PropOp36
 70
     1
102
RTVSPost2010Prop37
 90
       50
102
RTVSPost2010PropOp37
 70
     1
102
RTVSPost2010Prop38
140
0.0
102
RTVSPost2010PropOp38
 70
     1
102
RTVSPost2010Prop39
140
1.0
102
RTVSPost2010PropOp39
 70
     1
102
RTVSPost2010Prop40
 90
        0
102
RTVSPost2010PropOp40
 70
     1
102
RTVSPost2010Prop41ColorIndex
 90
       18
102
RTVSPost2010Prop41ColorRGB
 90
        0
102
RTVSPost2010PropOp41
 70
     1
102
RTVSPost2010Prop42
 90
       50
102
RTVSPost2010PropOp42
 70
     1
102
RTVSPost2010Prop43
 90
        3
102
RTVSPost2010PropOp43
 70
     1
102
RTVSPost2010Prop44ColorIndex
 90
        5
102
RTVSPost2010Prop44ColorRGB
 90
      255
102
RTVSPost2010PropOp44
 70
     1
102
RTVSPost2010Prop45
280
     0
102
RTVSPost2010PropOp45
 70
     1
102
RTVSPost2010Prop46
 90
       50
102
RTVSPost2010PropOp46
 70
     1
102
RTVSPost2010Prop47
 90
       50
102
RTVSPost2010PropOp47
 70
     1
102
RTVSPost2010Prop48
 90
       50
102
RTVSPost2010PropOp48
 70
     1
102
RTVSPost2010Prop49
280
     0
102
RTVSPost2010PropOp49
 70
     1
102
RTVSPost2010Prop50
 90
       50
102
RTVSPost2010PropOp50
 70
     1
102
RTVSPost2010Prop51ColorIndex
 90
      256
102
RTVSPost2010Prop51ColorRGB
 90
-16777216
102
RTVSPost2010PropOp51
 70
     0
102
RTVSPost2010Prop52
140
1.0
102
RTVSPost2010PropOp52
 70
     0
102
RTVSPost2010Prop53
 90
        2
102
RTVSPost2010PropOp53
 70
     1
102
RTVSPost2010Prop54
  1
strokes_ogs.tif
102
RTVSPost2010PropOp54
 70
     1
102
RTVSPost2010Prop55
280
     0
102
RTVSPost2010PropOp55
 70
     1
102
RTVSPost2010Prop56
140
1.0
102
RTVSPost2010PropOp56
 70
     1
102
RTVSPost2010Prop57
140
1.0
102
RTVSPost2010PropOp57
 70
     1
102
RTVSPropertyOp0
 70
     1
102
RTVSPropertyOp1
 70
     1
102
RTVSPropertyOp2
 70
     1
102
RTVSPropertyOp3
 70
     1
102
RTVSPropertyOp4
 70
     1
102
RTVSPropertyOp5
 70
     1
102
RTVSPropertyOp6
 70
     1
102
RTVSPropertyOp7
 70
     1
102
RTVSPropertyOp8
 70
     1
102
RTVSPropertyOp9
 70
     1
102
RTVSPropertyOp10
 70
     1
102
RTVSPropertyOp11
 70
     1
102
RTVSPropertyOp12
 70
     1
102
RTVSPropertyOp13
 70
     1
102
RTVSPropertyOp14
 70
     1
102
RTVSPropertyOp15
 70
     1
102
RTVSPropertyOp16
 70
     1
102
RTVSPropertyOp17
 70
     1
102
RTVSPropertyOp18
 70
     1
102
RTVSPropertyOp19
 70
     1
102
RTVSPropertyOp20
 70
     1
102
RTVSPropertyOp21
 70
     1
102
RTVSPropertyOp22
 70
     1
102
RTVSPropertyOp23
 70
     1
102
RTVSPropertyOp24
 70
     1
102
RTVSPropertyOp25
 70
     1
102
RTVSPropertyOp26
 70
     1
102
RTVSPropertyOp27
 70
     1
102
RTVSPropertyOp28
 70
     1
102
RTVSPropertyOp29
 70
     1
102
RTVSPropertyOp30
 70
     1
102
RTVSPropertyOp31
 70
     1
102
RTVSPropertyOp32
 70
     1
102
RTVSPropertyOp33
 70
     1
102
RTVSPropertyOp34
 70
     1
102
RTVSPropertyOp35
 70
     1
102
RTVSPropertyOp36
 70
     1
102
RTVSPropertyOp37
 70
     1
102
RTVSPropertyOp38
 70
     1
102
RTVSPropertyOp39
 70
     1
102
RTVSPropertyOp40
 70
     1
102
RTVSPropertyOp41
 70
     1
102
RTVSPropertyOp42
 70
     1
102
RTVSPropertyOp43
 70
     1
102
RTVSPropertyOp44
 70
     1
102
RTVSPropertyOp45
 70
     1
102
RTVSPropertyOp46
 70
     1
102
RTVSPropertyOp47
 70
     1
102
RTVSPropertyOp48
 70
     1
102
RTVSPropertyOp49
 70
     1
102
RTVSPropertyOp50
 70
     1
102
RTVSPropertyOp51
 70
     0
102
RTVSPropertyOp52
 70
     0
102
RTVSPropertyOp53
 70
     1
102
RTVSPropertyOp54
 70
     1
102
RTVSPropertyOp55
 70
     1
102
RTVSPropertyOp56
 70
     1
102
RTVSPropertyOp57
 70
     1
102
RTVSPropertyOp58
 70
     1
102
RTVSPropertyOp59
 70
     1
102
RTVSPropertyOp60
 70
     1
102
RTVSPropertyOp61
 70
     1
102
RTVSPropertyOp62
 70
     1
  0
XRECORD
  5
456
102
{ACAD_REACTORS
330
455
102
}
330
455
100
AcDbXrecord
280
     1
102
RTVSPost2010Prop28
280
     0
102
RTVSPost2010PropOp28
 70
     1
102
RTVSPost2010Prop29
280
     1
102
RTVSPost2010PropOp29
 70
     1
102
RTVSPost2010Prop30
280
     1
102
RTVSPost2010PropOp30
 70
     1
102
RTVSPost2010Prop31
280
     0
102
RTVSPost2010PropOp31
 70
     1
102
RTVSPost2010Prop32
280
     0
102
RTVSPost2010PropOp32
 70
     1
102
RTVSPost2010Prop33
280
     0
102
RTVSPost2010PropOp33
 70
     1
102
RTVSPost2010Prop34
280
     0
102
RTVSPost2010PropOp34
 70
     1
102
RTVSPost2010Prop35
280
     0
102
RTVSPost2010PropOp35
 70
     1
102
RTVSPost2010Prop36
280
     0
102
RTVSPost2010PropOp36
 70
     1
102
RTVSPost2010Prop37
 90
       50
102
RTVSPost2010PropOp37
 70
     1
102
RTVSPost2010Prop38
140
0.0
102
RTVSPost2010PropOp38
 70
     1
102
RTVSPost2010Prop39
140
1.0
102
RTVSPost2010PropOp39
 70
     1
102
RTVSPost2010Prop40
 90
        0
102
RTVSPost2010PropOp40
 70
     1
102
RTVSPost2010Prop41ColorIndex
 90
       18
102
RTVSPost2010Prop41ColorRGB
 90
        0
102
RTVSPost2010PropOp41
 70
     1
102
RTVSPost2010Prop42
 90
       50
102
RTVSPost2010PropOp42
 70
     1
102
RTVSPost2010Prop43
 90
        3
102
RTVSPost2010PropOp43
 70
     1
102
RTVSPost2010Prop44ColorIndex
 90
        5
102
RTVSPost2010Prop44ColorRGB
 90
      255
102
RTVSPost2010PropOp44
 70
     1
102
RTVSPost2010Prop45
280
     0
102
RTVSPost2010PropOp45
 70
     1
102
RTVSPost2010Prop46
 90
       50
102
RTVSPost2010PropOp46
 70
     1
102
RTVSPost2010Prop47
 90
       50
102
RTVSPost2010PropOp47
 70
     1
102
RTVSPost2010Prop48
 90
       50
102
RTVSPost2010PropOp48
 70
     1
102
RTVSPost2010Prop49
280
     0
102
RTVSPost2010PropOp49
 70
     1
102
RTVSPost2010Prop50
 90
       50
102
RTVSPost2010PropOp50
 70
     1
102
RTVSPost2010Prop51ColorIndex
 90
      256
102
RTVSPost2010Prop51ColorRGB
 90
-16777216
102
RTVSPost2010PropOp51
 70
     0
102
RTVSPost2010Prop52
140
1.0
102
RTVSPost2010PropOp52
 70
     0
102
RTVSPost2010Prop53
 90
        2
102
RTVSPost2010PropOp53
 70
     1
102
RTVSPost2010Prop54
  1
strokes_ogs.tif
102
RTVSPost2010PropOp54
 70
     1
102
RTVSPost2010Prop55
280
     0
102
RTVSPost2010PropOp55
 70
     1
102
RTVSPost2010Prop56
140
1.0
102
RTVSPost2010PropOp56
 70
     1
102
RTVSPost2010Prop57
140
1.0
102
RTVSPost2010PropOp57
 70
     1
102
RTVSPropertyOp0
 70
     1
102
RTVSPropertyOp1
 70
     1
102
RTVSPropertyOp2
 70
     1
102
RTVSPropertyOp3
 70
     1
102
RTVSPropertyOp4
 70
     1
102
RTVSPropertyOp5
 70
     1
102
RTVSPropertyOp6
 70
     1
102
RTVSPropertyOp7
 70
     1
102
RTVSPropertyOp8
 70
     1
102
RTVSPropertyOp9
 70
     1
102
RTVSPropertyOp10
 70
     1
102
RTVSPropertyOp11
 70
     1
102
RTVSPropertyOp12
 70
     1
102
RTVSPropertyOp13
 70
     1
102
RTVSPropertyOp14
 70
     1
102
RTVSPropertyOp15
 70
     1
102
RTVSPropertyOp16
 70
     1
102
RTVSPropertyOp17
 70
     1
102
RTVSPropertyOp18
 70
     1
102
RTVSPropertyOp19
 70
     1
102
RTVSPropertyOp20
 70
     1
102
RTVSPropertyOp21
 70
     1
102
RTVSPropertyOp22
 70
     1
102
RTVSPropertyOp23
 70
     1
102
RTVSPropertyOp24
 70
     1
102
RTVSPropertyOp25
 70
     1
102
RTVSPropertyOp26
 70
     1
102
RTVSPropertyOp27
 70
     1
102
RTVSPropertyOp28
 70
     1
102
RTVSPropertyOp29
 70
     1
102
RTVSPropertyOp30
 70
     1
102
RTVSPropertyOp31
 70
     1
102
RTVSPropertyOp32
 70
     1
102
RTVSPropertyOp33
 70
     1
102
RTVSPropertyOp34
 70
     1
102
RTVSPropertyOp35
 70
     1
102
RTVSPropertyOp36
 70
     1
102
RTVSPropertyOp37
 70
     1
102
RTVSPropertyOp38
 70
     1
102
RTVSPropertyOp39
 70
     1
102
RTVSPropertyOp40
 70
     1
102
RTVSPropertyOp41
 70
     1
102
RTVSPropertyOp42
 70
     1
102
RTVSPropertyOp43
 70
     1
102
RTVSPropertyOp44
 70
     1
102
RTVSPropertyOp45
 70
     1
102
RTVSPropertyOp46
 70
     1
102
RTVSPropertyOp47
 70
     1
102
RTVSPropertyOp48
 70
     1
102
RTVSPropertyOp49
 70
     1
102
RTVSPropertyOp50
 70
     1
102
RTVSPropertyOp51
 70
     0
102
RTVSPropertyOp52
 70
     0
102
RTVSPropertyOp53
 70
     1
102
RTVSPropertyOp54
 70
     1
102
RTVSPropertyOp55
 70
     1
102
RTVSPropertyOp56
 70
     1
102
RTVSPropertyOp57
 70
     1
102
RTVSPropertyOp58
 70
     1
102
RTVSPropertyOp59
 70
     1
102
RTVSPropertyOp60
 70
     1
102
RTVSPropertyOp61
 70
     1
102
RTVSPropertyOp62
 70
     1
  0
ENDSEC
  0
EOF
