  0
SECTION
  2
HEADER
  9
$ACADVER
  1
AC1015
  9
$ACADMAINTVER
 70
    20
  9
$DWGCODEPAGE
  3
ANSI_932
  9
$INSBASE
 10
0.0
 20
0.0
 30
0.0
  9
$EXTMIN
 10
0.0
 20
0.0
 30
0.0
  9
$EXTMAX
 10
4200.0
 20
2970.0
 30
0.0
  9
$LIMMIN
 10
0.0
 20
0.0
  9
$LIMMAX
 10
12.0
 20
9.0
  9
$ORTHOMODE
 70
     0
  9
$REGENMODE
 70
     1
  9
$FILLMODE
 70
     1
  9
$QTEXTMODE
 70
     0
  9
$MIRRTEXT
 70
     0
  9
$LTSCALE
 40
10.0
  9
$ATTMODE
 70
     1
  9
$TEXTSIZE
 40
0.0
  9
$TRACEWID
 40
0.05
  9
$TEXTSTYLE
  7
STANDARD
  9
$CLAYER
  8
0
  9
$CELTYPE
  6
CONTINUOUS
  9
$CECOLOR
 62
   256
  9
$CELTSCALE
 40
1.0
  9
$DISPSILH
 70
     0
  9
$DIMSCALE
 40
1.0
  9
$DIMASZ
 40
0.18
  9
$DIMEXO
 40
0.0625
  9
$DIMDLI
 40
0.38
  9
$DIMRND
 40
0.0
  9
$DIMDLE
 40
0.0
  9
$DIMEXE
 40
0.18
  9
$DIMTP
 40
0.0
  9
$DIMTM
 40
0.0
  9
$DIMTXT
 40
0.18
  9
$DIMCEN
 40
0.09
  9
$DIMTSZ
 40
0.0
  9
$DIMTOL
 70
     0
  9
$DIMLIM
 70
     0
  9
$DIMTIH
 70
     1
  9
$DIMTOH
 70
     1
  9
$DIMSE1
 70
     0
  9
$DIMSE2
 70
     0
  9
$DIMTAD
 70
     0
  9
$DIMZIN
 70
     0
  9
$DIMBLK
  1

  9
$DIMASO
 70
     1
  9
$DIMSHO
 70
     1
  9
$DIMPOST
  1

  9
$DIMAPOST
  1

  9
$DIMALT
 70
     0
  9
$DIMALTD
 70
     2
  9
$DIMALTF
 40
25.4
  9
$DIMLFAC
 40
1.0
  9
$DIMTOFL
 70
     0
  9
$DIMTVP
 40
0.0
  9
$DIMTIX
 70
     0
  9
$DIMSOXD
 70
     0
  9
$DIMSAH
 70
     0
  9
$DIMBLK1
  1

  9
$DIMBLK2
  1

  9
$DIMSTYLE
  2
Standard
  9
$DIMCLRD
 70
     0
  9
$DIMCLRE
 70
     0
  9
$DIMCLRT
 70
     0
  9
$DIMTFAC
 40
1.0
  9
$DIMGAP
 40
0.09
  9
$DIMJUST
 70
     0
  9
$DIMSD1
 70
     0
  9
$DIMSD2
 70
     0
  9
$DIMTOLJ
 70
     1
  9
$DIMTZIN
 70
     0
  9
$DIMALTZ
 70
     0
  9
$DIMALTTZ
 70
     0
  9
$DIMUPT
 70
     0
  9
$DIMDEC
 70
     4
  9
$DIMTDEC
 70
     4
  9
$DIMALTU
 70
     2
  9
$DIMALTTD
 70
     2
  9
$DIMTXSTY
  7
STANDARD
  9
$DIMAUNIT
 70
     0
  9
$DIMADEC
 70
     0
  9
$DIMALTRND
 40
0.0
  9
$DIMAZIN
 70
     0
  9
$DIMDSEP
 70
    46
  9
$DIMATFIT
 70
     3
  9
$DIMFRAC
 70
     0
  9
$DIMLDRBLK
  1

  9
$DIMLUNIT
 70
     2
  9
$DIMLWD
 70
    -2
  9
$DIMLWE
 70
    -2
  9
$DIMTMOVE
 70
     0
  9
$LUNITS
 70
     2
  9
$LUPREC
 70
     4
  9
$SKETCHINC
 40
0.1
  9
$FILLETRAD
 40
0.0
  9
$AUNITS
 70
     0
  9
$AUPREC
 70
     0
  9
$MENU
  1
.
  9
$ELEVATION
 40
0.0
  9
$PELEVATION
 40
0.0
  9
$THICKNESS
 40
0.0
  9
$LIMCHECK
 70
     0
  9
$CHAMFERA
 40
0.0
  9
$CHAMFERB
 40
0.0
  9
$CHAMFERC
 40
0.0
  9
$CHAMFERD
 40
0.0
  9
$SKPOLY
 70
     0
  9
$TDCREATE
 40
2459620.661620371
  9
$TDUCREATE
 40
2459620.286620371
  9
$TDUPDATE
 40
2459620.661921297
  9
$TDUUPDATE
 40
2459620.286921297
  9
$TDINDWG
 40
0.0003125000
  9
$TDUSRTIMER
 40
0.0003125000
  9
$USRTIMER
 70
     1
  9
$ANGBASE
 50
0.0
  9
$ANGDIR
 70
     0
  9
$PDMODE
 70
     0
  9
$PDSIZE
 40
5.0
  9
$PLINEWID
 40
0.0
  9
$SPLFRAME
 70
     0
  9
$SPLINETYPE
 70
     6
  9
$SPLINESEGS
 70
     8
  9
$HANDSEED
  5
56F
  9
$SURFTAB1
 70
     6
  9
$SURFTAB2
 70
     6
  9
$SURFTYPE
 70
     6
  9
$SURFU
 70
     6
  9
$SURFV
 70
     6
  9
$UCSBASE
  2

  9
$UCSNAME
  2

  9
$UCSORG
 10
0.0
 20
0.0
 30
0.0
  9
$UCSXDIR
 10
1.0
 20
0.0
 30
0.0
  9
$UCSYDIR
 10
0.0
 20
1.0
 30
0.0
  9
$UCSORTHOREF
  2

  9
$UCSORTHOVIEW
 70
     0
  9
$UCSORGTOP
 10
0.0
 20
0.0
 30
0.0
  9
$UCSORGBOTTOM
 10
0.0
 20
0.0
 30
0.0
  9
$UCSORGLEFT
 10
0.0
 20
0.0
 30
0.0
  9
$UCSORGRIGHT
 10
0.0
 20
0.0
 30
0.0
  9
$UCSORGFRONT
 10
0.0
 20
0.0
 30
0.0
  9
$UCSORGBACK
 10
0.0
 20
0.0
 30
0.0
  9
$PUCSBASE
  2

  9
$PUCSNAME
  2

  9
$PUCSORG
 10
0.0
 20
0.0
 30
0.0
  9
$PUCSXDIR
 10
1.0
 20
0.0
 30
0.0
  9
$PUCSYDIR
 10
0.0
 20
1.0
 30
0.0
  9
$PUCSORTHOREF
  2

  9
$PUCSORTHOVIEW
 70
     0
  9
$PUCSORGTOP
 10
0.0
 20
0.0
 30
0.0
  9
$PUCSORGBOTTOM
 10
0.0
 20
0.0
 30
0.0
  9
$PUCSORGLEFT
 10
0.0
 20
0.0
 30
0.0
  9
$PUCSORGRIGHT
 10
0.0
 20
0.0
 30
0.0
  9
$PUCSORGFRONT
 10
0.0
 20
0.0
 30
0.0
  9
$PUCSORGBACK
 10
0.0
 20
0.0
 30
0.0
  9
$USERI1
 70
     0
  9
$USERI2
 70
     0
  9
$USERI3
 70
     0
  9
$USERI4
 70
     0
  9
$USERI5
 70
     0
  9
$USERR1
 40
0.0
  9
$USERR2
 40
0.0
  9
$USERR3
 40
0.0
  9
$USERR4
 40
0.0
  9
$USERR5
 40
0.0
  9
$WORLDVIEW
 70
     1
  9
$SHADEDGE
 70
     3
  9
$SHADEDIF
 70
    70
  9
$TILEMODE
 70
     1
  9
$MAXACTVP
 70
    64
  9
$PINSBASE
 10
0.0
 20
0.0
 30
0.0
  9
$PLIMCHECK
 70
     0
  9
$PEXTMIN
 10
1.000000000000000E+20
 20
1.000000000000000E+20
 30
1.000000000000000E+20
  9
$PEXTMAX
 10
-1.000000000000000E+20
 20
-1.000000000000000E+20
 30
-1.000000000000000E+20
  9
$PLIMMIN
 10
0.0
 20
0.0
  9
$PLIMMAX
 10
12.0
 20
9.0
  9
$UNITMODE
 70
     0
  9
$VISRETAIN
 70
     1
  9
$PLINEGEN
 70
     0
  9
$PSLTSCALE
 70
     1
  9
$TREEDEPTH
 70
  3020
  9
$CMLSTYLE
  2
Standard
  9
$CMLJUST
 70
     0
  9
$CMLSCALE
 40
1.0
  9
$PROXYGRAPHICS
 70
     1
  9
$MEASUREMENT
 70
     0
  9
$CELWEIGHT
370
    -1
  9
$ENDCAPS
280
     0
  9
$JOINSTYLE
280
     0
  9
$LWDISPLAY
290
     0
  9
$INSUNITS
 70
     0
  9
$HYPERLINKBASE
  1

  9
$STYLESHEET
  1

  9
$XEDIT
290
     1
  9
$CEPSNTYPE
380
     0
  9
$PSTYLEMODE
290
     1
  9
$FINGERPRINTGUID
  2
{C692A8F6-0AC5-EF4B-8A00-F0536646E8C1}
  9
$VERSIONGUID
  2
{0DCAA4CE-FFD1-D942-B58D-FC328921959B}
  9
$EXTNAMES
290
     1
  9
$PSVPSCALE
 40
0.0
  9
$OLESTARTUP
290
     0
  0
ENDSEC
  0
SECTION
  2
CLASSES
  0
CLASS
  1
ACDBDICTIONARYWDFLT
  2
AcDbDictionaryWithDefault
  3
ObjectDBX Classes
 90
        0
280
     0
281
     0
  0
CLASS
  1
MATERIAL
  2
AcDbMaterial
  3
ObjectDBX Classes
 90
     1153
280
     0
281
     0
  0
CLASS
  1
VISUALSTYLE
  2
AcDbVisualStyle
  3
ObjectDBX Classes
 90
     4095
280
     0
281
     0
  0
CLASS
  1
SCALE
  2
AcDbScale
  3
ObjectDBX Classes
 90
     1153
280
     0
281
     0
  0
CLASS
  1
TABLESTYLE
  2
AcDbTableStyle
  3
ObjectDBX Classes
 90
     4095
280
     0
281
     0
  0
CLASS
  1
MLEADERSTYLE
  2
AcDbMLeaderStyle
  3
ACDB_MLEADERSTYLE_CLASS
 90
     4095
280
     0
281
     0
  0
CLASS
  1
ACDBSECTIONVIEWSTYLE
  2
AcDbSectionViewStyle
  3
ObjectDBX Classes
 90
     1025
280
     0
281
     0
  0
CLASS
  1
ACDBDETAILVIEWSTYLE
  2
AcDbDetailViewStyle
  3
ObjectDBX Classes
 90
     1025
280
     0
281
     0
  0
CLASS
  1
DICTIONARYVAR
  2
AcDbDictionaryVar
  3
ObjectDBX Classes
 90
        0
280
     0
281
     0
  0
CLASS
  1
CELLSTYLEMAP
  2
AcDbCellStyleMap
  3
ObjectDBX Classes
 90
     1152
280
     0
281
     0
  0
CLASS
  1
ACDBPLACEHOLDER
  2
AcDbPlaceHolder
  3
ObjectDBX Classes
 90
        0
280
     0
281
     0
  0
CLASS
  1
LAYOUT
  2
AcDbLayout
  3
ObjectDBX Classes
 90
        0
280
     0
281
     0
  0
ENDSEC
  0
SECTION
  2
TABLES
  0
TABLE
  2
VPORT
  5
8
330
0
100
AcDbSymbolTable
 70
     1
  0
VPORT
  5
93
330
8
100
AcDbSymbolTableRecord
100
AcDbViewportTableRecord
  2
*Active
 70
     0
 10
0.0
 20
0.0
 11
1.0
 21
1.0
 12
3006.732834678376
 22
1222.611820060931
 13
0.0
 23
0.0
 14
1.0
 24
1.0
 15
0.0
 25
0.0
 16
0.0
 26
0.0
 36
1.0
 17
0.0
 27
0.0
 37
0.0
 40
4032.596647593953
 41
2.289855072463768
 42
50.0
 43
0.0
 44
0.0
 50
0.0
 51
0.0
 71
     0
 72
   100
 73
     1
 74
     0
 75
     1
 76
     0
 77
     0
 78
     0
281
     0
 65
     1
110
0.0
120
0.0
130
0.0
111
1.0
121
0.0
131
0.0
112
0.0
122
1.0
132
0.0
 79
     0
146
0.0
1001
ACAD_NAV_VCDISPLAY
1070
     3
  0
ENDTAB
  0
TABLE
  2
LTYPE
  5
5
330
0
100
AcDbSymbolTable
 70
     9
  0
LTYPE
  5
5A
330
5
100
AcDbSymbolTableRecord
100
AcDbLinetypeTableRecord
  2
ByBlock
 70
     0
  3

 72
    65
 73
     0
 40
0.0
  0
LTYPE
  5
5B
330
5
100
AcDbSymbolTableRecord
100
AcDbLinetypeTableRecord
  2
ByLayer
 70
     0
  3

 72
    65
 73
     0
 40
0.0
  0
LTYPE
  5
5C
330
5
100
AcDbSymbolTableRecord
100
AcDbLinetypeTableRecord
  2
CONTINUOUS
 70
     0
  3
SolidLine
 72
    65
 73
     0
 40
0.0
  0
LTYPE
  5
73
330
5
100
AcDbSymbolTableRecord
100
AcDbLinetypeTableRecord
  2
DOT
 70
     0
  3
--  --  --  --  --  --  --  --     
 72
    65
 73
     2
 40
3.0
 49
1.0
 74
     0
 49
-2.0
 74
     0
  0
LTYPE
  5
74
330
5
100
AcDbSymbolTableRecord
100
AcDbLinetypeTableRecord
  2
DASHED
 70
     0
  3
----    ----    ----    ----    
 72
    65
 73
     2
 40
5.0
 49
2.0
 74
     0
 49
-3.0
 74
     0
  0
LTYPE
  5
75
330
5
100
AcDbSymbolTableRecord
100
AcDbLinetypeTableRecord
  2
DASHED2
 70
     0
  3
------  ------  ------  ------ 
 72
    65
 73
     2
 40
10.0
 49
4.0
 74
     0
 49
-6.0
 74
     0
  0
LTYPE
  5
76
330
5
100
AcDbSymbolTableRecord
100
AcDbLinetypeTableRecord
  2
CENTER
 70
     0
  3
----- - ----- - ----- - ----- - 
 72
    65
 73
     4
 40
10.0
 49
6.0
 74
     0
 49
-3.0
 74
     0
 49
1.0
 74
     0
 49
-3.0
 74
     0
  0
LTYPE
  5
77
330
5
100
AcDbSymbolTableRecord
100
AcDbLinetypeTableRecord
  2
CENTER2
 70
     0
  3
----------  --  ----------  -- 
 72
    65
 73
     4
 40
17.0
 49
12.0
 74
     0
 49
-5.0
 74
     0
 49
2.0
 74
     0
 49
-5.0
 74
     0
  0
LTYPE
  5
78
330
5
100
AcDbSymbolTableRecord
100
AcDbLinetypeTableRecord
  2
PHANTOM
 70
     0
  3
--- - - --- - - --- - - --- - -
 72
    65
 73
     6
 40
13.0
 49
5.0
 74
     0
 49
-3.0
 74
     0
 49
1.0
 74
     0
 49
-3.0
 74
     0
 49
1.0
 74
     0
 49
-3.0
 74
     0
  0
LTYPE
  5
79
330
5
100
AcDbSymbolTableRecord
100
AcDbLinetypeTableRecord
  2
PHANTOM2
 70
     0
  3
--------  -  -  --------  -  -
 72
    65
 73
     6
 40
20.0
 49
6.0
 74
     0
 49
-5.0
 74
     0
 49
2.0
 74
     0
 49
-5.0
 74
     0
 49
2.0
 74
     0
 49
-5.0
 74
     0
  0
LTYPE
  5
7A
330
5
100
AcDbSymbolTableRecord
100
AcDbLinetypeTableRecord
  2
HIDDEN
 70
     0
  3
-   -   -   -   -   -   -   -   
 72
    65
 73
     2
 40
3.0
 49
0.5
 74
     0
 49
-2.5
 74
     0
  0
ENDTAB
  0
TABLE
  2
LAYER
  5
2
330
0
100
AcDbSymbolTable
 70
    18
  0
LAYER
  5
54
102
{ACAD_XDICTIONARY
360
4FF
102
}
330
2
100
AcDbSymbolTableRecord
100
AcDbLayerTableRecord
  2
0
 70
     0
 62
     7
  6
CONTINUOUS
370
    -3
390
F
  0
LAYER
  5
7F
102
{ACAD_XDICTIONARY
360
501
102
}
330
2
100
AcDbSymbolTableRecord
100
AcDbLayerTableRecord
  2
2-0
 70
     0
 62
     3
  6
CONTINUOUS
370
    -3
390
F
  0
LAYER
  5
80
102
{ACAD_XDICTIONARY
360
503
102
}
330
2
100
AcDbSymbolTableRecord
100
AcDbLayerTableRecord
  2
3-0
 70
     0
 62
     7
  6
CONTINUOUS
370
    -3
390
F
  0
LAYER
  5
81
102
{ACAD_XDICTIONARY
360
505
102
}
330
2
100
AcDbSymbolTableRecord
100
AcDbLayerTableRecord
  2
5-0
 70
     0
 62
     7
  6
CONTINUOUS
370
    -3
390
F
  0
LAYER
  5
82
102
{ACAD_XDICTIONARY
360
507
102
}
330
2
100
AcDbSymbolTableRecord
100
AcDbLayerTableRecord
  2
6-0
 70
     0
 62
     7
  6
CONTINUOUS
370
    -3
390
F
  0
LAYER
  5
83
102
{ACAD_XDICTIONARY
360
509
102
}
330
2
100
AcDbSymbolTableRecord
100
AcDbLayerTableRecord
  2
7-0
 70
     0
 62
     7
  6
CONTINUOUS
370
    -3
390
F
  0
LAYER
  5
84
102
{ACAD_XDICTIONARY
360
50B
102
}
330
2
100
AcDbSymbolTableRecord
100
AcDbLayerTableRecord
  2
8-0
 70
     0
 62
     7
  6
CONTINUOUS
370
    -3
390
F
  0
LAYER
  5
85
102
{ACAD_XDICTIONARY
360
50D
102
}
330
2
100
AcDbSymbolTableRecord
100
AcDbLayerTableRecord
  2
9-0
 70
     0
 62
     7
  6
CONTINUOUS
370
    -3
390
F
  0
LAYER
  5
86
102
{ACAD_XDICTIONARY
360
50F
102
}
330
2
100
AcDbSymbolTableRecord
100
AcDbLayerTableRecord
  2
A-0
 70
     0
 62
     1
  6
CONTINUOUS
370
    -3
390
F
  0
LAYER
  5
87
102
{ACAD_XDICTIONARY
360
511
102
}
330
2
100
AcDbSymbolTableRecord
100
AcDbLayerTableRecord
  2
B-0
 70
     0
 62
    -7
  6
CONTINUOUS
370
    -3
390
F
  0
LAYER
  5
88
102
{ACAD_XDICTIONARY
360
513
102
}
330
2
100
AcDbSymbolTableRecord
100
AcDbLayerTableRecord
  2
C-0
 70
     0
 62
     6
  6
CENTER
370
    -3
390
F
  0
LAYER
  5
89
102
{ACAD_XDICTIONARY
360
515
102
}
330
2
100
AcDbSymbolTableRecord
100
AcDbLayerTableRecord
  2
D-0
 70
     0
 62
    -7
  6
CONTINUOUS
370
    -3
390
F
  0
LAYER
  5
8A
102
{ACAD_XDICTIONARY
360
517
102
}
330
2
100
AcDbSymbolTableRecord
100
AcDbLayerTableRecord
  2
E-0
 70
     0
 62
     7
  6
CONTINUOUS
370
    -3
390
F
  0
LAYER
  5
8B
102
{ACAD_XDICTIONARY
360
519
102
}
330
2
100
AcDbSymbolTableRecord
100
AcDbLayerTableRecord
  2
F-0
 70
     0
 62
     7
  6
CONTINUOUS
370
    -3
390
F
  0
LAYER
  5
8C
102
{ACAD_XDICTIONARY
360
51B
102
}
330
2
100
AcDbSymbolTableRecord
100
AcDbLayerTableRecord
  2
0-1
 70
     0
 62
     1
  6
CONTINUOUS
370
    -3
390
F
  0
LAYER
  5
8D
102
{ACAD_XDICTIONARY
360
51D
102
}
330
2
100
AcDbSymbolTableRecord
100
AcDbLayerTableRecord
  2
1-1
 70
     0
 62
     6
  6
CENTER
370
    -3
390
F
  0
LAYER
  5
8E
102
{ACAD_XDICTIONARY
360
51F
102
}
330
2
100
AcDbSymbolTableRecord
100
AcDbLayerTableRecord
  2
3-1
 70
     0
 62
     5
  6
CONTINUOUS
370
    -3
390
F
  0
LAYER
  5
94
102
{ACAD_XDICTIONARY
360
521
102
}
330
2
100
AcDbSymbolTableRecord
100
AcDbLayerTableRecord
  2
1-0
 70
     0
 62
     7
  6
CONTINUOUS
370
    -3
390
F
  0
ENDTAB
  0
TABLE
  2
STYLE
  5
3
330
0
100
AcDbSymbolTable
 70
     6
  0
STYLE
  5
55
330
3
100
AcDbSymbolTableRecord
100
AcDbTextStyleTableRecord
  2
STANDARD
 70
     0
 40
0.0
 41
1.0
 50
0.0
 71
     0
 42
0.0
  3
txt.shx
  4
extfont.shx
  0
STYLE
  5
59
330
3
100
AcDbSymbolTableRecord
100
AcDbTextStyleTableRecord
  2
Annotative
 70
     0
 40
0.0
 41
1.0
 50
0.0
 71
     0
 42
0.2
  3
txt
  4

1001
AcadAnnotative
1000
AnnotativeData
1002
{
1070
     1
1070
     1
1002
}
  0
STYLE
  5
7B
330
3
100
AcDbSymbolTableRecord
100
AcDbTextStyleTableRecord
  2
TATEGAKI
 70
     4
 40
0.0
 41
1.0
 50
0.0
 71
     0
 42
0.0
  3
txt.shx
  4
extfont.shx
  0
STYLE
  5
7C
330
3
100
AcDbSymbolTableRecord
100
AcDbTextStyleTableRecord
  2
DIM
 70
     0
 40
0.0
 41
0.75
 50
0.0
 71
     0
 42
0.0
  3
txt.shx
  4
extfont.shx
  0
STYLE
  5
7D
330
3
100
AcDbSymbolTableRecord
100
AcDbTextStyleTableRecord
  2
_GOTHIC__
 70
     0
 40
0.0
 41
1.0
 50
0.0
 71
     0
 42
0.0
  3
MS Gothic
  4

  0
STYLE
  5
7E
330
3
100
AcDbSymbolTableRecord
100
AcDbTextStyleTableRecord
  2
_TATEGOTHIC_
 70
     4
 40
0.0
 41
1.0
 50
0.0
 71
     0
 42
0.0
  3
@MS Gothic
  4

  0
ENDTAB
  0
TABLE
  2
VIEW
  5
6
330
0
100
AcDbSymbolTable
 70
     0
  0
ENDTAB
  0
TABLE
  2
UCS
  5
7
330
0
100
AcDbSymbolTable
 70
     0
  0
ENDTAB
  0
TABLE
  2
APPID
  5
9
330
0
100
AcDbSymbolTable
 70
     4
  0
APPID
  5
56
330
9
100
AcDbSymbolTableRecord
100
AcDbRegAppTableRecord
  2
ACAD
 70
     0
  0
APPID
  5
5D
330
9
100
AcDbSymbolTableRecord
100
AcDbRegAppTableRecord
  2
AcadAnnotative
 70
     0
  0
APPID
  5
52D
330
9
100
AcDbSymbolTableRecord
100
AcDbRegAppTableRecord
  2
ACAD_NAV_VCDISPLAY
 70
     0
  0
APPID
  5
566
330
9
100
AcDbSymbolTableRecord
100
AcDbRegAppTableRecord
  2
ACAD_MLEADERVER
 70
     0
  0
ENDTAB
  0
TABLE
  2
DIMSTYLE
  5
A
330
0
100
AcDbSymbolTable
 70
     2
100
AcDbDimStyleTable
 71
     0
  0
DIMSTYLE
105
57
330
A
100
AcDbSymbolTableRecord
100
AcDbDimStyleTableRecord
  2
Standard
 70
     0
340
55
  0
DIMSTYLE
105
58
330
A
100
AcDbSymbolTableRecord
100
AcDbDimStyleTableRecord
  2
Annotative
 70
     0
340
55
1001
AcadAnnotative
1000
AnnotativeData
1002
{
1070
     1
1070
     1
1002
}
  0
ENDTAB
  0
TABLE
  2
BLOCK_RECORD
  5
1
330
0
100
AcDbSymbolTable
 70
     0
  0
BLOCK_RECORD
  5
6F
330
1
100
AcDbSymbolTableRecord
100
AcDbBlockTableRecord
  2
*Model_Space
340
72
  0
BLOCK_RECORD
  5
6B
330
1
100
AcDbSymbolTableRecord
100
AcDbBlockTableRecord
  2
*Paper_Space
340
6E
  0
ENDTAB
  0
ENDSEC
  0
SECTION
  2
BLOCKS
  0
BLOCK
  5
70
330
6F
100
AcDbEntity
  8
0
100
AcDbBlockBegin
  2
*Model_Space
 70
     0
 10
0.0
 20
0.0
 30
0.0
  3
*Model_Space
  1

  0
ENDBLK
  5
71
330
6F
100
AcDbEntity
  8
0
100
AcDbBlockEnd
  0
BLOCK
  5
6C
330
6B
100
AcDbEntity
 67
     1
  8
0
100
AcDbBlockBegin
  2
*Paper_Space
 70
     0
 10
0.0
 20
0.0
 30
0.0
  3
*Paper_Space
  1

  0
ENDBLK
  5
6D
330
6B
100
AcDbEntity
 67
     1
  8
0
100
AcDbBlockEnd
  0
ENDSEC
  0
SECTION
  2
ENTITIES
  0
LINE
  5
95
330
6F
100
AcDbEntity
  8
1-0
  6
Continuous
 62
     7
100
AcDbLine
 10
0.0
 20
0.0
 30
0.0
 11
4200.0
 21
0.0
 31
0.0
  0
LINE
  5
96
330
6F
100
AcDbEntity
  8
1-0
  6
Continuous
 62
     7
100
AcDbLine
 10
4200.0
 20
0.0
 30
0.0
 11
4200.0
 21
2970.0
 31
0.0
  0
LINE
  5
97
330
6F
100
AcDbEntity
  8
1-0
  6
Continuous
 62
     7
100
AcDbLine
 10
4200.0
 20
2970.0
 30
0.0
 11
0.0
 21
2970.0
 31
0.0
  0
LINE
  5
98
330
6F
100
AcDbEntity
  8
1-0
  6
Continuous
 62
     7
100
AcDbLine
 10
0.0
 20
2970.0
 30
0.0
 11
0.0
 21
0.0
 31
0.0
  0
LINE
  5
99
330
6F
100
AcDbEntity
  8
F-0
  6
Continuous
 62
     7
100
AcDbLine
 10
100.0
 20
100.0
 30
0.0
 11
4100.0
 21
100.0
 31
0.0
  0
LINE
  5
9A
330
6F
100
AcDbEntity
  8
F-0
  6
Continuous
 62
     7
100
AcDbLine
 10
2500.0
 20
300.0
 30
0.0
 11
4100.0
 21
300.0
 31
0.0
  0
LINE
  5
9B
330
6F
100
AcDbEntity
  8
E-0
  6
Continuous
 62
     7
100
AcDbLine
 10
2500.0
 20
240.0
 30
0.0
 11
3150.0
 21
240.0
 31
0.0
  0
LINE
  5
9C
330
6F
100
AcDbEntity
  8
F-0
  6
Continuous
 62
     7
100
AcDbLine
 10
4100.0
 20
100.0
 30
0.0
 11
4100.0
 21
2870.0
 31
0.0
  0
LINE
  5
9D
330
6F
100
AcDbEntity
  8
F-0
  6
Continuous
 62
     7
100
AcDbLine
 10
4100.0
 20
2870.0
 30
0.0
 11
100.0
 21
2870.0
 31
0.0
  0
LINE
  5
9E
330
6F
100
AcDbEntity
  8
F-0
  6
Continuous
 62
     7
100
AcDbLine
 10
100.0
 20
2870.0
 30
0.0
 11
100.0
 21
100.0
 31
0.0
  0
LINE
  5
9F
330
6F
100
AcDbEntity
  8
E-0
  6
Continuous
 62
     7
100
AcDbLine
 10
3150.0
 20
100.0
 30
0.0
 11
3150.0
 21
300.0
 31
0.0
  0
LINE
  5
A0
330
6F
100
AcDbEntity
  8
F-0
  6
Continuous
 62
     7
100
AcDbLine
 10
2500.0
 20
100.0
 30
0.0
 11
2500.0
 21
300.0
 31
0.0
  0
TEXT
  5
A1
330
6F
100
AcDbEntity
  8
3-1
 62
     5
100
AcDbText
 10
2788.434
 20
252.531
 30
0.0
 40
31.104
  1
品番
100
AcDbText
  0
TEXT
  5
A2
330
6F
100
AcDbEntity
  8
3-1
 62
     5
100
AcDbText
 10
2629.839
 20
152.981
 30
0.0
 40
51.84000000000001
  1
KW-1350 L
100
AcDbText
  0
TEXT
  5
A3
330
6F
100
AcDbEntity
  8
3-1
 62
     5
100
AcDbText
 10
3353.56
 20
192.32
 30
0.0
 40
62.208
  1
アイオ産業株式会社
100
AcDbText
  0
TEXT
  5
A4
330
6F
100
AcDbEntity
  8
3-1
 62
     5
100
AcDbText
 10
3427.941
 20
124.513
 30
0.0
 40
31.104
  1
アイオシステムキッチン事業部
100
AcDbText
  0
ARC
  5
A5
330
6F
100
AcDbEntity
  8
6-0
  6
Continuous
 62
     7
100
AcDbCircle
 10
3255.659538175486
 20
200.204166274297
 30
0.0
 40
63.24278074506601
100
AcDbArc
 50
319.753
 51
220.247
  0
CIRCLE
  5
A6
330
6F
100
AcDbEntity
  8
6-0
  6
Continuous
 62
     7
100
AcDbCircle
 10
3255.659538175486
 20
200.204166274297
 30
0.0
 40
71.58304716886799
  0
CIRCLE
  5
A7
330
6F
100
AcDbEntity
  8
6-0
  6
Continuous
 62
     7
100
AcDbCircle
 10
3255.659538175486
 20
200.204166274297
 30
0.0
 40
72.000060490058
  0
CIRCLE
  5
A8
330
6F
100
AcDbEntity
  8
6-0
  6
Continuous
 62
     7
100
AcDbCircle
 10
3255.659538175486
 20
200.204166274297
 30
0.0
 40
72.417073811248
  0
CIRCLE
  5
A9
330
6F
100
AcDbEntity
  8
6-0
  6
Continuous
 62
     7
100
AcDbCircle
 10
3255.659538175486
 20
200.204166274297
 30
0.0
 40
72.834087132438
  0
CIRCLE
  5
AA
330
6F
100
AcDbEntity
  8
6-0
  6
Continuous
 62
     7
100
AcDbCircle
 10
3255.659538175486
 20
200.204166274297
 30
0.0
 40
73.251100453628
  0
CIRCLE
  5
AB
330
6F
100
AcDbEntity
  8
6-0
  6
Continuous
 62
     7
100
AcDbCircle
 10
3255.659538175486
 20
200.204166274297
 30
0.0
 40
73.459607114223
  0
CIRCLE
  5
AC
330
6F
100
AcDbEntity
  8
6-0
  6
Continuous
 62
     7
100
AcDbCircle
 10
3255.659538175486
 20
200.204166274297
 30
0.0
 40
73.04259379303299
  0
CIRCLE
  5
AD
330
6F
100
AcDbEntity
  8
6-0
  6
Continuous
 62
     7
100
AcDbCircle
 10
3255.659538175486
 20
200.204166274297
 30
0.0
 40
72.62558047184301
  0
CIRCLE
  5
AE
330
6F
100
AcDbEntity
  8
6-0
  6
Continuous
 62
     7
100
AcDbCircle
 10
3255.659538175486
 20
200.204166274297
 30
0.0
 40
72.20856715065299
  0
CIRCLE
  5
AF
330
6F
100
AcDbEntity
  8
6-0
  6
Continuous
 62
     7
100
AcDbCircle
 10
3255.659538175486
 20
200.204166274297
 30
0.0
 40
71.791553829463
  0
CIRCLE
  5
B0
330
6F
100
AcDbEntity
  8
6-0
  6
Continuous
 62
     7
100
AcDbCircle
 10
3255.659538175486
 20
200.204166274297
 30
0.0
 40
71.791553829463
  0
ARC
  5
B1
330
6F
100
AcDbEntity
  8
6-0
  6
Continuous
 62
     7
100
AcDbCircle
 10
3255.659538175486
 20
200.204166274297
 30
0.0
 40
63.45128740566099
100
AcDbArc
 50
319.753
 51
220.247
  0
CIRCLE
  5
B2
330
6F
100
AcDbEntity
  8
6-0
  6
Continuous
 62
     7
100
AcDbCircle
 10
3255.659538175486
 20
200.204166274297
 30
0.0
 40
71.374540508273
  0
ARC
  5
B3
330
6F
100
AcDbEntity
  8
6-0
  6
Continuous
 62
     7
100
AcDbCircle
 10
3255.659538175486
 20
200.204166274297
 30
0.0
 40
63.03427408447099
100
AcDbArc
 50
319.753
 51
220.247
  0
TEXT
  5
B4
330
6F
100
AcDbEntity
  8
6-0
 62
     7
100
AcDbText
 10
3216.455
 20
142.198
 30
0.0
 40
48.64
  1
A
100
AcDbText
  0
TEXT
  5
B5
330
6F
100
AcDbEntity
  8
6-0
 62
     7
100
AcDbText
 10
3258.946
 20
142.301
 30
0.0
 40
48.64
  1
I
100
AcDbText
  0
TEXT
  5
B6
330
6F
100
AcDbEntity
  8
6-0
 62
     7
100
AcDbText
 10
3269.344
 20
142.267
 30
0.0
 40
48.64
  1
O
100
AcDbText
  0
LINE
  5
B7
330
6F
100
AcDbEntity
  8
6-0
  6
Continuous
 62
     7
100
AcDbLine
 10
1955.177928
 20
2642.688137
 30
0.0
 11
1955.177928
 21
2092.688137
 31
0.0
  0
LINE
  5
B8
330
6F
100
AcDbEntity
  8
1-1
  6
CENTER
 62
     6
100
AcDbLine
 10
1162.577928
 20
1143.515332
 30
0.0
 11
1162.577928
 21
994.4345479999999
 31
0.0
  0
LINE
  5
B9
330
6F
100
AcDbEntity
  8
1-1
  6
CENTER
 62
     6
100
AcDbLine
 10
962.5779280000001
 20
1143.515332
 30
0.0
 11
962.5779280000001
 21
995.3825679999999
 31
0.0
  0
LINE
  5
BA
330
6F
100
AcDbEntity
  8
0-1
  6
Continuous
 62
     4
100
AcDbLine
 10
1062.577928
 20
1148.153288
 30
0.0
 11
1062.577928
 21
1143.515332
 31
0.0
  0
LINE
  5
BB
330
6F
100
AcDbEntity
  8
0-1
  6
Continuous
 62
     4
100
AcDbLine
 10
962.5779280000001
 20
1110.907176
 30
0.0
 11
962.5779280000001
 21
1143.515332
 31
0.0
  0
TEXT
  5
BC
330
6F
100
AcDbEntity
  8
0-1
 62
     4
100
AcDbText
 10
981.7999999999999
 20
1144.135
 30
0.0
 40
36.288
  1
100
100
AcDbText
  0
LINE
  5
BD
330
6F
100
AcDbEntity
  8
0-1
  6
Continuous
 62
     4
100
AcDbLine
 10
962.5779276689121
 20
1143.515332130955
 30
0.0
 11
1062.577927668912
 21
1143.515332130955
 31
0.0
  0
CIRCLE
  5
BE
330
6F
100
AcDbEntity
  8
0-1
  6
Continuous
 62
     4
100
AcDbCircle
 10
962.5779276689121
 20
1143.515332130955
 30
0.0
 40
0.25
  0
CIRCLE
  5
BF
330
6F
100
AcDbEntity
  8
0-1
  6
Continuous
 62
     4
100
AcDbCircle
 10
962.5779276689121
 20
1143.515332130955
 30
0.0
 40
0.1875
  0
CIRCLE
  5
C0
330
6F
100
AcDbEntity
  8
0-1
  6
Continuous
 62
     4
100
AcDbCircle
 10
962.5779276689121
 20
1143.515332130955
 30
0.0
 40
0.125
  0
CIRCLE
  5
C1
330
6F
100
AcDbEntity
  8
0-1
  6
Continuous
 62
     4
100
AcDbCircle
 10
962.5779276689121
 20
1143.515332130955
 30
0.0
 40
0.0625
  0
CIRCLE
  5
C2
330
6F
100
AcDbEntity
  8
0-1
  6
Continuous
 62
     4
100
AcDbCircle
 10
1062.577927668912
 20
1143.515332130955
 30
0.0
 40
0.25
  0
CIRCLE
  5
C3
330
6F
100
AcDbEntity
  8
0-1
  6
Continuous
 62
     4
100
AcDbCircle
 10
1062.577927668912
 20
1143.515332130955
 30
0.0
 40
0.1875
  0
CIRCLE
  5
C4
330
6F
100
AcDbEntity
  8
0-1
  6
Continuous
 62
     4
100
AcDbCircle
 10
1062.577927668912
 20
1143.515332130955
 30
0.0
 40
0.125
  0
CIRCLE
  5
C5
330
6F
100
AcDbEntity
  8
0-1
  6
Continuous
 62
     4
100
AcDbCircle
 10
1062.577927668912
 20
1143.515332130955
 30
0.0
 40
0.0625
  0
LINE
  5
C6
330
6F
100
AcDbEntity
  8
0-1
  6
Continuous
 62
     4
100
AcDbLine
 10
1062.577928
 20
1148.153288
 30
0.0
 11
1062.577928
 21
1143.515332
 31
0.0
  0
LINE
  5
C7
330
6F
100
AcDbEntity
  8
0-1
  6
Continuous
 62
     4
100
AcDbLine
 10
1162.577928
 20
1110.907176
 30
0.0
 11
1162.577928
 21
1143.515332
 31
0.0
  0
TEXT
  5
C8
330
6F
100
AcDbEntity
  8
0-1
 62
     4
100
AcDbText
 10
1081.8
 20
1144.135
 30
0.0
 40
36.288
  1
100
100
AcDbText
  0
LINE
  5
C9
330
6F
100
AcDbEntity
  8
0-1
  6
Continuous
 62
     4
100
AcDbLine
 10
1162.577927668912
 20
1143.515332130955
 30
0.0
 11
1062.577927668912
 21
1143.515332130955
 31
0.0
  0
CIRCLE
  5
CA
330
6F
100
AcDbEntity
  8
0-1
  6
Continuous
 62
     4
100
AcDbCircle
 10
1162.577927668912
 20
1143.515332130955
 30
0.0
 40
0.25
  0
CIRCLE
  5
CB
330
6F
100
AcDbEntity
  8
0-1
  6
Continuous
 62
     4
100
AcDbCircle
 10
1162.577927668912
 20
1143.515332130955
 30
0.0
 40
0.1875
  0
CIRCLE
  5
CC
330
6F
100
AcDbEntity
  8
0-1
  6
Continuous
 62
     4
100
AcDbCircle
 10
1162.577927668912
 20
1143.515332130955
 30
0.0
 40
0.125
  0
CIRCLE
  5
CD
330
6F
100
AcDbEntity
  8
0-1
  6
Continuous
 62
     4
100
AcDbCircle
 10
1162.577927668912
 20
1143.515332130955
 30
0.0
 40
0.0625
  0
CIRCLE
  5
CE
330
6F
100
AcDbEntity
  8
0-1
  6
Continuous
 62
     4
100
AcDbCircle
 10
1062.577927668912
 20
1143.515332130955
 30
0.0
 40
0.25
  0
CIRCLE
  5
CF
330
6F
100
AcDbEntity
  8
0-1
  6
Continuous
 62
     4
100
AcDbCircle
 10
1062.577927668912
 20
1143.515332130955
 30
0.0
 40
0.1875
  0
CIRCLE
  5
D0
330
6F
100
AcDbEntity
  8
0-1
  6
Continuous
 62
     4
100
AcDbCircle
 10
1062.577927668912
 20
1143.515332130955
 30
0.0
 40
0.125
  0
CIRCLE
  5
D1
330
6F
100
AcDbEntity
  8
0-1
  6
Continuous
 62
     4
100
AcDbCircle
 10
1062.577927668912
 20
1143.515332130955
 30
0.0
 40
0.0625
  0
LINE
  5
D2
330
6F
100
AcDbEntity
  8
6-0
  6
Continuous
 62
     7
100
AcDbLine
 10
607.6779279999999
 20
1369.434548
 30
0.0
 11
607.6779279999999
 21
594.4345479999999
 31
0.0
  0
LINE
  5
D3
330
6F
100
AcDbEntity
  8
0-1
  6
Continuous
 62
     4
100
AcDbLine
 10
879.7165509999999
 20
1048.434548
 30
0.0
 11
762.6030379999999
 21
1048.434548
 31
0.0
  0
LINE
  5
D4
330
6F
100
AcDbEntity
  8
0-1
  6
Continuous
 62
     4
100
AcDbLine
 10
756.088246
 20
594.4345479999999
 30
0.0
 11
762.6030379999999
 21
594.4345479999999
 31
0.0
  0
TEXT
  5
D5
330
6F
100
AcDbEntity
  8
0-1
 62
     4
100
AcDbText
 10
761.983
 20
787.835
 30
0.0
 40
36.288
  1
454
 50
90.0
100
AcDbText
  0
LINE
  5
D6
330
6F
100
AcDbEntity
  8
0-1
  6
Continuous
 62
     4
100
AcDbLine
 10
762.603038125144
 20
594.434547990836
 30
0.0
 11
762.603038125144
 21
1048.434547990836
 31
0.0
  0
CIRCLE
  5
D7
330
6F
100
AcDbEntity
  8
0-1
  6
Continuous
 62
     4
100
AcDbCircle
 10
762.603038125144
 20
594.434547990836
 30
0.0
 40
0.25
  0
CIRCLE
  5
D8
330
6F
100
AcDbEntity
  8
0-1
  6
Continuous
 62
     4
100
AcDbCircle
 10
762.603038125144
 20
594.434547990836
 30
0.0
 40
0.1875
  0
CIRCLE
  5
D9
330
6F
100
AcDbEntity
  8
0-1
  6
Continuous
 62
     4
100
AcDbCircle
 10
762.603038125144
 20
594.434547990836
 30
0.0
 40
0.125
  0
CIRCLE
  5
DA
330
6F
100
AcDbEntity
  8
0-1
  6
Continuous
 62
     4
100
AcDbCircle
 10
762.603038125144
 20
594.434547990836
 30
0.0
 40
0.0625
  0
CIRCLE
  5
DB
330
6F
100
AcDbEntity
  8
0-1
  6
Continuous
 62
     4
100
AcDbCircle
 10
762.603038125144
 20
1048.434547990836
 30
0.0
 40
0.25
  0
CIRCLE
  5
DC
330
6F
100
AcDbEntity
  8
0-1
  6
Continuous
 62
     4
100
AcDbCircle
 10
762.603038125144
 20
1048.434547990836
 30
0.0
 40
0.1875
  0
CIRCLE
  5
DD
330
6F
100
AcDbEntity
  8
0-1
  6
Continuous
 62
     4
100
AcDbCircle
 10
762.603038125144
 20
1048.434547990836
 30
0.0
 40
0.125
  0
CIRCLE
  5
DE
330
6F
100
AcDbEntity
  8
0-1
  6
Continuous
 62
     4
100
AcDbCircle
 10
762.603038125144
 20
1048.434547990836
 30
0.0
 40
0.0625
  0
LINE
  5
DF
330
6F
100
AcDbEntity
  8
0-1
  6
Continuous
 62
     4
100
AcDbLine
 10
1340.914369
 20
994.4345479999999
 30
0.0
 11
1435.757173
 21
994.4345479999999
 31
0.0
  0
LINE
  5
E0
330
6F
100
AcDbEntity
  8
0-1
  6
Continuous
 62
     4
100
AcDbLine
 10
1418.339495
 20
594.4345479999999
 30
0.0
 11
1435.757173
 21
594.4345479999999
 31
0.0
  0
TEXT
  5
E1
330
6F
100
AcDbEntity
  8
0-1
 62
     4
100
AcDbText
 10
1432.206
 20
738.4349999999999
 30
0.0
 40
36.288
  1
(400)
 50
90.0
100
AcDbText
  0
LINE
  5
E2
330
6F
100
AcDbEntity
  8
0-1
  6
Continuous
 62
     4
100
AcDbLine
 10
1435.757173296682
 20
594.434547990836
 30
0.0
 11
1435.757173296682
 21
994.434547990833
 31
0.0
  0
CIRCLE
  5
E3
330
6F
100
AcDbEntity
  8
0-1
  6
Continuous
 62
     4
100
AcDbCircle
 10
1435.757173296682
 20
594.434547990836
 30
0.0
 40
0.25
  0
CIRCLE
  5
E4
330
6F
100
AcDbEntity
  8
0-1
  6
Continuous
 62
     4
100
AcDbCircle
 10
1435.757173296682
 20
594.434547990836
 30
0.0
 40
0.1875
  0
CIRCLE
  5
E5
330
6F
100
AcDbEntity
  8
0-1
  6
Continuous
 62
     4
100
AcDbCircle
 10
1435.757173296682
 20
594.434547990836
 30
0.0
 40
0.125
  0
CIRCLE
  5
E6
330
6F
100
AcDbEntity
  8
0-1
  6
Continuous
 62
     4
100
AcDbCircle
 10
1435.757173296682
 20
594.434547990836
 30
0.0
 40
0.0625
  0
CIRCLE
  5
E7
330
6F
100
AcDbEntity
  8
0-1
  6
Continuous
 62
     4
100
AcDbCircle
 10
1435.757173296682
 20
994.434547990833
 30
0.0
 40
0.25
  0
CIRCLE
  5
E8
330
6F
100
AcDbEntity
  8
0-1
  6
Continuous
 62
     4
100
AcDbCircle
 10
1435.757173296682
 20
994.434547990833
 30
0.0
 40
0.1875
  0
CIRCLE
  5
E9
330
6F
100
AcDbEntity
  8
0-1
  6
Continuous
 62
     4
100
AcDbCircle
 10
1435.757173296682
 20
994.434547990833
 30
0.0
 40
0.125
  0
CIRCLE
  5
EA
330
6F
100
AcDbEntity
  8
0-1
  6
Continuous
 62
     4
100
AcDbCircle
 10
1435.757173296682
 20
994.434547990833
 30
0.0
 40
0.0625
  0
LINE
  5
EB
330
6F
100
AcDbEntity
  8
6-0
  6
Continuous
 62
     7
100
AcDbLine
 10
607.6779279999999
 20
594.4345479999999
 30
0.0
 11
1952.677928
 21
594.4345479999999
 31
0.0
  0
LINE
  5
EC
330
6F
100
AcDbEntity
  8
6-0
  6
DASHED2
 62
     7
100
AcDbLine
 10
1541.677928
 20
699.4345479999999
 30
0.0
 11
1541.677928
 21
821.2664079999999
 31
0.0
  0
LINE
  5
ED
330
6F
100
AcDbEntity
  8
6-0
  6
DASHED2
 62
     7
100
AcDbLine
 10
1559.177928
 20
699.4345479999999
 30
0.0
 11
1559.177928
 21
821.2664079999999
 31
0.0
  0
LINE
  5
EE
330
6F
100
AcDbEntity
  8
6-0
  6
Continuous
 62
     7
100
AcDbLine
 10
983.7911309999999
 20
973.2213450000001
 30
0.0
 11
941.3647240000001
 21
1015.647751
 31
0.0
  0
LINE
  5
EF
330
6F
100
AcDbEntity
  8
6-0
  6
Continuous
 62
     7
100
AcDbLine
 10
941.3647240000001
 20
973.2213450000001
 30
0.0
 11
983.7911309999999
 21
1015.647751
 31
0.0
  0
CIRCLE
  5
F0
330
6F
100
AcDbEntity
  8
6-0
  6
Continuous
 62
     7
100
AcDbCircle
 10
962.5779280000001
 20
994.4345479999999
 30
0.0
 40
20.0
  0
LINE
  5
F1
330
6F
100
AcDbEntity
  8
1-1
  6
CENTER
 62
     6
100
AcDbLine
 10
1434.757173
 20
994.4345479999999
 30
0.0
 11
1162.577928
 21
994.4345479999999
 31
0.0
  0
LINE
  5
F2
330
6F
100
AcDbEntity
  8
6-0
  6
DASHED2
 62
     7
100
AcDbLine
 10
622.6779279999999
 20
699.4345479999999
 30
0.0
 11
622.6779279999999
 21
821.2664079999999
 31
0.0
  0
CIRCLE
  5
F3
330
6F
100
AcDbEntity
  8
6-0
  6
Continuous
 62
     7
100
AcDbCircle
 10
1162.577928
 20
994.4345479999999
 30
0.0
 40
20.0
  0
LINE
  5
F4
330
6F
100
AcDbEntity
  8
6-0
  6
Continuous
 62
     7
100
AcDbLine
 10
1141.364724
 20
973.2213450000001
 30
0.0
 11
1148.435792
 21
980.292412
 31
0.0
  0
LINE
  5
F5
330
6F
100
AcDbEntity
  8
6-0
  6
Continuous
 62
     7
100
AcDbLine
 10
941.3647240000001
 20
973.2213450000001
 30
0.0
 11
948.435792
 21
980.292412
 31
0.0
  0
LINE
  5
F6
330
6F
100
AcDbEntity
  8
6-0
  6
Continuous
 62
     7
100
AcDbLine
 10
1141.364724
 20
1015.647751
 30
0.0
 11
1148.435792
 21
1008.576684
 31
0.0
  0
LINE
  5
F7
330
6F
100
AcDbEntity
  8
6-0
  6
Continuous
 62
     7
100
AcDbLine
 10
939.964724
 20
1015.647751
 30
0.0
 11
947.0357919999999
 21
1008.576684
 31
0.0
  0
LINE
  5
F8
330
6F
100
AcDbEntity
  8
6-0
  6
Continuous
 62
     7
100
AcDbLine
 10
1450.811842
 20
1601.387934
 30
0.0
 11
1570.177928
 21
1484.434548
 31
0.0
  0
LINE
  5
F9
330
6F
100
AcDbEntity
  8
6-0
  6
DASHED2
 62
     7
100
AcDbLine
 10
1587.677928
 20
1508.174679
 30
0.0
 11
1587.677928
 21
1585.557594
 31
0.0
  0
LINE
  5
FA
330
6F
100
AcDbEntity
  8
6-0
  6
DASHED2
 62
     7
100
AcDbLine
 10
1552.677928
 20
1508.174679
 30
0.0
 11
1552.677928
 21
1585.557594
 31
0.0
  0
LINE
  5
FB
330
6F
100
AcDbEntity
  8
1-1
  6
CENTER
 62
     6
100
AcDbLine
 10
1570.177928
 20
1605.241044
 30
0.0
 11
1570.177928
 21
1441.721322
 31
0.0
  0
LINE
  5
FC
330
6F
100
AcDbEntity
  8
6-0
  6
DASHED2
 62
     7
100
AcDbLine
 10
1035.077927668912
 20
1488.566171990836
 30
0.0
 11
1035.077927668912
 21
1494.829981990836
 31
0.0
  0
LINE
  5
FD
330
6F
100
AcDbEntity
  8
6-0
  6
DASHED2
 62
     7
100
AcDbLine
 10
1090.077927668912
 20
1496.941145990836
 30
0.0
 11
1090.077927668912
 21
1488.566171990836
 31
0.0
  0
LINE
  5
FE
330
6F
100
AcDbEntity
  8
6-0
  6
DASHED2
 62
     7
100
AcDbLine
 10
1035.077927668912
 20
1459.832957990836
 30
0.0
 11
818.925402668912
 21
1568.080698990836
 31
0.0
  0
LINE
  5
FF
330
6F
100
AcDbEntity
  8
6-0
  6
DASHED2
 62
     7
100
AcDbLine
 10
1035.077927668912
 20
1448.649067990836
 30
0.0
 11
823.019131668912
 21
1554.846696990836
 31
0.0
  0
LINE
  5
100
330
6F
100
AcDbEntity
  8
6-0
  6
DASHED2
 62
     7
100
AcDbLine
 10
1035.077927668912
 20
1484.434547990836
 30
0.0
 11
1035.077927668912
 21
1394.434547990836
 31
0.0
  0
LINE
  5
101
330
6F
100
AcDbEntity
  8
6-0
  6
DASHED2
 62
     7
100
AcDbLine
 10
1090.077927668912
 20
1464.434547990836
 30
0.0
 11
1035.077927668912
 21
1464.434547990836
 31
0.0
  0
LINE
  5
102
330
6F
100
AcDbEntity
  8
6-0
  6
DASHED2
 62
     7
100
AcDbLine
 10
1090.077927668912
 20
1484.434547990836
 30
0.0
 11
1035.077927668912
 21
1484.434547990836
 31
0.0
  0
LINE
  5
103
330
6F
100
AcDbEntity
  8
6-0
  6
DASHED2
 62
     7
100
AcDbLine
 10
1090.077927668912
 20
1484.434547990836
 30
0.0
 11
1090.077927668912
 21
1394.434547990836
 31
0.0
  0
LINE
  5
104
330
6F
100
AcDbEntity
  8
6-0
  6
DASHED2
 62
     7
100
AcDbLine
 10
1090.077927668912
 20
1488.566171990836
 30
0.0
 11
1035.077927668912
 21
1488.566171990836
 31
0.0
  0
LINE
  5
105
330
6F
100
AcDbEntity
  8
6-0
  6
DASHED2
 62
     7
100
AcDbLine
 10
1090.077927668912
 20
1394.434547990836
 30
0.0
 11
1035.077927668912
 21
1394.434547990836
 31
0.0
  0
ARC
  5
106
330
6F
100
AcDbEntity
  8
6-0
  6
DASHED2
 62
     7
100
AcDbCircle
 10
976.0253786689119
 20
1407.828327990836
 30
0.0
 40
115.364508
100
AcDbArc
 50
65.82599999999999
 51
99.90400000000001
  0
LINE
  5
107
330
6F
100
AcDbEntity
  8
6-0
  6
DASHED2
 62
     7
100
AcDbLine
 10
1012.505835668912
 20
1529.688547990836
 30
0.0
 11
943.6170826689121
 21
1529.688547990836
 31
0.0
  0
LINE
  5
108
330
6F
100
AcDbEntity
  8
6-0
  6
DASHED2
 62
     7
100
AcDbLine
 10
949.691264668912
 20
1520.355802990836
 30
0.0
 11
956.183485668912
 21
1521.473692990836
 31
0.0
  0
ARC
  5
109
330
6F
100
AcDbEntity
  8
6-0
  6
DASHED2
 62
     7
100
AcDbCircle
 10
947.994345668912
 20
1530.210773990836
 30
0.0
 40
10.0
100
AcDbArc
 50
229.545
 51
279.77
  0
ARC
  5
10A
330
6F
100
AcDbEntity
  8
6-0
  6
DASHED2
 62
     7
100
AcDbCircle
 10
943.6170826689121
 20
1527.688547990836
 30
0.0
 40
2.0
100
AcDbArc
 50
90.0
 51
109.705
  0
LINE
  5
10B
330
6F
100
AcDbEntity
  8
6-0
  6
DASHED2
 62
     7
100
AcDbLine
 10
939.425555668912
 20
1528.311754990836
 30
0.0
 11
942.942728668912
 21
1529.571429990836
 31
0.0
  0
LINE
  5
10C
330
6F
100
AcDbEntity
  8
6-0
  6
DASHED2
 62
     7
100
AcDbLine
 10
938.8022156689119
 20
1524.907033990835
 30
0.0
 11
941.505877668912
 21
1522.601582990836
 31
0.0
  0
ARC
  5
10D
330
6F
100
AcDbEntity
  8
6-0
  6
DASHED2
 62
     7
100
AcDbCircle
 10
940.0999096689119
 20
1526.428872990836
 30
0.0
 40
2.0
100
AcDbArc
 50
109.705
 51
229.545
  0
LINE
  5
10E
330
6F
100
AcDbEntity
  8
6-0
  6
DASHED2
 62
     7
100
AcDbLine
 10
795.4902176689119
 20
1551.434547990836
 30
0.0
 11
809.665637668912
 21
1551.434547990836
 31
0.0
  0
LINE
  5
10F
330
6F
100
AcDbEntity
  8
6-0
  6
DASHED2
 62
     7
100
AcDbLine
 10
809.665637668912
 20
1556.434547990836
 30
0.0
 11
809.665637668912
 21
1551.434547990836
 31
0.0
  0
LINE
  5
110
330
6F
100
AcDbEntity
  8
6-0
  6
DASHED2
 62
     7
100
AcDbLine
 10
795.4902176689119
 20
1556.434547990836
 30
0.0
 11
795.4902176689119
 21
1551.434547990836
 31
0.0
  0
LINE
  5
111
330
6F
100
AcDbEntity
  8
6-0
  6
DASHED2
 62
     7
100
AcDbLine
 10
792.345717668912
 20
1564.668549990836
 30
0.0
 11
792.345717668912
 21
1556.434547990836
 31
0.0
  0
ARC
  5
112
330
6F
100
AcDbEntity
  8
6-0
  6
DASHED2
 62
     7
100
AcDbCircle
 10
797.345717668912
 20
1564.668549990836
 30
0.0
 40
5.0
100
AcDbArc
 50
90.0
 51
180.0
  0
LINE
  5
113
330
6F
100
AcDbEntity
  8
6-0
  6
DASHED2
 62
     7
100
AcDbLine
 10
792.345717668912
 20
1556.434547990836
 30
0.0
 11
816.3024166689121
 21
1556.434547990836
 31
0.0
  0
ARC
  5
114
330
6F
100
AcDbEntity
  8
6-0
  6
DASHED2
 62
     7
100
AcDbCircle
 10
816.3024166689121
 20
1541.434547990836
 30
0.0
 40
15.0
100
AcDbArc
 50
63.399
 51
90.0
  0
LINE
  5
115
330
6F
100
AcDbEntity
  8
6-0
  6
DASHED2
 62
     7
100
AcDbLine
 10
797.345717668912
 20
1569.668549990836
 30
0.0
 11
812.208687668912
 21
1569.668549990836
 31
0.0
  0
ARC
  5
116
330
6F
100
AcDbEntity
  8
6-0
  6
DASHED2
 62
     7
100
AcDbCircle
 10
812.208687668912
 20
1554.668549990836
 30
0.0
 40
15.0
100
AcDbArc
 50
63.399
 51
90.0
  0
ARC
  5
117
330
6F
100
AcDbEntity
  8
6-0
  6
DASHED2
 62
     7
100
AcDbCircle
 10
1010.950389668912
 20
1411.840263990836
 30
0.0
 40
117.858548
100
AcDbArc
 50
48.942
 51
89.244
  0
ARC
  5
118
330
6F
100
AcDbEntity
  8
6-0
  6
DASHED2
 62
     7
100
AcDbCircle
 10
1085.077927668912
 20
1496.941145990836
 30
0.0
 40
5.0
100
AcDbArc
 50
0.0
 51
48.942
  0
ARC
  5
119
330
6F
100
AcDbEntity
  8
6-0
  6
DASHED2
 62
     7
100
AcDbCircle
 10
1007.829622668912
 20
1490.138504990835
 30
0.0
 40
27.649233
100
AcDbArc
 50
9.769
 51
56.05700000000001
  0
LINE
  5
11A
330
6F
100
AcDbEntity
  8
6-0
  6
Continuous
 62
     7
100
AcDbLine
 10
605.1779279999999
 20
1484.434548
 30
0.0
 11
1955.177928
 21
1484.434548
 31
0.0
  0
LINE
  5
11B
330
6F
100
AcDbEntity
  8
6-0
  6
DASHED2
 62
     7
100
AcDbLine
 10
1927.677927668909
 20
1394.434547990836
 30
0.0
 11
1927.677927668909
 21
1389.434547990836
 31
0.0
  0
LINE
  5
11C
330
6F
100
AcDbEntity
  8
6-0
  6
DASHED2
 62
     7
100
AcDbLine
 10
1927.677927668909
 20
1389.434547990836
 30
0.0
 11
1398.777927668912
 21
1389.434547990836
 31
0.0
  0
ARC
  5
11D
330
6F
100
AcDbEntity
  8
6-0
  6
DASHED2
 62
     7
100
AcDbCircle
 10
1398.777928
 20
1384.434548
 30
0.0
 40
5.0
100
AcDbArc
 50
90.0
 51
179.9999999997081
  0
LINE
  5
11E
330
6F
100
AcDbEntity
  8
6-0
  6
DASHED2
 62
     7
100
AcDbLine
 10
1393.777927668912
 20
1384.434547990836
 30
0.0
 11
1393.777927668914
 21
1256.434547990836
 31
0.0
  0
ARC
  5
11F
330
6F
100
AcDbEntity
  8
6-0
  6
DASHED2
 62
     7
100
AcDbCircle
 10
1373.777928
 20
1256.434548
 30
0.0
 40
20.0
100
AcDbArc
 50
270.0
 51
359.9999999997079
  0
LINE
  5
120
330
6F
100
AcDbEntity
  8
6-0
  6
DASHED2
 62
     7
100
AcDbLine
 10
1373.777927668914
 20
1236.434547990836
 30
0.0
 11
749.1779276689089
 21
1236.434547990836
 31
0.0
  0
ARC
  5
121
330
6F
100
AcDbEntity
  8
6-0
  6
DASHED2
 62
     7
100
AcDbCircle
 10
749.1779279999999
 20
1256.434548
 30
0.0
 40
20.0
100
AcDbArc
 50
180.0000000002879
 51
269.999999999999
  0
LINE
  5
122
330
6F
100
AcDbEntity
  8
6-0
  6
DASHED2
 62
     7
100
AcDbLine
 10
729.1779276689079
 20
1256.434547990838
 30
0.0
 11
729.177927668918
 21
1384.434547990836
 31
0.0
  0
ARC
  5
123
330
6F
100
AcDbEntity
  8
6-0
  6
DASHED2
 62
     7
100
AcDbCircle
 10
724.1779279999999
 20
1384.434548
 30
0.0
 40
5.0
100
AcDbArc
 50
0.0000000002909673
 51
90.00000000000095
  0
LINE
  5
124
330
6F
100
AcDbEntity
  8
6-0
  6
DASHED2
 62
     7
100
AcDbLine
 10
724.1779276689179
 20
1389.434547990836
 30
0.0
 11
625.17792766891
 21
1389.434547990836
 31
0.0
  0
LINE
  5
125
330
6F
100
AcDbEntity
  8
6-0
  6
DASHED2
 62
     7
100
AcDbLine
 10
625.17792766891
 20
1389.434547990836
 30
0.0
 11
625.1779276689079
 21
1394.434547990836
 31
0.0
  0
LINE
  5
126
330
6F
100
AcDbEntity
  8
6-0
  6
Continuous
 62
     7
100
AcDbLine
 10
605.1779279999999
 20
1394.434548
 30
0.0
 11
1955.177928
 21
1394.434548
 31
0.0
  0
LINE
  5
127
330
6F
100
AcDbEntity
  8
6-0
  6
Continuous
 62
     7
100
AcDbLine
 10
605.1779279999999
 20
1369.434548
 30
0.0
 11
1955.177928
 21
1369.434548
 31
0.0
  0
LINE
  5
128
330
6F
100
AcDbEntity
  8
6-0
  6
Continuous
 62
     7
100
AcDbLine
 10
1570.177928
 20
1484.434548
 30
0.0
 11
1559.811726
 21
1515.250441
 31
0.0
  0
LINE
  5
129
330
6F
100
AcDbEntity
  8
6-0
  6
Continuous
 62
     7
100
AcDbLine
 10
605.1779279999999
 20
1369.434548
 30
0.0
 11
605.1779279999999
 21
1484.434548
 31
0.0
  0
LINE
  5
12A
330
6F
100
AcDbEntity
  8
6-0
  6
Continuous
 62
     7
100
AcDbLine
 10
1017.957719
 20
1601.387934
 30
0.0
 11
1450.811842
 21
1601.387934
 31
0.0
  0
LINE
  5
12B
330
6F
100
AcDbEntity
  8
6-0
  6
DASHED2
 62
     7
100
AcDbLine
 10
1552.677928
 20
1585.557594
 30
0.0
 11
1587.677928
 21
1585.557594
 31
0.0
  0
LINE
  5
12C
330
6F
100
AcDbEntity
  8
6-0
  6
DASHED2
 62
     7
100
AcDbLine
 10
943.5873344028991
 20
1142.434548394695
 30
0.0
 11
943.5873344028991
 21
1089.334548394695
 31
0.0
  0
ARC
  5
12D
330
6F
100
AcDbEntity
  8
6-0
  6
DASHED2
 62
     7
100
AcDbCircle
 10
933.587334
 20
1089.334548
 30
0.0
 40
10.0
100
AcDbArc
 50
269.999999999997
 51
359.9999999997051
  0
LINE
  5
12E
330
6F
100
AcDbEntity
  8
6-0
  6
DASHED2
 62
     7
100
AcDbLine
 10
933.5873344028991
 20
1079.334548394696
 30
0.0
 11
826.7346478033509
 21
1079.334548394696
 31
0.0
  0
ARC
  5
12F
330
6F
100
AcDbEntity
  8
6-0
  6
DASHED2
 62
     7
100
AcDbCircle
 10
826.734648
 20
1089.334548
 30
0.0
 40
10.0
100
AcDbArc
 50
180.000000000295
 51
270.0000000000029
  0
LINE
  5
130
330
6F
100
AcDbEntity
  8
6-0
  6
DASHED2
 62
     7
100
AcDbLine
 10
816.7346478033509
 20
1089.334548394695
 30
0.0
 11
816.7346478033509
 21
1142.434548394695
 31
0.0
  0
LINE
  5
131
330
6F
100
AcDbEntity
  8
6-0
  6
DASHED2
 62
     7
100
AcDbLine
 10
850.160991103127
 20
1079.334548394696
 30
0.0
 11
850.1609911031248
 21
1048.434547990836
 31
0.0
  0
LINE
  5
132
330
6F
100
AcDbEntity
  8
6-0
  6
DASHED2
 62
     7
100
AcDbLine
 10
850.1609911031248
 20
1048.434547990836
 30
0.0
 11
910.1609911031269
 21
1048.434547990836
 31
0.0
  0
LINE
  5
133
330
6F
100
AcDbEntity
  8
6-0
  6
DASHED2
 62
     7
100
AcDbLine
 10
910.1609911031269
 20
1048.434547990836
 30
0.0
 11
910.1609911031269
 21
1079.334548394696
 31
0.0
  0
LINE
  5
134
330
6F
100
AcDbEntity
  8
6-0
  6
DASHED2
 62
     7
100
AcDbLine
 10
949.072192
 20
1209.233024
 30
0.0
 11
811.2497899999999
 21
1209.233024
 31
0.0
  0
LINE
  5
135
330
6F
100
AcDbEntity
  8
6-0
  6
DASHED2
 62
     7
100
AcDbLine
 10
958.1609909999999
 20
1214.233024
 30
0.0
 11
802.160991
 21
1214.233024
 31
0.0
  0
LINE
  5
136
330
6F
100
AcDbEntity
  8
6-0
  6
DASHED2
 62
     7
100
AcDbLine
 10
970.160991
 20
1231.434548
 30
0.0
 11
790.1609909999999
 21
1231.434548
 31
0.0
  0
LINE
  5
137
330
6F
100
AcDbEntity
  8
6-0
  6
DASHED2
 62
     7
100
AcDbLine
 10
949.0721922463569
 20
1142.434548394695
 30
0.0
 11
811.2497899598949
 21
1142.434548394695
 31
0.0
  0
LINE
  5
138
330
6F
100
AcDbEntity
  8
6-0
  6
DASHED2
 62
     7
100
AcDbLine
 10
802.160991
 20
1214.233024
 30
0.0
 11
811.2497899999999
 21
1209.233024
 31
0.0
  0
LINE
  5
139
330
6F
100
AcDbEntity
  8
6-0
  6
DASHED2
 62
     7
100
AcDbLine
 10
811.2497899999999
 20
1209.233024
 30
0.0
 11
811.2497899999999
 21
1144.649314
 31
0.0
  0
LINE
  5
13A
330
6F
100
AcDbEntity
  8
6-0
  6
DASHED2
 62
     7
100
AcDbLine
 10
792.4086479999999
 20
1231.434548
 30
0.0
 11
792.4086479999999
 21
1217.434548
 31
0.0
  0
LINE
  5
13B
330
6F
100
AcDbEntity
  8
6-0
  6
DASHED2
 62
     7
100
AcDbLine
 10
792.4086479999999
 20
1217.434548
 30
0.0
 11
802.160991
 21
1217.434548
 31
0.0
  0
LINE
  5
13C
330
6F
100
AcDbEntity
  8
6-0
  6
DASHED2
 62
     7
100
AcDbLine
 10
802.160991
 20
1231.434548
 30
0.0
 11
802.160991
 21
1214.233024
 31
0.0
  0
LINE
  5
13D
330
6F
100
AcDbEntity
  8
6-0
  6
DASHED2
 62
     7
100
AcDbLine
 10
790.1609909999999
 20
1236.434548
 30
0.0
 11
790.1609909999999
 21
1231.434548
 31
0.0
  0
LINE
  5
13E
330
6F
100
AcDbEntity
  8
6-0
  6
DASHED2
 62
     7
100
AcDbLine
 10
958.1609909999999
 20
1214.233024
 30
0.0
 11
949.072192
 21
1209.233024
 31
0.0
  0
LINE
  5
13F
330
6F
100
AcDbEntity
  8
6-0
  6
DASHED2
 62
     7
100
AcDbLine
 10
949.072192
 20
1209.233024
 30
0.0
 11
949.072192
 21
1144.649314
 31
0.0
  0
LINE
  5
140
330
6F
100
AcDbEntity
  8
6-0
  6
DASHED2
 62
     7
100
AcDbLine
 10
967.9133349999998
 20
1231.434548
 30
0.0
 11
967.9133349999998
 21
1217.434548
 31
0.0
  0
LINE
  5
141
330
6F
100
AcDbEntity
  8
6-0
  6
DASHED2
 62
     7
100
AcDbLine
 10
967.9133349999998
 20
1217.434548
 30
0.0
 11
958.1609909999999
 21
1217.434548
 31
0.0
  0
LINE
  5
142
330
6F
100
AcDbEntity
  8
6-0
  6
DASHED2
 62
     7
100
AcDbLine
 10
958.1609909999999
 20
1231.434548
 30
0.0
 11
958.1609909999999
 21
1214.233024
 31
0.0
  0
LINE
  5
143
330
6F
100
AcDbEntity
  8
6-0
  6
DASHED2
 62
     7
100
AcDbLine
 10
970.160991
 20
1236.434548
 30
0.0
 11
970.160991
 21
1231.434548
 31
0.0
  0
TEXT
  5
144
330
6F
100
AcDbEntity
  8
3-1
 62
     5
100
AcDbText
 10
1020.82
 20
1616.224
 30
0.0
 40
25.92
  1
背面桟木位置(配管注意）
100
AcDbText
  0
LINE
  5
145
330
6F
100
AcDbEntity
  8
0-1
  6
Continuous
 62
     4
100
AcDbLine
 10
1955.177928
 20
1504.434548
 30
0.0
 11
1955.177928
 21
1606.309548
 31
0.0
  0
LINE
  5
146
330
6F
100
AcDbEntity
  8
0-1
  6
Continuous
 62
     4
100
AcDbLine
 10
1570.177928
 20
1605.557594
 30
0.0
 11
1570.177928
 21
1606.309548
 31
0.0
  0
TEXT
  5
147
330
6F
100
AcDbEntity
  8
0-1
 62
     4
100
AcDbText
 10
1731.9
 20
1606.93
 30
0.0
 40
36.288
  1
385
100
AcDbText
  0
LINE
  5
148
330
6F
100
AcDbEntity
  8
0-1
  6
Continuous
 62
     4
100
AcDbLine
 10
1570.17792766891
 20
1606.309547990845
 30
0.0
 11
1955.17792766891
 21
1606.309547990845
 31
0.0
  0
CIRCLE
  5
149
330
6F
100
AcDbEntity
  8
0-1
  6
Continuous
 62
     4
100
AcDbCircle
 10
1570.17792766891
 20
1606.309547990845
 30
0.0
 40
0.25
  0
CIRCLE
  5
14A
330
6F
100
AcDbEntity
  8
0-1
  6
Continuous
 62
     4
100
AcDbCircle
 10
1570.17792766891
 20
1606.309547990845
 30
0.0
 40
0.1875
  0
CIRCLE
  5
14B
330
6F
100
AcDbEntity
  8
0-1
  6
Continuous
 62
     4
100
AcDbCircle
 10
1570.17792766891
 20
1606.309547990845
 30
0.0
 40
0.125
  0
CIRCLE
  5
14C
330
6F
100
AcDbEntity
  8
0-1
  6
Continuous
 62
     4
100
AcDbCircle
 10
1570.17792766891
 20
1606.309547990845
 30
0.0
 40
0.0625
  0
CIRCLE
  5
14D
330
6F
100
AcDbEntity
  8
0-1
  6
Continuous
 62
     4
100
AcDbCircle
 10
1955.17792766891
 20
1606.309547990845
 30
0.0
 40
0.25
  0
CIRCLE
  5
14E
330
6F
100
AcDbEntity
  8
0-1
  6
Continuous
 62
     4
100
AcDbCircle
 10
1955.17792766891
 20
1606.309547990845
 30
0.0
 40
0.1875
  0
CIRCLE
  5
14F
330
6F
100
AcDbEntity
  8
0-1
  6
Continuous
 62
     4
100
AcDbCircle
 10
1955.17792766891
 20
1606.309547990845
 30
0.0
 40
0.125
  0
CIRCLE
  5
150
330
6F
100
AcDbEntity
  8
0-1
  6
Continuous
 62
     4
100
AcDbCircle
 10
1955.17792766891
 20
1606.309547990845
 30
0.0
 40
0.0625
  0
LINE
  5
151
330
6F
100
AcDbEntity
  8
0-1
  6
Continuous
 62
     4
100
AcDbLine
 10
1955.177928
 20
1504.434548
 30
0.0
 11
1955.177928
 21
1706.309548
 31
0.0
  0
LINE
  5
152
330
6F
100
AcDbEntity
  8
0-1
  6
Continuous
 62
     4
100
AcDbLine
 10
605.1779279999999
 20
1504.434548
 30
0.0
 11
605.1779279999999
 21
1706.309548
 31
0.0
  0
TEXT
  5
153
330
6F
100
AcDbEntity
  8
0-1
 62
     4
100
AcDbText
 10
1238.2
 20
1706.93
 30
0.0
 40
36.288
  1
1350
100
AcDbText
  0
LINE
  5
154
330
6F
100
AcDbEntity
  8
0-1
  6
Continuous
 62
     4
100
AcDbLine
 10
605.1779276689099
 20
1706.309547990845
 30
0.0
 11
1955.17792766891
 21
1706.309547990845
 31
0.0
  0
CIRCLE
  5
155
330
6F
100
AcDbEntity
  8
0-1
  6
Continuous
 62
     4
100
AcDbCircle
 10
605.1779276689099
 20
1706.309547990845
 30
0.0
 40
0.25
  0
CIRCLE
  5
156
330
6F
100
AcDbEntity
  8
0-1
  6
Continuous
 62
     4
100
AcDbCircle
 10
605.1779276689099
 20
1706.309547990845
 30
0.0
 40
0.1875
  0
CIRCLE
  5
157
330
6F
100
AcDbEntity
  8
0-1
  6
Continuous
 62
     4
100
AcDbCircle
 10
605.1779276689099
 20
1706.309547990845
 30
0.0
 40
0.125
  0
CIRCLE
  5
158
330
6F
100
AcDbEntity
  8
0-1
  6
Continuous
 62
     4
100
AcDbCircle
 10
605.1779276689099
 20
1706.309547990845
 30
0.0
 40
0.0625
  0
CIRCLE
  5
159
330
6F
100
AcDbEntity
  8
0-1
  6
Continuous
 62
     4
100
AcDbCircle
 10
1955.17792766891
 20
1706.309547990845
 30
0.0
 40
0.25
  0
CIRCLE
  5
15A
330
6F
100
AcDbEntity
  8
0-1
  6
Continuous
 62
     4
100
AcDbCircle
 10
1955.17792766891
 20
1706.309547990845
 30
0.0
 40
0.1875
  0
CIRCLE
  5
15B
330
6F
100
AcDbEntity
  8
0-1
  6
Continuous
 62
     4
100
AcDbCircle
 10
1955.17792766891
 20
1706.309547990845
 30
0.0
 40
0.125
  0
CIRCLE
  5
15C
330
6F
100
AcDbEntity
  8
0-1
  6
Continuous
 62
     4
100
AcDbCircle
 10
1955.17792766891
 20
1706.309547990845
 30
0.0
 40
0.0625
  0
LINE
  5
15D
330
6F
100
AcDbEntity
  8
0-1
  6
Continuous
 62
     4
100
AcDbLine
 10
587.677928
 20
594.4345479999999
 30
0.0
 11
457.677928
 21
594.4345479999999
 31
0.0
  0
LINE
  5
15E
330
6F
100
AcDbEntity
  8
0-1
  6
Continuous
 62
     4
100
AcDbLine
 10
587.677928
 20
684.4345479999999
 30
0.0
 11
457.677928
 21
684.4345479999999
 31
0.0
  0
TEXT
  5
15F
330
6F
100
AcDbEntity
  8
0-1
 62
     4
100
AcDbText
 10
457.058
 20
617.035
 30
0.0
 40
36.288
  1
90
 50
90.0
100
AcDbText
  0
LINE
  5
160
330
6F
100
AcDbEntity
  8
0-1
  6
Continuous
 62
     4
100
AcDbLine
 10
457.67792766891
 20
684.4345479908359
 30
0.0
 11
457.67792766891
 21
594.434547990836
 31
0.0
  0
CIRCLE
  5
161
330
6F
100
AcDbEntity
  8
0-1
  6
Continuous
 62
     4
100
AcDbCircle
 10
457.67792766891
 20
684.4345479908359
 30
0.0
 40
0.25
  0
CIRCLE
  5
162
330
6F
100
AcDbEntity
  8
0-1
  6
Continuous
 62
     4
100
AcDbCircle
 10
457.67792766891
 20
684.4345479908359
 30
0.0
 40
0.1875
  0
CIRCLE
  5
163
330
6F
100
AcDbEntity
  8
0-1
  6
Continuous
 62
     4
100
AcDbCircle
 10
457.67792766891
 20
684.4345479908359
 30
0.0
 40
0.125
  0
CIRCLE
  5
164
330
6F
100
AcDbEntity
  8
0-1
  6
Continuous
 62
     4
100
AcDbCircle
 10
457.67792766891
 20
684.4345479908359
 30
0.0
 40
0.0625
  0
CIRCLE
  5
165
330
6F
100
AcDbEntity
  8
0-1
  6
Continuous
 62
     4
100
AcDbCircle
 10
457.67792766891
 20
594.434547990836
 30
0.0
 40
0.25
  0
CIRCLE
  5
166
330
6F
100
AcDbEntity
  8
0-1
  6
Continuous
 62
     4
100
AcDbCircle
 10
457.67792766891
 20
594.434547990836
 30
0.0
 40
0.1875
  0
CIRCLE
  5
167
330
6F
100
AcDbEntity
  8
0-1
  6
Continuous
 62
     4
100
AcDbCircle
 10
457.67792766891
 20
594.434547990836
 30
0.0
 40
0.125
  0
CIRCLE
  5
168
330
6F
100
AcDbEntity
  8
0-1
  6
Continuous
 62
     4
100
AcDbCircle
 10
457.67792766891
 20
594.434547990836
 30
0.0
 40
0.0625
  0
LINE
  5
169
330
6F
100
AcDbEntity
  8
0-1
  6
Continuous
 62
     4
100
AcDbLine
 10
587.677928
 20
684.4345479999999
 30
0.0
 11
457.677928
 21
684.4345479999999
 31
0.0
  0
LINE
  5
16A
330
6F
100
AcDbEntity
  8
0-1
  6
Continuous
 62
     4
100
AcDbLine
 10
592.1779279999999
 20
1359.434548
 30
0.0
 11
457.677928
 21
1359.434548
 31
0.0
  0
TEXT
  5
16B
330
6F
100
AcDbEntity
  8
0-1
 62
     4
100
AcDbText
 10
457.058
 20
988.335
 30
0.0
 40
36.288
  1
675
 50
90.0
100
AcDbText
  0
LINE
  5
16C
330
6F
100
AcDbEntity
  8
0-1
  6
Continuous
 62
     4
100
AcDbLine
 10
457.6779276689109
 20
1359.434547990836
 30
0.0
 11
457.67792766891
 21
684.4345479908359
 31
0.0
  0
CIRCLE
  5
16D
330
6F
100
AcDbEntity
  8
0-1
  6
Continuous
 62
     4
100
AcDbCircle
 10
457.6779276689109
 20
1359.434547990836
 30
0.0
 40
0.25
  0
CIRCLE
  5
16E
330
6F
100
AcDbEntity
  8
0-1
  6
Continuous
 62
     4
100
AcDbCircle
 10
457.6779276689109
 20
1359.434547990836
 30
0.0
 40
0.1875
  0
CIRCLE
  5
16F
330
6F
100
AcDbEntity
  8
0-1
  6
Continuous
 62
     4
100
AcDbCircle
 10
457.6779276689109
 20
1359.434547990836
 30
0.0
 40
0.125
  0
CIRCLE
  5
170
330
6F
100
AcDbEntity
  8
0-1
  6
Continuous
 62
     4
100
AcDbCircle
 10
457.6779276689109
 20
1359.434547990836
 30
0.0
 40
0.0625
  0
CIRCLE
  5
171
330
6F
100
AcDbEntity
  8
0-1
  6
Continuous
 62
     4
100
AcDbCircle
 10
457.67792766891
 20
684.4345479908359
 30
0.0
 40
0.25
  0
CIRCLE
  5
172
330
6F
100
AcDbEntity
  8
0-1
  6
Continuous
 62
     4
100
AcDbCircle
 10
457.67792766891
 20
684.4345479908359
 30
0.0
 40
0.1875
  0
CIRCLE
  5
173
330
6F
100
AcDbEntity
  8
0-1
  6
Continuous
 62
     4
100
AcDbCircle
 10
457.67792766891
 20
684.4345479908359
 30
0.0
 40
0.125
  0
CIRCLE
  5
174
330
6F
100
AcDbEntity
  8
0-1
  6
Continuous
 62
     4
100
AcDbCircle
 10
457.67792766891
 20
684.4345479908359
 30
0.0
 40
0.0625
  0
LINE
  5
175
330
6F
100
AcDbEntity
  8
0-1
  6
Continuous
 62
     4
100
AcDbLine
 10
592.1779279999999
 20
1359.434548
 30
0.0
 11
457.677928
 21
1359.434548
 31
0.0
  0
LINE
  5
176
330
6F
100
AcDbEntity
  8
0-1
  6
Continuous
 62
     4
100
AcDbLine
 10
585.1779279999999
 20
1369.434548
 30
0.0
 11
457.677928
 21
1369.434548
 31
0.0
  0
LINE
  5
177
330
6F
100
AcDbEntity
  8
0-1
  6
Continuous
 62
     4
100
AcDbLine
 10
457.677928
 20
1349.434548
 30
0.0
 11
457.677928
 21
1339.434548
 31
0.0
  0
LINE
  5
178
330
6F
100
AcDbEntity
  8
0-1
  6
Continuous
 62
     4
100
AcDbLine
 10
457.677928
 20
1379.434548
 30
0.0
 11
457.677928
 21
1389.434548
 31
0.0
  0
LINE
  5
179
330
6F
100
AcDbEntity
  8
0-1
  6
Continuous
 62
     4
100
AcDbLine
 10
457.677928
 20
1364.434548
 30
0.0
 11
424.8538199999999
 21
1355.567632
 31
0.0
  0
LINE
  5
17A
330
6F
100
AcDbEntity
  8
0-1
  6
Continuous
 62
     4
100
AcDbLine
 10
424.8538199999999
 20
1355.567632
 30
0.0
 11
424.8538199999999
 21
1296.303672
 31
0.0
  0
TEXT
  5
17B
330
6F
100
AcDbEntity
  8
0-1
 62
     4
100
AcDbText
 10
424.234
 20
1303.536
 30
0.0
 40
36.288
  1
10
 50
90.0
100
AcDbText
  0
LINE
  5
17C
330
6F
100
AcDbEntity
  8
0-1
  6
Continuous
 62
     4
100
AcDbLine
 10
457.677928
 20
1359.434548
 30
0.0
 11
457.677928
 21
1369.434548
 31
0.0
  0
LINE
  5
17D
330
6F
100
AcDbEntity
  8
0-1
  6
Continuous
 62
     4
100
AcDbLine
 10
457.677928
 20
1359.434548
 30
0.0
 11
457.677928
 21
1369.434548
 31
0.0
  0
CIRCLE
  5
17E
330
6F
100
AcDbEntity
  8
0-1
  6
Continuous
 62
     4
100
AcDbCircle
 10
457.6779276689109
 20
1359.434547990836
 30
0.0
 40
0.25
  0
CIRCLE
  5
17F
330
6F
100
AcDbEntity
  8
0-1
  6
Continuous
 62
     4
100
AcDbCircle
 10
457.6779276689109
 20
1359.434547990836
 30
0.0
 40
0.1875
  0
CIRCLE
  5
180
330
6F
100
AcDbEntity
  8
0-1
  6
Continuous
 62
     4
100
AcDbCircle
 10
457.6779276689109
 20
1359.434547990836
 30
0.0
 40
0.125
  0
CIRCLE
  5
181
330
6F
100
AcDbEntity
  8
0-1
  6
Continuous
 62
     4
100
AcDbCircle
 10
457.6779276689109
 20
1359.434547990836
 30
0.0
 40
0.0625
  0
ARC
  5
182
330
6F
100
AcDbEntity
  8
0-1
 62
     4
100
AcDbCircle
 10
457.672927668911
 20
1359.434547990836
 30
0.0
 40
2.5
100
AcDbArc
 50
90.11459140653
 51
270.114591405945
  0
LINE
  5
183
330
6F
100
AcDbEntity
  8
0-1
 62
     4
100
AcDbLine
 10
457.6779276689359
 20
1354.434547990836
 30
0.0
 11
457.6779276689619
 21
1349.434547990836
 31
0.0
  0
CIRCLE
  5
184
330
6F
100
AcDbEntity
  8
0-1
  6
Continuous
 62
     4
100
AcDbCircle
 10
457.6779276689109
 20
1369.434547990836
 30
0.0
 40
0.25
  0
CIRCLE
  5
185
330
6F
100
AcDbEntity
  8
0-1
  6
Continuous
 62
     4
100
AcDbCircle
 10
457.6779276689109
 20
1369.434547990836
 30
0.0
 40
0.1875
  0
CIRCLE
  5
186
330
6F
100
AcDbEntity
  8
0-1
  6
Continuous
 62
     4
100
AcDbCircle
 10
457.6779276689109
 20
1369.434547990836
 30
0.0
 40
0.125
  0
CIRCLE
  5
187
330
6F
100
AcDbEntity
  8
0-1
  6
Continuous
 62
     4
100
AcDbCircle
 10
457.6779276689109
 20
1369.434547990836
 30
0.0
 40
0.0625
  0
ARC
  5
188
330
6F
100
AcDbEntity
  8
0-1
 62
     4
100
AcDbCircle
 10
457.6829276689109
 20
1369.434547990836
 30
0.0
 40
2.5
100
AcDbArc
 50
270.1145914065301
 51
90.11459140594496
  0
LINE
  5
189
330
6F
100
AcDbEntity
  8
0-1
 62
     4
100
AcDbLine
 10
457.6779276688339
 20
1374.434547990836
 30
0.0
 11
457.677927668757
 21
1379.434547990836
 31
0.0
  0
LINE
  5
18A
330
6F
100
AcDbEntity
  8
0-1
  6
Continuous
 62
     4
100
AcDbLine
 10
585.1779279999999
 20
1369.434548
 30
0.0
 11
457.677928
 21
1369.434548
 31
0.0
  0
LINE
  5
18B
330
6F
100
AcDbEntity
  8
0-1
  6
Continuous
 62
     4
100
AcDbLine
 10
585.1779279999999
 20
1394.434548
 30
0.0
 11
457.677928
 21
1394.434548
 31
0.0
  0
LINE
  5
18C
330
6F
100
AcDbEntity
  8
0-1
  6
Continuous
 62
     4
100
AcDbLine
 10
457.677928
 20
1359.434548
 30
0.0
 11
457.677928
 21
1349.434548
 31
0.0
  0
LINE
  5
18D
330
6F
100
AcDbEntity
  8
0-1
  6
Continuous
 62
     4
100
AcDbLine
 10
457.677928
 20
1404.434548
 30
0.0
 11
457.677928
 21
1414.434548
 31
0.0
  0
LINE
  5
18E
330
6F
100
AcDbEntity
  8
0-1
  6
Continuous
 62
     4
100
AcDbLine
 10
457.677928
 20
1381.934548
 30
0.0
 11
496.927898
 21
1409.664168
 31
0.0
  0
LINE
  5
18F
330
6F
100
AcDbEntity
  8
0-1
  6
Continuous
 62
     4
100
AcDbLine
 10
496.927898
 20
1409.664168
 30
0.0
 11
496.927898
 21
1470.349447
 31
0.0
  0
TEXT
  5
190
330
6F
100
AcDbEntity
  8
0-1
 62
     4
100
AcDbText
 10
496.308
 20
1417.607
 30
0.0
 40
36.288
  1
25
 50
90.0
100
AcDbText
  0
LINE
  5
191
330
6F
100
AcDbEntity
  8
0-1
  6
Continuous
 62
     4
100
AcDbLine
 10
457.677928
 20
1369.434548
 30
0.0
 11
457.677928
 21
1394.434548
 31
0.0
  0
LINE
  5
192
330
6F
100
AcDbEntity
  8
0-1
  6
Continuous
 62
     4
100
AcDbLine
 10
457.677928
 20
1369.434548
 30
0.0
 11
457.677928
 21
1394.434548
 31
0.0
  0
CIRCLE
  5
193
330
6F
100
AcDbEntity
  8
0-1
  6
Continuous
 62
     4
100
AcDbCircle
 10
457.6779276689109
 20
1369.434547990836
 30
0.0
 40
0.25
  0
CIRCLE
  5
194
330
6F
100
AcDbEntity
  8
0-1
  6
Continuous
 62
     4
100
AcDbCircle
 10
457.6779276689109
 20
1369.434547990836
 30
0.0
 40
0.1875
  0
CIRCLE
  5
195
330
6F
100
AcDbEntity
  8
0-1
  6
Continuous
 62
     4
100
AcDbCircle
 10
457.6779276689109
 20
1369.434547990836
 30
0.0
 40
0.125
  0
CIRCLE
  5
196
330
6F
100
AcDbEntity
  8
0-1
  6
Continuous
 62
     4
100
AcDbCircle
 10
457.6779276689109
 20
1369.434547990836
 30
0.0
 40
0.0625
  0
ARC
  5
197
330
6F
100
AcDbEntity
  8
0-1
 62
     4
100
AcDbCircle
 10
457.672927668911
 20
1369.434547990836
 30
0.0
 40
2.5
100
AcDbArc
 50
90.11459140653
 51
270.114591405945
  0
LINE
  5
198
330
6F
100
AcDbEntity
  8
0-1
 62
     4
100
AcDbLine
 10
457.6779276689359
 20
1364.434547990836
 30
0.0
 11
457.6779276689619
 21
1359.434547990836
 31
0.0
  0
CIRCLE
  5
199
330
6F
100
AcDbEntity
  8
0-1
  6
Continuous
 62
     4
100
AcDbCircle
 10
457.6779276689109
 20
1394.434547990836
 30
0.0
 40
0.25
  0
CIRCLE
  5
19A
330
6F
100
AcDbEntity
  8
0-1
  6
Continuous
 62
     4
100
AcDbCircle
 10
457.6779276689109
 20
1394.434547990836
 30
0.0
 40
0.1875
  0
CIRCLE
  5
19B
330
6F
100
AcDbEntity
  8
0-1
  6
Continuous
 62
     4
100
AcDbCircle
 10
457.6779276689109
 20
1394.434547990836
 30
0.0
 40
0.125
  0
CIRCLE
  5
19C
330
6F
100
AcDbEntity
  8
0-1
  6
Continuous
 62
     4
100
AcDbCircle
 10
457.6779276689109
 20
1394.434547990836
 30
0.0
 40
0.0625
  0
ARC
  5
19D
330
6F
100
AcDbEntity
  8
0-1
 62
     4
100
AcDbCircle
 10
457.6829276689109
 20
1394.434547990836
 30
0.0
 40
2.5
100
AcDbArc
 50
270.1145914065301
 51
90.11459140594496
  0
LINE
  5
19E
330
6F
100
AcDbEntity
  8
0-1
 62
     4
100
AcDbLine
 10
457.6779276688339
 20
1399.434547990836
 30
0.0
 11
457.677927668757
 21
1404.434547990836
 31
0.0
  0
LINE
  5
19F
330
6F
100
AcDbEntity
  8
0-1
  6
Continuous
 62
     4
100
AcDbLine
 10
605.1779279999999
 20
1349.434548
 30
0.0
 11
605.1779279999999
 21
1301.259306
 31
0.0
  0
LINE
  5
1A0
330
6F
100
AcDbEntity
  8
0-1
  6
Continuous
 62
     4
100
AcDbLine
 10
607.6779279999999
 20
1349.434548
 30
0.0
 11
607.6779279999999
 21
1301.259306
 31
0.0
  0
LINE
  5
1A1
330
6F
100
AcDbEntity
  8
0-1
  6
Continuous
 62
     4
100
AcDbLine
 10
595.1779279999999
 20
1301.259306
 30
0.0
 11
585.1779279999999
 21
1301.259306
 31
0.0
  0
LINE
  5
1A2
330
6F
100
AcDbEntity
  8
0-1
  6
Continuous
 62
     4
100
AcDbLine
 10
617.6779279999999
 20
1301.259306
 30
0.0
 11
627.6779279999999
 21
1301.259306
 31
0.0
  0
LINE
  5
1A3
330
6F
100
AcDbEntity
  8
0-1
  6
Continuous
 62
     4
100
AcDbLine
 10
606.427928
 20
1301.259306
 30
0.0
 11
588.6239709999999
 21
1235.116011
 31
0.0
  0
LINE
  5
1A4
330
6F
100
AcDbEntity
  8
0-1
  6
Continuous
 62
     4
100
AcDbLine
 10
588.6239709999999
 20
1235.116011
 30
0.0
 11
505.1975749999999
 21
1235.116011
 31
0.0
  0
TEXT
  5
1A5
330
6F
100
AcDbEntity
  8
0-1
 62
     4
100
AcDbText
 10
516.133
 20
1235.736
 30
0.0
 40
36.288
  1
2.5
100
AcDbText
  0
LINE
  5
1A6
330
6F
100
AcDbEntity
  8
0-1
  6
Continuous
 62
     4
100
AcDbLine
 10
605.1779279999999
 20
1301.259306
 30
0.0
 11
607.6779279999999
 21
1301.259306
 31
0.0
  0
LINE
  5
1A7
330
6F
100
AcDbEntity
  8
0-1
  6
Continuous
 62
     4
100
AcDbLine
 10
605.1779279999999
 20
1301.259306
 30
0.0
 11
607.6779279999999
 21
1301.259306
 31
0.0
  0
CIRCLE
  5
1A8
330
6F
100
AcDbEntity
  8
0-1
  6
Continuous
 62
     4
100
AcDbCircle
 10
605.1779276689099
 20
1301.259305722844
 30
0.0
 40
0.25
  0
CIRCLE
  5
1A9
330
6F
100
AcDbEntity
  8
0-1
  6
Continuous
 62
     4
100
AcDbCircle
 10
605.1779276689099
 20
1301.259305722844
 30
0.0
 40
0.1875
  0
CIRCLE
  5
1AA
330
6F
100
AcDbEntity
  8
0-1
  6
Continuous
 62
     4
100
AcDbCircle
 10
605.1779276689099
 20
1301.259305722844
 30
0.0
 40
0.125
  0
CIRCLE
  5
1AB
330
6F
100
AcDbEntity
  8
0-1
  6
Continuous
 62
     4
100
AcDbCircle
 10
605.1779276689099
 20
1301.259305722844
 30
0.0
 40
0.0625
  0
ARC
  5
1AC
330
6F
100
AcDbEntity
  8
0-1
 62
     4
100
AcDbCircle
 10
605.1779276689099
 20
1301.264305722844
 30
0.0
 40
2.5
100
AcDbArc
 50
0.1145914065300158
 51
180.114591405945
  0
LINE
  5
1AD
330
6F
100
AcDbEntity
  8
0-1
 62
     4
100
AcDbLine
 10
600.17792766891
 20
1301.259305722844
 30
0.0
 11
595.17792766891
 21
1301.259305722844
 31
0.0
  0
CIRCLE
  5
1AE
330
6F
100
AcDbEntity
  8
0-1
  6
Continuous
 62
     4
100
AcDbCircle
 10
607.67792766891
 20
1301.259305722844
 30
0.0
 40
0.25
  0
CIRCLE
  5
1AF
330
6F
100
AcDbEntity
  8
0-1
  6
Continuous
 62
     4
100
AcDbCircle
 10
607.67792766891
 20
1301.259305722844
 30
0.0
 40
0.1875
  0
CIRCLE
  5
1B0
330
6F
100
AcDbEntity
  8
0-1
  6
Continuous
 62
     4
100
AcDbCircle
 10
607.67792766891
 20
1301.259305722844
 30
0.0
 40
0.125
  0
CIRCLE
  5
1B1
330
6F
100
AcDbEntity
  8
0-1
  6
Continuous
 62
     4
100
AcDbCircle
 10
607.67792766891
 20
1301.259305722844
 30
0.0
 40
0.0625
  0
ARC
  5
1B2
330
6F
100
AcDbEntity
  8
0-1
 62
     4
100
AcDbCircle
 10
607.67792766891
 20
1301.254305722844
 30
0.0
 40
2.5
100
AcDbArc
 50
180.1145914065301
 51
0.1145914059449637
  0
LINE
  5
1B3
330
6F
100
AcDbEntity
  8
0-1
 62
     4
100
AcDbLine
 10
612.67792766891
 20
1301.259305722895
 30
0.0
 11
617.6779276689099
 21
1301.259305722946
 31
0.0
  0
LINE
  5
1B4
330
6F
100
AcDbEntity
  8
0-1
  6
Continuous
 62
     4
100
AcDbLine
 10
587.677928
 20
594.4345479999999
 30
0.0
 11
357.677928
 21
594.4345479999999
 31
0.0
  0
LINE
  5
1B5
330
6F
100
AcDbEntity
  8
0-1
  6
Continuous
 62
     4
100
AcDbLine
 10
585.1779279999999
 20
1394.434548
 30
0.0
 11
357.677928
 21
1394.434548
 31
0.0
  0
TEXT
  5
1B6
330
6F
100
AcDbEntity
  8
0-1
 62
     4
100
AcDbText
 10
357.058
 20
960.8349999999999
 30
0.0
 40
36.288
  1
800
 50
90.0
100
AcDbText
  0
LINE
  5
1B7
330
6F
100
AcDbEntity
  8
0-1
  6
Continuous
 62
     4
100
AcDbLine
 10
357.6779276689109
 20
1394.434547990836
 30
0.0
 11
357.67792766891
 21
594.434547990836
 31
0.0
  0
CIRCLE
  5
1B8
330
6F
100
AcDbEntity
  8
0-1
  6
Continuous
 62
     4
100
AcDbCircle
 10
357.6779276689109
 20
1394.434547990836
 30
0.0
 40
0.25
  0
CIRCLE
  5
1B9
330
6F
100
AcDbEntity
  8
0-1
  6
Continuous
 62
     4
100
AcDbCircle
 10
357.6779276689109
 20
1394.434547990836
 30
0.0
 40
0.1875
  0
CIRCLE
  5
1BA
330
6F
100
AcDbEntity
  8
0-1
  6
Continuous
 62
     4
100
AcDbCircle
 10
357.6779276689109
 20
1394.434547990836
 30
0.0
 40
0.125
  0
CIRCLE
  5
1BB
330
6F
100
AcDbEntity
  8
0-1
  6
Continuous
 62
     4
100
AcDbCircle
 10
357.6779276689109
 20
1394.434547990836
 30
0.0
 40
0.0625
  0
CIRCLE
  5
1BC
330
6F
100
AcDbEntity
  8
0-1
  6
Continuous
 62
     4
100
AcDbCircle
 10
357.67792766891
 20
594.434547990836
 30
0.0
 40
0.25
  0
CIRCLE
  5
1BD
330
6F
100
AcDbEntity
  8
0-1
  6
Continuous
 62
     4
100
AcDbCircle
 10
357.67792766891
 20
594.434547990836
 30
0.0
 40
0.1875
  0
CIRCLE
  5
1BE
330
6F
100
AcDbEntity
  8
0-1
  6
Continuous
 62
     4
100
AcDbCircle
 10
357.67792766891
 20
594.434547990836
 30
0.0
 40
0.125
  0
CIRCLE
  5
1BF
330
6F
100
AcDbEntity
  8
0-1
  6
Continuous
 62
     4
100
AcDbCircle
 10
357.67792766891
 20
594.434547990836
 30
0.0
 40
0.0625
  0
LINE
  5
1C0
330
6F
100
AcDbEntity
  8
0-1
  6
Continuous
 62
     4
100
AcDbLine
 10
585.1779279999999
 20
1394.434548
 30
0.0
 11
357.677928
 21
1394.434548
 31
0.0
  0
LINE
  5
1C1
330
6F
100
AcDbEntity
  8
0-1
  6
Continuous
 62
     4
100
AcDbLine
 10
585.1779279999999
 20
1484.434548
 30
0.0
 11
357.677928
 21
1484.434548
 31
0.0
  0
TEXT
  5
1C2
330
6F
100
AcDbEntity
  8
0-1
 62
     4
100
AcDbText
 10
357.058
 20
1417.035
 30
0.0
 40
36.288
  1
90
 50
90.0
100
AcDbText
  0
LINE
  5
1C3
330
6F
100
AcDbEntity
  8
0-1
  6
Continuous
 62
     4
100
AcDbLine
 10
357.6779276689109
 20
1484.434547990836
 30
0.0
 11
357.6779276689109
 21
1394.434547990836
 31
0.0
  0
CIRCLE
  5
1C4
330
6F
100
AcDbEntity
  8
0-1
  6
Continuous
 62
     4
100
AcDbCircle
 10
357.6779276689109
 20
1484.434547990836
 30
0.0
 40
0.25
  0
CIRCLE
  5
1C5
330
6F
100
AcDbEntity
  8
0-1
  6
Continuous
 62
     4
100
AcDbCircle
 10
357.6779276689109
 20
1484.434547990836
 30
0.0
 40
0.1875
  0
CIRCLE
  5
1C6
330
6F
100
AcDbEntity
  8
0-1
  6
Continuous
 62
     4
100
AcDbCircle
 10
357.6779276689109
 20
1484.434547990836
 30
0.0
 40
0.125
  0
CIRCLE
  5
1C7
330
6F
100
AcDbEntity
  8
0-1
  6
Continuous
 62
     4
100
AcDbCircle
 10
357.6779276689109
 20
1484.434547990836
 30
0.0
 40
0.0625
  0
CIRCLE
  5
1C8
330
6F
100
AcDbEntity
  8
0-1
  6
Continuous
 62
     4
100
AcDbCircle
 10
357.6779276689109
 20
1394.434547990836
 30
0.0
 40
0.25
  0
CIRCLE
  5
1C9
330
6F
100
AcDbEntity
  8
0-1
  6
Continuous
 62
     4
100
AcDbCircle
 10
357.6779276689109
 20
1394.434547990836
 30
0.0
 40
0.1875
  0
CIRCLE
  5
1CA
330
6F
100
AcDbEntity
  8
0-1
  6
Continuous
 62
     4
100
AcDbCircle
 10
357.6779276689109
 20
1394.434547990836
 30
0.0
 40
0.125
  0
CIRCLE
  5
1CB
330
6F
100
AcDbEntity
  8
0-1
  6
Continuous
 62
     4
100
AcDbCircle
 10
357.6779276689109
 20
1394.434547990836
 30
0.0
 40
0.0625
  0
LINE
  5
1CC
330
6F
100
AcDbEntity
  8
6-0
  6
DASHED2
 62
     7
100
AcDbLine
 10
622.6779279999999
 20
699.4345479999999
 30
0.0
 11
1937.677928
 21
699.4345479999999
 31
0.0
  0
LINE
  5
1CD
330
6F
100
AcDbEntity
  8
0-1
  6
Continuous
 62
     4
100
AcDbLine
 10
607.6779279999999
 20
574.4345479999999
 30
0.0
 11
607.6779279999999
 21
444.4345479999999
 31
0.0
  0
LINE
  5
1CE
330
6F
100
AcDbEntity
  8
0-1
  6
Continuous
 62
     4
100
AcDbLine
 10
612.677928
 20
574.4345479999999
 30
0.0
 11
612.677928
 21
444.4345479999999
 31
0.0
  0
TEXT
  5
1CF
330
6F
100
AcDbEntity
  8
0-1
 62
     4
100
AcDbText
 10
641.1109999999999
 20
377.555
 30
0.0
 40
36.288
  1
5
100
AcDbText
  0
LINE
  5
1D0
330
6F
100
AcDbEntity
  8
0-1
  6
Continuous
 62
     4
100
AcDbLine
 10
612.6779276689119
 20
444.434547990836
 30
0.0
 11
607.67792766891
 21
444.434547990836
 31
0.0
  0
CIRCLE
  5
1D1
330
6F
100
AcDbEntity
  8
0-1
  6
Continuous
 62
     4
100
AcDbCircle
 10
612.6779276689119
 20
444.434547990836
 30
0.0
 40
0.25
  0
CIRCLE
  5
1D2
330
6F
100
AcDbEntity
  8
0-1
  6
Continuous
 62
     4
100
AcDbCircle
 10
612.6779276689119
 20
444.434547990836
 30
0.0
 40
0.1875
  0
CIRCLE
  5
1D3
330
6F
100
AcDbEntity
  8
0-1
  6
Continuous
 62
     4
100
AcDbCircle
 10
612.6779276689119
 20
444.434547990836
 30
0.0
 40
0.125
  0
CIRCLE
  5
1D4
330
6F
100
AcDbEntity
  8
0-1
  6
Continuous
 62
     4
100
AcDbCircle
 10
612.6779276689119
 20
444.434547990836
 30
0.0
 40
0.0625
  0
CIRCLE
  5
1D5
330
6F
100
AcDbEntity
  8
0-1
  6
Continuous
 62
     4
100
AcDbCircle
 10
607.67792766891
 20
444.434547990836
 30
0.0
 40
0.25
  0
CIRCLE
  5
1D6
330
6F
100
AcDbEntity
  8
0-1
  6
Continuous
 62
     4
100
AcDbCircle
 10
607.67792766891
 20
444.434547990836
 30
0.0
 40
0.1875
  0
CIRCLE
  5
1D7
330
6F
100
AcDbEntity
  8
0-1
  6
Continuous
 62
     4
100
AcDbCircle
 10
607.67792766891
 20
444.434547990836
 30
0.0
 40
0.125
  0
CIRCLE
  5
1D8
330
6F
100
AcDbEntity
  8
0-1
  6
Continuous
 62
     4
100
AcDbCircle
 10
607.67792766891
 20
444.434547990836
 30
0.0
 40
0.0625
  0
LINE
  5
1D9
330
6F
100
AcDbEntity
  8
0-1
  6
Continuous
 62
     4
100
AcDbLine
 10
612.677928
 20
574.4345479999999
 30
0.0
 11
612.677928
 21
444.4345479999999
 31
0.0
  0
LINE
  5
1DA
330
6F
100
AcDbEntity
  8
0-1
  6
Continuous
 62
     4
100
AcDbLine
 10
1079.677928
 20
574.4345479999999
 30
0.0
 11
1079.677928
 21
444.4345479999999
 31
0.0
  0
TEXT
  5
1DB
330
6F
100
AcDbEntity
  8
0-1
 62
     4
100
AcDbText
 10
815.3999999999999
 20
445.0549999999999
 30
0.0
 40
36.288
  1
467
100
AcDbText
  0
LINE
  5
1DC
330
6F
100
AcDbEntity
  8
0-1
  6
Continuous
 62
     4
100
AcDbLine
 10
1079.67792766891
 20
444.434547990836
 30
0.0
 11
612.6779276689119
 21
444.434547990836
 31
0.0
  0
CIRCLE
  5
1DD
330
6F
100
AcDbEntity
  8
0-1
  6
Continuous
 62
     4
100
AcDbCircle
 10
1079.67792766891
 20
444.434547990836
 30
0.0
 40
0.25
  0
CIRCLE
  5
1DE
330
6F
100
AcDbEntity
  8
0-1
  6
Continuous
 62
     4
100
AcDbCircle
 10
1079.67792766891
 20
444.434547990836
 30
0.0
 40
0.1875
  0
CIRCLE
  5
1DF
330
6F
100
AcDbEntity
  8
0-1
  6
Continuous
 62
     4
100
AcDbCircle
 10
1079.67792766891
 20
444.434547990836
 30
0.0
 40
0.125
  0
CIRCLE
  5
1E0
330
6F
100
AcDbEntity
  8
0-1
  6
Continuous
 62
     4
100
AcDbCircle
 10
1079.67792766891
 20
444.434547990836
 30
0.0
 40
0.0625
  0
CIRCLE
  5
1E1
330
6F
100
AcDbEntity
  8
0-1
  6
Continuous
 62
     4
100
AcDbCircle
 10
612.6779276689119
 20
444.434547990836
 30
0.0
 40
0.25
  0
CIRCLE
  5
1E2
330
6F
100
AcDbEntity
  8
0-1
  6
Continuous
 62
     4
100
AcDbCircle
 10
612.6779276689119
 20
444.434547990836
 30
0.0
 40
0.1875
  0
CIRCLE
  5
1E3
330
6F
100
AcDbEntity
  8
0-1
  6
Continuous
 62
     4
100
AcDbCircle
 10
612.6779276689119
 20
444.434547990836
 30
0.0
 40
0.125
  0
CIRCLE
  5
1E4
330
6F
100
AcDbEntity
  8
0-1
  6
Continuous
 62
     4
100
AcDbCircle
 10
612.6779276689119
 20
444.434547990836
 30
0.0
 40
0.0625
  0
LINE
  5
1E5
330
6F
100
AcDbEntity
  8
0-1
  6
Continuous
 62
     4
100
AcDbLine
 10
1079.677928
 20
574.4345479999999
 30
0.0
 11
1079.677928
 21
444.4345479999999
 31
0.0
  0
LINE
  5
1E6
330
6F
100
AcDbEntity
  8
0-1
  6
Continuous
 62
     4
100
AcDbLine
 10
1080.677928
 20
574.4345479999999
 30
0.0
 11
1080.677928
 21
444.4345479999999
 31
0.0
  0
TEXT
  5
1E7
330
6F
100
AcDbEntity
  8
0-1
 62
     4
100
AcDbText
 10
1106.758
 20
377.555
 30
0.0
 40
36.288
  1
1
100
AcDbText
  0
LINE
  5
1E8
330
6F
100
AcDbEntity
  8
0-1
  6
Continuous
 62
     4
100
AcDbLine
 10
1080.67792766891
 20
444.434547990836
 30
0.0
 11
1079.67792766891
 21
444.434547990836
 31
0.0
  0
CIRCLE
  5
1E9
330
6F
100
AcDbEntity
  8
0-1
  6
Continuous
 62
     4
100
AcDbCircle
 10
1080.67792766891
 20
444.434547990836
 30
0.0
 40
0.25
  0
CIRCLE
  5
1EA
330
6F
100
AcDbEntity
  8
0-1
  6
Continuous
 62
     4
100
AcDbCircle
 10
1080.67792766891
 20
444.434547990836
 30
0.0
 40
0.1875
  0
CIRCLE
  5
1EB
330
6F
100
AcDbEntity
  8
0-1
  6
Continuous
 62
     4
100
AcDbCircle
 10
1080.67792766891
 20
444.434547990836
 30
0.0
 40
0.125
  0
CIRCLE
  5
1EC
330
6F
100
AcDbEntity
  8
0-1
  6
Continuous
 62
     4
100
AcDbCircle
 10
1080.67792766891
 20
444.434547990836
 30
0.0
 40
0.0625
  0
CIRCLE
  5
1ED
330
6F
100
AcDbEntity
  8
0-1
  6
Continuous
 62
     4
100
AcDbCircle
 10
1079.67792766891
 20
444.434547990836
 30
0.0
 40
0.25
  0
CIRCLE
  5
1EE
330
6F
100
AcDbEntity
  8
0-1
  6
Continuous
 62
     4
100
AcDbCircle
 10
1079.67792766891
 20
444.434547990836
 30
0.0
 40
0.1875
  0
CIRCLE
  5
1EF
330
6F
100
AcDbEntity
  8
0-1
  6
Continuous
 62
     4
100
AcDbCircle
 10
1079.67792766891
 20
444.434547990836
 30
0.0
 40
0.125
  0
CIRCLE
  5
1F0
330
6F
100
AcDbEntity
  8
0-1
  6
Continuous
 62
     4
100
AcDbCircle
 10
1079.67792766891
 20
444.434547990836
 30
0.0
 40
0.0625
  0
LINE
  5
1F1
330
6F
100
AcDbEntity
  8
0-1
  6
Continuous
 62
     4
100
AcDbLine
 10
1080.677928
 20
574.4345479999999
 30
0.0
 11
1080.677928
 21
444.4345479999999
 31
0.0
  0
LINE
  5
1F2
330
6F
100
AcDbEntity
  8
0-1
  6
Continuous
 62
     4
100
AcDbLine
 10
1547.677928
 20
574.4345479999999
 30
0.0
 11
1547.677928
 21
444.4345479999999
 31
0.0
  0
TEXT
  5
1F3
330
6F
100
AcDbEntity
  8
0-1
 62
     4
100
AcDbText
 10
1283.4
 20
445.0549999999999
 30
0.0
 40
36.288
  1
467
100
AcDbText
  0
LINE
  5
1F4
330
6F
100
AcDbEntity
  8
0-1
  6
Continuous
 62
     4
100
AcDbLine
 10
1547.677927668908
 20
444.434547990836
 30
0.0
 11
1080.67792766891
 21
444.434547990836
 31
0.0
  0
CIRCLE
  5
1F5
330
6F
100
AcDbEntity
  8
0-1
  6
Continuous
 62
     4
100
AcDbCircle
 10
1547.677927668908
 20
444.434547990836
 30
0.0
 40
0.25
  0
CIRCLE
  5
1F6
330
6F
100
AcDbEntity
  8
0-1
  6
Continuous
 62
     4
100
AcDbCircle
 10
1547.677927668908
 20
444.434547990836
 30
0.0
 40
0.1875
  0
CIRCLE
  5
1F7
330
6F
100
AcDbEntity
  8
0-1
  6
Continuous
 62
     4
100
AcDbCircle
 10
1547.677927668908
 20
444.434547990836
 30
0.0
 40
0.125
  0
CIRCLE
  5
1F8
330
6F
100
AcDbEntity
  8
0-1
  6
Continuous
 62
     4
100
AcDbCircle
 10
1547.677927668908
 20
444.434547990836
 30
0.0
 40
0.0625
  0
CIRCLE
  5
1F9
330
6F
100
AcDbEntity
  8
0-1
  6
Continuous
 62
     4
100
AcDbCircle
 10
1080.67792766891
 20
444.434547990836
 30
0.0
 40
0.25
  0
CIRCLE
  5
1FA
330
6F
100
AcDbEntity
  8
0-1
  6
Continuous
 62
     4
100
AcDbCircle
 10
1080.67792766891
 20
444.434547990836
 30
0.0
 40
0.1875
  0
CIRCLE
  5
1FB
330
6F
100
AcDbEntity
  8
0-1
  6
Continuous
 62
     4
100
AcDbCircle
 10
1080.67792766891
 20
444.434547990836
 30
0.0
 40
0.125
  0
CIRCLE
  5
1FC
330
6F
100
AcDbEntity
  8
0-1
  6
Continuous
 62
     4
100
AcDbCircle
 10
1080.67792766891
 20
444.434547990836
 30
0.0
 40
0.0625
  0
LINE
  5
1FD
330
6F
100
AcDbEntity
  8
0-1
  6
Continuous
 62
     4
100
AcDbLine
 10
1547.677928
 20
574.4345479999999
 30
0.0
 11
1547.677928
 21
444.4345479999999
 31
0.0
  0
LINE
  5
1FE
330
6F
100
AcDbEntity
  8
0-1
  6
Continuous
 62
     4
100
AcDbLine
 10
1552.677928
 20
574.4345479999999
 30
0.0
 11
1552.677928
 21
444.4345479999999
 31
0.0
  0
TEXT
  5
1FF
330
6F
100
AcDbEntity
  8
0-1
 62
     4
100
AcDbText
 10
1581.111
 20
377.555
 30
0.0
 40
36.288
  1
5
100
AcDbText
  0
LINE
  5
200
330
6F
100
AcDbEntity
  8
0-1
  6
Continuous
 62
     4
100
AcDbLine
 10
1552.677927668908
 20
444.434547990836
 30
0.0
 11
1547.677927668908
 21
444.434547990836
 31
0.0
  0
CIRCLE
  5
201
330
6F
100
AcDbEntity
  8
0-1
  6
Continuous
 62
     4
100
AcDbCircle
 10
1552.677927668908
 20
444.434547990836
 30
0.0
 40
0.25
  0
CIRCLE
  5
202
330
6F
100
AcDbEntity
  8
0-1
  6
Continuous
 62
     4
100
AcDbCircle
 10
1552.677927668908
 20
444.434547990836
 30
0.0
 40
0.1875
  0
CIRCLE
  5
203
330
6F
100
AcDbEntity
  8
0-1
  6
Continuous
 62
     4
100
AcDbCircle
 10
1552.677927668908
 20
444.434547990836
 30
0.0
 40
0.125
  0
CIRCLE
  5
204
330
6F
100
AcDbEntity
  8
0-1
  6
Continuous
 62
     4
100
AcDbCircle
 10
1552.677927668908
 20
444.434547990836
 30
0.0
 40
0.0625
  0
CIRCLE
  5
205
330
6F
100
AcDbEntity
  8
0-1
  6
Continuous
 62
     4
100
AcDbCircle
 10
1547.677927668908
 20
444.434547990836
 30
0.0
 40
0.25
  0
CIRCLE
  5
206
330
6F
100
AcDbEntity
  8
0-1
  6
Continuous
 62
     4
100
AcDbCircle
 10
1547.677927668908
 20
444.434547990836
 30
0.0
 40
0.1875
  0
CIRCLE
  5
207
330
6F
100
AcDbEntity
  8
0-1
  6
Continuous
 62
     4
100
AcDbCircle
 10
1547.677927668908
 20
444.434547990836
 30
0.0
 40
0.125
  0
CIRCLE
  5
208
330
6F
100
AcDbEntity
  8
0-1
  6
Continuous
 62
     4
100
AcDbCircle
 10
1547.677927668908
 20
444.434547990836
 30
0.0
 40
0.0625
  0
LINE
  5
209
330
6F
100
AcDbEntity
  8
0-1
  6
Continuous
 62
     4
100
AcDbLine
 10
1552.677928
 20
574.4345479999999
 30
0.0
 11
1552.677928
 21
444.4345479999999
 31
0.0
  0
LINE
  5
20A
330
6F
100
AcDbEntity
  8
0-1
  6
Continuous
 62
     4
100
AcDbLine
 10
1947.677928
 20
574.4345479999999
 30
0.0
 11
1947.677928
 21
444.4345479999999
 31
0.0
  0
TEXT
  5
20B
330
6F
100
AcDbEntity
  8
0-1
 62
     4
100
AcDbText
 10
1719.4
 20
445.0549999999999
 30
0.0
 40
36.288
  1
395
100
AcDbText
  0
LINE
  5
20C
330
6F
100
AcDbEntity
  8
0-1
  6
Continuous
 62
     4
100
AcDbLine
 10
1947.677927668906
 20
444.434547990836
 30
0.0
 11
1552.677927668908
 21
444.434547990836
 31
0.0
  0
CIRCLE
  5
20D
330
6F
100
AcDbEntity
  8
0-1
  6
Continuous
 62
     4
100
AcDbCircle
 10
1947.677927668906
 20
444.434547990836
 30
0.0
 40
0.25
  0
CIRCLE
  5
20E
330
6F
100
AcDbEntity
  8
0-1
  6
Continuous
 62
     4
100
AcDbCircle
 10
1947.677927668906
 20
444.434547990836
 30
0.0
 40
0.1875
  0
CIRCLE
  5
20F
330
6F
100
AcDbEntity
  8
0-1
  6
Continuous
 62
     4
100
AcDbCircle
 10
1947.677927668906
 20
444.434547990836
 30
0.0
 40
0.125
  0
CIRCLE
  5
210
330
6F
100
AcDbEntity
  8
0-1
  6
Continuous
 62
     4
100
AcDbCircle
 10
1947.677927668906
 20
444.434547990836
 30
0.0
 40
0.0625
  0
CIRCLE
  5
211
330
6F
100
AcDbEntity
  8
0-1
  6
Continuous
 62
     4
100
AcDbCircle
 10
1552.677927668908
 20
444.434547990836
 30
0.0
 40
0.25
  0
CIRCLE
  5
212
330
6F
100
AcDbEntity
  8
0-1
  6
Continuous
 62
     4
100
AcDbCircle
 10
1552.677927668908
 20
444.434547990836
 30
0.0
 40
0.1875
  0
CIRCLE
  5
213
330
6F
100
AcDbEntity
  8
0-1
  6
Continuous
 62
     4
100
AcDbCircle
 10
1552.677927668908
 20
444.434547990836
 30
0.0
 40
0.125
  0
CIRCLE
  5
214
330
6F
100
AcDbEntity
  8
0-1
  6
Continuous
 62
     4
100
AcDbCircle
 10
1552.677927668908
 20
444.434547990836
 30
0.0
 40
0.0625
  0
LINE
  5
215
330
6F
100
AcDbEntity
  8
6-0
  6
Continuous
 62
     7
100
AcDbLine
 10
1952.677928
 20
1369.434548
 30
0.0
 11
1952.677928
 21
594.4345479999999
 31
0.0
  0
LINE
  5
216
330
6F
100
AcDbEntity
  8
0-1
  6
Continuous
 62
     4
100
AcDbLine
 10
1947.677928
 20
574.4345479999999
 30
0.0
 11
1947.677928
 21
444.4345479999999
 31
0.0
  0
LINE
  5
217
330
6F
100
AcDbEntity
  8
0-1
  6
Continuous
 62
     4
100
AcDbLine
 10
1952.677928
 20
574.4345479999999
 30
0.0
 11
1952.677928
 21
444.4345479999999
 31
0.0
  0
LINE
  5
218
330
6F
100
AcDbEntity
  8
0-1
  6
Continuous
 62
     4
100
AcDbLine
 10
1937.677928
 20
444.4345479999999
 30
0.0
 11
1927.677928
 21
444.4345479999999
 31
0.0
  0
LINE
  5
219
330
6F
100
AcDbEntity
  8
0-1
  6
Continuous
 62
     4
100
AcDbLine
 10
1962.677928
 20
444.4345479999999
 30
0.0
 11
1972.677928
 21
444.4345479999999
 31
0.0
  0
LINE
  5
21A
330
6F
100
AcDbEntity
  8
0-1
  6
Continuous
 62
     4
100
AcDbLine
 10
1950.177928
 20
444.4345479999999
 30
0.0
 11
1920.891102
 21
381.501163
 31
0.0
  0
LINE
  5
21B
330
6F
100
AcDbEntity
  8
0-1
  6
Continuous
 62
     4
100
AcDbLine
 10
1920.891102
 20
381.501163
 30
0.0
 11
1882.769274
 21
381.501163
 31
0.0
  0
TEXT
  5
21C
330
6F
100
AcDbEntity
  8
0-1
 62
     4
100
AcDbText
 10
1893.453
 20
382.121
 30
0.0
 40
36.288
  1
5
100
AcDbText
  0
LINE
  5
21D
330
6F
100
AcDbEntity
  8
0-1
  6
Continuous
 62
     4
100
AcDbLine
 10
1947.677928
 20
444.4345479999999
 30
0.0
 11
1952.677928
 21
444.4345479999999
 31
0.0
  0
LINE
  5
21E
330
6F
100
AcDbEntity
  8
0-1
  6
Continuous
 62
     4
100
AcDbLine
 10
1947.677928
 20
444.4345479999999
 30
0.0
 11
1952.677928
 21
444.4345479999999
 31
0.0
  0
CIRCLE
  5
21F
330
6F
100
AcDbEntity
  8
0-1
  6
Continuous
 62
     4
100
AcDbCircle
 10
1947.677927668906
 20
444.434547990836
 30
0.0
 40
0.25
  0
CIRCLE
  5
220
330
6F
100
AcDbEntity
  8
0-1
  6
Continuous
 62
     4
100
AcDbCircle
 10
1947.677927668906
 20
444.434547990836
 30
0.0
 40
0.1875
  0
CIRCLE
  5
221
330
6F
100
AcDbEntity
  8
0-1
  6
Continuous
 62
     4
100
AcDbCircle
 10
1947.677927668906
 20
444.434547990836
 30
0.0
 40
0.125
  0
CIRCLE
  5
222
330
6F
100
AcDbEntity
  8
0-1
  6
Continuous
 62
     4
100
AcDbCircle
 10
1947.677927668906
 20
444.434547990836
 30
0.0
 40
0.0625
  0
ARC
  5
223
330
6F
100
AcDbEntity
  8
0-1
 62
     4
100
AcDbCircle
 10
1947.677927668906
 20
444.439547990836
 30
0.0
 40
2.5
100
AcDbArc
 50
0.1145914065300158
 51
180.114591405945
  0
LINE
  5
224
330
6F
100
AcDbEntity
  8
0-1
 62
     4
100
AcDbLine
 10
1942.677927668906
 20
444.434547990836
 30
0.0
 11
1937.677927668906
 21
444.434547990836
 31
0.0
  0
CIRCLE
  5
225
330
6F
100
AcDbEntity
  8
0-1
  6
Continuous
 62
     4
100
AcDbCircle
 10
1952.67792766891
 20
444.434547990836
 30
0.0
 40
0.25
  0
CIRCLE
  5
226
330
6F
100
AcDbEntity
  8
0-1
  6
Continuous
 62
     4
100
AcDbCircle
 10
1952.67792766891
 20
444.434547990836
 30
0.0
 40
0.1875
  0
CIRCLE
  5
227
330
6F
100
AcDbEntity
  8
0-1
  6
Continuous
 62
     4
100
AcDbCircle
 10
1952.67792766891
 20
444.434547990836
 30
0.0
 40
0.125
  0
CIRCLE
  5
228
330
6F
100
AcDbEntity
  8
0-1
  6
Continuous
 62
     4
100
AcDbCircle
 10
1952.67792766891
 20
444.434547990836
 30
0.0
 40
0.0625
  0
ARC
  5
229
330
6F
100
AcDbEntity
  8
0-1
 62
     4
100
AcDbCircle
 10
1952.67792766891
 20
444.429547990836
 30
0.0
 40
2.5
100
AcDbArc
 50
180.1145914065301
 51
0.1145914059449637
  0
LINE
  5
22A
330
6F
100
AcDbEntity
  8
0-1
 62
     4
100
AcDbLine
 10
1957.67792766891
 20
444.434547990887
 30
0.0
 11
1962.67792766891
 21
444.434547990938
 31
0.0
  0
LINE
  5
22B
330
6F
100
AcDbEntity
  8
3-1
  6
Continuous
 62
     5
100
AcDbLine
 10
2754.942273000001
 20
2669.96157
 30
0.0
 11
3849.976665000001
 21
2669.96157
 31
0.0
  0
LINE
  5
22C
330
6F
100
AcDbEntity
  8
3-1
  6
Continuous
 62
     5
100
AcDbLine
 10
2754.942273000001
 20
2619.96157
 30
0.0
 11
3849.976665000001
 21
2619.96157
 31
0.0
  0
LINE
  5
22D
330
6F
100
AcDbEntity
  8
3-1
  6
Continuous
 62
     5
100
AcDbLine
 10
2754.942273000001
 20
2469.96157
 30
0.0
 11
3849.976665000001
 21
2469.96157
 31
0.0
  0
LINE
  5
22E
330
6F
100
AcDbEntity
  8
3-1
  6
Continuous
 62
     5
100
AcDbLine
 10
2754.942273000001
 20
2719.96157
 30
0.0
 11
3849.976665000001
 21
2719.96157
 31
0.0
  0
TEXT
  5
22F
330
6F
100
AcDbEntity
  8
3-1
 62
     5
100
AcDbText
 10
2794.533
 20
1959.194
 30
0.0
 40
25.92
  1
※　弊社製品はすべてF☆☆☆☆に対応しております。
100
AcDbText
  0
LINE
  5
230
330
6F
100
AcDbEntity
  8
3-1
  6
Continuous
 62
     5
100
AcDbLine
 10
2754.942273000001
 20
2019.96157
 30
0.0
 11
3849.976665000001
 21
2019.96157
 31
0.0
  0
LINE
  5
231
330
6F
100
AcDbEntity
  8
3-1
  6
Continuous
 62
     5
100
AcDbLine
 10
2754.942273000001
 20
2069.96157
 30
0.0
 11
3849.976665000001
 21
2069.96157
 31
0.0
  0
LINE
  5
232
330
6F
100
AcDbEntity
  8
3-1
  6
Continuous
 62
     5
100
AcDbLine
 10
2754.942273000001
 20
2119.96157
 30
0.0
 11
3849.976665000001
 21
2119.96157
 31
0.0
  0
LINE
  5
233
330
6F
100
AcDbEntity
  8
3-1
  6
Continuous
 62
     5
100
AcDbLine
 10
2754.942273000001
 20
2169.96157
 30
0.0
 11
3849.976665000001
 21
2169.96157
 31
0.0
  0
LINE
  5
234
330
6F
100
AcDbEntity
  8
3-1
  6
Continuous
 62
     5
100
AcDbLine
 10
2754.942273000001
 20
2219.96157
 30
0.0
 11
3849.976665000001
 21
2219.96157
 31
0.0
  0
TEXT
  5
235
330
6F
100
AcDbEntity
  8
3-1
 62
     5
100
AcDbText
 10
2794.533
 20
2082.407
 30
0.0
 40
25.92
  1
ホース
100
AcDbText
  0
LINE
  5
236
330
6F
100
AcDbEntity
  8
3-1
  6
Continuous
 62
     5
100
AcDbLine
 10
2754.942273000001
 20
2719.96157
 30
0.0
 11
2754.942273000001
 21
2019.96157
 31
0.0
  0
TEXT
  5
237
330
6F
100
AcDbEntity
  8
3-1
 62
     5
100
AcDbText
 10
2794.533
 20
2032.407
 30
0.0
 40
25.92
  1
包丁差し
100
AcDbText
  0
TEXT
  5
238
330
6F
100
AcDbEntity
  8
3-1
 62
     5
100
AcDbText
 10
2794.533
 20
2182.407
 30
0.0
 40
25.92
  1
丁番
100
AcDbText
  0
TEXT
  5
239
330
6F
100
AcDbEntity
  8
3-1
 62
     5
100
AcDbText
 10
2794.533
 20
2132.407
 30
0.0
 40
25.92
  1
排水金具
100
AcDbText
  0
TEXT
  5
23A
330
6F
100
AcDbEntity
  8
3-1
 62
     5
100
AcDbText
 10
2794.533
 20
2432.407
 30
0.0
 40
25.92
  1
扉
100
AcDbText
  0
TEXT
  5
23B
330
6F
100
AcDbEntity
  8
3-1
 62
     5
100
AcDbText
 10
2794.533
 20
2582.407
 30
0.0
 40
25.92
  1
木部本体
100
AcDbText
  0
TEXT
  5
23C
330
6F
100
AcDbEntity
  8
3-1
 62
     5
100
AcDbText
 10
2794.533
 20
2632.407000000001
 30
0.0
 40
25.92
  1
シンク
100
AcDbText
  0
TEXT
  5
23D
330
6F
100
AcDbEntity
  8
3-1
 62
     5
100
AcDbText
 10
2794.533
 20
2682.407
 30
0.0
 40
25.92
  1
天板
100
AcDbText
  0
TEXT
  5
23E
330
6F
100
AcDbEntity
  8
3-1
 62
     5
100
AcDbText
 10
3128.953
 20
2082.407
 30
0.0
 40
25.92
  1
塩化ビニール蛇腹30Φｘ80ｃｍ（回転板付）
100
AcDbText
  0
LINE
  5
23F
330
6F
100
AcDbEntity
  8
3-1
  6
Continuous
 62
     5
100
AcDbLine
 10
3849.976665000001
 20
2719.96157
 30
0.0
 11
3849.976665000001
 21
2019.96157
 31
0.0
  0
LINE
  5
240
330
6F
100
AcDbEntity
  8
3-1
  6
Continuous
 62
     5
100
AcDbLine
 10
3098.825651
 20
2719.96157
 30
0.0
 11
3098.825651
 21
2019.96157
 31
0.0
  0
TEXT
  5
241
330
6F
100
AcDbEntity
  8
3-1
 62
     5
100
AcDbText
 10
3128.953
 20
2032.407
 30
0.0
 40
25.92
  1
ポリプロピレン製　4本収納
100
AcDbText
  0
TEXT
  5
242
330
6F
100
AcDbEntity
  8
3-1
 62
     5
100
AcDbText
 10
3128.953
 20
2132.407
 30
0.0
 40
25.92
  1
180Φ大型排水トラップ付（\U+FF76
100
AcDbText
  0
TEXT
  5
243
330
6F
100
AcDbEntity
  8
3-1
 62
     5
100
AcDbText
 10
2967.292
 20
2332.407
 30
0.0
 40
25.92
  1
裏
100
AcDbText
  0
TEXT
  5
244
330
6F
100
AcDbEntity
  8
3-1
 62
     5
100
AcDbText
 10
3128.953
 20
2332.407
 30
0.0
 40
25.92
  1
ウレタンコート化粧ボード（PB)
100
AcDbText
  0
LINE
  5
245
330
6F
100
AcDbEntity
  8
3-1
  6
Continuous
 62
     5
100
AcDbLine
 10
2947.353225
 20
2619.96157
 30
0.0
 11
2947.353225
 21
2219.96157
 31
0.0
  0
TEXT
  5
246
330
6F
100
AcDbEntity
  8
3-1
 62
     5
100
AcDbText
 10
3128.953
 20
2282.407
 30
0.0
 40
25.92
  1
木口テープ巻
100
AcDbText
  0
TEXT
  5
247
330
6F
100
AcDbEntity
  8
3-1
 62
     5
100
AcDbText
 10
3128.953
 20
2182.407
 30
0.0
 40
25.92
  1
スライドヒンジ
100
AcDbText
  0
TEXT
  5
248
330
6F
100
AcDbEntity
  8
3-1
 62
     5
100
AcDbText
 10
2967.292
 20
2282.407
 30
0.0
 40
25.92
  1
木口
100
AcDbText
  0
TEXT
  5
249
330
6F
100
AcDbEntity
  8
3-1
 62
     5
100
AcDbText
 10
3128.953
 20
2532.407
 30
0.0
 40
25.92
  1
クリーンイーゴスMDF
100
AcDbText
  0
TEXT
  5
24A
330
6F
100
AcDbEntity
  8
3-1
 62
     5
100
AcDbText
 10
3128.953
 20
2482.407
 30
0.0
 40
25.92
  1
EBコート化粧板
100
AcDbText
  0
TEXT
  5
24B
330
6F
100
AcDbEntity
  8
3-1
 62
     5
100
AcDbText
 10
3128.953
 20
2432.407
 30
0.0
 40
25.92
  1
プレコート（PB)
100
AcDbText
  0
TEXT
  5
24C
330
6F
100
AcDbEntity
  8
3-1
 62
     5
100
AcDbText
 10
3128.953
 20
2582.407
 30
0.0
 40
25.92
  1
ウレタンコート化粧ボード（PB)
100
AcDbText
  0
TEXT
  5
24D
330
6F
100
AcDbEntity
  8
3-1
 62
     5
100
AcDbText
 10
2967.292
 20
2482.407
 30
0.0
 40
25.92
  1
地板
100
AcDbText
  0
TEXT
  5
24E
330
6F
100
AcDbEntity
  8
3-1
 62
     5
100
AcDbText
 10
2967.292
 20
2432.407
 30
0.0
 40
25.92
  1
表
100
AcDbText
  0
TEXT
  5
24F
330
6F
100
AcDbEntity
  8
3-1
 62
     5
100
AcDbText
 10
2967.292
 20
2582.407
 30
0.0
 40
25.92
  1
側板
100
AcDbText
  0
TEXT
  5
250
330
6F
100
AcDbEntity
  8
3-1
 62
     5
100
AcDbText
 10
2967.292
 20
2532.407
 30
0.0
 40
25.92
  1
背板
100
AcDbText
  0
TEXT
  5
251
330
6F
100
AcDbEntity
  8
3-1
 62
     5
100
AcDbText
 10
3128.953
 20
2682.407
 30
0.0
 40
25.92
  1
SUS-430 ステンレス0.5ｔ（エンボス仕上）
100
AcDbText
  0
TEXT
  5
252
330
6F
100
AcDbEntity
  8
3-1
 62
     5
100
AcDbText
 10
3128.953
 20
2632.407000000001
 30
0.0
 40
25.92
  1
SUS-430 ステンレス0.4ｔ　静音シンク
100
AcDbText
  0
TEXT
  5
253
330
6F
100
AcDbEntity
  8
3-1
 62
     5
100
AcDbText
 10
2969.315
 20
2233.261
 30
0.0
 40
25.92
  1
取っ手
100
AcDbText
  0
TEXT
  5
254
330
6F
100
AcDbEntity
  8
3-1
 62
     5
100
AcDbText
 10
2795.52
 20
1903.181
 30
0.0
 40
25.92
  1
※　右シンクは本図の左右対称です。
100
AcDbText
  0
LINE
  5
255
330
6F
100
AcDbEntity
  8
6-0
  6
DASHED2
 62
     7
100
AcDbLine
 10
2752.37984
 20
594.0520729999999
 30
0.0
 11
2767.37984
 21
594.0520729999999
 31
0.0
  0
LINE
  5
256
330
6F
100
AcDbEntity
  8
6-0
  6
DASHED2
 62
     7
100
AcDbLine
 10
2767.37984
 20
684.4345479999999
 30
0.0
 11
3273.37984
 21
684.4345479999999
 31
0.0
  0
LINE
  5
257
330
6F
100
AcDbEntity
  8
6-0
  6
DASHED2
 62
     7
100
AcDbLine
 10
2767.37984
 20
699.4345479999999
 30
0.0
 11
3273.37984
 21
699.4345479999999
 31
0.0
  0
LINE
  5
258
330
6F
100
AcDbEntity
  8
6-0
  6
DASHED2
 62
     7
100
AcDbLine
 10
3282.379840215496
 20
1394.434547990838
 30
0.0
 11
3282.379840215496
 21
1389.434547990838
 31
0.0
  0
LINE
  5
259
330
6F
100
AcDbEntity
  8
6-0
  6
DASHED2
 62
     7
100
AcDbLine
 10
3282.379840215496
 20
1389.434547990838
 30
0.0
 11
3263.379840215497
 21
1389.434547990836
 31
0.0
  0
ARC
  5
25A
330
6F
100
AcDbEntity
  8
6-0
  6
DASHED2
 62
     7
100
AcDbCircle
 10
3263.379840000001
 20
1384.434548
 30
0.0
 40
5.0
100
AcDbArc
 50
89.99999999999495
 51
179.999999999702
  0
LINE
  5
25B
330
6F
100
AcDbEntity
  8
6-0
  6
DASHED2
 62
     7
100
AcDbLine
 10
3258.379840215496
 20
1384.434547990836
 30
0.0
 11
3258.379840215496
 21
1267.434547990836
 31
0.0
  0
ARC
  5
25C
330
6F
100
AcDbEntity
  8
6-0
  6
DASHED2
 62
     7
100
AcDbCircle
 10
3230.031648
 20
1267.736182
 30
0.0
 40
28.349797
100
AcDbArc
 50
266.6597554799441
 51
359.3903764980151
  0
LINE
  5
25D
330
6F
100
AcDbEntity
  8
6-0
  6
DASHED2
 62
     7
100
AcDbLine
 10
3228.379840215497
 20
1239.434547990836
 30
0.0
 11
2891.379840215497
 21
1239.434547990838
 31
0.0
  0
ARC
  5
25E
330
6F
100
AcDbEntity
  8
6-0
  6
DASHED2
 62
     7
100
AcDbCircle
 10
2891.37984
 20
1269.434548
 30
0.0
 40
30.0
100
AcDbArc
 50
180.000000000292
 51
270.0
  0
LINE
  5
25F
330
6F
100
AcDbEntity
  8
6-0
  6
DASHED2
 62
     7
100
AcDbLine
 10
2861.379840215496
 20
1269.434547990838
 30
0.0
 11
2861.379840215496
 21
1384.434547990838
 31
0.0
  0
ARC
  5
260
330
6F
100
AcDbEntity
  8
6-0
  6
DASHED2
 62
     7
100
AcDbCircle
 10
2856.37984
 20
1384.434548
 30
0.0
 40
5.0
100
AcDbArc
 50
0.0000000002920064
 51
90.0
  0
LINE
  5
261
330
6F
100
AcDbEntity
  8
6-0
  6
DASHED2
 62
     7
100
AcDbLine
 10
2856.379840215496
 20
1389.434547990838
 30
0.0
 11
2795.241825752182
 21
1389.434547990838
 31
0.0
  0
LINE
  5
262
330
6F
100
AcDbEntity
  8
6-0
  6
DASHED2
 62
     7
100
AcDbLine
 10
2795.241825752182
 20
1389.434547990838
 30
0.0
 11
2795.241825752182
 21
1394.434547990838
 31
0.0
  0
LINE
  5
263
330
6F
100
AcDbEntity
  8
6-0
  6
Continuous
 62
     7
100
AcDbLine
 10
2777.37984
 20
1394.434548
 30
0.0
 11
3300.37984
 21
1394.434548
 31
0.0
  0
LINE
  5
264
330
6F
100
AcDbEntity
  8
6-0
  6
Continuous
 62
     7
100
AcDbLine
 10
2752.37984
 20
1369.434548
 30
0.0
 11
3300.37984
 21
1369.434548
 31
0.0
  0
LINE
  5
265
330
6F
100
AcDbEntity
  8
6-0
  6
Continuous
 62
     7
100
AcDbLine
 10
2752.37984
 20
594.4345479999999
 30
0.0
 11
3242.37984
 21
594.4345479999999
 31
0.0
  0
LINE
  5
266
330
6F
100
AcDbEntity
  8
6-0
  6
DASHED2
 62
     7
100
AcDbLine
 10
2767.37984
 20
1369.434548
 30
0.0
 11
2767.37984
 21
594.4345479999999
 31
0.0
  0
LINE
  5
267
330
6F
100
AcDbEntity
  8
1-1
  6
CENTER
 62
     6
100
AcDbLine
 10
3058.87984
 20
1394.434548
 30
0.0
 11
3058.87984
 21
564.6807899999999
 31
0.0
  0
LINE
  5
268
330
6F
100
AcDbEntity
  8
6-0
  6
Continuous
 62
     7
100
AcDbLine
 10
2752.37984
 20
1369.434548
 30
0.0
 11
2752.37984
 21
594.4345479999999
 31
0.0
  0
LINE
  5
269
330
6F
100
AcDbEntity
  8
6-0
  6
DASHED2
 62
     7
100
AcDbLine
 10
3073.87984
 20
1051.434548
 30
0.0
 11
3073.87984
 21
594.4345479999999
 31
0.0
  0
LINE
  5
26A
330
6F
100
AcDbEntity
  8
6-0
  6
DASHED2
 62
     7
100
AcDbLine
 10
3043.87984
 20
1051.434548
 30
0.0
 11
3043.87984
 21
594.4345479999999
 31
0.0
  0
LINE
  5
26B
330
6F
100
AcDbEntity
  8
6-0
  6
DASHED2
 62
     7
100
AcDbLine
 10
2752.37984
 20
594.4345479999999
 30
0.0
 11
2767.37984
 21
619.4345479999999
 31
0.0
  0
LINE
  5
26C
330
6F
100
AcDbEntity
  8
6-0
  6
DASHED2
 62
     7
100
AcDbLine
 10
2752.37984
 20
594.4345479999999
 30
0.0
 11
2767.37984
 21
594.4345479999999
 31
0.0
  0
LINE
  5
26D
330
6F
100
AcDbEntity
  8
6-0
  6
DASHED2
 62
     7
100
AcDbLine
 10
2752.37984
 20
619.4345479999999
 30
0.0
 11
2767.37984
 21
619.4345479999999
 31
0.0
  0
LINE
  5
26E
330
6F
100
AcDbEntity
  8
6-0
  6
DASHED2
 62
     7
100
AcDbLine
 10
2991.5298402155
 20
704.1063366643149
 30
0.0
 11
3039.629840215499
 21
704.1063366643149
 31
0.0
  0
LINE
  5
26F
330
6F
100
AcDbEntity
  8
6-0
  6
DASHED2
 62
     7
100
AcDbLine
 10
3039.629840215499
 20
704.1063366643149
 30
0.0
 11
3039.629840215499
 21
695.212353263986
 31
0.0
  0
LINE
  5
270
330
6F
100
AcDbEntity
  8
6-0
  6
DASHED2
 62
     7
100
AcDbLine
 10
3039.629840215499
 20
695.212353263986
 30
0.0
 11
3080.1298402155
 21
695.212353263986
 31
0.0
  0
LINE
  5
271
330
6F
100
AcDbEntity
  8
6-0
  6
DASHED2
 62
     7
100
AcDbLine
 10
3080.1298402155
 20
695.212353263986
 30
0.0
 11
3080.1298402155
 21
704.1063366643149
 31
0.0
  0
LINE
  5
272
330
6F
100
AcDbEntity
  8
6-0
  6
DASHED2
 62
     7
100
AcDbLine
 10
3080.1298402155
 20
704.1063366643149
 30
0.0
 11
3128.229840215499
 21
704.1063366643149
 31
0.0
  0
LINE
  5
273
330
6F
100
AcDbEntity
  8
6-0
  6
DASHED2
 62
     7
100
AcDbLine
 10
3114.87984
 20
699.4345479999999
 30
0.0
 11
3114.87984
 21
684.4345479999999
 31
0.0
  0
LINE
  5
274
330
6F
100
AcDbEntity
  8
6-0
  6
DASHED2
 62
     7
100
AcDbLine
 10
3004.87984
 20
699.4345479999999
 30
0.0
 11
3004.87984
 21
684.4345479999999
 31
0.0
  0
LINE
  5
275
330
6F
100
AcDbEntity
  8
1-1
  6
CENTER
 62
     6
100
AcDbLine
 10
2832.37984
 20
1564.533862
 30
0.0
 11
2832.37984
 21
994.4345479999999
 31
0.0
  0
LINE
  5
276
330
6F
100
AcDbEntity
  8
6-0
  6
Continuous
 62
     7
100
AcDbLine
 10
2658.600386
 20
1131.387934
 30
0.0
 11
2752.37984
 21
994.4345479999999
 31
0.0
  0
LINE
  5
277
330
6F
100
AcDbEntity
  8
1-1
  6
CENTER
 62
     6
100
AcDbLine
 10
2623.554217
 20
994.4345479999999
 30
0.0
 11
2832.37984
 21
994.4345479999999
 31
0.0
  0
LINE
  5
278
330
6F
100
AcDbEntity
  8
6-0
  6
Continuous
 62
     7
100
AcDbLine
 10
2752.37984
 20
994.4345479999999
 30
0.0
 11
2742.013639
 21
1025.250441
 31
0.0
  0
TEXT
  5
279
330
6F
100
AcDbEntity
  8
3-1
 62
     5
100
AcDbText
 10
2520.746
 20
1192.709
 30
0.0
 40
25.92
  1
水栓接続
100
AcDbText
  0
LINE
  5
27A
330
6F
100
AcDbEntity
  8
6-0
  6
Continuous
 62
     7
100
AcDbLine
 10
2513.043674
 20
1131.387934
 30
0.0
 11
2658.600386
 21
1131.387934
 31
0.0
  0
TEXT
  5
27B
330
6F
100
AcDbEntity
  8
3-1
 62
     5
100
AcDbText
 10
2520.746
 20
1142.708999999999
 30
0.0
 40
25.92
  1
参考位置
100
AcDbText
  0
LINE
  5
27C
330
6F
100
AcDbEntity
  8
6-0
  6
DASHED2
 62
     7
100
AcDbLine
 10
2859.8798402155
 20
1488.566171990836
 30
0.0
 11
2859.8798402155
 21
1494.829981990836
 31
0.0
  0
LINE
  5
27D
330
6F
100
AcDbEntity
  8
6-0
  6
DASHED2
 62
     7
100
AcDbLine
 10
2804.8798402155
 20
1496.941145990836
 30
0.0
 11
2804.8798402155
 21
1488.566171990836
 31
0.0
  0
LINE
  5
27E
330
6F
100
AcDbEntity
  8
6-0
  6
DASHED2
 62
     7
100
AcDbLine
 10
2859.8798402155
 20
1459.832957990836
 30
0.0
 11
3076.0323652155
 21
1568.080698990836
 31
0.0
  0
LINE
  5
27F
330
6F
100
AcDbEntity
  8
6-0
  6
DASHED2
 62
     7
100
AcDbLine
 10
2859.8798402155
 20
1448.649067990836
 30
0.0
 11
3071.938636215499
 21
1554.846696990836
 31
0.0
  0
LINE
  5
280
330
6F
100
AcDbEntity
  8
6-0
  6
DASHED2
 62
     7
100
AcDbLine
 10
2859.8798402155
 20
1484.434547990836
 30
0.0
 11
2859.8798402155
 21
1394.434547990836
 31
0.0
  0
LINE
  5
281
330
6F
100
AcDbEntity
  8
6-0
  6
DASHED2
 62
     7
100
AcDbLine
 10
2804.8798402155
 20
1464.434547990836
 30
0.0
 11
2859.8798402155
 21
1464.434547990836
 31
0.0
  0
LINE
  5
282
330
6F
100
AcDbEntity
  8
6-0
  6
DASHED2
 62
     7
100
AcDbLine
 10
2804.8798402155
 20
1484.434547990836
 30
0.0
 11
2859.8798402155
 21
1484.434547990836
 31
0.0
  0
LINE
  5
283
330
6F
100
AcDbEntity
  8
6-0
  6
DASHED2
 62
     7
100
AcDbLine
 10
2804.8798402155
 20
1484.434547990836
 30
0.0
 11
2804.8798402155
 21
1394.434547990836
 31
0.0
  0
LINE
  5
284
330
6F
100
AcDbEntity
  8
6-0
  6
DASHED2
 62
     7
100
AcDbLine
 10
2804.8798402155
 20
1488.566171990836
 30
0.0
 11
2859.8798402155
 21
1488.566171990836
 31
0.0
  0
LINE
  5
285
330
6F
100
AcDbEntity
  8
6-0
  6
DASHED2
 62
     7
100
AcDbLine
 10
2804.8798402155
 20
1394.434547990836
 30
0.0
 11
2859.8798402155
 21
1394.434547990836
 31
0.0
  0
ARC
  5
286
330
6F
100
AcDbEntity
  8
6-0
  6
DASHED2
 62
     7
100
AcDbCircle
 10
2918.9323892155
 20
1407.828327990836
 30
0.0
 40
115.364508
100
AcDbArc
 50
80.09600000000004
 51
114.174
  0
LINE
  5
287
330
6F
100
AcDbEntity
  8
6-0
  6
DASHED2
 62
     7
100
AcDbLine
 10
2882.4519322155
 20
1529.688547990836
 30
0.0
 11
2951.3406852155
 21
1529.688547990836
 31
0.0
  0
LINE
  5
288
330
6F
100
AcDbEntity
  8
6-0
  6
DASHED2
 62
     7
100
AcDbLine
 10
2945.2665032155
 20
1520.355802990836
 30
0.0
 11
2938.774282215499
 21
1521.473692990836
 31
0.0
  0
ARC
  5
289
330
6F
100
AcDbEntity
  8
6-0
  6
DASHED2
 62
     7
100
AcDbCircle
 10
2946.963422215499
 20
1530.210773990836
 30
0.0
 40
10.0
100
AcDbArc
 50
260.23
 51
310.455
  0
ARC
  5
28A
330
6F
100
AcDbEntity
  8
6-0
  6
DASHED2
 62
     7
100
AcDbCircle
 10
2951.3406852155
 20
1527.688547990836
 30
0.0
 40
2.0
100
AcDbArc
 50
70.295
 51
90.0
  0
LINE
  5
28B
330
6F
100
AcDbEntity
  8
6-0
  6
DASHED2
 62
     7
100
AcDbLine
 10
2955.5322122155
 20
1528.311754990836
 30
0.0
 11
2952.015039215499
 21
1529.571429990836
 31
0.0
  0
LINE
  5
28C
330
6F
100
AcDbEntity
  8
6-0
  6
DASHED2
 62
     7
100
AcDbLine
 10
2956.1555522155
 20
1524.907033990835
 30
0.0
 11
2953.451890215499
 21
1522.601582990836
 31
0.0
  0
ARC
  5
28D
330
6F
100
AcDbEntity
  8
6-0
  6
DASHED2
 62
     7
100
AcDbCircle
 10
2954.857858215499
 20
1526.428872990836
 30
0.0
 40
2.0
100
AcDbArc
 50
310.455
 51
70.295
  0
LINE
  5
28E
330
6F
100
AcDbEntity
  8
6-0
  6
DASHED2
 62
     7
100
AcDbLine
 10
3099.4675502155
 20
1551.434547990836
 30
0.0
 11
3085.2921302155
 21
1551.434547990836
 31
0.0
  0
LINE
  5
28F
330
6F
100
AcDbEntity
  8
6-0
  6
DASHED2
 62
     7
100
AcDbLine
 10
3085.2921302155
 20
1556.434547990836
 30
0.0
 11
3085.2921302155
 21
1551.434547990836
 31
0.0
  0
LINE
  5
290
330
6F
100
AcDbEntity
  8
6-0
  6
DASHED2
 62
     7
100
AcDbLine
 10
3099.4675502155
 20
1556.434547990836
 30
0.0
 11
3099.4675502155
 21
1551.434547990836
 31
0.0
  0
LINE
  5
291
330
6F
100
AcDbEntity
  8
6-0
  6
DASHED2
 62
     7
100
AcDbLine
 10
3102.6120502155
 20
1564.668549990836
 30
0.0
 11
3102.6120502155
 21
1556.434547990836
 31
0.0
  0
ARC
  5
292
330
6F
100
AcDbEntity
  8
6-0
  6
DASHED2
 62
     7
100
AcDbCircle
 10
3097.6120502155
 20
1564.668549990836
 30
0.0
 40
5.0
100
AcDbArc
 50
0.0
 51
90.0
  0
LINE
  5
293
330
6F
100
AcDbEntity
  8
6-0
  6
DASHED2
 62
     7
100
AcDbLine
 10
3102.6120502155
 20
1556.434547990836
 30
0.0
 11
3078.655351215499
 21
1556.434547990836
 31
0.0
  0
ARC
  5
294
330
6F
100
AcDbEntity
  8
6-0
  6
DASHED2
 62
     7
100
AcDbCircle
 10
3078.655351215499
 20
1541.434547990836
 30
0.0
 40
15.0
100
AcDbArc
 50
90.0
 51
116.6009999999999
  0
LINE
  5
295
330
6F
100
AcDbEntity
  8
6-0
  6
DASHED2
 62
     7
100
AcDbLine
 10
3097.6120502155
 20
1569.668549990836
 30
0.0
 11
3082.7490802155
 21
1569.668549990836
 31
0.0
  0
ARC
  5
296
330
6F
100
AcDbEntity
  8
6-0
  6
DASHED2
 62
     7
100
AcDbCircle
 10
3082.7490802155
 20
1554.668549990836
 30
0.0
 40
15.0
100
AcDbArc
 50
90.0
 51
116.6009999999999
  0
ARC
  5
297
330
6F
100
AcDbEntity
  8
6-0
  6
DASHED2
 62
     7
100
AcDbCircle
 10
2884.007378215499
 20
1411.840263990836
 30
0.0
 40
117.858548
100
AcDbArc
 50
90.75599999999999
 51
131.058
  0
ARC
  5
298
330
6F
100
AcDbEntity
  8
6-0
  6
DASHED2
 62
     7
100
AcDbCircle
 10
2809.879840215499
 20
1496.941145990836
 30
0.0
 40
5.0
100
AcDbArc
 50
131.058
 51
180.0
  0
ARC
  5
299
330
6F
100
AcDbEntity
  8
6-0
  6
DASHED2
 62
     7
100
AcDbCircle
 10
2887.1281452155
 20
1490.138504990835
 30
0.0
 40
27.649233
100
AcDbArc
 50
123.943
 51
170.231
  0
LINE
  5
29A
330
6F
100
AcDbEntity
  8
6-0
  6
Continuous
 62
     7
100
AcDbLine
 10
2777.37984
 20
1479.434548
 30
0.0
 11
2777.37984
 21
1394.434548
 31
0.0
  0
LINE
  5
29B
330
6F
100
AcDbEntity
  8
6-0
  6
Continuous
 62
     7
100
AcDbLine
 10
2752.37984
 20
1484.434548
 30
0.0
 11
2752.37984
 21
1369.434548
 31
0.0
  0
LINE
  5
29C
330
6F
100
AcDbEntity
  8
6-0
  6
DASHED2
 62
     7
100
AcDbLine
 10
2752.37984
 20
1344.434548
 30
0.0
 11
2767.37984
 21
1344.434548
 31
0.0
  0
LINE
  5
29D
330
6F
100
AcDbEntity
  8
6-0
  6
DASHED2
 62
     7
100
AcDbLine
 10
2752.37984
 20
1344.434548
 30
0.0
 11
2767.37984
 21
1369.434548
 31
0.0
  0
ARC
  5
29E
330
6F
100
AcDbEntity
  8
6-0
  6
Continuous
 62
     7
100
AcDbCircle
 10
2772.37984
 20
1479.434548
 30
0.0
 40
5.0
100
AcDbArc
 50
0.0
 51
90.0
  0
LINE
  5
29F
330
6F
100
AcDbEntity
  8
6-0
  6
Continuous
 62
     7
100
AcDbLine
 10
2752.37984
 20
1484.434548
 30
0.0
 11
2772.37984
 21
1484.434548
 31
0.0
  0
LINE
  5
2A0
330
6F
100
AcDbEntity
  8
6-0
  6
Continuous
 62
     7
100
AcDbLine
 10
3242.37984
 20
684.4345479999999
 30
0.0
 11
3242.37984
 21
594.4345479999999
 31
0.0
  0
LINE
  5
2A1
330
6F
100
AcDbEntity
  8
6-0
  6
Continuous
 62
     7
100
AcDbLine
 10
3233.37984
 20
684.4345479999999
 30
0.0
 11
3233.37984
 21
594.4345479999999
 31
0.0
  0
LINE
  5
2A2
330
6F
100
AcDbEntity
  8
6-0
  6
Continuous
 62
     7
100
AcDbLine
 10
3243.37984
 20
684.4345479999999
 30
0.0
 11
3273.37984
 21
684.4345479999999
 31
0.0
  0
LINE
  5
2A3
330
6F
100
AcDbEntity
  8
6-0
  6
Continuous
 62
     7
100
AcDbLine
 10
3278.77984
 20
684.4345479999999
 30
0.0
 11
3294.37984
 21
684.4345479999999
 31
0.0
  0
ARC
  5
2A4
330
6F
100
AcDbEntity
  8
6-0
  6
Continuous
 62
     7
100
AcDbCircle
 10
3300.37984
 20
1392.434548
 30
0.0
 40
2.0
100
AcDbArc
 50
0.0
 51
90.0
  0
ARC
  5
2A5
330
6F
100
AcDbEntity
  8
6-0
  6
Continuous
 62
     7
100
AcDbCircle
 10
3300.37984
 20
1371.434548
 30
0.0
 40
2.0
100
AcDbArc
 50
270.0
 51
0.0
  0
LINE
  5
2A6
330
6F
100
AcDbEntity
  8
6-0
  6
Continuous
 62
     7
100
AcDbLine
 10
3280.37984
 20
1369.434548
 30
0.0
 11
3295.379840000001
 21
1369.434548
 31
0.0
  0
LINE
  5
2A7
330
6F
100
AcDbEntity
  8
6-0
  6
Continuous
 62
     7
100
AcDbLine
 10
3302.37984
 20
1392.434548
 30
0.0
 11
3302.37984
 21
1371.434548
 31
0.0
  0
LINE
  5
2A8
330
6F
100
AcDbEntity
  8
6-0
  6
DASHED2
 62
     7
100
AcDbLine
 10
3127.791041358731
 20
1145.434548394696
 30
0.0
 11
2989.968639072269
 21
1145.434548394696
 31
0.0
  0
LINE
  5
2A9
330
6F
100
AcDbEntity
  8
6-0
  6
DASHED2
 62
     7
100
AcDbLine
 10
3148.87984
 20
1234.434548
 30
0.0
 11
2968.87984
 21
1234.434548
 31
0.0
  0
LINE
  5
2AA
330
6F
100
AcDbEntity
  8
6-0
  6
DASHED2
 62
     7
100
AcDbLine
 10
3136.879840000001
 20
1217.233024
 30
0.0
 11
2980.87984
 21
1217.233024
 31
0.0
  0
LINE
  5
2AB
330
6F
100
AcDbEntity
  8
6-0
  6
DASHED2
 62
     7
100
AcDbLine
 10
3128.791041
 20
1212.233024
 30
0.0
 11
2990.968639
 21
1212.233024
 31
0.0
  0
LINE
  5
2AC
330
6F
100
AcDbEntity
  8
6-0
  6
DASHED2
 62
     7
100
AcDbLine
 10
3028.879840215501
 20
1082.334548394696
 30
0.0
 11
3028.8798402155
 21
1051.434547990837
 31
0.0
  0
LINE
  5
2AD
330
6F
100
AcDbEntity
  8
6-0
  6
DASHED2
 62
     7
100
AcDbLine
 10
3028.8798402155
 20
1051.434547990837
 30
0.0
 11
3088.879840215501
 21
1051.434547990837
 31
0.0
  0
LINE
  5
2AE
330
6F
100
AcDbEntity
  8
6-0
  6
DASHED2
 62
     7
100
AcDbLine
 10
3088.879840215501
 20
1051.434547990837
 30
0.0
 11
3088.879840215501
 21
1082.334548394696
 31
0.0
  0
LINE
  5
2AF
330
6F
100
AcDbEntity
  8
6-0
  6
DASHED2
 62
     7
100
AcDbLine
 10
3122.306183515273
 20
1145.434548394696
 30
0.0
 11
3122.306183515273
 21
1092.334548394696
 31
0.0
  0
ARC
  5
2B0
330
6F
100
AcDbEntity
  8
6-0
  6
DASHED2
 62
     7
100
AcDbCircle
 10
3112.306184
 20
1092.334548
 30
0.0
 40
10.0
100
AcDbArc
 50
270.0
 51
359.9999999997079
  0
LINE
  5
2B1
330
6F
100
AcDbEntity
  8
6-0
  6
DASHED2
 62
     7
100
AcDbLine
 10
3112.306183515273
 20
1082.334548394696
 30
0.0
 11
3005.453496915726
 21
1082.334548394696
 31
0.0
  0
ARC
  5
2B2
330
6F
100
AcDbEntity
  8
6-0
  6
DASHED2
 62
     7
100
AcDbCircle
 10
3005.453497
 20
1092.334548
 30
0.0
 40
10.0
100
AcDbArc
 50
180.000000000292
 51
270.0
  0
LINE
  5
2B3
330
6F
100
AcDbEntity
  8
6-0
  6
DASHED2
 62
     7
100
AcDbLine
 10
2995.453496915726
 20
1092.334548394696
 30
0.0
 11
2995.453496915726
 21
1145.434548394696
 31
0.0
  0
LINE
  5
2B4
330
6F
100
AcDbEntity
  8
6-0
  6
DASHED2
 62
     7
100
AcDbLine
 10
2980.87984
 20
1217.233024
 30
0.0
 11
2989.968639000001
 21
1212.233024
 31
0.0
  0
LINE
  5
2B5
330
6F
100
AcDbEntity
  8
6-0
  6
DASHED2
 62
     7
100
AcDbLine
 10
2989.968639000001
 20
1212.233024
 30
0.0
 11
2989.968639000001
 21
1147.649314
 31
0.0
  0
LINE
  5
2B6
330
6F
100
AcDbEntity
  8
6-0
  6
DASHED2
 62
     7
100
AcDbLine
 10
2968.87984
 20
1239.434548
 30
0.0
 11
2968.87984
 21
1234.434548
 31
0.0
  0
LINE
  5
2B7
330
6F
100
AcDbEntity
  8
6-0
  6
DASHED2
 62
     7
100
AcDbLine
 10
2980.87984
 20
1234.434548
 30
0.0
 11
2980.87984
 21
1217.233024
 31
0.0
  0
LINE
  5
2B8
330
6F
100
AcDbEntity
  8
6-0
  6
DASHED2
 62
     7
100
AcDbLine
 10
2971.127497
 20
1220.434548
 30
0.0
 11
2980.87984
 21
1220.434548
 31
0.0
  0
LINE
  5
2B9
330
6F
100
AcDbEntity
  8
6-0
  6
DASHED2
 62
     7
100
AcDbLine
 10
2971.127497
 20
1234.434548
 30
0.0
 11
2971.127497
 21
1220.434548
 31
0.0
  0
LINE
  5
2BA
330
6F
100
AcDbEntity
  8
6-0
  6
DASHED2
 62
     7
100
AcDbLine
 10
3136.879840000001
 20
1217.233024
 30
0.0
 11
3127.791041
 21
1212.233024
 31
0.0
  0
LINE
  5
2BB
330
6F
100
AcDbEntity
  8
6-0
  6
DASHED2
 62
     7
100
AcDbLine
 10
3127.791041
 20
1212.233024
 30
0.0
 11
3127.791041
 21
1147.649314
 31
0.0
  0
LINE
  5
2BC
330
6F
100
AcDbEntity
  8
6-0
  6
DASHED2
 62
     7
100
AcDbLine
 10
3148.87984
 20
1239.434548
 30
0.0
 11
3148.87984
 21
1234.434548
 31
0.0
  0
LINE
  5
2BD
330
6F
100
AcDbEntity
  8
6-0
  6
DASHED2
 62
     7
100
AcDbLine
 10
3136.879840000001
 20
1234.434548
 30
0.0
 11
3136.879840000001
 21
1217.233024
 31
0.0
  0
LINE
  5
2BE
330
6F
100
AcDbEntity
  8
6-0
  6
DASHED2
 62
     7
100
AcDbLine
 10
3146.632184
 20
1220.434548
 30
0.0
 11
3136.879840000001
 21
1220.434548
 31
0.0
  0
LINE
  5
2BF
330
6F
100
AcDbEntity
  8
6-0
  6
DASHED2
 62
     7
100
AcDbLine
 10
3146.632184
 20
1234.434548
 30
0.0
 11
3146.632184
 21
1220.434548
 31
0.0
  0
LINE
  5
2C0
330
6F
100
AcDbEntity
  8
0-1
  6
Continuous
 62
     4
100
AcDbLine
 10
2752.37984
 20
1504.434548
 30
0.0
 11
2752.37984
 21
1610.69704
 31
0.0
  0
LINE
  5
2C1
330
6F
100
AcDbEntity
  8
0-1
  6
Continuous
 62
     4
100
AcDbLine
 10
3302.37984
 20
1412.434548
 30
0.0
 11
3302.37984
 21
1610.69704
 31
0.0
  0
TEXT
  5
2C2
330
6F
100
AcDbEntity
  8
0-1
 62
     4
100
AcDbText
 10
2996.602000000001
 20
1611.317
 30
0.0
 40
36.288
  1
550
100
AcDbText
  0
LINE
  5
2C3
330
6F
100
AcDbEntity
  8
0-1
  6
Continuous
 62
     4
100
AcDbLine
 10
3302.379840215497
 20
1610.697039887701
 30
0.0
 11
2752.379840215497
 21
1610.697039887701
 31
0.0
  0
CIRCLE
  5
2C4
330
6F
100
AcDbEntity
  8
0-1
  6
Continuous
 62
     4
100
AcDbCircle
 10
3302.379840215497
 20
1610.697039887701
 30
0.0
 40
0.25
  0
CIRCLE
  5
2C5
330
6F
100
AcDbEntity
  8
0-1
  6
Continuous
 62
     4
100
AcDbCircle
 10
3302.379840215497
 20
1610.697039887701
 30
0.0
 40
0.1875
  0
CIRCLE
  5
2C6
330
6F
100
AcDbEntity
  8
0-1
  6
Continuous
 62
     4
100
AcDbCircle
 10
3302.379840215497
 20
1610.697039887701
 30
0.0
 40
0.125
  0
CIRCLE
  5
2C7
330
6F
100
AcDbEntity
  8
0-1
  6
Continuous
 62
     4
100
AcDbCircle
 10
3302.379840215497
 20
1610.697039887701
 30
0.0
 40
0.0625
  0
CIRCLE
  5
2C8
330
6F
100
AcDbEntity
  8
0-1
  6
Continuous
 62
     4
100
AcDbCircle
 10
2752.379840215497
 20
1610.697039887701
 30
0.0
 40
0.25
  0
CIRCLE
  5
2C9
330
6F
100
AcDbEntity
  8
0-1
  6
Continuous
 62
     4
100
AcDbCircle
 10
2752.379840215497
 20
1610.697039887701
 30
0.0
 40
0.1875
  0
CIRCLE
  5
2CA
330
6F
100
AcDbEntity
  8
0-1
  6
Continuous
 62
     4
100
AcDbCircle
 10
2752.379840215497
 20
1610.697039887701
 30
0.0
 40
0.125
  0
CIRCLE
  5
2CB
330
6F
100
AcDbEntity
  8
0-1
  6
Continuous
 62
     4
100
AcDbCircle
 10
2752.379840215497
 20
1610.697039887701
 30
0.0
 40
0.0625
  0
LINE
  5
2CC
330
6F
100
AcDbEntity
  8
0-1
  6
Continuous
 62
     4
100
AcDbLine
 10
3001.905856
 20
1239.434548
 30
0.0
 11
2997.478904
 21
1239.434548
 31
0.0
  0
LINE
  5
2CD
330
6F
100
AcDbEntity
  8
0-1
  6
Continuous
 62
     4
100
AcDbLine
 10
2878.87984
 20
1394.434548
 30
0.0
 11
2997.478904
 21
1394.434548
 31
0.0
  0
TEXT
  5
2CE
330
6F
100
AcDbEntity
  8
0-1
 62
     4
100
AcDbText
 10
2996.859
 20
1283.335
 30
0.0
 40
36.288
  1
155
 50
90.0
100
AcDbText
  0
LINE
  5
2CF
330
6F
100
AcDbEntity
  8
0-1
  6
Continuous
 62
     4
100
AcDbLine
 10
2997.478903943754
 20
1394.434547990836
 30
0.0
 11
2997.478903943754
 21
1239.434547990838
 31
0.0
  0
CIRCLE
  5
2D0
330
6F
100
AcDbEntity
  8
0-1
  6
Continuous
 62
     4
100
AcDbCircle
 10
2997.478903943754
 20
1394.434547990836
 30
0.0
 40
0.25
  0
CIRCLE
  5
2D1
330
6F
100
AcDbEntity
  8
0-1
  6
Continuous
 62
     4
100
AcDbCircle
 10
2997.478903943754
 20
1394.434547990836
 30
0.0
 40
0.1875
  0
CIRCLE
  5
2D2
330
6F
100
AcDbEntity
  8
0-1
  6
Continuous
 62
     4
100
AcDbCircle
 10
2997.478903943754
 20
1394.434547990836
 30
0.0
 40
0.125
  0
CIRCLE
  5
2D3
330
6F
100
AcDbEntity
  8
0-1
  6
Continuous
 62
     4
100
AcDbCircle
 10
2997.478903943754
 20
1394.434547990836
 30
0.0
 40
0.0625
  0
CIRCLE
  5
2D4
330
6F
100
AcDbEntity
  8
0-1
  6
Continuous
 62
     4
100
AcDbCircle
 10
2997.478903943754
 20
1239.434547990838
 30
0.0
 40
0.25
  0
CIRCLE
  5
2D5
330
6F
100
AcDbEntity
  8
0-1
  6
Continuous
 62
     4
100
AcDbCircle
 10
2997.478903943754
 20
1239.434547990838
 30
0.0
 40
0.1875
  0
CIRCLE
  5
2D6
330
6F
100
AcDbEntity
  8
0-1
  6
Continuous
 62
     4
100
AcDbCircle
 10
2997.478903943754
 20
1239.434547990838
 30
0.0
 40
0.125
  0
CIRCLE
  5
2D7
330
6F
100
AcDbEntity
  8
0-1
  6
Continuous
 62
     4
100
AcDbCircle
 10
2997.478903943754
 20
1239.434547990838
 30
0.0
 40
0.0625
  0
LINE
  5
2D8
330
6F
100
AcDbEntity
  8
0-1
  6
Continuous
 62
     4
100
AcDbLine
 10
2752.37984
 20
974.4345479999999
 30
0.0
 11
2752.37984
 21
809.7687499999999
 31
0.0
  0
LINE
  5
2D9
330
6F
100
AcDbEntity
  8
0-1
  6
Continuous
 62
     4
100
AcDbLine
 10
3058.87984
 20
800.183724
 30
0.0
 11
3058.87984
 21
809.7687499999999
 31
0.0
  0
TEXT
  5
2DA
330
6F
100
AcDbEntity
  8
0-1
 62
     4
100
AcDbText
 10
2852.452
 20
810.3889999999999
 30
0.0
 40
36.288
  1
306.5
100
AcDbText
  0
LINE
  5
2DB
330
6F
100
AcDbEntity
  8
0-1
  6
Continuous
 62
     4
100
AcDbLine
 10
3058.879840215499
 20
809.7687498127788
 30
0.0
 11
2752.3798402155
 21
809.7687498127788
 31
0.0
  0
CIRCLE
  5
2DC
330
6F
100
AcDbEntity
  8
0-1
  6
Continuous
 62
     4
100
AcDbCircle
 10
3058.879840215499
 20
809.7687498127788
 30
0.0
 40
0.25
  0
CIRCLE
  5
2DD
330
6F
100
AcDbEntity
  8
0-1
  6
Continuous
 62
     4
100
AcDbCircle
 10
3058.879840215499
 20
809.7687498127788
 30
0.0
 40
0.1875
  0
CIRCLE
  5
2DE
330
6F
100
AcDbEntity
  8
0-1
  6
Continuous
 62
     4
100
AcDbCircle
 10
3058.879840215499
 20
809.7687498127788
 30
0.0
 40
0.125
  0
CIRCLE
  5
2DF
330
6F
100
AcDbEntity
  8
0-1
  6
Continuous
 62
     4
100
AcDbCircle
 10
3058.879840215499
 20
809.7687498127788
 30
0.0
 40
0.0625
  0
CIRCLE
  5
2E0
330
6F
100
AcDbEntity
  8
0-1
  6
Continuous
 62
     4
100
AcDbCircle
 10
2752.3798402155
 20
809.7687498127788
 30
0.0
 40
0.25
  0
CIRCLE
  5
2E1
330
6F
100
AcDbEntity
  8
0-1
  6
Continuous
 62
     4
100
AcDbCircle
 10
2752.3798402155
 20
809.7687498127788
 30
0.0
 40
0.1875
  0
CIRCLE
  5
2E2
330
6F
100
AcDbEntity
  8
0-1
  6
Continuous
 62
     4
100
AcDbCircle
 10
2752.3798402155
 20
809.7687498127788
 30
0.0
 40
0.125
  0
CIRCLE
  5
2E3
330
6F
100
AcDbEntity
  8
0-1
  6
Continuous
 62
     4
100
AcDbCircle
 10
2752.3798402155
 20
809.7687498127788
 30
0.0
 40
0.0625
  0
LINE
  5
2E4
330
6F
100
AcDbEntity
  8
0-1
  6
Continuous
 62
     4
100
AcDbLine
 10
2752.37984
 20
574.4345479999999
 30
0.0
 11
2752.37984
 21
444.4345479999999
 31
0.0
  0
LINE
  5
2E5
330
6F
100
AcDbEntity
  8
0-1
  6
Continuous
 62
     4
100
AcDbLine
 10
3242.37984
 20
574.4345479999999
 30
0.0
 11
3242.37984
 21
444.4345479999999
 31
0.0
  0
TEXT
  5
2E6
330
6F
100
AcDbEntity
  8
0-1
 62
     4
100
AcDbText
 10
2966.602
 20
445.0549999999999
 30
0.0
 40
36.288
  1
490
100
AcDbText
  0
LINE
  5
2E7
330
6F
100
AcDbEntity
  8
0-1
  6
Continuous
 62
     4
100
AcDbLine
 10
3242.379840215499
 20
444.434547990836
 30
0.0
 11
2752.3798402155
 21
444.434547990836
 31
0.0
  0
CIRCLE
  5
2E8
330
6F
100
AcDbEntity
  8
0-1
  6
Continuous
 62
     4
100
AcDbCircle
 10
3242.379840215499
 20
444.434547990836
 30
0.0
 40
0.25
  0
CIRCLE
  5
2E9
330
6F
100
AcDbEntity
  8
0-1
  6
Continuous
 62
     4
100
AcDbCircle
 10
3242.379840215499
 20
444.434547990836
 30
0.0
 40
0.1875
  0
CIRCLE
  5
2EA
330
6F
100
AcDbEntity
  8
0-1
  6
Continuous
 62
     4
100
AcDbCircle
 10
3242.379840215499
 20
444.434547990836
 30
0.0
 40
0.125
  0
CIRCLE
  5
2EB
330
6F
100
AcDbEntity
  8
0-1
  6
Continuous
 62
     4
100
AcDbCircle
 10
3242.379840215499
 20
444.434547990836
 30
0.0
 40
0.0625
  0
CIRCLE
  5
2EC
330
6F
100
AcDbEntity
  8
0-1
  6
Continuous
 62
     4
100
AcDbCircle
 10
2752.3798402155
 20
444.434547990836
 30
0.0
 40
0.25
  0
CIRCLE
  5
2ED
330
6F
100
AcDbEntity
  8
0-1
  6
Continuous
 62
     4
100
AcDbCircle
 10
2752.3798402155
 20
444.434547990836
 30
0.0
 40
0.1875
  0
CIRCLE
  5
2EE
330
6F
100
AcDbEntity
  8
0-1
  6
Continuous
 62
     4
100
AcDbCircle
 10
2752.3798402155
 20
444.434547990836
 30
0.0
 40
0.125
  0
CIRCLE
  5
2EF
330
6F
100
AcDbEntity
  8
0-1
  6
Continuous
 62
     4
100
AcDbCircle
 10
2752.3798402155
 20
444.434547990836
 30
0.0
 40
0.0625
  0
LINE
  5
2F0
330
6F
100
AcDbEntity
  8
0-1
  6
Continuous
 62
     4
100
AcDbLine
 10
2752.37984
 20
564.4345479999999
 30
0.0
 11
2752.37984
 21
344.434548
 31
0.0
  0
LINE
  5
2F1
330
6F
100
AcDbEntity
  8
0-1
  6
Continuous
 62
     4
100
AcDbLine
 10
3294.37984
 20
664.4345479999999
 30
0.0
 11
3294.37984
 21
344.434548
 31
0.0
  0
TEXT
  5
2F2
330
6F
100
AcDbEntity
  8
0-1
 62
     4
100
AcDbText
 10
2992.602000000001
 20
345.055
 30
0.0
 40
36.288
  1
542
100
AcDbText
  0
LINE
  5
2F3
330
6F
100
AcDbEntity
  8
0-1
  6
Continuous
 62
     4
100
AcDbLine
 10
3294.3798402155
 20
344.434547990836
 30
0.0
 11
2752.3798402155
 21
344.434547990836
 31
0.0
  0
CIRCLE
  5
2F4
330
6F
100
AcDbEntity
  8
0-1
  6
Continuous
 62
     4
100
AcDbCircle
 10
3294.3798402155
 20
344.434547990836
 30
0.0
 40
0.25
  0
CIRCLE
  5
2F5
330
6F
100
AcDbEntity
  8
0-1
  6
Continuous
 62
     4
100
AcDbCircle
 10
3294.3798402155
 20
344.434547990836
 30
0.0
 40
0.1875
  0
CIRCLE
  5
2F6
330
6F
100
AcDbEntity
  8
0-1
  6
Continuous
 62
     4
100
AcDbCircle
 10
3294.3798402155
 20
344.434547990836
 30
0.0
 40
0.125
  0
CIRCLE
  5
2F7
330
6F
100
AcDbEntity
  8
0-1
  6
Continuous
 62
     4
100
AcDbCircle
 10
3294.3798402155
 20
344.434547990836
 30
0.0
 40
0.0625
  0
CIRCLE
  5
2F8
330
6F
100
AcDbEntity
  8
0-1
  6
Continuous
 62
     4
100
AcDbCircle
 10
2752.3798402155
 20
344.434547990836
 30
0.0
 40
0.25
  0
CIRCLE
  5
2F9
330
6F
100
AcDbEntity
  8
0-1
  6
Continuous
 62
     4
100
AcDbCircle
 10
2752.3798402155
 20
344.434547990836
 30
0.0
 40
0.1875
  0
CIRCLE
  5
2FA
330
6F
100
AcDbEntity
  8
0-1
  6
Continuous
 62
     4
100
AcDbCircle
 10
2752.3798402155
 20
344.434547990836
 30
0.0
 40
0.125
  0
CIRCLE
  5
2FB
330
6F
100
AcDbEntity
  8
0-1
  6
Continuous
 62
     4
100
AcDbCircle
 10
2752.3798402155
 20
344.434547990836
 30
0.0
 40
0.0625
  0
LINE
  5
2FC
330
6F
100
AcDbEntity
  8
6-0
  6
Continuous
 62
     7
100
AcDbLine
 10
2918.745592
 20
497.946822
 30
0.0
 11
3043.87984
 21
684.4345479999999
 31
0.0
  0
LINE
  5
2FD
330
6F
100
AcDbEntity
  8
6-0
  6
Continuous
 62
     7
100
AcDbLine
 10
2513.535352
 20
497.946822
 30
0.0
 11
2918.745592
 21
497.946822
 31
0.0
  0
TEXT
  5
2FE
330
6F
100
AcDbEntity
  8
3-1
 62
     5
100
AcDbText
 10
2530.75
 20
505.638
 30
0.0
 40
25.92
  1
排水穴　φ110（工場加工）
100
AcDbText
  0
LINE
  5
2FF
330
6F
100
AcDbEntity
  8
6-0
  6
Continuous
 62
     7
100
AcDbLine
 10
3043.87984
 20
684.4345479999999
 30
0.0
 11
3020.184168
 21
676.618682
 31
0.0
  0
TEXT
  5
300
330
6F
100
AcDbEntity
  8
3-1
 62
     5
100
AcDbText
 10
2530.576
 20
462.251
 30
0.0
 40
25.92
  1
（回転板付）
100
AcDbText
  0
LINE
  5
301
330
6F
100
AcDbEntity
  8
1-0
  6
Continuous
 62
     7
100
AcDbLine
 10
1955.177928
 20
1484.434548
 30
0.0
 11
1955.177928
 21
1369.434548
 31
0.0
  0
LINE
  5
302
330
6F
100
AcDbEntity
  8
0-1
  6
Continuous
 62
     4
100
AcDbLine
 10
1952.677928
 20
1349.434548
 30
0.0
 11
1952.677928
 21
1309.018334
 31
0.0
  0
LINE
  5
303
330
6F
100
AcDbEntity
  8
0-1
  6
Continuous
 62
     4
100
AcDbLine
 10
1955.177928
 20
1349.434548
 30
0.0
 11
1955.177928
 21
1309.018334
 31
0.0
  0
TEXT
  5
304
330
6F
100
AcDbEntity
  8
0-1
 62
     4
100
AcDbText
 10
1985.114
 20
1242.138
 30
0.0
 40
36.288
  1
2.5
100
AcDbText
  0
LINE
  5
305
330
6F
100
AcDbEntity
  8
0-1
  6
Continuous
 62
     4
100
AcDbLine
 10
1955.17792766891
 20
1309.01833445816
 30
0.0
 11
1952.67792766891
 21
1309.01833445816
 31
0.0
  0
CIRCLE
  5
306
330
6F
100
AcDbEntity
  8
0-1
  6
Continuous
 62
     4
100
AcDbCircle
 10
1955.17792766891
 20
1309.01833445816
 30
0.0
 40
0.25
  0
CIRCLE
  5
307
330
6F
100
AcDbEntity
  8
0-1
  6
Continuous
 62
     4
100
AcDbCircle
 10
1955.17792766891
 20
1309.01833445816
 30
0.0
 40
0.1875
  0
CIRCLE
  5
308
330
6F
100
AcDbEntity
  8
0-1
  6
Continuous
 62
     4
100
AcDbCircle
 10
1955.17792766891
 20
1309.01833445816
 30
0.0
 40
0.125
  0
CIRCLE
  5
309
330
6F
100
AcDbEntity
  8
0-1
  6
Continuous
 62
     4
100
AcDbCircle
 10
1955.17792766891
 20
1309.01833445816
 30
0.0
 40
0.0625
  0
CIRCLE
  5
30A
330
6F
100
AcDbEntity
  8
0-1
  6
Continuous
 62
     4
100
AcDbCircle
 10
1952.67792766891
 20
1309.01833445816
 30
0.0
 40
0.25
  0
CIRCLE
  5
30B
330
6F
100
AcDbEntity
  8
0-1
  6
Continuous
 62
     4
100
AcDbCircle
 10
1952.67792766891
 20
1309.01833445816
 30
0.0
 40
0.1875
  0
CIRCLE
  5
30C
330
6F
100
AcDbEntity
  8
0-1
  6
Continuous
 62
     4
100
AcDbCircle
 10
1952.67792766891
 20
1309.01833445816
 30
0.0
 40
0.125
  0
CIRCLE
  5
30D
330
6F
100
AcDbEntity
  8
0-1
  6
Continuous
 62
     4
100
AcDbCircle
 10
1952.67792766891
 20
1309.01833445816
 30
0.0
 40
0.0625
  0
LINE
  5
30E
330
6F
100
AcDbEntity
  8
0-1
  6
Continuous
 62
     4
100
AcDbLine
 10
607.6779279999999
 20
574.4345479999999
 30
0.0
 11
607.6779279999999
 21
344.434548
 31
0.0
  0
LINE
  5
30F
330
6F
100
AcDbEntity
  8
0-1
  6
Continuous
 62
     4
100
AcDbLine
 10
1952.677928
 20
574.4345479999999
 30
0.0
 11
1952.677928
 21
344.434548
 31
0.0
  0
TEXT
  5
310
330
6F
100
AcDbEntity
  8
0-1
 62
     4
100
AcDbText
 10
1238.2
 20
345.055
 30
0.0
 40
36.288
  1
1345
100
AcDbText
  0
LINE
  5
311
330
6F
100
AcDbEntity
  8
0-1
  6
Continuous
 62
     4
100
AcDbLine
 10
1952.67792766891
 20
344.434547990836
 30
0.0
 11
607.67792766891
 21
344.434547990836
 31
0.0
  0
CIRCLE
  5
312
330
6F
100
AcDbEntity
  8
0-1
  6
Continuous
 62
     4
100
AcDbCircle
 10
1952.67792766891
 20
344.434547990836
 30
0.0
 40
0.25
  0
CIRCLE
  5
313
330
6F
100
AcDbEntity
  8
0-1
  6
Continuous
 62
     4
100
AcDbCircle
 10
1952.67792766891
 20
344.434547990836
 30
0.0
 40
0.1875
  0
CIRCLE
  5
314
330
6F
100
AcDbEntity
  8
0-1
  6
Continuous
 62
     4
100
AcDbCircle
 10
1952.67792766891
 20
344.434547990836
 30
0.0
 40
0.125
  0
CIRCLE
  5
315
330
6F
100
AcDbEntity
  8
0-1
  6
Continuous
 62
     4
100
AcDbCircle
 10
1952.67792766891
 20
344.434547990836
 30
0.0
 40
0.0625
  0
CIRCLE
  5
316
330
6F
100
AcDbEntity
  8
0-1
  6
Continuous
 62
     4
100
AcDbCircle
 10
607.67792766891
 20
344.434547990836
 30
0.0
 40
0.25
  0
CIRCLE
  5
317
330
6F
100
AcDbEntity
  8
0-1
  6
Continuous
 62
     4
100
AcDbCircle
 10
607.67792766891
 20
344.434547990836
 30
0.0
 40
0.1875
  0
CIRCLE
  5
318
330
6F
100
AcDbEntity
  8
0-1
  6
Continuous
 62
     4
100
AcDbCircle
 10
607.67792766891
 20
344.434547990836
 30
0.0
 40
0.125
  0
CIRCLE
  5
319
330
6F
100
AcDbEntity
  8
0-1
  6
Continuous
 62
     4
100
AcDbCircle
 10
607.67792766891
 20
344.434547990836
 30
0.0
 40
0.0625
  0
TEXT
  5
31A
330
6F
100
AcDbEntity
  8
3-1
 62
     5
100
AcDbText
 10
3127.606
 20
2237.654
 30
0.0
 40
25.92
  1
アルミ製　ラインハンドル
100
AcDbText
  0
LINE
  5
31B
330
6F
100
AcDbEntity
  8
6-0
  6
DASHED2
 62
     7
100
AcDbLine
 10
1937.677928
 20
699.4345479999999
 30
0.0
 11
1937.677928
 21
821.2664079999999
 31
0.0
  0
LINE
  5
31C
330
6F
100
AcDbEntity
  8
6-0
  6
Continuous
 62
     7
100
AcDbLine
 10
1183.791131
 20
973.2213450000001
 30
0.0
 11
1176.720063
 21
980.292412
 31
0.0
  0
LINE
  5
31D
330
6F
100
AcDbEntity
  8
6-0
  6
Continuous
 62
     7
100
AcDbLine
 10
1183.791131
 20
1015.647751
 30
0.0
 11
1176.720063
 21
1008.576684
 31
0.0
  0
LINE
  5
31E
330
6F
100
AcDbEntity
  8
1-1
  6
CENTER
 62
     6
100
AcDbLine
 10
1062.577928
 20
993.188712
 30
0.0
 11
1062.577928
 21
1550.977217
 31
0.0
  0
LINE
  5
31F
330
6F
100
AcDbEntity
  8
6-0
  6
Continuous
 62
     7
100
AcDbLine
 10
3273.37984
 20
1369.434548
 30
0.0
 11
3273.37984
 21
684.4345479999999
 31
0.0
  0
LINE
  5
320
330
6F
100
AcDbEntity
  8
6-0
  6
DASHED2
 62
     7
100
AcDbLine
 10
3261.37984
 20
1369.434548
 30
0.0
 11
3261.37984
 21
1209.434548
 31
0.0
  0
LINE
  5
321
330
6F
100
AcDbEntity
  8
6-0
  6
DASHED2
 62
     7
100
AcDbLine
 10
3261.37984
 20
1209.434548
 30
0.0
 11
3273.37984
 21
1209.434548
 31
0.0
  0
LINE
  5
322
330
6F
100
AcDbEntity
  8
6-0
  6
Continuous
 62
     7
100
AcDbLine
 10
3294.37984
 20
684.4345479999999
 30
0.0
 11
3294.37984
 21
1336.434548
 31
0.0
  0
LINE
  5
323
330
6F
100
AcDbEntity
  8
6-0
  6
Continuous
 62
     7
100
AcDbLine
 10
3294.37984
 20
1306.649645
 30
0.0
 11
3294.37984
 21
1316.649645
 31
0.0
  0
LINE
  5
324
330
6F
100
AcDbEntity
  8
6-0
  6
Continuous
 62
     7
100
AcDbLine
 10
3294.37984
 20
1336.434548
 30
0.0
 11
3279.37984
 21
1336.434548
 31
0.0
  0
LINE
  5
325
330
6F
100
AcDbEntity
  8
6-0
  6
Continuous
 62
     7
100
AcDbLine
 10
3278.77984
 20
1336.434548
 30
0.0
 11
3294.37984
 21
1336.434548
 31
0.0
  0
LINE
  5
326
330
6F
100
AcDbEntity
  8
1-0
  6
Continuous
 62
     7
100
AcDbLine
 10
3278.77984
 20
1336.434548
 30
0.0
 11
3278.77984
 21
1321.434548
 31
0.0
  0
LINE
  5
327
330
6F
100
AcDbEntity
  8
1-0
  6
Continuous
 62
     7
100
AcDbLine
 10
3294.37984
 20
1336.434548
 30
0.0
 11
3294.37984
 21
1330.234548
 31
0.0
  0
LINE
  5
328
330
6F
100
AcDbEntity
  8
1-0
  6
Continuous
 62
     7
100
AcDbLine
 10
3278.77984
 20
1336.434548
 30
0.0
 11
3278.77984
 21
684.4345479999999
 31
0.0
  0
LINE
  5
329
330
6F
100
AcDbEntity
  8
1-0
  6
Continuous
 62
     7
100
AcDbLine
 10
607.6779279999999
 20
684.4345479999999
 30
0.0
 11
1952.677928
 21
684.4345479999999
 31
0.0
  0
LINE
  5
32A
330
6F
100
AcDbEntity
  8
6-0
  6
Continuous
 62
     7
100
AcDbLine
 10
1080.67792766891
 20
684.4345479908359
 30
0.0
 11
1547.677927668908
 21
684.4345479908359
 31
0.0
  0
LINE
  5
32B
330
6F
100
AcDbEntity
  8
6-0
  6
Continuous
 62
     7
100
AcDbLine
 10
1547.677927668908
 20
684.4345479908359
 30
0.0
 11
1547.67792766891
 21
1359.434547990836
 31
0.0
  0
LINE
  5
32C
330
6F
100
AcDbEntity
  8
6-0
  6
Continuous
 62
     7
100
AcDbLine
 10
1547.67792766891
 20
1359.434547990836
 30
0.0
 11
1080.677927668908
 21
1359.434547990836
 31
0.0
  0
LINE
  5
32D
330
6F
100
AcDbEntity
  8
6-0
  6
Continuous
 62
     7
100
AcDbLine
 10
1080.677927668908
 20
1359.434547990836
 30
0.0
 11
1080.67792766891
 21
684.4345479908359
 31
0.0
  0
LINE
  5
32E
330
6F
100
AcDbEntity
  8
6-0
  6
CENTER
 62
     8
100
AcDbLine
 10
1080.677927668908
 20
1359.434547990836
 30
0.0
 11
1547.677927668909
 21
1021.934547990836
 31
0.0
  0
LINE
  5
32F
330
6F
100
AcDbEntity
  8
6-0
  6
CENTER
 62
     8
100
AcDbLine
 10
1547.677927668909
 20
1021.934547990836
 30
0.0
 11
1080.67792766891
 21
684.4345479908359
 31
0.0
  0
LINE
  5
330
330
6F
100
AcDbEntity
  8
6-0
  6
Continuous
 62
     7
100
AcDbLine
 10
1079.67792766891
 20
684.4345479908359
 30
0.0
 11
612.6779276689119
 21
684.4345479908359
 31
0.0
  0
LINE
  5
331
330
6F
100
AcDbEntity
  8
6-0
  6
Continuous
 62
     7
100
AcDbLine
 10
612.6779276689119
 20
684.4345479908359
 30
0.0
 11
612.67792766891
 21
1359.434547990836
 31
0.0
  0
LINE
  5
332
330
6F
100
AcDbEntity
  8
6-0
  6
Continuous
 62
     7
100
AcDbLine
 10
612.67792766891
 20
1359.434547990836
 30
0.0
 11
1079.677927668912
 21
1359.434547990836
 31
0.0
  0
LINE
  5
333
330
6F
100
AcDbEntity
  8
6-0
  6
Continuous
 62
     7
100
AcDbLine
 10
1079.677927668912
 20
1359.434547990836
 30
0.0
 11
1079.67792766891
 21
684.4345479908359
 31
0.0
  0
LINE
  5
334
330
6F
100
AcDbEntity
  8
6-0
  6
CENTER
 62
     8
100
AcDbLine
 10
1079.677927668912
 20
1359.434547990836
 30
0.0
 11
612.67792766891
 21
1021.934547990836
 31
0.0
  0
LINE
  5
335
330
6F
100
AcDbEntity
  8
6-0
  6
CENTER
 62
     8
100
AcDbLine
 10
612.67792766891
 20
1021.934547990836
 30
0.0
 11
1079.67792766891
 21
684.4345479908359
 31
0.0
  0
LINE
  5
336
330
6F
100
AcDbEntity
  8
6-0
  6
Continuous
 62
     7
100
AcDbLine
 10
1552.677927668908
 20
684.4345479908359
 30
0.0
 11
1947.677927668906
 21
684.4345479908359
 31
0.0
  0
LINE
  5
337
330
6F
100
AcDbEntity
  8
6-0
  6
Continuous
 62
     7
100
AcDbLine
 10
1947.677927668906
 20
684.4345479908359
 30
0.0
 11
1947.677927668908
 21
1189.434547990836
 31
0.0
  0
LINE
  5
338
330
6F
100
AcDbEntity
  8
6-0
  6
Continuous
 62
     7
100
AcDbLine
 10
1947.677927668908
 20
1189.434547990836
 30
0.0
 11
1552.677927668906
 21
1189.434547990836
 31
0.0
  0
LINE
  5
339
330
6F
100
AcDbEntity
  8
6-0
  6
Continuous
 62
     7
100
AcDbLine
 10
1552.677927668906
 20
1189.434547990836
 30
0.0
 11
1552.677927668908
 21
684.4345479908359
 31
0.0
  0
LINE
  5
33A
330
6F
100
AcDbEntity
  8
6-0
  6
CENTER
 62
     8
100
AcDbLine
 10
1552.677927668906
 20
1189.434547990836
 30
0.0
 11
1947.677927668907
 21
936.9345479908359
 31
0.0
  0
LINE
  5
33B
330
6F
100
AcDbEntity
  8
6-0
  6
CENTER
 62
     8
100
AcDbLine
 10
1947.677927668907
 20
936.9345479908359
 30
0.0
 11
1552.677927668908
 21
684.4345479908359
 31
0.0
  0
LINE
  5
33C
330
6F
100
AcDbEntity
  8
6-0
  6
Continuous
 62
     7
100
AcDbLine
 10
1552.677927668906
 20
1194.434547990836
 30
0.0
 11
1947.677927668906
 21
1194.434547990836
 31
0.0
  0
LINE
  5
33D
330
6F
100
AcDbEntity
  8
6-0
  6
Continuous
 62
     7
100
AcDbLine
 10
1947.677927668906
 20
1194.434547990836
 30
0.0
 11
1947.677927668906
 21
1359.434547990836
 31
0.0
  0
LINE
  5
33E
330
6F
100
AcDbEntity
  8
6-0
  6
Continuous
 62
     7
100
AcDbLine
 10
1947.677927668906
 20
1359.434547990836
 30
0.0
 11
1552.677927668906
 21
1359.434547990836
 31
0.0
  0
LINE
  5
33F
330
6F
100
AcDbEntity
  8
6-0
  6
Continuous
 62
     7
100
AcDbLine
 10
1552.677927668906
 20
1359.434547990836
 30
0.0
 11
1552.677927668906
 21
1194.434547990836
 31
0.0
  0
LINE
  5
340
330
6F
100
AcDbEntity
  8
6-0
  6
CENTER
 62
     8
100
AcDbLine
 10
1552.677928
 20
1359.434548
 30
0.0
 11
1947.677928
 21
1194.434548
 31
0.0
  0
LINE
  5
341
330
6F
100
AcDbEntity
  8
6-0
  6
DASHED2
 62
     7
100
AcDbLine
 10
1567.677927668906
 20
1209.434547990836
 30
0.0
 11
1932.677927668907
 21
1209.434547990836
 31
0.0
  0
LINE
  5
342
330
6F
100
AcDbEntity
  8
6-0
  6
DASHED2
 62
     7
100
AcDbLine
 10
1932.677927668907
 20
1209.434547990836
 30
0.0
 11
1932.677927668907
 21
1279.434547990836
 31
0.0
  0
LINE
  5
343
330
6F
100
AcDbEntity
  8
6-0
  6
DASHED2
 62
     7
100
AcDbLine
 10
1932.677927668907
 20
1279.434547990836
 30
0.0
 11
1567.677927668906
 21
1279.434547990836
 31
0.0
  0
LINE
  5
344
330
6F
100
AcDbEntity
  8
6-0
  6
DASHED2
 62
     7
100
AcDbLine
 10
1567.677927668906
 20
1279.434547990836
 30
0.0
 11
1567.677927668906
 21
1209.434547990836
 31
0.0
  0
LINE
  5
345
330
6F
100
AcDbEntity
  8
8-0
  6
Continuous
 62
     7
100
AcDbLine
 10
612.677928
 20
1352.434548
 30
0.0
 11
1079.677928
 21
1352.434548
 31
0.0
  0
LINE
  5
346
330
6F
100
AcDbEntity
  8
8-0
  6
Continuous
 62
     7
100
AcDbLine
 10
612.677928
 20
1332.734548
 30
0.0
 11
1079.677928
 21
1332.734548
 31
0.0
  0
LINE
  5
347
330
6F
100
AcDbEntity
  8
8-0
  6
Continuous
 62
     7
100
AcDbLine
 10
1080.677928
 20
1352.434548
 30
0.0
 11
1547.677928
 21
1352.434548
 31
0.0
  0
LINE
  5
348
330
6F
100
AcDbEntity
  8
8-0
  6
Continuous
 62
     7
100
AcDbLine
 10
1080.677928
 20
1332.734548
 30
0.0
 11
1547.677928
 21
1332.734548
 31
0.0
  0
LINE
  5
349
330
6F
100
AcDbEntity
  8
8-0
  6
Continuous
 62
     7
100
AcDbLine
 10
1552.677928
 20
1352.434548
 30
0.0
 11
1947.677928
 21
1352.434548
 31
0.0
  0
LINE
  5
34A
330
6F
100
AcDbEntity
  8
8-0
  6
Continuous
 62
     7
100
AcDbLine
 10
1552.677928
 20
1332.734548
 30
0.0
 11
1947.677928
 21
1332.734548
 31
0.0
  0
LINE
  5
34B
330
6F
100
AcDbEntity
  8
8-0
  6
Continuous
 62
     7
100
AcDbLine
 10
1552.677928
 20
1182.434548
 30
0.0
 11
1947.677928
 21
1182.434548
 31
0.0
  0
LINE
  5
34C
330
6F
100
AcDbEntity
  8
8-0
  6
Continuous
 62
     7
100
AcDbLine
 10
1552.677928
 20
1162.734548
 30
0.0
 11
1947.677928
 21
1162.734548
 31
0.0
  0
TEXT
  5
34D
330
6F
100
AcDbEntity
  8
3-1
 62
     5
100
AcDbText
 10
3121.079
 20
2382.647
 30
0.0
 40
25.92
  1
(SW)は鏡面仕上げ
100
AcDbText
  0
LINE
  5
34E
330
6F
100
AcDbEntity
  8
3-0
  6
Continuous
 62
     7
100
AcDbLine
 10
707.6779279999999
 20
2132.688137
 30
0.0
 11
707.6779279999999
 21
2577.688137
 31
0.0
  0
LINE
  5
34F
330
6F
100
AcDbEntity
  8
3-0
  6
Continuous
 62
     7
100
AcDbLine
 10
699.6779279999999
 20
2132.688137
 30
0.0
 11
699.6779279999999
 21
2577.688137
 31
0.0
  0
ARC
  5
350
330
6F
100
AcDbEntity
  8
3-0
  6
Continuous
 62
     7
100
AcDbCircle
 10
724.6779279999999
 20
2132.688137
 30
0.0
 40
17.0
100
AcDbArc
 50
180.0
 51
270.0
  0
ARC
  5
351
330
6F
100
AcDbEntity
  8
3-0
  6
Continuous
 62
     7
100
AcDbCircle
 10
724.6779279999999
 20
2132.688137
 30
0.0
 40
25.0
100
AcDbArc
 50
180.0
 51
270.0
  0
ARC
  5
352
330
6F
100
AcDbEntity
  8
3-0
  6
Continuous
 62
     7
100
AcDbCircle
 10
724.6779279999999
 20
2577.688137
 30
0.0
 40
17.0
100
AcDbArc
 50
90.0
 51
180.0
  0
ARC
  5
353
330
6F
100
AcDbEntity
  8
3-0
  6
Continuous
 62
     7
100
AcDbCircle
 10
724.6779279999999
 20
2577.688137
 30
0.0
 40
25.0
100
AcDbArc
 50
90.0
 51
180.0
  0
ARC
  5
354
330
6F
100
AcDbEntity
  8
5-0
  6
Continuous
 62
     7
100
AcDbCircle
 10
1446.95016
 20
2252.188137
 30
0.0
 40
15.0
100
AcDbArc
 50
90.0
 51
172.405
  0
LINE
  5
355
330
6F
100
AcDbEntity
  8
5-0
  6
Continuous
 62
     7
100
AcDbLine
 10
1424.582181
 20
2185.826512
 30
0.0
 11
1413.582181
 21
2165.826512
 31
0.0
  0
ARC
  5
356
330
6F
100
AcDbEntity
  8
5-0
  6
Continuous
 62
     7
100
AcDbCircle
 10
1442.106499
 20
2176.188137
 30
0.0
 40
20.0
100
AcDbArc
 50
90.0
 51
151.189
  0
ARC
  5
357
330
6F
100
AcDbEntity
  8
5-0
  6
Continuous
 62
     7
100
AcDbCircle
 10
1431.106499
 20
2156.188137
 30
0.0
 40
20.0
100
AcDbArc
 50
151.189
 51
270.0
  0
ARC
  5
358
330
6F
100
AcDbEntity
  8
5-0
  6
Continuous
 62
     7
100
AcDbCircle
 10
1431.106499
 20
2156.188137
 30
0.0
 40
15.0
100
AcDbArc
 50
151.189
 51
270.0
  0
LINE
  5
359
330
6F
100
AcDbEntity
  8
5-0
  6
Continuous
 62
     7
100
AcDbLine
 10
1428.96326
 20
2183.416918
 30
0.0
 11
1417.96326
 21
2163.416918
 31
0.0
  0
ARC
  5
35A
330
6F
100
AcDbEntity
  8
5-0
  6
Continuous
 62
     7
100
AcDbCircle
 10
1442.106499
 20
2176.188137
 30
0.0
 40
15.0
100
AcDbArc
 50
90.0
 51
151.189
  0
ARC
  5
35B
330
6F
100
AcDbEntity
  8
5-0
  6
Continuous
 62
     7
100
AcDbCircle
 10
1735.106499
 20
2146.188137
 30
0.0
 40
10.0
100
AcDbArc
 50
270.0
 51
0.0
  0
LINE
  5
35C
330
6F
100
AcDbEntity
  8
5-0
  6
Continuous
 62
     7
100
AcDbLine
 10
1745.106499
 20
2146.188137
 30
0.0
 11
1745.106499
 21
2186.188137
 31
0.0
  0
ARC
  5
35D
330
6F
100
AcDbEntity
  8
5-0
  6
Continuous
 62
     7
100
AcDbCircle
 10
1735.106499
 20
2186.188137
 30
0.0
 40
10.0
100
AcDbArc
 50
0.0
 51
90.0
  0
ARC
  5
35E
330
6F
100
AcDbEntity
  8
5-0
  6
Continuous
 62
     7
100
AcDbCircle
 10
1735.106499
 20
2146.188137
 30
0.0
 40
5.0
100
AcDbArc
 50
270.0
 51
0.0
  0
LINE
  5
35F
330
6F
100
AcDbEntity
  8
5-0
  6
Continuous
 62
     7
100
AcDbLine
 10
1740.106499
 20
2146.188137
 30
0.0
 11
1740.106499
 21
2186.188137
 31
0.0
  0
ARC
  5
360
330
6F
100
AcDbEntity
  8
5-0
  6
Continuous
 62
     7
100
AcDbCircle
 10
1735.106499
 20
2186.188137
 30
0.0
 40
5.0
100
AcDbArc
 50
0.0
 51
90.0
  0
LINE
  5
361
330
6F
100
AcDbEntity
  8
5-0
  6
Continuous
 62
     7
100
AcDbLine
 10
1735.106499
 20
2196.188137
 30
0.0
 11
1442.1065
 21
2196.188137
 31
0.0
  0
LINE
  5
362
330
6F
100
AcDbEntity
  8
5-0
  6
Continuous
 62
     7
100
AcDbLine
 10
1431.106501
 20
2136.188137
 30
0.0
 11
1735.106499
 21
2136.188137
 31
0.0
  0
LINE
  5
363
330
6F
100
AcDbEntity
  8
5-0
  6
Continuous
 62
     7
100
AcDbLine
 10
1431.106499
 20
2141.188137
 30
0.0
 11
1735.106499
 21
2141.188137
 31
0.0
  0
LINE
  5
364
330
6F
100
AcDbEntity
  8
5-0
  6
Continuous
 62
     7
100
AcDbLine
 10
1735.106499
 20
2191.188137
 30
0.0
 11
1442.106499
 21
2191.188137
 31
0.0
  0
ARC
  5
365
330
6F
100
AcDbEntity
  8
5-0
  6
Continuous
 62
     7
100
AcDbCircle
 10
1735.106499
 20
2298.188137
 30
0.0
 40
5.0
100
AcDbArc
 50
270.0
 51
0.0
  0
LINE
  5
366
330
6F
100
AcDbEntity
  8
5-0
  6
Continuous
 62
     7
100
AcDbLine
 10
1740.106499
 20
2298.188137
 30
0.0
 11
1740.106499
 21
2338.188137
 31
0.0
  0
ARC
  5
367
330
6F
100
AcDbEntity
  8
5-0
  6
Continuous
 62
     7
100
AcDbCircle
 10
1735.106499
 20
2338.188137
 30
0.0
 40
5.0
100
AcDbArc
 50
0.0
 51
90.0
  0
LINE
  5
368
330
6F
100
AcDbEntity
  8
5-0
  6
Continuous
 62
     7
100
AcDbLine
 10
1452.106499
 20
2293.188137
 30
0.0
 11
1735.106499
 21
2293.188137
 31
0.0
  0
ARC
  5
369
330
6F
100
AcDbEntity
  8
5-0
  6
Continuous
 62
     7
100
AcDbCircle
 10
1452.106499
 20
2308.188137
 30
0.0
 40
20.0
100
AcDbArc
 50
180.0
 51
270.0
  0
LINE
  5
36A
330
6F
100
AcDbEntity
  8
5-0
  6
Continuous
 62
     7
100
AcDbLine
 10
1432.106499
 20
2328.188137
 30
0.0
 11
1432.106499
 21
2308.188137
 31
0.0
  0
ARC
  5
36B
330
6F
100
AcDbEntity
  8
5-0
  6
Continuous
 62
     7
100
AcDbCircle
 10
1452.106499
 20
2328.188137
 30
0.0
 40
20.0
100
AcDbArc
 50
90.0
 51
180.0
  0
LINE
  5
36C
330
6F
100
AcDbEntity
  8
5-0
  6
Continuous
 62
     7
100
AcDbLine
 10
1452.106499
 20
2288.188137
 30
0.0
 11
1735.106499
 21
2288.188137
 31
0.0
  0
ARC
  5
36D
330
6F
100
AcDbEntity
  8
5-0
  6
Continuous
 62
     7
100
AcDbCircle
 10
1735.106499
 20
2298.188137
 30
0.0
 40
10.0
100
AcDbArc
 50
270.0
 51
0.0
  0
LINE
  5
36E
330
6F
100
AcDbEntity
  8
5-0
  6
Continuous
 62
     7
100
AcDbLine
 10
1745.106499
 20
2298.188137
 30
0.0
 11
1745.106499
 21
2338.188137
 31
0.0
  0
LINE
  5
36F
330
6F
100
AcDbEntity
  8
5-0
  6
Continuous
 62
     7
100
AcDbLine
 10
1735.106499
 20
2348.188137
 30
0.0
 11
1452.106499
 21
2348.188137
 31
0.0
  0
ARC
  5
370
330
6F
100
AcDbEntity
  8
5-0
  6
Continuous
 62
     7
100
AcDbCircle
 10
1735.106499
 20
2338.188137
 30
0.0
 40
10.0
100
AcDbArc
 50
0.0
 51
90.0
  0
ARC
  5
371
330
6F
100
AcDbEntity
  8
5-0
  6
Continuous
 62
     7
100
AcDbCircle
 10
1735.106499
 20
2262.188137
 30
0.0
 40
5.0
100
AcDbArc
 50
0.0
 51
90.0
  0
LINE
  5
372
330
6F
100
AcDbEntity
  8
5-0
  6
Continuous
 62
     7
100
AcDbLine
 10
1740.106499
 20
2222.188137
 30
0.0
 11
1740.106499
 21
2262.188137
 31
0.0
  0
ARC
  5
373
330
6F
100
AcDbEntity
  8
5-0
  6
Continuous
 62
     7
100
AcDbCircle
 10
1735.106499
 20
2222.188137
 30
0.0
 40
5.0
100
AcDbArc
 50
270.0
 51
0.0
  0
ARC
  5
374
330
6F
100
AcDbEntity
  8
5-0
  6
Continuous
 62
     7
100
AcDbCircle
 10
1735.106499
 20
2262.188137
 30
0.0
 40
10.0
100
AcDbArc
 50
0.0
 51
90.0
  0
LINE
  5
375
330
6F
100
AcDbEntity
  8
5-0
  6
Continuous
 62
     7
100
AcDbLine
 10
1745.106499
 20
2222.188137
 30
0.0
 11
1745.106499
 21
2262.188137
 31
0.0
  0
ARC
  5
376
330
6F
100
AcDbEntity
  8
5-0
  6
Continuous
 62
     7
100
AcDbCircle
 10
1735.106499
 20
2222.188137
 30
0.0
 40
10.0
100
AcDbArc
 50
270.0
 51
0.0
  0
LINE
  5
377
330
6F
100
AcDbEntity
  8
5-0
  6
Continuous
 62
     7
100
AcDbLine
 10
1444.1065
 20
2212.188137
 30
0.0
 11
1735.106499
 21
2212.188137
 31
0.0
  0
ARC
  5
378
330
6F
100
AcDbEntity
  8
5-0
  6
Continuous
 62
     7
100
AcDbCircle
 10
1444.106499
 20
2232.188137
 30
0.0
 40
20.0
100
AcDbArc
 50
180.0
 51
270.0
  0
LINE
  5
379
330
6F
100
AcDbEntity
  8
5-0
  6
Continuous
 62
     7
100
AcDbLine
 10
1735.106499
 20
2272.188137
 30
0.0
 11
1446.95016
 21
2272.188137
 31
0.0
  0
LINE
  5
37A
330
6F
100
AcDbEntity
  8
5-0
  6
Continuous
 62
     7
100
AcDbLine
 10
1424.106499
 20
2232.188136
 30
0.0
 11
1427.125602
 21
2254.831411
 31
0.0
  0
ARC
  5
37B
330
6F
100
AcDbEntity
  8
5-0
  6
Continuous
 62
     7
100
AcDbCircle
 10
1446.95016
 20
2252.188137
 30
0.0
 40
20.0
100
AcDbArc
 50
90.0
 51
172.405
  0
ARC
  5
37C
330
6F
100
AcDbEntity
  8
5-0
  6
Continuous
 62
     7
100
AcDbCircle
 10
1735.106499
 20
2414.188137
 30
0.0
 40
5.0
100
AcDbArc
 50
0.0
 51
90.0
  0
LINE
  5
37D
330
6F
100
AcDbEntity
  8
5-0
  6
Continuous
 62
     7
100
AcDbLine
 10
1740.106499
 20
2414.188137
 30
0.0
 11
1740.106499
 21
2374.188137
 31
0.0
  0
LINE
  5
37E
330
6F
100
AcDbEntity
  8
5-0
  6
Continuous
 62
     7
100
AcDbLine
 10
1444.283494
 20
2217.188137
 30
0.0
 11
1735.106499
 21
2217.188137
 31
0.0
  0
ARC
  5
37F
330
6F
100
AcDbEntity
  8
5-0
  6
Continuous
 62
     7
100
AcDbCircle
 10
1444.283494
 20
2232.188137
 30
0.0
 40
15.0
100
AcDbArc
 50
172.405
 51
270.0
  0
LINE
  5
380
330
6F
100
AcDbEntity
  8
5-0
  6
Continuous
 62
     7
100
AcDbLine
 10
1429.415075
 20
2234.170593
 30
0.0
 11
1432.081742
 21
2254.170593
 31
0.0
  0
LINE
  5
381
330
6F
100
AcDbEntity
  8
5-0
  6
Continuous
 62
     7
100
AcDbLine
 10
1735.106499
 20
2267.188137
 30
0.0
 11
1446.95016
 21
2267.188137
 31
0.0
  0
LINE
  5
382
330
6F
100
AcDbEntity
  8
5-0
  6
Continuous
 62
     7
100
AcDbLine
 10
1735.106499
 20
2369.188137
 30
0.0
 11
1452.106499
 21
2369.188137
 31
0.0
  0
ARC
  5
383
330
6F
100
AcDbEntity
  8
5-0
  6
Continuous
 62
     7
100
AcDbCircle
 10
1452.106499
 20
2384.188137
 30
0.0
 40
15.0
100
AcDbArc
 50
180.0
 51
270.0
  0
ARC
  5
384
330
6F
100
AcDbEntity
  8
5-0
  6
Continuous
 62
     7
100
AcDbCircle
 10
1452.106499
 20
2404.188137
 30
0.0
 40
20.0
100
AcDbArc
 50
90.0
 51
180.0
  0
LINE
  5
385
330
6F
100
AcDbEntity
  8
5-0
  6
Continuous
 62
     7
100
AcDbLine
 10
1432.106499
 20
2384.188137
 30
0.0
 11
1432.106499
 21
2404.188137
 31
0.0
  0
ARC
  5
386
330
6F
100
AcDbEntity
  8
5-0
  6
Continuous
 62
     7
100
AcDbCircle
 10
1452.106499
 20
2384.188137
 30
0.0
 40
20.0
100
AcDbArc
 50
180.0
 51
270.0
  0
LINE
  5
387
330
6F
100
AcDbEntity
  8
5-0
  6
Continuous
 62
     7
100
AcDbLine
 10
1452.106499
 20
2424.188137
 30
0.0
 11
1735.106499
 21
2424.188137
 31
0.0
  0
ARC
  5
388
330
6F
100
AcDbEntity
  8
5-0
  6
Continuous
 62
     7
100
AcDbCircle
 10
1735.106499
 20
2414.188137
 30
0.0
 40
10.0
100
AcDbArc
 50
0.0
 51
90.0
  0
LINE
  5
389
330
6F
100
AcDbEntity
  8
5-0
  6
Continuous
 62
     7
100
AcDbLine
 10
1745.106499
 20
2414.188137
 30
0.0
 11
1745.106499
 21
2374.188137
 31
0.0
  0
LINE
  5
38A
330
6F
100
AcDbEntity
  8
5-0
  6
Continuous
 62
     7
100
AcDbLine
 10
1735.106499
 20
2364.188137
 30
0.0
 11
1452.106499
 21
2364.188137
 31
0.0
  0
ARC
  5
38B
330
6F
100
AcDbEntity
  8
5-0
  6
Continuous
 62
     7
100
AcDbCircle
 10
1735.106499
 20
2374.188137
 30
0.0
 40
10.0
100
AcDbArc
 50
270.0
 51
0.0
  0
ARC
  5
38C
330
6F
100
AcDbEntity
  8
5-0
  6
Continuous
 62
     7
100
AcDbCircle
 10
1735.106499
 20
2450.188137
 30
0.0
 40
5.0
100
AcDbArc
 50
270.0
 51
0.0
  0
LINE
  5
38D
330
6F
100
AcDbEntity
  8
5-0
  6
Continuous
 62
     7
100
AcDbLine
 10
1740.106499
 20
2490.188137
 30
0.0
 11
1740.106499
 21
2450.188137
 31
0.0
  0
ARC
  5
38E
330
6F
100
AcDbEntity
  8
5-0
  6
Continuous
 62
     7
100
AcDbCircle
 10
1735.106499
 20
2490.188137
 30
0.0
 40
5.0
100
AcDbArc
 50
0.0
 51
90.0
  0
ARC
  5
38F
330
6F
100
AcDbEntity
  8
5-0
  6
Continuous
 62
     7
100
AcDbCircle
 10
1735.106499
 20
2450.188137
 30
0.0
 40
10.0
100
AcDbArc
 50
270.0
 51
0.0
  0
LINE
  5
390
330
6F
100
AcDbEntity
  8
5-0
  6
Continuous
 62
     7
100
AcDbLine
 10
1745.106499
 20
2490.188137
 30
0.0
 11
1745.106499
 21
2450.188137
 31
0.0
  0
ARC
  5
391
330
6F
100
AcDbEntity
  8
5-0
  6
Continuous
 62
     7
100
AcDbCircle
 10
1735.106499
 20
2490.188137
 30
0.0
 40
10.0
100
AcDbArc
 50
0.0
 51
90.0
  0
LINE
  5
392
330
6F
100
AcDbEntity
  8
5-0
  6
Continuous
 62
     7
100
AcDbLine
 10
1444.1065
 20
2500.188137
 30
0.0
 11
1735.106499
 21
2500.188137
 31
0.0
  0
ARC
  5
393
330
6F
100
AcDbEntity
  8
5-0
  6
Continuous
 62
     7
100
AcDbCircle
 10
1444.106499
 20
2480.188137
 30
0.0
 40
20.0
100
AcDbArc
 50
90.0
 51
180.0
  0
LINE
  5
394
330
6F
100
AcDbEntity
  8
5-0
  6
Continuous
 62
     7
100
AcDbLine
 10
1735.106499
 20
2440.188137
 30
0.0
 11
1446.95016
 21
2440.188137
 31
0.0
  0
LINE
  5
395
330
6F
100
AcDbEntity
  8
5-0
  6
Continuous
 62
     7
100
AcDbLine
 10
1424.106499
 20
2480.188138
 30
0.0
 11
1427.125602
 21
2457.544863
 31
0.0
  0
ARC
  5
396
330
6F
100
AcDbEntity
  8
5-0
  6
Continuous
 62
     7
100
AcDbCircle
 10
1446.95016
 20
2460.188137
 30
0.0
 40
20.0
100
AcDbArc
 50
187.595
 51
270.0
  0
ARC
  5
397
330
6F
100
AcDbEntity
  8
5-0
  6
Continuous
 62
     7
100
AcDbCircle
 10
1452.106499
 20
2308.188137
 30
0.0
 40
15.0
100
AcDbArc
 50
180.0
 51
270.0
  0
LINE
  5
398
330
6F
100
AcDbEntity
  8
5-0
  6
Continuous
 62
     7
100
AcDbLine
 10
1437.106499
 20
2328.188137
 30
0.0
 11
1437.106499
 21
2308.188137
 31
0.0
  0
LINE
  5
399
330
6F
100
AcDbEntity
  8
5-0
  6
Continuous
 62
     7
100
AcDbLine
 10
1735.106499
 20
2343.188137
 30
0.0
 11
1452.106499
 21
2343.188137
 31
0.0
  0
ARC
  5
39A
330
6F
100
AcDbEntity
  8
5-0
  6
Continuous
 62
     7
100
AcDbCircle
 10
1452.106499
 20
2328.188137
 30
0.0
 40
15.0
100
AcDbArc
 50
90.0
 51
180.0
  0
LINE
  5
39B
330
6F
100
AcDbEntity
  8
5-0
  6
Continuous
 62
     7
100
AcDbLine
 10
1444.283494
 20
2495.188137
 30
0.0
 11
1735.106499
 21
2495.188137
 31
0.0
  0
ARC
  5
39C
330
6F
100
AcDbEntity
  8
5-0
  6
Continuous
 62
     7
100
AcDbCircle
 10
1444.283494
 20
2480.188137
 30
0.0
 40
15.0
100
AcDbArc
 50
90.0
 51
187.595
  0
LINE
  5
39D
330
6F
100
AcDbEntity
  8
5-0
  6
Continuous
 62
     7
100
AcDbLine
 10
1429.415075
 20
2478.205681
 30
0.0
 11
1432.081742
 21
2458.205681
 31
0.0
  0
LINE
  5
39E
330
6F
100
AcDbEntity
  8
5-0
  6
Continuous
 62
     7
100
AcDbLine
 10
1735.106499
 20
2445.188137000001
 30
0.0
 11
1446.95016
 21
2445.188137000001
 31
0.0
  0
ARC
  5
39F
330
6F
100
AcDbEntity
  8
5-0
  6
Continuous
 62
     7
100
AcDbCircle
 10
1446.95016
 20
2460.188137
 30
0.0
 40
15.0
100
AcDbArc
 50
187.595
 51
270.0
  0
LINE
  5
3A0
330
6F
100
AcDbEntity
  8
5-0
  6
Continuous
 62
     7
100
AcDbLine
 10
1424.582181
 20
2526.549762
 30
0.0
 11
1413.582181
 21
2546.549762
 31
0.0
  0
ARC
  5
3A1
330
6F
100
AcDbEntity
  8
5-0
  6
Continuous
 62
     7
100
AcDbCircle
 10
1442.106499
 20
2536.188137
 30
0.0
 40
20.0
100
AcDbArc
 50
208.811
 51
270.0
  0
ARC
  5
3A2
330
6F
100
AcDbEntity
  8
5-0
  6
Continuous
 62
     7
100
AcDbCircle
 10
1431.106499
 20
2556.188137
 30
0.0
 40
20.0
100
AcDbArc
 50
90.0
 51
208.811
  0
ARC
  5
3A3
330
6F
100
AcDbEntity
  8
5-0
  6
Continuous
 62
     7
100
AcDbCircle
 10
1431.106499
 20
2556.188137
 30
0.0
 40
15.0
100
AcDbArc
 50
90.0
 51
208.811
  0
LINE
  5
3A4
330
6F
100
AcDbEntity
  8
5-0
  6
Continuous
 62
     7
100
AcDbLine
 10
1428.96326
 20
2528.959356
 30
0.0
 11
1417.96326
 21
2548.959356
 31
0.0
  0
ARC
  5
3A5
330
6F
100
AcDbEntity
  8
5-0
  6
Continuous
 62
     7
100
AcDbCircle
 10
1442.106499
 20
2536.188137
 30
0.0
 40
15.0
100
AcDbArc
 50
208.811
 51
270.0
  0
ARC
  5
3A6
330
6F
100
AcDbEntity
  8
5-0
  6
Continuous
 62
     7
100
AcDbCircle
 10
1735.106499
 20
2566.188137000001
 30
0.0
 40
10.0
100
AcDbArc
 50
0.0
 51
90.0
  0
LINE
  5
3A7
330
6F
100
AcDbEntity
  8
5-0
  6
Continuous
 62
     7
100
AcDbLine
 10
1745.106499
 20
2566.188137000001
 30
0.0
 11
1745.106499
 21
2526.188137
 31
0.0
  0
ARC
  5
3A8
330
6F
100
AcDbEntity
  8
5-0
  6
Continuous
 62
     7
100
AcDbCircle
 10
1735.106499
 20
2526.188137
 30
0.0
 40
10.0
100
AcDbArc
 50
270.0
 51
0.0
  0
ARC
  5
3A9
330
6F
100
AcDbEntity
  8
5-0
  6
Continuous
 62
     7
100
AcDbCircle
 10
1735.106499
 20
2566.188137000001
 30
0.0
 40
5.0
100
AcDbArc
 50
0.0
 51
90.0
  0
LINE
  5
3AA
330
6F
100
AcDbEntity
  8
5-0
  6
Continuous
 62
     7
100
AcDbLine
 10
1740.106499
 20
2566.188137000001
 30
0.0
 11
1740.106499
 21
2526.188137
 31
0.0
  0
ARC
  5
3AB
330
6F
100
AcDbEntity
  8
5-0
  6
Continuous
 62
     7
100
AcDbCircle
 10
1735.106499
 20
2526.188137
 30
0.0
 40
5.0
100
AcDbArc
 50
270.0
 51
0.0
  0
LINE
  5
3AC
330
6F
100
AcDbEntity
  8
5-0
  6
Continuous
 62
     7
100
AcDbLine
 10
1735.106499
 20
2516.188137
 30
0.0
 11
1442.1065
 21
2516.188137
 31
0.0
  0
LINE
  5
3AD
330
6F
100
AcDbEntity
  8
5-0
  6
Continuous
 62
     7
100
AcDbLine
 10
1431.106501
 20
2576.188137
 30
0.0
 11
1735.106499
 21
2576.188137
 31
0.0
  0
LINE
  5
3AE
330
6F
100
AcDbEntity
  8
5-0
  6
Continuous
 62
     7
100
AcDbLine
 10
1431.106499
 20
2571.188137
 30
0.0
 11
1735.106499
 21
2571.188137
 31
0.0
  0
LINE
  5
3AF
330
6F
100
AcDbEntity
  8
5-0
  6
Continuous
 62
     7
100
AcDbLine
 10
1735.106499
 20
2521.188137
 30
0.0
 11
1442.106499
 21
2521.188137
 31
0.0
  0
ARC
  5
3B0
330
6F
100
AcDbEntity
  8
5-0
  6
Continuous
 62
     7
100
AcDbCircle
 10
1735.106499
 20
2374.188137
 30
0.0
 40
5.0
100
AcDbArc
 50
270.0
 51
0.0
  0
LINE
  5
3B1
330
6F
100
AcDbEntity
  8
5-0
  6
Continuous
 62
     7
100
AcDbLine
 10
1452.106499
 20
2419.188137
 30
0.0
 11
1735.106499
 21
2419.188137
 31
0.0
  0
ARC
  5
3B2
330
6F
100
AcDbEntity
  8
5-0
  6
Continuous
 62
     7
100
AcDbCircle
 10
1452.106499
 20
2404.188137
 30
0.0
 40
15.0
100
AcDbArc
 50
90.0
 51
180.0
  0
LINE
  5
3B3
330
6F
100
AcDbEntity
  8
5-0
  6
Continuous
 62
     7
100
AcDbLine
 10
1437.106499
 20
2384.188137
 30
0.0
 11
1437.106499
 21
2404.188137
 31
0.0
  0
LINE
  5
3B4
330
6F
100
AcDbEntity
  8
3-0
  6
Continuous
 62
     7
100
AcDbLine
 10
1860.677928
 20
2577.688137
 30
0.0
 11
1860.677928
 21
2132.688137
 31
0.0
  0
LINE
  5
3B5
330
6F
100
AcDbEntity
  8
3-0
  6
Continuous
 62
     7
100
AcDbLine
 10
1852.677928
 20
2577.688137
 30
0.0
 11
1852.677928
 21
2132.688137
 31
0.0
  0
LINE
  5
3B6
330
6F
100
AcDbEntity
  8
3-0
  6
Continuous
 62
     7
100
AcDbLine
 10
1835.677928
 20
2107.688137
 30
0.0
 11
724.6779279999999
 21
2107.688137
 31
0.0
  0
ARC
  5
3B7
330
6F
100
AcDbEntity
  8
3-0
  6
Continuous
 62
     7
100
AcDbCircle
 10
1835.677928
 20
2132.688137
 30
0.0
 40
25.0
100
AcDbArc
 50
270.0
 51
0.0
  0
LINE
  5
3B8
330
6F
100
AcDbEntity
  8
3-0
  6
Continuous
 62
     7
100
AcDbLine
 10
1835.677928
 20
2115.688137
 30
0.0
 11
724.6779279999999
 21
2115.688137
 31
0.0
  0
ARC
  5
3B9
330
6F
100
AcDbEntity
  8
3-0
  6
Continuous
 62
     7
100
AcDbCircle
 10
1835.677928
 20
2132.688137
 30
0.0
 40
17.0
100
AcDbArc
 50
270.0
 51
0.0
  0
LINE
  5
3BA
330
6F
100
AcDbEntity
  8
3-0
  6
Continuous
 62
     7
100
AcDbLine
 10
724.6779279999999
 20
2594.688137
 30
0.0
 11
1835.677928
 21
2594.688137
 31
0.0
  0
ARC
  5
3BB
330
6F
100
AcDbEntity
  8
3-0
  6
Continuous
 62
     7
100
AcDbCircle
 10
1835.677928
 20
2577.688137
 30
0.0
 40
17.0
100
AcDbArc
 50
0.0
 51
90.0
  0
LINE
  5
3BC
330
6F
100
AcDbEntity
  8
3-0
  6
Continuous
 62
     7
100
AcDbLine
 10
724.6779279999999
 20
2602.688137
 30
0.0
 11
1835.677928
 21
2602.688137
 31
0.0
  0
ARC
  5
3BD
330
6F
100
AcDbEntity
  8
3-0
  6
Continuous
 62
     7
100
AcDbCircle
 10
1835.677928
 20
2577.688137
 30
0.0
 40
25.0
100
AcDbArc
 50
0.0
 51
90.0
  0
LINE
  5
3BE
330
6F
100
AcDbEntity
  8
3-0
  6
Continuous
 62
     7
100
AcDbLine
 10
730.5314809999999
 20
2336.54169
 30
0.0
 11
729.824374
 21
2335.834584
 31
0.0
  0
LINE
  5
3BF
330
6F
100
AcDbEntity
  8
3-0
  6
Continuous
 62
     7
100
AcDbLine
 10
730.5314809999999
 20
2335.834584
 30
0.0
 11
729.824374
 21
2336.54169
 31
0.0
  0
LINE
  5
3C0
330
6F
100
AcDbEntity
  8
3-0
  6
Continuous
 62
     7
100
AcDbLine
 10
1062.531481
 20
2138.04169
 30
0.0
 11
1061.824374
 21
2137.334584
 31
0.0
  0
LINE
  5
3C1
330
6F
100
AcDbEntity
  8
3-0
  6
Continuous
 62
     7
100
AcDbLine
 10
1062.531481
 20
2137.334584
 30
0.0
 11
1061.824374
 21
2138.04169
 31
0.0
  0
LINE
  5
3C2
330
6F
100
AcDbEntity
  8
3-0
  6
Continuous
 62
     7
100
AcDbLine
 10
1394.531481
 20
2138.04169
 30
0.0
 11
1393.824374
 21
2137.334584
 31
0.0
  0
LINE
  5
3C3
330
6F
100
AcDbEntity
  8
3-0
  6
Continuous
 62
     7
100
AcDbLine
 10
1394.531481
 20
2137.334584
 30
0.0
 11
1393.824374
 21
2138.04169
 31
0.0
  0
LINE
  5
3C4
330
6F
100
AcDbEntity
  8
3-0
  6
Continuous
 62
     7
100
AcDbLine
 10
1394.531481
 20
2336.54169
 30
0.0
 11
1393.824374
 21
2335.834584
 31
0.0
  0
LINE
  5
3C5
330
6F
100
AcDbEntity
  8
3-0
  6
Continuous
 62
     7
100
AcDbLine
 10
1394.531481
 20
2335.834584
 30
0.0
 11
1393.824374
 21
2336.54169
 31
0.0
  0
LINE
  5
3C6
330
6F
100
AcDbEntity
  8
3-0
  6
Continuous
 62
     7
100
AcDbLine
 10
1394.531481
 20
2535.04169
 30
0.0
 11
1393.824374
 21
2534.334584
 31
0.0
  0
LINE
  5
3C7
330
6F
100
AcDbEntity
  8
3-0
  6
Continuous
 62
     7
100
AcDbLine
 10
1394.531481
 20
2534.334584
 30
0.0
 11
1393.824374
 21
2535.04169
 31
0.0
  0
LINE
  5
3C8
330
6F
100
AcDbEntity
  8
3-0
  6
Continuous
 62
     7
100
AcDbLine
 10
1062.531481
 20
2535.04169
 30
0.0
 11
1061.824374
 21
2534.334584
 31
0.0
  0
LINE
  5
3C9
330
6F
100
AcDbEntity
  8
3-0
  6
Continuous
 62
     7
100
AcDbLine
 10
1062.531481
 20
2534.334584
 30
0.0
 11
1061.824374
 21
2535.04169
 31
0.0
  0
LINE
  5
3CA
330
6F
100
AcDbEntity
  8
1-1
  6
CENTER
 62
     6
100
AcDbLine
 10
780.1779279999999
 20
2336.188137
 30
0.0
 11
980.1779279999999
 21
2336.188137
 31
0.0
  0
LINE
  5
3CB
330
6F
100
AcDbEntity
  8
1-1
  6
CENTER
 62
     6
100
AcDbLine
 10
880.1779279999999
 20
2236.188137
 30
0.0
 11
880.1779279999999
 21
2707.222847
 31
0.0
  0
ARC
  5
3CC
330
6F
100
AcDbEntity
  8
5-0
  6
Continuous
 62
     7
100
AcDbCircle
 10
2331.177928
 20
2336.188137
 30
0.0
 40
1601.0
100
AcDbArc
 50
176.212
 51
183.788
  0
ARC
  5
3CD
330
6F
100
AcDbEntity
  8
5-0
  6
Continuous
 62
     7
100
AcDbCircle
 10
1062.177928
 20
5514.688137
 30
0.0
 40
3377.0
100
AcDbArc
 50
265.836
 51
274.164
  0
CIRCLE
  5
3CE
330
6F
100
AcDbEntity
  8
5-0
  6
Continuous
 62
     7
100
AcDbCircle
 10
880.1779279999999
 20
2336.188137
 30
0.0
 40
90.0
  0
CIRCLE
  5
3CF
330
6F
100
AcDbEntity
  8
5-0
  6
Continuous
 62
     7
100
AcDbCircle
 10
880.1779279999999
 20
2336.188137
 30
0.0
 40
80.0
  0
ARC
  5
3D0
330
6F
100
AcDbEntity
  8
5-0
  6
Continuous
 62
     7
100
AcDbCircle
 10
1300.87706
 20
2436.009617
 30
0.0
 40
90.0
100
AcDbArc
 50
3.788
 51
85.836
  0
ARC
  5
3D1
330
6F
100
AcDbEntity
  8
5-0
  6
Continuous
 62
     7
100
AcDbCircle
 10
823.478796
 20
2436.009617
 30
0.0
 40
90.0
100
AcDbArc
 50
94.16400000000001
 51
176.212
  0
ARC
  5
3D2
330
6F
100
AcDbEntity
  8
5-0
  6
Continuous
 62
     7
100
AcDbCircle
 10
823.478796
 20
2236.366657
 30
0.0
 40
90.0
100
AcDbArc
 50
183.788
 51
265.836
  0
ARC
  5
3D3
330
6F
100
AcDbEntity
  8
5-0
  6
Continuous
 62
     7
100
AcDbCircle
 10
1300.87706
 20
2236.366657
 30
0.0
 40
90.0
100
AcDbArc
 50
274.164
 51
356.212
  0
ARC
  5
3D4
330
6F
100
AcDbEntity
  8
5-0
  6
Continuous
 62
     7
100
AcDbCircle
 10
-206.822072
 20
2336.188137
 30
0.0
 40
1601.0
100
AcDbArc
 50
356.212
 51
3.788
  0
ARC
  5
3D5
330
6F
100
AcDbEntity
  8
5-0
  6
Continuous
 62
     7
100
AcDbCircle
 10
1062.177928
 20
-842.3118630000001
 30
0.0
 40
3377.0
100
AcDbArc
 50
85.836
 51
94.16400000000001
  0
LINE
  5
3D6
330
6F
100
AcDbEntity
  8
3-0
  6
Continuous
 62
     7
100
AcDbLine
 10
605.1779279999999
 20
2092.688137
 30
0.0
 11
605.1779279999999
 21
2642.688137
 31
0.0
  0
LINE
  5
3D7
330
6F
100
AcDbEntity
  8
3-0
  6
Continuous
 62
     7
100
AcDbLine
 10
1955.177928
 20
2642.688137
 30
0.0
 11
1955.177928
 21
2092.688137
 31
0.0
  0
LINE
  5
3D8
330
6F
100
AcDbEntity
  8
3-0
  6
Continuous
 62
     7
100
AcDbLine
 10
1955.177928
 20
2092.688137
 30
0.0
 11
605.1779279999999
 21
2092.688137
 31
0.0
  0
LINE
  5
3D9
330
6F
100
AcDbEntity
  8
3-0
  6
Continuous
 62
     7
100
AcDbLine
 10
605.1779279999999
 20
2617.688137
 30
0.0
 11
1955.177928
 21
2617.688137
 31
0.0
  0
LINE
  5
3DA
330
6F
100
AcDbEntity
  8
3-0
  6
Continuous
 62
     7
100
AcDbLine
 10
605.1779279999999
 20
2642.688137
 30
0.0
 11
1955.177928
 21
2642.688137
 31
0.0
  0
ARC
  5
3DB
330
6F
100
AcDbEntity
  8
7-0
  6
DASHED2
 62
     7
100
AcDbCircle
 10
1062.531481
 20
2569.688137
 30
0.0
 40
260.0
100
AcDbArc
 50
190.538
 51
349.462
  0
LINE
  5
3DC
330
6F
100
AcDbEntity
  8
7-0
  6
Continuous
 62
     7
100
AcDbLine
 10
1074.531481
 20
2519.131238
 30
0.0
 11
1074.531481
 21
2321.688137
 31
0.0
  0
LINE
  5
3DD
330
6F
100
AcDbEntity
  8
7-0
  6
Continuous
 62
     7
100
AcDbLine
 10
1050.531481
 20
2519.131238
 30
0.0
 11
1050.531481
 21
2321.688137
 31
0.0
  0
ARC
  5
3DE
330
6F
100
AcDbEntity
  8
7-0
  6
Continuous
 62
     7
100
AcDbCircle
 10
1062.531481
 20
2321.688137
 30
0.0
 40
12.0
100
AcDbArc
 50
180.0
 51
0.0
  0
ARC
  5
3DF
330
6F
100
AcDbEntity
  8
7-0
  6
Continuous
 62
     7
100
AcDbCircle
 10
1062.531481
 20
2456.019828
 30
0.0
 40
12.0
100
AcDbArc
 50
180.0
 51
0.0
  0
LINE
  5
3E0
330
6F
100
AcDbEntity
  8
C-0
  6
CENTER
 62
     6
100
AcDbLine
 10
1128.403419
 20
2569.688137
 30
0.0
 11
972.077626
 21
2569.688137
 31
0.0
  0
LINE
  5
3E1
330
6F
100
AcDbEntity
  8
7-0
  6
Continuous
 62
     7
100
AcDbLine
 10
1141.018908
 20
2701.641523
 30
0.0
 11
1062.531481
 21
2569.688137
 31
0.0
  0
LINE
  5
3E2
330
6F
100
AcDbEntity
  8
7-0
  6
Continuous
 62
     7
100
AcDbLine
 10
1421.70419
 20
2701.641523
 30
0.0
 11
1141.018908
 21
2701.641523
 31
0.0
  0
LINE
  5
3E3
330
6F
100
AcDbEntity
  8
C-0
  6
CENTER
 62
     6
100
AcDbLine
 10
1062.531481
 20
2516.785494
 30
0.0
 11
1062.531481
 21
2799.688137
 31
0.0
  0
ARC
  5
3E4
330
6F
100
AcDbEntity
  8
7-0
  6
Continuous
 62
     7
100
AcDbCircle
 10
1062.531481
 20
2569.688137
 30
0.0
 40
30.0
100
AcDbArc
 50
320.805
 51
219.195
  0
ARC
  5
3E5
330
6F
100
AcDbEntity
  8
7-0
  6
Continuous
 62
     7
100
AcDbCircle
 10
1124.531481
 20
2517.131238
 30
0.0
 40
50.0
100
AcDbArc
 50
140.805
 51
180.0
  0
ARC
  5
3E6
330
6F
100
AcDbEntity
  8
7-0
  6
Continuous
 62
     7
100
AcDbCircle
 10
1000.531481
 20
2517.131238
 30
0.0
 40
50.0
100
AcDbArc
 50
0.0
 51
39.195
  0
CIRCLE
  5
3E7
330
6F
100
AcDbEntity
  8
0-1
  6
Continuous
 62
     1
100
AcDbCircle
 10
605.240432
 20
1855.548532
 30
0.0
 40
0.0625
  0
CIRCLE
  5
3E8
330
6F
100
AcDbEntity
  8
0-1
  6
Continuous
 62
     1
100
AcDbCircle
 10
605.240432
 20
1958.05624
 30
0.0
 40
0.0625
  0
CIRCLE
  5
3E9
330
6F
100
AcDbEntity
  8
A-0
  6
Continuous
 62
     4
100
AcDbCircle
 10
1955.060432
 20
1855.578532
 30
0.0
 40
0.0625
  0
CIRCLE
  5
3EA
330
6F
100
AcDbEntity
  8
A-0
  6
Continuous
 62
     4
100
AcDbCircle
 10
1955.060432
 20
1958.077905
 30
0.0
 40
0.0625
  0
CIRCLE
  5
3EB
330
6F
100
AcDbEntity
  8
0-1
  6
Continuous
 62
     1
100
AcDbCircle
 10
1394.060432
 20
1958.077905
 30
0.0
 40
0.0625
  0
CIRCLE
  5
3EC
330
6F
100
AcDbEntity
  8
0-1
  6
Continuous
 62
     1
100
AcDbCircle
 10
730.420432
 20
1958.017905
 30
0.0
 40
0.0625
  0
CIRCLE
  5
3ED
330
6F
100
AcDbEntity
  8
A-0
  6
Continuous
 62
     4
100
AcDbCircle
 10
605.420434
 20
2137.750636
 30
0.0
 40
0.0625
  0
LINE
  5
3EE
330
6F
100
AcDbEntity
  8
0-1
  6
Continuous
 62
     1
100
AcDbLine
 10
534.788143
 20
2317.382534
 30
0.0
 11
534.788143
 21
2272.382534
 31
0.0
  0
CIRCLE
  5
3EF
330
6F
100
AcDbEntity
  8
A-0
  6
Continuous
 62
     4
100
AcDbCircle
 10
605.2104339999999
 20
2642.570636
 30
0.0
 40
0.0625
  0
TEXT
  5
3F0
330
6F
100
AcDbEntity
  8
1-0
 62
     7
100
AcDbText
 10
1141.035
 20
2701.36
 30
0.0
 40
0.207
  1
水栓取付参考位置
100
AcDbText
  0
LINE
  5
3F1
330
6F
100
AcDbEntity
  8
0-1
  6
Continuous
 62
     4
100
AcDbLine
 10
1042.531481
 20
2642.688137
 30
0.0
 11
1007.11369
 21
2642.688137
 31
0.0
  0
LINE
  5
3F2
330
6F
100
AcDbEntity
  8
0-1
  6
Continuous
 62
     4
100
AcDbLine
 10
1042.531481
 20
2569.688137
 30
0.0
 11
1007.11369
 21
2569.688137
 31
0.0
  0
LINE
  5
3F3
330
6F
100
AcDbEntity
  8
0-1
  6
Continuous
 62
     4
100
AcDbLine
 10
1007.11369
 20
2632.688137000001
 30
0.0
 11
1007.11369
 21
2579.688137
 31
0.0
  0
LINE
  5
3F4
330
6F
100
AcDbEntity
  8
0-1
  6
Continuous
 62
     4
100
AcDbLine
 10
1007.11369
 20
2606.188137
 30
0.0
 11
1047.499228
 21
2670.915295
 31
0.0
  0
LINE
  5
3F5
330
6F
100
AcDbEntity
  8
0-1
  6
Continuous
 62
     4
100
AcDbLine
 10
1047.499228
 20
2670.915295
 30
0.0
 11
1047.499228
 21
2730.889914
 31
0.0
  0
TEXT
  5
3F6
330
6F
100
AcDbEntity
  8
0-1
 62
     4
100
AcDbText
 10
1046.879
 20
2678.503
 30
0.0
 40
36.288
  1
73
 50
90.0
100
AcDbText
  0
CIRCLE
  5
3F7
330
6F
100
AcDbEntity
  8
0-1
  6
Continuous
 62
     4
100
AcDbCircle
 10
1007.113689918142
 20
2642.688137274141
 30
0.0
 40
0.25
  0
CIRCLE
  5
3F8
330
6F
100
AcDbEntity
  8
0-1
  6
Continuous
 62
     4
100
AcDbCircle
 10
1007.113689918142
 20
2642.688137274141
 30
0.0
 40
0.1875
  0
CIRCLE
  5
3F9
330
6F
100
AcDbEntity
  8
0-1
  6
Continuous
 62
     4
100
AcDbCircle
 10
1007.113689918142
 20
2642.688137274141
 30
0.0
 40
0.125
  0
CIRCLE
  5
3FA
330
6F
100
AcDbEntity
  8
0-1
  6
Continuous
 62
     4
100
AcDbCircle
 10
1007.113689918142
 20
2642.688137274141
 30
0.0
 40
0.0625
  0
CIRCLE
  5
3FB
330
6F
100
AcDbEntity
  8
0-1
  6
Continuous
 62
     4
100
AcDbCircle
 10
1007.113689918142
 20
2642.688137274141
 30
0.0
 40
0.25
  0
CIRCLE
  5
3FC
330
6F
100
AcDbEntity
  8
0-1
  6
Continuous
 62
     4
100
AcDbCircle
 10
1007.113689918142
 20
2642.688137274141
 30
0.0
 40
0.1875
  0
CIRCLE
  5
3FD
330
6F
100
AcDbEntity
  8
0-1
  6
Continuous
 62
     4
100
AcDbCircle
 10
1007.113689918142
 20
2642.688137274141
 30
0.0
 40
0.125
  0
CIRCLE
  5
3FE
330
6F
100
AcDbEntity
  8
0-1
  6
Continuous
 62
     4
100
AcDbCircle
 10
1007.113689918142
 20
2642.688137274141
 30
0.0
 40
0.0625
  0
CIRCLE
  5
3FF
330
6F
100
AcDbEntity
  8
0-1
  6
Continuous
 62
     4
100
AcDbCircle
 10
1007.113689918142
 20
2569.688137274141
 30
0.0
 40
0.25
  0
CIRCLE
  5
400
330
6F
100
AcDbEntity
  8
0-1
  6
Continuous
 62
     4
100
AcDbCircle
 10
1007.113689918142
 20
2569.688137274141
 30
0.0
 40
0.1875
  0
CIRCLE
  5
401
330
6F
100
AcDbEntity
  8
0-1
  6
Continuous
 62
     4
100
AcDbCircle
 10
1007.113689918142
 20
2569.688137274141
 30
0.0
 40
0.125
  0
CIRCLE
  5
402
330
6F
100
AcDbEntity
  8
0-1
  6
Continuous
 62
     4
100
AcDbCircle
 10
1007.113689918142
 20
2569.688137274141
 30
0.0
 40
0.0625
  0
CIRCLE
  5
403
330
6F
100
AcDbEntity
  8
0-1
  6
Continuous
 62
     4
100
AcDbCircle
 10
1007.113689918142
 20
2569.688137274141
 30
0.0
 40
0.25
  0
CIRCLE
  5
404
330
6F
100
AcDbEntity
  8
0-1
  6
Continuous
 62
     4
100
AcDbCircle
 10
1007.113689918142
 20
2569.688137274141
 30
0.0
 40
0.1875
  0
CIRCLE
  5
405
330
6F
100
AcDbEntity
  8
0-1
  6
Continuous
 62
     4
100
AcDbCircle
 10
1007.113689918142
 20
2569.688137274141
 30
0.0
 40
0.125
  0
CIRCLE
  5
406
330
6F
100
AcDbEntity
  8
0-1
  6
Continuous
 62
     4
100
AcDbCircle
 10
1007.113689918142
 20
2569.688137274141
 30
0.0
 40
0.0625
  0
LINE
  5
407
330
6F
100
AcDbEntity
  8
0-1
  6
Continuous
 62
     4
100
AcDbLine
 10
900.1779279999999
 20
2336.188137
 30
0.0
 11
943.655554
 21
2336.188137
 31
0.0
  0
LINE
  5
408
330
6F
100
AcDbEntity
  8
0-1
  6
Continuous
 62
     4
100
AcDbLine
 10
900.1779279999999
 20
2642.688137
 30
0.0
 11
943.655554
 21
2642.688137
 31
0.0
  0
LINE
  5
409
330
6F
100
AcDbEntity
  8
0-1
  6
Continuous
 62
     4
100
AcDbLine
 10
943.655554
 20
2346.188137
 30
0.0
 11
943.655554
 21
2632.688137000001
 31
0.0
  0
TEXT
  5
40A
330
6F
100
AcDbEntity
  8
0-1
 62
     4
100
AcDbText
 10
942.908
 20
2419.998
 30
0.0
 40
36.288
  1
306.5
 50
90.0
100
AcDbText
  0
CIRCLE
  5
40B
330
6F
100
AcDbEntity
  8
0-1
  6
Continuous
 62
     4
100
AcDbCircle
 10
943.65555379356
 20
2336.18813727414
 30
0.0
 40
0.25
  0
CIRCLE
  5
40C
330
6F
100
AcDbEntity
  8
0-1
  6
Continuous
 62
     4
100
AcDbCircle
 10
943.65555379356
 20
2336.18813727414
 30
0.0
 40
0.1875
  0
CIRCLE
  5
40D
330
6F
100
AcDbEntity
  8
0-1
  6
Continuous
 62
     4
100
AcDbCircle
 10
943.65555379356
 20
2336.18813727414
 30
0.0
 40
0.125
  0
CIRCLE
  5
40E
330
6F
100
AcDbEntity
  8
0-1
  6
Continuous
 62
     4
100
AcDbCircle
 10
943.65555379356
 20
2336.18813727414
 30
0.0
 40
0.0625
  0
CIRCLE
  5
40F
330
6F
100
AcDbEntity
  8
0-1
  6
Continuous
 62
     4
100
AcDbCircle
 10
943.65555379356
 20
2336.18813727414
 30
0.0
 40
0.25
  0
CIRCLE
  5
410
330
6F
100
AcDbEntity
  8
0-1
  6
Continuous
 62
     4
100
AcDbCircle
 10
943.65555379356
 20
2336.18813727414
 30
0.0
 40
0.1875
  0
CIRCLE
  5
411
330
6F
100
AcDbEntity
  8
0-1
  6
Continuous
 62
     4
100
AcDbCircle
 10
943.65555379356
 20
2336.18813727414
 30
0.0
 40
0.125
  0
CIRCLE
  5
412
330
6F
100
AcDbEntity
  8
0-1
  6
Continuous
 62
     4
100
AcDbCircle
 10
943.65555379356
 20
2336.18813727414
 30
0.0
 40
0.0625
  0
CIRCLE
  5
413
330
6F
100
AcDbEntity
  8
0-1
  6
Continuous
 62
     4
100
AcDbCircle
 10
943.65555379356
 20
2642.68813727414
 30
0.0
 40
0.25
  0
CIRCLE
  5
414
330
6F
100
AcDbEntity
  8
0-1
  6
Continuous
 62
     4
100
AcDbCircle
 10
943.65555379356
 20
2642.68813727414
 30
0.0
 40
0.1875
  0
CIRCLE
  5
415
330
6F
100
AcDbEntity
  8
0-1
  6
Continuous
 62
     4
100
AcDbCircle
 10
943.65555379356
 20
2642.68813727414
 30
0.0
 40
0.125
  0
CIRCLE
  5
416
330
6F
100
AcDbEntity
  8
0-1
  6
Continuous
 62
     4
100
AcDbCircle
 10
943.65555379356
 20
2642.68813727414
 30
0.0
 40
0.0625
  0
CIRCLE
  5
417
330
6F
100
AcDbEntity
  8
0-1
  6
Continuous
 62
     4
100
AcDbCircle
 10
943.65555379356
 20
2642.68813727414
 30
0.0
 40
0.25
  0
CIRCLE
  5
418
330
6F
100
AcDbEntity
  8
0-1
  6
Continuous
 62
     4
100
AcDbCircle
 10
943.65555379356
 20
2642.68813727414
 30
0.0
 40
0.1875
  0
CIRCLE
  5
419
330
6F
100
AcDbEntity
  8
0-1
  6
Continuous
 62
     4
100
AcDbCircle
 10
943.65555379356
 20
2642.68813727414
 30
0.0
 40
0.125
  0
CIRCLE
  5
41A
330
6F
100
AcDbEntity
  8
0-1
  6
Continuous
 62
     4
100
AcDbCircle
 10
943.65555379356
 20
2642.68813727414
 30
0.0
 40
0.0625
  0
TEXT
  5
41B
330
6F
100
AcDbEntity
  8
3-1
 62
     5
100
AcDbText
 10
1150.155
 20
2710.151
 30
0.0
 40
25.92
  1
水栓取付参考位置
100
AcDbText
  0
LINE
  5
41C
330
6F
100
AcDbEntity
  8
0-1
  6
Continuous
 62
     4
100
AcDbLine
 10
605.1779279999999
 20
2662.517254
 30
0.0
 11
605.1779279999999
 21
2707.222847
 31
0.0
  0
LINE
  5
41D
330
6F
100
AcDbEntity
  8
0-1
  6
Continuous
 62
     4
100
AcDbLine
 10
880.1779279999999
 20
2662.688137
 30
0.0
 11
880.1779279999999
 21
2707.222847
 31
0.0
  0
TEXT
  5
41E
330
6F
100
AcDbEntity
  8
0-1
 62
     4
100
AcDbText
 10
711.8999999999999
 20
2707.843
 30
0.0
 40
36.288
  1
275
100
AcDbText
  0
LINE
  5
41F
330
6F
100
AcDbEntity
  8
0-1
  6
Continuous
 62
     4
100
AcDbLine
 10
880.1779276689101
 20
2707.222846933426
 30
0.0
 11
605.1779276689099
 21
2707.222846933426
 31
0.0
  0
CIRCLE
  5
420
330
6F
100
AcDbEntity
  8
0-1
  6
Continuous
 62
     4
100
AcDbCircle
 10
880.1779276689101
 20
2707.222846933426
 30
0.0
 40
0.25
  0
CIRCLE
  5
421
330
6F
100
AcDbEntity
  8
0-1
  6
Continuous
 62
     4
100
AcDbCircle
 10
880.1779276689101
 20
2707.222846933426
 30
0.0
 40
0.1875
  0
CIRCLE
  5
422
330
6F
100
AcDbEntity
  8
0-1
  6
Continuous
 62
     4
100
AcDbCircle
 10
880.1779276689101
 20
2707.222846933426
 30
0.0
 40
0.125
  0
CIRCLE
  5
423
330
6F
100
AcDbEntity
  8
0-1
  6
Continuous
 62
     4
100
AcDbCircle
 10
880.1779276689101
 20
2707.222846933426
 30
0.0
 40
0.0625
  0
CIRCLE
  5
424
330
6F
100
AcDbEntity
  8
0-1
  6
Continuous
 62
     4
100
AcDbCircle
 10
605.1779276689099
 20
2707.222846933426
 30
0.0
 40
0.25
  0
CIRCLE
  5
425
330
6F
100
AcDbEntity
  8
0-1
  6
Continuous
 62
     4
100
AcDbCircle
 10
605.1779276689099
 20
2707.222846933426
 30
0.0
 40
0.1875
  0
CIRCLE
  5
426
330
6F
100
AcDbEntity
  8
0-1
  6
Continuous
 62
     4
100
AcDbCircle
 10
605.1779276689099
 20
2707.222846933426
 30
0.0
 40
0.125
  0
CIRCLE
  5
427
330
6F
100
AcDbEntity
  8
0-1
  6
Continuous
 62
     4
100
AcDbCircle
 10
605.1779276689099
 20
2707.222846933426
 30
0.0
 40
0.0625
  0
LINE
  5
428
330
6F
100
AcDbEntity
  8
0-1
  6
Continuous
 62
     4
100
AcDbLine
 10
585.240816
 20
2092.688137
 30
0.0
 11
534.788142
 21
2092.688137
 31
0.0
  0
LINE
  5
429
330
6F
100
AcDbEntity
  8
0-1
  6
Continuous
 62
     4
100
AcDbLine
 10
585.240816
 20
2137.688137
 30
0.0
 11
534.788142
 21
2137.688137
 31
0.0
  0
LINE
  5
42A
330
6F
100
AcDbEntity
  8
0-1
  6
Continuous
 62
     4
100
AcDbLine
 10
534.788142
 20
2102.688137
 30
0.0
 11
534.788142
 21
2127.688137
 31
0.0
  0
TEXT
  5
42B
330
6F
100
AcDbEntity
  8
0-1
 62
     4
100
AcDbText
 10
527.702
 20
2094.412
 30
0.0
 40
36.288
  1
45
 50
90.0
100
AcDbText
  0
CIRCLE
  5
42C
330
6F
100
AcDbEntity
  8
0-1
  6
Continuous
 62
     4
100
AcDbCircle
 10
534.78814166891
 20
2092.68813727414
 30
0.0
 40
0.25
  0
CIRCLE
  5
42D
330
6F
100
AcDbEntity
  8
0-1
  6
Continuous
 62
     4
100
AcDbCircle
 10
534.78814166891
 20
2092.68813727414
 30
0.0
 40
0.1875
  0
CIRCLE
  5
42E
330
6F
100
AcDbEntity
  8
0-1
  6
Continuous
 62
     4
100
AcDbCircle
 10
534.78814166891
 20
2092.68813727414
 30
0.0
 40
0.125
  0
CIRCLE
  5
42F
330
6F
100
AcDbEntity
  8
0-1
  6
Continuous
 62
     4
100
AcDbCircle
 10
534.78814166891
 20
2092.68813727414
 30
0.0
 40
0.0625
  0
CIRCLE
  5
430
330
6F
100
AcDbEntity
  8
0-1
  6
Continuous
 62
     4
100
AcDbCircle
 10
534.78814166891
 20
2092.68813727414
 30
0.0
 40
0.25
  0
CIRCLE
  5
431
330
6F
100
AcDbEntity
  8
0-1
  6
Continuous
 62
     4
100
AcDbCircle
 10
534.78814166891
 20
2092.68813727414
 30
0.0
 40
0.1875
  0
CIRCLE
  5
432
330
6F
100
AcDbEntity
  8
0-1
  6
Continuous
 62
     4
100
AcDbCircle
 10
534.78814166891
 20
2092.68813727414
 30
0.0
 40
0.125
  0
CIRCLE
  5
433
330
6F
100
AcDbEntity
  8
0-1
  6
Continuous
 62
     4
100
AcDbCircle
 10
534.78814166891
 20
2092.68813727414
 30
0.0
 40
0.0625
  0
CIRCLE
  5
434
330
6F
100
AcDbEntity
  8
0-1
  6
Continuous
 62
     4
100
AcDbCircle
 10
534.78814166891
 20
2137.68813727414
 30
0.0
 40
0.25
  0
CIRCLE
  5
435
330
6F
100
AcDbEntity
  8
0-1
  6
Continuous
 62
     4
100
AcDbCircle
 10
534.78814166891
 20
2137.68813727414
 30
0.0
 40
0.1875
  0
CIRCLE
  5
436
330
6F
100
AcDbEntity
  8
0-1
  6
Continuous
 62
     4
100
AcDbCircle
 10
534.78814166891
 20
2137.68813727414
 30
0.0
 40
0.125
  0
CIRCLE
  5
437
330
6F
100
AcDbEntity
  8
0-1
  6
Continuous
 62
     4
100
AcDbCircle
 10
534.78814166891
 20
2137.68813727414
 30
0.0
 40
0.0625
  0
CIRCLE
  5
438
330
6F
100
AcDbEntity
  8
0-1
  6
Continuous
 62
     4
100
AcDbCircle
 10
534.78814166891
 20
2137.68813727414
 30
0.0
 40
0.25
  0
CIRCLE
  5
439
330
6F
100
AcDbEntity
  8
0-1
  6
Continuous
 62
     4
100
AcDbCircle
 10
534.78814166891
 20
2137.68813727414
 30
0.0
 40
0.1875
  0
CIRCLE
  5
43A
330
6F
100
AcDbEntity
  8
0-1
  6
Continuous
 62
     4
100
AcDbCircle
 10
534.78814166891
 20
2137.68813727414
 30
0.0
 40
0.125
  0
CIRCLE
  5
43B
330
6F
100
AcDbEntity
  8
0-1
  6
Continuous
 62
     4
100
AcDbCircle
 10
534.78814166891
 20
2137.68813727414
 30
0.0
 40
0.0625
  0
LINE
  5
43C
330
6F
100
AcDbEntity
  8
0-1
  6
Continuous
 62
     4
100
AcDbLine
 10
585.240816
 20
2137.688137
 30
0.0
 11
534.788142
 21
2137.688137
 31
0.0
  0
LINE
  5
43D
330
6F
100
AcDbEntity
  8
0-1
  6
Continuous
 62
     4
100
AcDbLine
 10
585.1779279999999
 20
2534.688137
 30
0.0
 11
534.788142
 21
2534.688137
 31
0.0
  0
TEXT
  5
43E
330
6F
100
AcDbEntity
  8
0-1
 62
     4
100
AcDbText
 10
534.168
 20
2302.588
 30
0.0
 40
36.288
  1
397
 50
90.0
100
AcDbText
  0
LINE
  5
43F
330
6F
100
AcDbEntity
  8
0-1
  6
Continuous
 62
     4
100
AcDbLine
 10
534.78814166891
 20
2534.68813727414
 30
0.0
 11
534.78814166891
 21
2137.68813727414
 31
0.0
  0
CIRCLE
  5
440
330
6F
100
AcDbEntity
  8
0-1
  6
Continuous
 62
     4
100
AcDbCircle
 10
534.78814166891
 20
2534.68813727414
 30
0.0
 40
0.25
  0
CIRCLE
  5
441
330
6F
100
AcDbEntity
  8
0-1
  6
Continuous
 62
     4
100
AcDbCircle
 10
534.78814166891
 20
2534.68813727414
 30
0.0
 40
0.1875
  0
CIRCLE
  5
442
330
6F
100
AcDbEntity
  8
0-1
  6
Continuous
 62
     4
100
AcDbCircle
 10
534.78814166891
 20
2534.68813727414
 30
0.0
 40
0.125
  0
CIRCLE
  5
443
330
6F
100
AcDbEntity
  8
0-1
  6
Continuous
 62
     4
100
AcDbCircle
 10
534.78814166891
 20
2534.68813727414
 30
0.0
 40
0.0625
  0
CIRCLE
  5
444
330
6F
100
AcDbEntity
  8
0-1
  6
Continuous
 62
     4
100
AcDbCircle
 10
534.78814166891
 20
2137.68813727414
 30
0.0
 40
0.25
  0
CIRCLE
  5
445
330
6F
100
AcDbEntity
  8
0-1
  6
Continuous
 62
     4
100
AcDbCircle
 10
534.78814166891
 20
2137.68813727414
 30
0.0
 40
0.1875
  0
CIRCLE
  5
446
330
6F
100
AcDbEntity
  8
0-1
  6
Continuous
 62
     4
100
AcDbCircle
 10
534.78814166891
 20
2137.68813727414
 30
0.0
 40
0.125
  0
CIRCLE
  5
447
330
6F
100
AcDbEntity
  8
0-1
  6
Continuous
 62
     4
100
AcDbCircle
 10
534.78814166891
 20
2137.68813727414
 30
0.0
 40
0.0625
  0
LINE
  5
448
330
6F
100
AcDbEntity
  8
0-1
  6
Continuous
 62
     4
100
AcDbLine
 10
585.1779279999999
 20
2534.688137
 30
0.0
 11
534.788142
 21
2534.688137
 31
0.0
  0
LINE
  5
449
330
6F
100
AcDbEntity
  8
0-1
  6
Continuous
 62
     4
100
AcDbLine
 10
585.1779279999999
 20
2617.688137
 30
0.0
 11
534.788142
 21
2617.688137
 31
0.0
  0
TEXT
  5
44A
330
6F
100
AcDbEntity
  8
0-1
 62
     4
100
AcDbText
 10
534.168
 20
2553.788
 30
0.0
 40
36.288
  1
83
 50
90.0
100
AcDbText
  0
LINE
  5
44B
330
6F
100
AcDbEntity
  8
0-1
  6
Continuous
 62
     4
100
AcDbLine
 10
534.78814166891
 20
2617.68813727414
 30
0.0
 11
534.78814166891
 21
2534.68813727414
 31
0.0
  0
CIRCLE
  5
44C
330
6F
100
AcDbEntity
  8
0-1
  6
Continuous
 62
     4
100
AcDbCircle
 10
534.78814166891
 20
2617.68813727414
 30
0.0
 40
0.25
  0
CIRCLE
  5
44D
330
6F
100
AcDbEntity
  8
0-1
  6
Continuous
 62
     4
100
AcDbCircle
 10
534.78814166891
 20
2617.68813727414
 30
0.0
 40
0.1875
  0
CIRCLE
  5
44E
330
6F
100
AcDbEntity
  8
0-1
  6
Continuous
 62
     4
100
AcDbCircle
 10
534.78814166891
 20
2617.68813727414
 30
0.0
 40
0.125
  0
CIRCLE
  5
44F
330
6F
100
AcDbEntity
  8
0-1
  6
Continuous
 62
     4
100
AcDbCircle
 10
534.78814166891
 20
2617.68813727414
 30
0.0
 40
0.0625
  0
CIRCLE
  5
450
330
6F
100
AcDbEntity
  8
0-1
  6
Continuous
 62
     4
100
AcDbCircle
 10
534.78814166891
 20
2534.68813727414
 30
0.0
 40
0.25
  0
CIRCLE
  5
451
330
6F
100
AcDbEntity
  8
0-1
  6
Continuous
 62
     4
100
AcDbCircle
 10
534.78814166891
 20
2534.68813727414
 30
0.0
 40
0.1875
  0
CIRCLE
  5
452
330
6F
100
AcDbEntity
  8
0-1
  6
Continuous
 62
     4
100
AcDbCircle
 10
534.78814166891
 20
2534.68813727414
 30
0.0
 40
0.125
  0
CIRCLE
  5
453
330
6F
100
AcDbEntity
  8
0-1
  6
Continuous
 62
     4
100
AcDbCircle
 10
534.78814166891
 20
2534.68813727414
 30
0.0
 40
0.0625
  0
LINE
  5
454
330
6F
100
AcDbEntity
  8
0-1
  6
Continuous
 62
     4
100
AcDbLine
 10
585.1779279999999
 20
2617.688137
 30
0.0
 11
534.788142
 21
2617.688137
 31
0.0
  0
LINE
  5
455
330
6F
100
AcDbEntity
  8
0-1
  6
Continuous
 62
     4
100
AcDbLine
 10
575.177928
 20
2642.688137
 30
0.0
 11
534.788142
 21
2642.688137
 31
0.0
  0
TEXT
  5
456
330
6F
100
AcDbEntity
  8
0-1
 62
     4
100
AcDbText
 10
501.668
 20
2647.881
 30
0.0
 40
36.288
  1
25
 50
90.0
100
AcDbText
  0
LINE
  5
457
330
6F
100
AcDbEntity
  8
0-1
  6
Continuous
 62
     4
100
AcDbLine
 10
534.78814166891
 20
2642.68813727414
 30
0.0
 11
534.78814166891
 21
2617.68813727414
 31
0.0
  0
CIRCLE
  5
458
330
6F
100
AcDbEntity
  8
0-1
  6
Continuous
 62
     4
100
AcDbCircle
 10
534.78814166891
 20
2642.68813727414
 30
0.0
 40
0.25
  0
CIRCLE
  5
459
330
6F
100
AcDbEntity
  8
0-1
  6
Continuous
 62
     4
100
AcDbCircle
 10
534.78814166891
 20
2642.68813727414
 30
0.0
 40
0.1875
  0
CIRCLE
  5
45A
330
6F
100
AcDbEntity
  8
0-1
  6
Continuous
 62
     4
100
AcDbCircle
 10
534.78814166891
 20
2642.68813727414
 30
0.0
 40
0.125
  0
CIRCLE
  5
45B
330
6F
100
AcDbEntity
  8
0-1
  6
Continuous
 62
     4
100
AcDbCircle
 10
534.78814166891
 20
2642.68813727414
 30
0.0
 40
0.0625
  0
CIRCLE
  5
45C
330
6F
100
AcDbEntity
  8
0-1
  6
Continuous
 62
     4
100
AcDbCircle
 10
534.78814166891
 20
2617.68813727414
 30
0.0
 40
0.25
  0
CIRCLE
  5
45D
330
6F
100
AcDbEntity
  8
0-1
  6
Continuous
 62
     4
100
AcDbCircle
 10
534.78814166891
 20
2617.68813727414
 30
0.0
 40
0.1875
  0
CIRCLE
  5
45E
330
6F
100
AcDbEntity
  8
0-1
  6
Continuous
 62
     4
100
AcDbCircle
 10
534.78814166891
 20
2617.68813727414
 30
0.0
 40
0.125
  0
CIRCLE
  5
45F
330
6F
100
AcDbEntity
  8
0-1
  6
Continuous
 62
     4
100
AcDbCircle
 10
534.78814166891
 20
2617.68813727414
 30
0.0
 40
0.0625
  0
LINE
  5
460
330
6F
100
AcDbEntity
  8
0-1
  6
Continuous
 62
     4
100
AcDbLine
 10
565.240816
 20
2092.688137
 30
0.0
 11
440.33676
 21
2092.688137
 31
0.0
  0
LINE
  5
461
330
6F
100
AcDbEntity
  8
0-1
  6
Continuous
 62
     4
100
AcDbLine
 10
565.1779279999999
 20
2642.688137
 30
0.0
 11
440.33676
 21
2642.688137
 31
0.0
  0
TEXT
  5
462
330
6F
100
AcDbEntity
  8
0-1
 62
     4
100
AcDbText
 10
439.717
 20
2334.088
 30
0.0
 40
36.288
  1
550
 50
90.0
100
AcDbText
  0
LINE
  5
463
330
6F
100
AcDbEntity
  8
0-1
  6
Continuous
 62
     4
100
AcDbLine
 10
440.336760272078
 20
2642.68813727414
 30
0.0
 11
440.336760272078
 21
2092.68813727414
 31
0.0
  0
CIRCLE
  5
464
330
6F
100
AcDbEntity
  8
0-1
  6
Continuous
 62
     4
100
AcDbCircle
 10
440.336760272078
 20
2642.68813727414
 30
0.0
 40
0.25
  0
CIRCLE
  5
465
330
6F
100
AcDbEntity
  8
0-1
  6
Continuous
 62
     4
100
AcDbCircle
 10
440.336760272078
 20
2642.68813727414
 30
0.0
 40
0.1875
  0
CIRCLE
  5
466
330
6F
100
AcDbEntity
  8
0-1
  6
Continuous
 62
     4
100
AcDbCircle
 10
440.336760272078
 20
2642.68813727414
 30
0.0
 40
0.125
  0
CIRCLE
  5
467
330
6F
100
AcDbEntity
  8
0-1
  6
Continuous
 62
     4
100
AcDbCircle
 10
440.336760272078
 20
2642.68813727414
 30
0.0
 40
0.0625
  0
CIRCLE
  5
468
330
6F
100
AcDbEntity
  8
0-1
  6
Continuous
 62
     4
100
AcDbCircle
 10
440.336760272078
 20
2092.68813727414
 30
0.0
 40
0.25
  0
CIRCLE
  5
469
330
6F
100
AcDbEntity
  8
0-1
  6
Continuous
 62
     4
100
AcDbCircle
 10
440.336760272078
 20
2092.68813727414
 30
0.0
 40
0.1875
  0
CIRCLE
  5
46A
330
6F
100
AcDbEntity
  8
0-1
  6
Continuous
 62
     4
100
AcDbCircle
 10
440.336760272078
 20
2092.68813727414
 30
0.0
 40
0.125
  0
CIRCLE
  5
46B
330
6F
100
AcDbEntity
  8
0-1
  6
Continuous
 62
     4
100
AcDbCircle
 10
440.336760272078
 20
2092.68813727414
 30
0.0
 40
0.0625
  0
LINE
  5
46C
330
6F
100
AcDbEntity
  8
0-1
  6
Continuous
 62
     4
100
AcDbLine
 10
605.1779279999999
 20
2072.688137
 30
0.0
 11
605.1779279999999
 21
1957.993741
 31
0.0
  0
LINE
  5
46D
330
6F
100
AcDbEntity
  8
0-1
  6
Continuous
 62
     4
100
AcDbLine
 10
730.1779279999999
 20
2072.750636
 30
0.0
 11
730.1779279999999
 21
1957.993741
 31
0.0
  0
LINE
  5
46E
330
6F
100
AcDbEntity
  8
0-1
  6
Continuous
 62
     4
100
AcDbLine
 10
615.1779279999999
 20
1957.993741
 30
0.0
 11
720.1779279999999
 21
1957.993741
 31
0.0
  0
TEXT
  5
46F
330
6F
100
AcDbEntity
  8
0-1
 62
     4
100
AcDbText
 10
638.699
 20
1959.236
 30
0.0
 40
36.288
  1
125
100
AcDbText
  0
CIRCLE
  5
470
330
6F
100
AcDbEntity
  8
0-1
  6
Continuous
 62
     4
100
AcDbCircle
 10
605.1779276689099
 20
1957.993740975386
 30
0.0
 40
0.25
  0
CIRCLE
  5
471
330
6F
100
AcDbEntity
  8
0-1
  6
Continuous
 62
     4
100
AcDbCircle
 10
605.1779276689099
 20
1957.993740975386
 30
0.0
 40
0.1875
  0
CIRCLE
  5
472
330
6F
100
AcDbEntity
  8
0-1
  6
Continuous
 62
     4
100
AcDbCircle
 10
605.1779276689099
 20
1957.993740975386
 30
0.0
 40
0.125
  0
CIRCLE
  5
473
330
6F
100
AcDbEntity
  8
0-1
  6
Continuous
 62
     4
100
AcDbCircle
 10
605.1779276689099
 20
1957.993740975386
 30
0.0
 40
0.0625
  0
CIRCLE
  5
474
330
6F
100
AcDbEntity
  8
0-1
  6
Continuous
 62
     4
100
AcDbCircle
 10
605.1779276689099
 20
1957.993740975386
 30
0.0
 40
0.25
  0
CIRCLE
  5
475
330
6F
100
AcDbEntity
  8
0-1
  6
Continuous
 62
     4
100
AcDbCircle
 10
605.1779276689099
 20
1957.993740975386
 30
0.0
 40
0.1875
  0
CIRCLE
  5
476
330
6F
100
AcDbEntity
  8
0-1
  6
Continuous
 62
     4
100
AcDbCircle
 10
605.1779276689099
 20
1957.993740975386
 30
0.0
 40
0.125
  0
CIRCLE
  5
477
330
6F
100
AcDbEntity
  8
0-1
  6
Continuous
 62
     4
100
AcDbCircle
 10
605.1779276689099
 20
1957.993740975386
 30
0.0
 40
0.0625
  0
CIRCLE
  5
478
330
6F
100
AcDbEntity
  8
0-1
  6
Continuous
 62
     4
100
AcDbCircle
 10
730.1779276689101
 20
1957.993740975386
 30
0.0
 40
0.25
  0
CIRCLE
  5
479
330
6F
100
AcDbEntity
  8
0-1
  6
Continuous
 62
     4
100
AcDbCircle
 10
730.1779276689101
 20
1957.993740975386
 30
0.0
 40
0.1875
  0
CIRCLE
  5
47A
330
6F
100
AcDbEntity
  8
0-1
  6
Continuous
 62
     4
100
AcDbCircle
 10
730.1779276689101
 20
1957.993740975386
 30
0.0
 40
0.125
  0
CIRCLE
  5
47B
330
6F
100
AcDbEntity
  8
0-1
  6
Continuous
 62
     4
100
AcDbCircle
 10
730.1779276689101
 20
1957.993740975386
 30
0.0
 40
0.0625
  0
CIRCLE
  5
47C
330
6F
100
AcDbEntity
  8
0-1
  6
Continuous
 62
     4
100
AcDbCircle
 10
730.1779276689101
 20
1957.993740975386
 30
0.0
 40
0.25
  0
CIRCLE
  5
47D
330
6F
100
AcDbEntity
  8
0-1
  6
Continuous
 62
     4
100
AcDbCircle
 10
730.1779276689101
 20
1957.993740975386
 30
0.0
 40
0.1875
  0
CIRCLE
  5
47E
330
6F
100
AcDbEntity
  8
0-1
  6
Continuous
 62
     4
100
AcDbCircle
 10
730.1779276689101
 20
1957.993740975386
 30
0.0
 40
0.125
  0
CIRCLE
  5
47F
330
6F
100
AcDbEntity
  8
0-1
  6
Continuous
 62
     4
100
AcDbCircle
 10
730.1779276689101
 20
1957.993740975386
 30
0.0
 40
0.0625
  0
LINE
  5
480
330
6F
100
AcDbEntity
  8
0-1
  6
Continuous
 62
     4
100
AcDbLine
 10
730.1779279999999
 20
2072.750636
 30
0.0
 11
730.1779279999999
 21
1957.993741
 31
0.0
  0
LINE
  5
481
330
6F
100
AcDbEntity
  8
0-1
  6
Continuous
 62
     4
100
AcDbLine
 10
1394.177928
 20
2072.688137
 30
0.0
 11
1394.177928
 21
1957.993741
 31
0.0
  0
TEXT
  5
482
330
6F
100
AcDbEntity
  8
0-1
 62
     4
100
AcDbText
 10
1031.4
 20
1958.614
 30
0.0
 40
36.288
  1
664
100
AcDbText
  0
LINE
  5
483
330
6F
100
AcDbEntity
  8
0-1
  6
Continuous
 62
     4
100
AcDbLine
 10
1394.17792766891
 20
1957.993740975386
 30
0.0
 11
730.1779276689101
 21
1957.993740975386
 31
0.0
  0
CIRCLE
  5
484
330
6F
100
AcDbEntity
  8
0-1
  6
Continuous
 62
     4
100
AcDbCircle
 10
1394.17792766891
 20
1957.993740975386
 30
0.0
 40
0.25
  0
CIRCLE
  5
485
330
6F
100
AcDbEntity
  8
0-1
  6
Continuous
 62
     4
100
AcDbCircle
 10
1394.17792766891
 20
1957.993740975386
 30
0.0
 40
0.1875
  0
CIRCLE
  5
486
330
6F
100
AcDbEntity
  8
0-1
  6
Continuous
 62
     4
100
AcDbCircle
 10
1394.17792766891
 20
1957.993740975386
 30
0.0
 40
0.125
  0
CIRCLE
  5
487
330
6F
100
AcDbEntity
  8
0-1
  6
Continuous
 62
     4
100
AcDbCircle
 10
1394.17792766891
 20
1957.993740975386
 30
0.0
 40
0.0625
  0
CIRCLE
  5
488
330
6F
100
AcDbEntity
  8
0-1
  6
Continuous
 62
     4
100
AcDbCircle
 10
730.1779276689101
 20
1957.993740975386
 30
0.0
 40
0.25
  0
CIRCLE
  5
489
330
6F
100
AcDbEntity
  8
0-1
  6
Continuous
 62
     4
100
AcDbCircle
 10
730.1779276689101
 20
1957.993740975386
 30
0.0
 40
0.1875
  0
CIRCLE
  5
48A
330
6F
100
AcDbEntity
  8
0-1
  6
Continuous
 62
     4
100
AcDbCircle
 10
730.1779276689101
 20
1957.993740975386
 30
0.0
 40
0.125
  0
CIRCLE
  5
48B
330
6F
100
AcDbEntity
  8
0-1
  6
Continuous
 62
     4
100
AcDbCircle
 10
730.1779276689101
 20
1957.993740975386
 30
0.0
 40
0.0625
  0
LINE
  5
48C
330
6F
100
AcDbEntity
  8
0-1
  6
Continuous
 62
     4
100
AcDbLine
 10
1394.177928
 20
2072.688137
 30
0.0
 11
1394.177928
 21
1957.993741
 31
0.0
  0
LINE
  5
48D
330
6F
100
AcDbEntity
  8
0-1
  6
Continuous
 62
     4
100
AcDbLine
 10
1955.177928
 20
2072.688137
 30
0.0
 11
1955.177928
 21
1957.993741
 31
0.0
  0
TEXT
  5
48E
330
6F
100
AcDbEntity
  8
0-1
 62
     4
100
AcDbText
 10
1643.9
 20
1958.614
 30
0.0
 40
36.288
  1
561
100
AcDbText
  0
LINE
  5
48F
330
6F
100
AcDbEntity
  8
0-1
  6
Continuous
 62
     4
100
AcDbLine
 10
1955.17792766891
 20
1957.993740975386
 30
0.0
 11
1394.17792766891
 21
1957.993740975386
 31
0.0
  0
CIRCLE
  5
490
330
6F
100
AcDbEntity
  8
0-1
  6
Continuous
 62
     4
100
AcDbCircle
 10
1955.17792766891
 20
1957.993740975386
 30
0.0
 40
0.25
  0
CIRCLE
  5
491
330
6F
100
AcDbEntity
  8
0-1
  6
Continuous
 62
     4
100
AcDbCircle
 10
1955.17792766891
 20
1957.993740975386
 30
0.0
 40
0.1875
  0
CIRCLE
  5
492
330
6F
100
AcDbEntity
  8
0-1
  6
Continuous
 62
     4
100
AcDbCircle
 10
1955.17792766891
 20
1957.993740975386
 30
0.0
 40
0.125
  0
CIRCLE
  5
493
330
6F
100
AcDbEntity
  8
0-1
  6
Continuous
 62
     4
100
AcDbCircle
 10
1955.17792766891
 20
1957.993740975386
 30
0.0
 40
0.0625
  0
CIRCLE
  5
494
330
6F
100
AcDbEntity
  8
0-1
  6
Continuous
 62
     4
100
AcDbCircle
 10
1394.17792766891
 20
1957.993740975386
 30
0.0
 40
0.25
  0
CIRCLE
  5
495
330
6F
100
AcDbEntity
  8
0-1
  6
Continuous
 62
     4
100
AcDbCircle
 10
1394.17792766891
 20
1957.993740975386
 30
0.0
 40
0.1875
  0
CIRCLE
  5
496
330
6F
100
AcDbEntity
  8
0-1
  6
Continuous
 62
     4
100
AcDbCircle
 10
1394.17792766891
 20
1957.993740975386
 30
0.0
 40
0.125
  0
CIRCLE
  5
497
330
6F
100
AcDbEntity
  8
0-1
  6
Continuous
 62
     4
100
AcDbCircle
 10
1394.17792766891
 20
1957.993740975386
 30
0.0
 40
0.0625
  0
LINE
  5
498
330
6F
100
AcDbEntity
  8
6-0
  6
Continuous
 62
     7
100
AcDbLine
 10
1062.531481
 20
2569.688137
 30
0.0
 11
1064.609794
 21
2580.598929000001
 31
0.0
  0
LINE
  5
499
330
6F
100
AcDbEntity
  8
0-1
  6
Continuous
 62
     4
100
AcDbLine
 10
605.1779279999999
 20
2072.688137
 30
0.0
 11
605.1779279999999
 21
1855.641032
 31
0.0
  0
LINE
  5
49A
330
6F
100
AcDbEntity
  8
0-1
  6
Continuous
 62
     4
100
AcDbLine
 10
1955.177928
 20
2072.688137
 30
0.0
 11
1955.177928
 21
1855.641032
 31
0.0
  0
TEXT
  5
49B
330
6F
100
AcDbEntity
  8
0-1
 62
     4
100
AcDbText
 10
1238.2
 20
1856.261
 30
0.0
 40
36.288
  1
1350
100
AcDbText
  0
LINE
  5
49C
330
6F
100
AcDbEntity
  8
0-1
  6
Continuous
 62
     4
100
AcDbLine
 10
1955.17792766891
 20
1855.641031930771
 30
0.0
 11
605.1779276689099
 21
1855.641031930771
 31
0.0
  0
CIRCLE
  5
49D
330
6F
100
AcDbEntity
  8
0-1
  6
Continuous
 62
     4
100
AcDbCircle
 10
1955.17792766891
 20
1855.641031930771
 30
0.0
 40
0.25
  0
CIRCLE
  5
49E
330
6F
100
AcDbEntity
  8
0-1
  6
Continuous
 62
     4
100
AcDbCircle
 10
1955.17792766891
 20
1855.641031930771
 30
0.0
 40
0.1875
  0
CIRCLE
  5
49F
330
6F
100
AcDbEntity
  8
0-1
  6
Continuous
 62
     4
100
AcDbCircle
 10
1955.17792766891
 20
1855.641031930771
 30
0.0
 40
0.125
  0
CIRCLE
  5
4A0
330
6F
100
AcDbEntity
  8
0-1
  6
Continuous
 62
     4
100
AcDbCircle
 10
1955.17792766891
 20
1855.641031930771
 30
0.0
 40
0.0625
  0
CIRCLE
  5
4A1
330
6F
100
AcDbEntity
  8
0-1
  6
Continuous
 62
     4
100
AcDbCircle
 10
605.1779276689099
 20
1855.641031930771
 30
0.0
 40
0.25
  0
CIRCLE
  5
4A2
330
6F
100
AcDbEntity
  8
0-1
  6
Continuous
 62
     4
100
AcDbCircle
 10
605.1779276689099
 20
1855.641031930771
 30
0.0
 40
0.1875
  0
CIRCLE
  5
4A3
330
6F
100
AcDbEntity
  8
0-1
  6
Continuous
 62
     4
100
AcDbCircle
 10
605.1779276689099
 20
1855.641031930771
 30
0.0
 40
0.125
  0
CIRCLE
  5
4A4
330
6F
100
AcDbEntity
  8
0-1
  6
Continuous
 62
     4
100
AcDbCircle
 10
605.1779276689099
 20
1855.641031930771
 30
0.0
 40
0.0625
  0
LINE
  5
4A5
330
6F
100
AcDbEntity
  8
1-1
  6
CENTER
 62
     6
100
AcDbLine
 10
880.1779279999999
 20
1265.36111
 30
0.0
 11
880.1779279999999
 21
527.397831
 31
0.0
  0
LINE
  5
4A6
330
6F
100
AcDbEntity
  8
9-0
  6
DASHED2
 62
     7
100
AcDbLine
 10
816.677928
 20
819.4345479999999
 30
0.0
 11
1060.677928
 21
819.4345479999999
 31
0.0
  0
LINE
  5
4A7
330
6F
100
AcDbEntity
  8
9-0
  6
DASHED2
 62
     7
100
AcDbLine
 10
808.677928
 20
827.4345479999999
 30
0.0
 11
808.677928
 21
1049.434548
 31
0.0
  0
LINE
  5
4A8
330
6F
100
AcDbEntity
  8
9-0
  6
DASHED2
 62
     7
100
AcDbLine
 10
1068.677928
 20
1049.434548
 30
0.0
 11
1068.677928
 21
827.4345479999999
 31
0.0
  0
ARC
  5
4A9
330
6F
100
AcDbEntity
  8
9-0
  6
DASHED2
 62
     7
100
AcDbCircle
 10
816.677928
 20
827.4345479999999
 30
0.0
 40
8.0
100
AcDbArc
 50
180.0
 51
270.0
  0
ARC
  5
4AA
330
6F
100
AcDbEntity
  8
9-0
  6
DASHED2
 62
     7
100
AcDbCircle
 10
1060.677928
 20
827.4345479999999
 30
0.0
 40
8.0
100
AcDbArc
 50
270.0
 51
0.0
  0
ARC
  5
4AB
330
6F
100
AcDbEntity
  8
9-0
  6
Continuous
 62
     7
100
AcDbCircle
 10
1067.677928
 20
1048.434548
 30
0.0
 40
1.0
100
AcDbArc
 50
0.0
 51
90.0
  0
ARC
  5
4AC
330
6F
100
AcDbEntity
  8
9-0
  6
Continuous
 62
     7
100
AcDbCircle
 10
945.177928
 20
993.4345479999999
 30
0.0
 40
1.0
100
AcDbArc
 50
0.0
 51
90.0
  0
ARC
  5
4AD
330
6F
100
AcDbEntity
  8
9-0
  6
Continuous
 62
     7
100
AcDbCircle
 10
974.677928
 20
993.4345479999999
 30
0.0
 40
1.0
100
AcDbArc
 50
90.0
 51
180.0
  0
ARC
  5
4AE
330
6F
100
AcDbEntity
  8
9-0
  6
DASHED2
 62
     7
100
AcDbCircle
 10
1063.677928
 20
854.434548
 30
0.0
 40
7.0
100
AcDbArc
 50
90.0
 51
270.0
  0
LINE
  5
4AF
330
6F
100
AcDbEntity
  8
9-0
  6
DASHED2
 62
     7
100
AcDbLine
 10
1063.677928
 20
861.4345479999999
 30
0.0
 11
1068.677928
 21
861.4345479999999
 31
0.0
  0
LINE
  5
4B0
330
6F
100
AcDbEntity
  8
9-0
  6
DASHED2
 62
     7
100
AcDbLine
 10
1063.677928
 20
847.434548
 30
0.0
 11
1068.677928
 21
847.434548
 31
0.0
  0
ARC
  5
4B1
330
6F
100
AcDbEntity
  8
9-0
  6
DASHED2
 62
     7
100
AcDbCircle
 10
1063.677928
 20
1014.434548
 30
0.0
 40
7.0
100
AcDbArc
 50
90.0
 51
270.0
  0
LINE
  5
4B2
330
6F
100
AcDbEntity
  8
9-0
  6
Continuous
 62
     7
100
AcDbLine
 10
1063.677928
 20
1021.434548
 30
0.0
 11
1068.677928
 21
1021.434548
 31
0.0
  0
LINE
  5
4B3
330
6F
100
AcDbEntity
  8
9-0
  6
DASHED2
 62
     7
100
AcDbLine
 10
1063.677928
 20
1007.434548
 30
0.0
 11
1068.677928
 21
1007.434548
 31
0.0
  0
CIRCLE
  5
4B4
330
6F
100
AcDbEntity
  8
9-0
  6
DASHED2
 62
     7
100
AcDbCircle
 10
1063.677928
 20
1014.434548
 30
0.0
 40
2.0
  0
ARC
  5
4B5
330
6F
100
AcDbEntity
  8
9-0
  6
DASHED2
 62
     7
100
AcDbCircle
 10
813.6779279999998
 20
854.434548
 30
0.0
 40
7.0
100
AcDbArc
 50
270.0
 51
90.0
  0
LINE
  5
4B6
330
6F
100
AcDbEntity
  8
9-0
  6
DASHED2
 62
     7
100
AcDbLine
 10
813.6779279999998
 20
861.4345479999999
 30
0.0
 11
808.677928
 21
861.4345479999999
 31
0.0
  0
LINE
  5
4B7
330
6F
100
AcDbEntity
  8
9-0
  6
DASHED2
 62
     7
100
AcDbLine
 10
813.6779279999998
 20
847.434548
 30
0.0
 11
808.677928
 21
847.434548
 31
0.0
  0
CIRCLE
  5
4B8
330
6F
100
AcDbEntity
  8
9-0
  6
DASHED2
 62
     7
100
AcDbCircle
 10
813.6779279999998
 20
854.434548
 30
0.0
 40
2.0
  0
ARC
  5
4B9
330
6F
100
AcDbEntity
  8
9-0
  6
DASHED2
 62
     7
100
AcDbCircle
 10
813.6779279999998
 20
1014.434548
 30
0.0
 40
7.0
100
AcDbArc
 50
270.0
 51
90.0
  0
LINE
  5
4BA
330
6F
100
AcDbEntity
  8
9-0
  6
DASHED2
 62
     7
100
AcDbLine
 10
813.6779279999998
 20
1021.434548
 30
0.0
 11
808.677928
 21
1021.434548
 31
0.0
  0
LINE
  5
4BB
330
6F
100
AcDbEntity
  8
9-0
  6
DASHED2
 62
     7
100
AcDbLine
 10
813.6779279999998
 20
1007.434548
 30
0.0
 11
808.677928
 21
1007.434548
 31
0.0
  0
CIRCLE
  5
4BC
330
6F
100
AcDbEntity
  8
9-0
  6
DASHED2
 62
     7
100
AcDbCircle
 10
813.6779279999998
 20
1014.434548
 30
0.0
 40
2.0
  0
LINE
  5
4BD
330
6F
100
AcDbEntity
  8
9-0
  6
DASHED2
 62
     7
100
AcDbLine
 10
811.6779279999999
 20
1052.434548
 30
0.0
 11
1065.677928
 21
1052.434548
 31
0.0
  0
ARC
  5
4BE
330
6F
100
AcDbEntity
  8
9-0
  6
DASHED2
 62
     7
100
AcDbCircle
 10
811.6779279999999
 20
1049.434548
 30
0.0
 40
3.0
100
AcDbArc
 50
90.0
 51
180.0
  0
ARC
  5
4BF
330
6F
100
AcDbEntity
  8
9-0
  6
Continuous
 62
     7
100
AcDbCircle
 10
1065.677928
 20
1049.434548
 30
0.0
 40
3.0
100
AcDbArc
 50
0.0
 51
90.0
  0
CIRCLE
  5
4C0
330
6F
100
AcDbEntity
  8
9-0
  6
DASHED2
 62
     7
100
AcDbCircle
 10
1063.677928
 20
854.434548
 30
0.0
 40
2.0
  0
LINE
  5
4C1
330
6F
100
AcDbEntity
  8
6-0
  6
DASHED2
 62
     7
100
AcDbLine
 10
864.822372
 20
1048.434548
 30
0.0
 11
864.822372
 21
594.4345479999999
 31
0.0
  0
LINE
  5
4C2
330
6F
100
AcDbEntity
  8
6-0
  6
DASHED2
 62
     7
100
AcDbLine
 10
894.8223719999999
 20
1048.434548
 30
0.0
 11
894.8223719999999
 21
594.4345479999999
 31
0.0
  0
LINE
  5
4C3
330
6F
100
AcDbEntity
  8
0-1
  6
Continuous
 62
     4
100
AcDbLine
 10
1059.677928
 20
684.4345479999999
 30
0.0
 11
1046.249199
 21
684.4345479999999
 31
0.0
  0
LINE
  5
4C4
330
6F
100
AcDbEntity
  8
0-1
  6
Continuous
 62
     4
100
AcDbLine
 10
1045.677928
 20
1052.434548
 30
0.0
 11
1046.249199
 21
1052.434548
 31
0.0
  0
LINE
  5
4C5
330
6F
100
AcDbEntity
  8
0-1
  6
Continuous
 62
     4
100
AcDbLine
 10
1046.249199
 20
694.4345479999999
 30
0.0
 11
1046.249199
 21
1042.434548
 31
0.0
  0
TEXT
  5
4C6
330
6F
100
AcDbEntity
  8
0-1
 62
     4
100
AcDbText
 10
1048.251
 20
848.756
 30
0.0
 40
36.288
  1
368
 50
90.0
100
AcDbText
  0
CIRCLE
  5
4C7
330
6F
100
AcDbEntity
  8
0-1
  6
Continuous
 62
     4
100
AcDbCircle
 10
1046.249198901338
 20
684.4345479908359
 30
0.0
 40
0.25
  0
CIRCLE
  5
4C8
330
6F
100
AcDbEntity
  8
0-1
  6
Continuous
 62
     4
100
AcDbCircle
 10
1046.249198901338
 20
684.4345479908359
 30
0.0
 40
0.1875
  0
CIRCLE
  5
4C9
330
6F
100
AcDbEntity
  8
0-1
  6
Continuous
 62
     4
100
AcDbCircle
 10
1046.249198901338
 20
684.4345479908359
 30
0.0
 40
0.125
  0
CIRCLE
  5
4CA
330
6F
100
AcDbEntity
  8
0-1
  6
Continuous
 62
     4
100
AcDbCircle
 10
1046.249198901338
 20
684.4345479908359
 30
0.0
 40
0.0625
  0
CIRCLE
  5
4CB
330
6F
100
AcDbEntity
  8
0-1
  6
Continuous
 62
     4
100
AcDbCircle
 10
1046.249198901338
 20
684.4345479908359
 30
0.0
 40
0.25
  0
CIRCLE
  5
4CC
330
6F
100
AcDbEntity
  8
0-1
  6
Continuous
 62
     4
100
AcDbCircle
 10
1046.249198901338
 20
684.4345479908359
 30
0.0
 40
0.1875
  0
CIRCLE
  5
4CD
330
6F
100
AcDbEntity
  8
0-1
  6
Continuous
 62
     4
100
AcDbCircle
 10
1046.249198901338
 20
684.4345479908359
 30
0.0
 40
0.125
  0
CIRCLE
  5
4CE
330
6F
100
AcDbEntity
  8
0-1
  6
Continuous
 62
     4
100
AcDbCircle
 10
1046.249198901338
 20
684.4345479908359
 30
0.0
 40
0.0625
  0
CIRCLE
  5
4CF
330
6F
100
AcDbEntity
  8
0-1
  6
Continuous
 62
     4
100
AcDbCircle
 10
1046.249198901338
 20
1052.434547990836
 30
0.0
 40
0.25
  0
CIRCLE
  5
4D0
330
6F
100
AcDbEntity
  8
0-1
  6
Continuous
 62
     4
100
AcDbCircle
 10
1046.249198901338
 20
1052.434547990836
 30
0.0
 40
0.1875
  0
CIRCLE
  5
4D1
330
6F
100
AcDbEntity
  8
0-1
  6
Continuous
 62
     4
100
AcDbCircle
 10
1046.249198901338
 20
1052.434547990836
 30
0.0
 40
0.125
  0
CIRCLE
  5
4D2
330
6F
100
AcDbEntity
  8
0-1
  6
Continuous
 62
     4
100
AcDbCircle
 10
1046.249198901338
 20
1052.434547990836
 30
0.0
 40
0.0625
  0
CIRCLE
  5
4D3
330
6F
100
AcDbEntity
  8
0-1
  6
Continuous
 62
     4
100
AcDbCircle
 10
1046.249198901338
 20
1052.434547990836
 30
0.0
 40
0.25
  0
CIRCLE
  5
4D4
330
6F
100
AcDbEntity
  8
0-1
  6
Continuous
 62
     4
100
AcDbCircle
 10
1046.249198901338
 20
1052.434547990836
 30
0.0
 40
0.1875
  0
CIRCLE
  5
4D5
330
6F
100
AcDbEntity
  8
0-1
  6
Continuous
 62
     4
100
AcDbCircle
 10
1046.249198901338
 20
1052.434547990836
 30
0.0
 40
0.125
  0
CIRCLE
  5
4D6
330
6F
100
AcDbEntity
  8
0-1
  6
Continuous
 62
     4
100
AcDbCircle
 10
1046.249198901338
 20
1052.434547990836
 30
0.0
 40
0.0625
  0
TEXT
  5
4D7
330
6F
100
AcDbEntity
  8
3-1
 62
     5
100
AcDbText
 10
905.7689999999999
 20
827.3569999999999
 30
0.0
 40
25.92
  1
包丁差
100
AcDbText
  0
LINE
  5
4D8
330
6F
100
AcDbEntity
  8
6-0
  6
DASHED2
 62
     7
100
AcDbLine
 10
3278.77984
 20
1052.434548
 30
0.0
 11
3278.77984
 21
819.4345479999999
 31
0.0
  0
LINE
  5
4D9
330
6F
100
AcDbEntity
  8
6-0
  6
DASHED2
 62
     7
100
AcDbLine
 10
3240.584308
 20
1049.434548
 30
0.0
 11
3276.77984
 21
1049.434548
 31
0.0
  0
ARC
  5
4DA
330
6F
100
AcDbEntity
  8
6-0
  6
DASHED2
 62
     7
100
AcDbCircle
 10
3240.584308
 20
1048.434548
 30
0.0
 40
1.0
100
AcDbArc
 50
90.0
 51
180.0
  0
LINE
  5
4DB
330
6F
100
AcDbEntity
  8
6-0
  6
DASHED2
 62
     7
100
AcDbLine
 10
3239.584308
 20
1030.434548
 30
0.0
 11
3239.584308
 21
1048.434548
 31
0.0
  0
LINE
  5
4DC
330
6F
100
AcDbEntity
  8
6-0
  6
DASHED2
 62
     7
100
AcDbLine
 10
3239.640402
 20
1029.434548
 30
0.0
 11
3239.584308
 21
1029.434548
 31
0.0
  0
LINE
  5
4DD
330
6F
100
AcDbEntity
  8
6-0
  6
DASHED2
 62
     7
100
AcDbLine
 10
3239.640402
 20
1030.104336
 30
0.0
 11
3239.640402
 21
827.4345479999999
 31
0.0
  0
LINE
  5
4DE
330
6F
100
AcDbEntity
  8
6-0
  6
DASHED2
 62
     7
100
AcDbLine
 10
3247.584308
 20
819.4345479999999
 30
0.0
 11
3278.77984
 21
819.4345479999999
 31
0.0
  0
ARC
  5
4DF
330
6F
100
AcDbEntity
  8
6-0
  6
DASHED2
 62
     7
100
AcDbCircle
 10
3247.584308
 20
827.4345479999999
 30
0.0
 40
8.0
100
AcDbArc
 50
231.318
 51
270.0
  0
ARC
  5
4E0
330
6F
100
AcDbEntity
  8
6-0
  6
DASHED2
 62
     7
100
AcDbCircle
 10
3247.640402
 20
827.4345479999999
 30
0.0
 40
8.0
100
AcDbArc
 50
180.0
 51
230.801
  0
LINE
  5
4E1
330
6F
100
AcDbEntity
  8
6-0
  6
DASHED2
 62
     7
100
AcDbLine
 10
3257.5271
 20
1023.434548
 30
0.0
 11
3278.77984
 21
1023.434548
 31
0.0
  0
LINE
  5
4E2
330
6F
100
AcDbEntity
  8
6-0
  6
DASHED2
 62
     7
100
AcDbLine
 10
3257.5271
 20
1005.434548
 30
0.0
 11
3278.77984
 21
1005.434548
 31
0.0
  0
LINE
  5
4E3
330
6F
100
AcDbEntity
  8
6-0
  6
DASHED2
 62
     7
100
AcDbLine
 10
3257.5271
 20
863.434548
 30
0.0
 11
3278.77984
 21
863.434548
 31
0.0
  0
LINE
  5
4E4
330
6F
100
AcDbEntity
  8
6-0
  6
DASHED2
 62
     7
100
AcDbLine
 10
3257.5271
 20
845.4345479999998
 30
0.0
 11
3278.77984
 21
845.4345479999998
 31
0.0
  0
LINE
  5
4E5
330
6F
100
AcDbEntity
  8
6-0
  6
DASHED2
 62
     7
100
AcDbLine
 10
3278.77984
 20
1052.434548
 30
0.0
 11
3277.77984
 21
1052.434548
 31
0.0
  0
LINE
  5
4E6
330
6F
100
AcDbEntity
  8
6-0
  6
DASHED2
 62
     7
100
AcDbLine
 10
3276.77984
 20
1049.434548
 30
0.0
 11
3276.77984
 21
1051.434548
 31
0.0
  0
ARC
  5
4E7
330
6F
100
AcDbEntity
  8
6-0
  6
DASHED2
 62
     7
100
AcDbCircle
 10
3277.77984
 20
1051.434548
 30
0.0
 40
1.0
100
AcDbArc
 50
90.0
 51
180.0
  0
TEXT
  5
4E8
330
6F
100
AcDbEntity
  8
3-1
 62
     5
100
AcDbText
 10
3977.866
 20
48.607
 30
0.0
 40
31.104
  1
2022.1
100
AcDbText
  0
TEXT
  5
4E9
330
6F
100
AcDbEntity
  8
3-1
 62
     2
100
AcDbText
 10
3077.46
 20
447.613
 30
0.0
 40
25.92
  1
※
100
AcDbText
  0
TEXT
  5
4EA
330
6F
100
AcDbEntity
  8
3-1
 62
     2
100
AcDbText
 10
3563.054000000001
 20
333.317
 30
0.0
 40
25.92
  1
※巾木奥行(D)(M)(A)はD496
100
AcDbText
  0
LINE
  5
4EB
330
6F
100
AcDbEntity
  8
8-0
  6
Continuous
 62
     7
100
AcDbLine
 10
3293.50984
 20
1364.434548
 30
0.0
 11
3279.37984
 21
1364.434548
 31
0.0
  0
LINE
  5
4EC
330
6F
100
AcDbEntity
  8
8-0
  6
Continuous
 62
     7
100
AcDbLine
 10
3277.629127
 20
1364.434548
 30
0.0
 11
3294.556197
 21
1364.434548
 31
0.0
  0
LINE
  5
4ED
330
6F
100
AcDbEntity
  8
8-0
  6
Continuous
 62
     7
100
AcDbLine
 10
3284.230114
 20
1362.434548
 30
0.0
 11
3290.850616
 21
1362.434548
 31
0.0
  0
LINE
  5
4EE
330
6F
100
AcDbEntity
  8
8-0
  6
Continuous
 62
     7
100
AcDbLine
 10
3277.662732
 20
1318.834548
 30
0.0
 11
3278.77984
 21
1318.834548
 31
0.0
  0
LINE
  5
4EF
330
6F
100
AcDbEntity
  8
8-0
  6
Continuous
 62
     7
100
AcDbLine
 10
3276.77984
 20
1363.629814
 30
0.0
 11
3276.77984
 21
1319.608881
 31
0.0
  0
ARC
  5
4F0
330
6F
100
AcDbEntity
  8
8-0
  6
Continuous
 62
     7
100
AcDbCircle
 10
3277.680722
 20
1319.745562
 30
0.0
 40
0.9111909999999999
100
AcDbArc
 50
188.627
 51
268.869
  0
ARC
  5
4F1
330
6F
100
AcDbEntity
  8
8-0
  6
Continuous
 62
     7
100
AcDbCircle
 10
3277.660853
 20
1363.550545
 30
0.0
 40
0.884572
100
AcDbArc
 50
87.94499999999999
 51
174.859
  0
LINE
  5
4F2
330
6F
100
AcDbEntity
  8
8-0
  6
Continuous
 62
     7
100
AcDbLine
 10
3294.755836
 20
1364.254225
 30
0.0
 11
3295.515369
 21
1357.952875
 31
0.0
  0
LINE
  5
4F3
330
6F
100
AcDbEntity
  8
8-0
  6
Continuous
 62
     7
100
AcDbLine
 10
3291.354282
 20
1362.074981
 30
0.0
 11
3291.883921
 21
1357.783368
 31
0.0
  0
ARC
  5
4F4
330
6F
100
AcDbEntity
  8
8-0
  6
Continuous
 62
     7
100
AcDbCircle
 10
3292.57865
 20
1357.869107
 30
0.0
 40
0.7
100
AcDbArc
 50
187.035
 51
270.0
  0
ARC
  5
4F5
330
6F
100
AcDbEntity
  8
8-0
  6
Continuous
 62
     7
100
AcDbCircle
 10
3290.840625
 20
1361.888013
 30
0.0
 40
0.546626
100
AcDbArc
 50
20.001
 51
88.953
  0
ARC
  5
4F6
330
6F
100
AcDbEntity
  8
8-0
  6
Continuous
 62
     7
100
AcDbCircle
 10
3284.923132
 20
1357.045785
 30
0.0
 40
5.433143
100
AcDbArc
 50
97.32800000000001
 51
175.897
  0
LINE
  5
4F7
330
6F
100
AcDbEntity
  8
8-0
  6
Continuous
 62
     7
100
AcDbLine
 10
3279.503916
 20
1357.434548
 30
0.0
 11
3279.502262
 21
1343.115039
 31
0.0
  0
ARC
  5
4F8
330
6F
100
AcDbEntity
  8
8-0
  6
Continuous
 62
     7
100
AcDbCircle
 10
3294.495398
 20
1364.166562
 30
0.0
 40
0.274796
100
AcDbArc
 50
18.603
 51
77.217
  0
LINE
  5
4F9
330
6F
100
AcDbEntity
  8
8-0
  6
Continuous
 62
     7
100
AcDbLine
 10
3292.57865
 20
1357.169107
 30
0.0
 11
3294.820399000001
 21
1357.169107
 31
0.0
  0
ARC
  5
4FA
330
6F
100
AcDbEntity
  8
8-0
  6
Continuous
 62
     7
100
AcDbCircle
 10
3294.820399000001
 20
1357.869107
 30
0.0
 40
0.7
100
AcDbArc
 50
270.0
 51
6.873000000000001
  0
ARC
  5
4FB
330
6F
100
AcDbEntity
  8
8-0
  6
Continuous
 62
     7
100
AcDbCircle
 10
3285.163063000001
 20
1343.75311
 30
0.0
 40
5.7
100
AcDbArc
 50
186.431
 51
256.176
  0
ARC
  5
4FC
330
6F
100
AcDbEntity
  8
8-0
  6
Continuous
 62
     7
100
AcDbCircle
 10
3283.79652
 20
1336.221772
 30
0.0
 40
1.999706999999999
100
AcDbArc
 50
6.107999999999998
 51
89.846
  0
ENDSEC
  0
SECTION
  2
OBJECTS
  0
DICTIONARY
  5
C
330
0
100
AcDbDictionary
281
     1
  3
ACAD_CIP_PREVIOUS_PRODUCT_INFO
350
4FE
  3
ACAD_COLOR
350
62
  3
ACAD_DETAILVIEWSTYLE
350
69
  3
ACAD_GROUP
350
D
  3
ACAD_LAYOUT
350
61
  3
ACAD_MATERIAL
350
10
  3
ACAD_MLEADERSTYLE
350
65
  3
ACAD_MLINESTYLE
350
5E
  3
ACAD_PLOTSETTINGS
350
60
  3
ACAD_PLOTSTYLENAME
350
E
  3
ACAD_SCALELIST
350
42
  3
ACAD_SECTIONVIEWSTYLE
350
67
  3
ACAD_TABLESTYLE
350
63
  3
ACAD_VISUALSTYLE
350
29
  3
ACDB_RECOMPOSE_DATA
350
530
  3
AcDbVariableDictionary
350
523
  3
DWGPROPS
350
531
  0
DICTIONARY
  5
4FF
330
54
100
AcDbDictionary
280
     1
281
     1
  3
ADSK_XREC_LAYER_RECONCILED
360
500
  0
DICTIONARY
  5
501
330
7F
100
AcDbDictionary
280
     1
281
     1
  3
ADSK_XREC_LAYER_RECONCILED
360
502
  0
DICTIONARY
  5
503
330
80
100
AcDbDictionary
280
     1
281
     1
  3
ADSK_XREC_LAYER_RECONCILED
360
504
  0
DICTIONARY
  5
505
330
81
100
AcDbDictionary
280
     1
281
     1
  3
ADSK_XREC_LAYER_RECONCILED
360
506
  0
DICTIONARY
  5
507
330
82
100
AcDbDictionary
280
     1
281
     1
  3
ADSK_XREC_LAYER_RECONCILED
360
508
  0
DICTIONARY
  5
509
330
83
100
AcDbDictionary
280
     1
281
     1
  3
ADSK_XREC_LAYER_RECONCILED
360
50A
  0
DICTIONARY
  5
50B
330
84
100
AcDbDictionary
280
     1
281
     1
  3
ADSK_XREC_LAYER_RECONCILED
360
50C
  0
DICTIONARY
  5
50D
330
85
100
AcDbDictionary
280
     1
281
     1
  3
ADSK_XREC_LAYER_RECONCILED
360
50E
  0
DICTIONARY
  5
50F
330
86
100
AcDbDictionary
280
     1
281
     1
  3
ADSK_XREC_LAYER_RECONCILED
360
510
  0
DICTIONARY
  5
511
330
87
100
AcDbDictionary
280
     1
281
     1
  3
ADSK_XREC_LAYER_RECONCILED
360
512
  0
DICTIONARY
  5
513
330
88
100
AcDbDictionary
280
     1
281
     1
  3
ADSK_XREC_LAYER_RECONCILED
360
514
  0
DICTIONARY
  5
515
330
89
100
AcDbDictionary
280
     1
281
     1
  3
ADSK_XREC_LAYER_RECONCILED
360
516
  0
DICTIONARY
  5
517
330
8A
100
AcDbDictionary
280
     1
281
     1
  3
ADSK_XREC_LAYER_RECONCILED
360
518
  0
DICTIONARY
  5
519
330
8B
100
AcDbDictionary
280
     1
281
     1
  3
ADSK_XREC_LAYER_RECONCILED
360
51A
  0
DICTIONARY
  5
51B
330
8C
100
AcDbDictionary
280
     1
281
     1
  3
ADSK_XREC_LAYER_RECONCILED
360
51C
  0
DICTIONARY
  5
51D
330
8D
100
AcDbDictionary
280
     1
281
     1
  3
ADSK_XREC_LAYER_RECONCILED
360
51E
  0
DICTIONARY
  5
51F
330
8E
100
AcDbDictionary
280
     1
281
     1
  3
ADSK_XREC_LAYER_RECONCILED
360
520
  0
DICTIONARY
  5
521
330
94
100
AcDbDictionary
280
     1
281
     1
  3
ADSK_XREC_LAYER_RECONCILED
360
522
  0
XRECORD
  5
4FE
102
{ACAD_REACTORS
330
C
102
}
330
C
100
AcDbXrecord
280
     1
300
ACDLT
300
2020
300

  0
DICTIONARY
  5
62
102
{ACAD_REACTORS
330
C
102
}
330
C
100
AcDbDictionary
281
     1
  0
DICTIONARY
  5
69
102
{ACAD_REACTORS
330
C
102
}
330
C
100
AcDbDictionary
281
     1
  3
Imperial24
350
6A
  0
DICTIONARY
  5
D
102
{ACAD_REACTORS
330
C
102
}
330
C
100
AcDbDictionary
281
     1
  0
DICTIONARY
  5
61
102
{ACAD_REACTORS
330
C
102
}
330
C
100
AcDbDictionary
281
     1
  3
Model
350
72
  3
レイアウト1
350
6E
  0
DICTIONARY
  5
10
102
{ACAD_REACTORS
330
C
102
}
330
C
100
AcDbDictionary
281
     1
  3
ByBlock
350
19
  3
ByLayer
350
11
  3
Global
350
21
  0
DICTIONARY
  5
65
102
{ACAD_REACTORS
330
C
102
}
330
C
100
AcDbDictionary
281
     1
  3
Standard
350
66
  0
DICTIONARY
  5
5E
102
{ACAD_REACTORS
330
C
102
}
330
C
100
AcDbDictionary
281
     1
  3
Standard
350
5F
  0
DICTIONARY
  5
60
102
{ACAD_REACTORS
330
C
102
}
330
C
100
AcDbDictionary
281
     1
  0
ACDBDICTIONARYWDFLT
  5
E
102
{ACAD_REACTORS
330
C
102
}
330
C
100
AcDbDictionary
281
     1
  3
Normal
350
F
100
AcDbDictionaryWithDefault
340
F
  0
DICTIONARY
  5
42
102
{ACAD_REACTORS
330
C
102
}
330
C
100
AcDbDictionary
281
     1
  3
A0
350
43
  3
A1
350
44
  3
A2
350
45
  3
A3
350
46
  3
A4
350
47
  3
A5
350
48
  3
A6
350
49
  3
A7
350
4A
  3
A8
350
4B
  3
A9
350
4C
  3
B0
350
4D
  3
B1
350
4E
  3
B2
350
4F
  3
B3
350
50
  3
B4
350
51
  3
B5
350
52
  3
B6
350
53
  0
DICTIONARY
  5
67
102
{ACAD_REACTORS
330
C
102
}
330
C
100
AcDbDictionary
281
     1
  3
Imperial24
350
68
  0
DICTIONARY
  5
63
102
{ACAD_REACTORS
330
C
102
}
330
C
100
AcDbDictionary
281
     1
  3
Standard
350
64
  0
DICTIONARY
  5
29
102
{ACAD_REACTORS
330
C
102
}
330
C
100
AcDbDictionary
281
     1
  3
2dWireframe
350
2F
  3
Basic
350
2E
  3
Brighten
350
35
  3
ColorChange
350
39
  3
Conceptual
350
32
  3
Dim
350
34
  3
EdgeColorOff
350
41
  3
Facepattern
350
38
  3
Flat
350
2A
  3
FlatWithEdges
350
2B
  3
Gouraud
350
2C
  3
GouraudWithEdges
350
2D
  3
Hidden
350
31
  3
JitterOff
350
3F
  3
Linepattern
350
37
  3
OverhangOff
350
40
  3
Realistic
350
33
  3
Shaded
350
3E
  3
Shaded with edges
350
3D
  3
Shades of Gray
350
3A
  3
Sketchy
350
3B
  3
Thicken
350
36
  3
Wireframe
350
30
  3
X-Ray
350
3C
  0
XRECORD
  5
530
102
{ACAD_REACTORS
330
C
102
}
330
C
100
AcDbXrecord
280
     1
 90
        1
330
64
  0
DICTIONARY
  5
523
102
{ACAD_REACTORS
330
C
102
}
330
C
100
AcDbDictionary
281
     1
  3
CANNOSCALE
350
528
  3
CMLEADERSTYLE
350
525
  3
CTABLESTYLE
350
524
  3
CVIEWDETAILSTYLE
350
526
  3
CVIEWSECTIONSTYLE
350
527
  3
DIMASSOC
350
52B
  3
INDEXCTL
350
52A
  3
SORTENTS
350
529
  3
XCLIPFRAME
350
52C
  0
XRECORD
  5
531
102
{ACAD_REACTORS
330
C
102
}
330
C
100
AcDbXrecord
280
     1
  1
DWGPROPS COOKIE
  2

  3

  4

  6

  7

  8
suzuki
  9

300
=
301
=
302
=
303
=
304
=
305
=
306
=
307
=
308
=
309
=
 40
0.0003009259259259
 41
2459620.661620371
 42
2459620.661921297
  1

 90
        0
  0
XRECORD
  5
500
102
{ACAD_REACTORS
330
4FF
102
}
330
4FF
100
AcDbXrecord
280
     1
290
     1
  0
XRECORD
  5
502
102
{ACAD_REACTORS
330
501
102
}
330
501
100
AcDbXrecord
280
     1
290
     1
  0
XRECORD
  5
504
102
{ACAD_REACTORS
330
503
102
}
330
503
100
AcDbXrecord
280
     1
290
     1
  0
XRECORD
  5
506
102
{ACAD_REACTORS
330
505
102
}
330
505
100
AcDbXrecord
280
     1
290
     1
  0
XRECORD
  5
508
102
{ACAD_REACTORS
330
507
102
}
330
507
100
AcDbXrecord
280
     1
290
     1
  0
XRECORD
  5
50A
102
{ACAD_REACTORS
330
509
102
}
330
509
100
AcDbXrecord
280
     1
290
     1
  0
XRECORD
  5
50C
102
{ACAD_REACTORS
330
50B
102
}
330
50B
100
AcDbXrecord
280
     1
290
     1
  0
XRECORD
  5
50E
102
{ACAD_REACTORS
330
50D
102
}
330
50D
100
AcDbXrecord
280
     1
290
     1
  0
XRECORD
  5
510
102
{ACAD_REACTORS
330
50F
102
}
330
50F
100
AcDbXrecord
280
     1
290
     1
  0
XRECORD
  5
512
102
{ACAD_REACTORS
330
511
102
}
330
511
100
AcDbXrecord
280
     1
290
     1
  0
XRECORD
  5
514
102
{ACAD_REACTORS
330
513
102
}
330
513
100
AcDbXrecord
280
     1
290
     1
  0
XRECORD
  5
516
102
{ACAD_REACTORS
330
515
102
}
330
515
100
AcDbXrecord
280
     1
290
     1
  0
XRECORD
  5
518
102
{ACAD_REACTORS
330
517
102
}
330
517
100
AcDbXrecord
280
     1
290
     1
  0
XRECORD
  5
51A
102
{ACAD_REACTORS
330
519
102
}
330
519
100
AcDbXrecord
280
     1
290
     1
  0
XRECORD
  5
51C
102
{ACAD_REACTORS
330
51B
102
}
330
51B
100
AcDbXrecord
280
     1
290
     1
  0
XRECORD
  5
51E
102
{ACAD_REACTORS
330
51D
102
}
330
51D
100
AcDbXrecord
280
     1
290
     1
  0
XRECORD
  5
520
102
{ACAD_REACTORS
330
51F
102
}
330
51F
100
AcDbXrecord
280
     1
290
     1
  0
XRECORD
  5
522
102
{ACAD_REACTORS
330
521
102
}
330
521
100
AcDbXrecord
280
     1
290
     1
  0
ACDBDETAILVIEWSTYLE
  5
6A
102
{ACAD_XDICTIONARY
360
569
102
}
102
{ACAD_REACTORS
330
69
102
}
330
69
100
AcDbModelDocViewStyle
 70
     0
  3
Imperial24
290
     0
100
AcDbDetailViewStyle
 70
     0
 71
     0
 90
        3
 71
     1
340
55
 40
0.24
340
0
 40
0.24
300

 40
0.36
280
     3
 71
     2
340
5C
 90
       25
 71
     3
340
55
 40
0.24
 90
        1
 40
0.75
 90
        1
300
%<\AcVar ViewType \f "%tc1">% %<\AcVar ViewDetailId>%\PSCALE %<\AcVar ViewScale \f "%sn">%
 71
     4
340
5C
 90
       25
340
5C
 90
       25
280
     0
  0
LAYOUT
  5
72
102
{ACAD_XDICTIONARY
360
56D
102
}
102
{ACAD_REACTORS
330
61
102
}
330
61
100
AcDbPlotSettings
  1

  2
DocuCentre-V 4070
  4

  6

 40
0.0
 41
0.0
 42
0.0
 43
0.0
 44
0.0
 45
0.0
 46
0.0
 47
0.0
 48
0.0
 49
0.0
140
0.0
141
0.0
142
1.0
143
1.0
 70
  1712
 72
     0
 73
     0
 74
     0
  7

 75
     0
147
1.0
148
0.0
149
0.0
100
AcDbLayout
  1
Model
 70
     1
 71
     0
 10
0.0
 20
0.0
 11
12.0
 21
9.0
 12
0.0
 22
0.0
 32
0.0
 14
0.0
 24
0.0
 34
0.0
 15
0.0
 25
0.0
 35
0.0
146
0.0
 13
0.0
 23
0.0
 33
0.0
 16
1.0
 26
0.0
 36
0.0
 17
0.0
 27
1.0
 37
0.0
 76
     0
330
6F
331
93
  0
LAYOUT
  5
6E
102
{ACAD_XDICTIONARY
360
56B
102
}
102
{ACAD_REACTORS
330
61
102
}
330
61
100
AcDbPlotSettings
  1

  2
DocuCentre-V 4070
  4

  6

 40
0.0
 41
0.0
 42
0.0
 43
0.0
 44
0.0
 45
0.0
 46
0.0
 47
0.0
 48
0.0
 49
0.0
140
0.0
141
0.0
142
1.0
143
1.0
 70
   688
 72
     0
 73
     0
 74
     5
  7

 75
    16
147
1.0
148
0.0
149
0.0
100
AcDbLayout
  1
レイアウト1
 70
     1
 71
     1
 10
0.0
 20
0.0
 11
12.0
 21
9.0
 12
0.0
 22
0.0
 32
0.0
 14
1.000000000000000E+20
 24
1.000000000000000E+20
 34
1.000000000000000E+20
 15
-1.000000000000000E+20
 25
-1.000000000000000E+20
 35
-1.000000000000000E+20
146
0.0
 13
0.0
 23
0.0
 33
0.0
 16
1.0
 26
0.0
 36
0.0
 17
0.0
 27
1.0
 37
0.0
 76
     0
330
6B
  0
MATERIAL
  5
19
102
{ACAD_XDICTIONARY
360
1A
102
}
102
{ACAD_REACTORS
330
10
102
}
330
10
100
AcDbMaterial
  1
ByBlock
 72
     0
 43
0.0208333333333333
 43
0.0
 43
0.0
 43
0.0
 43
0.0
 43
0.0208333333333333
 43
0.0
 43
0.0
 43
0.0
 43
0.0
 43
1.0
 43
0.0
 43
0.0
 43
0.0
 43
0.0
 43
1.0
 77
     0
 47
0.0208333333333333
 47
0.0
 47
0.0
 47
0.0
 47
0.0
 47
0.0208333333333333
 47
0.0
 47
0.0
 47
0.0
 47
0.0
 47
1.0
 47
0.0
 47
0.0
 47
0.0
 47
0.0
 47
1.0
171
     0
 49
0.0208333333333333
 49
0.0
 49
0.0
 49
0.0
 49
0.0
 49
0.0208333333333333
 49
0.0
 49
0.0
 49
0.0
 49
0.0
 49
1.0
 49
0.0
 49
0.0
 49
0.0
 49
0.0
 49
1.0
175
     0
142
0.0208333333333333
142
0.0
142
0.0
142
0.0
142
0.0
142
0.0208333333333333
142
0.0
142
0.0
142
0.0
142
0.0
142
1.0
142
0.0
142
0.0
142
0.0
142
0.0
142
1.0
179
     0
144
0.0208333333333333
144
0.0
144
0.0
144
0.0
144
0.0
144
0.0208333333333333
144
0.0
144
0.0
144
0.0
144
0.0
144
1.0
144
0.0
144
0.0
144
0.0
144
0.0
144
1.0
147
0.0208333333333333
147
0.0
147
0.0
147
0.0
147
0.0
147
0.0208333333333333
147
0.0
147
0.0
147
0.0
147
0.0
147
1.0
147
0.0
147
0.0
147
0.0
147
0.0
147
1.0
  0
MATERIAL
  5
11
102
{ACAD_XDICTIONARY
360
12
102
}
102
{ACAD_REACTORS
330
10
102
}
330
10
100
AcDbMaterial
  1
ByLayer
 72
     0
 43
0.0208333333333333
 43
0.0
 43
0.0
 43
0.0
 43
0.0
 43
0.0208333333333333
 43
0.0
 43
0.0
 43
0.0
 43
0.0
 43
1.0
 43
0.0
 43
0.0
 43
0.0
 43
0.0
 43
1.0
 77
     0
 47
0.0208333333333333
 47
0.0
 47
0.0
 47
0.0
 47
0.0
 47
0.0208333333333333
 47
0.0
 47
0.0
 47
0.0
 47
0.0
 47
1.0
 47
0.0
 47
0.0
 47
0.0
 47
0.0
 47
1.0
171
     0
 49
0.0208333333333333
 49
0.0
 49
0.0
 49
0.0
 49
0.0
 49
0.0208333333333333
 49
0.0
 49
0.0
 49
0.0
 49
0.0
 49
1.0
 49
0.0
 49
0.0
 49
0.0
 49
0.0
 49
1.0
175
     0
142
0.0208333333333333
142
0.0
142
0.0
142
0.0
142
0.0
142
0.0208333333333333
142
0.0
142
0.0
142
0.0
142
0.0
142
1.0
142
0.0
142
0.0
142
0.0
142
0.0
142
1.0
179
     0
144
0.0208333333333333
144
0.0
144
0.0
144
0.0
144
0.0
144
0.0208333333333333
144
0.0
144
0.0
144
0.0
144
0.0
144
1.0
144
0.0
144
0.0
144
0.0
144
0.0
144
1.0
147
0.0208333333333333
147
0.0
147
0.0
147
0.0
147
0.0
147
0.0208333333333333
147
0.0
147
0.0
147
0.0
147
0.0
147
1.0
147
0.0
147
0.0
147
0.0
147
0.0
147
1.0
  0
MATERIAL
  5
21
102
{ACAD_XDICTIONARY
360
22
102
}
102
{ACAD_REACTORS
330
10
102
}
330
10
100
AcDbMaterial
  1
Global
 72
     0
 43
0.0208333333333333
 43
0.0
 43
0.0
 43
0.0
 43
0.0
 43
0.0208333333333333
 43
0.0
 43
0.0
 43
0.0
 43
0.0
 43
1.0
 43
0.0
 43
0.0
 43
0.0
 43
0.0
 43
1.0
 77
     0
 47
0.0208333333333333
 47
0.0
 47
0.0
 47
0.0
 47
0.0
 47
0.0208333333333333
 47
0.0
 47
0.0
 47
0.0
 47
0.0
 47
1.0
 47
0.0
 47
0.0
 47
0.0
 47
0.0
 47
1.0
171
     0
 49
0.0208333333333333
 49
0.0
 49
0.0
 49
0.0
 49
0.0
 49
0.0208333333333333
 49
0.0
 49
0.0
 49
0.0
 49
0.0
 49
1.0
 49
0.0
 49
0.0
 49
0.0
 49
0.0
 49
1.0
175
     0
142
0.0208333333333333
142
0.0
142
0.0
142
0.0
142
0.0
142
0.0208333333333333
142
0.0
142
0.0
142
0.0
142
0.0
142
1.0
142
0.0
142
0.0
142
0.0
142
0.0
142
1.0
179
     0
144
0.0208333333333333
144
0.0
144
0.0
144
0.0
144
0.0
144
0.0208333333333333
144
0.0
144
0.0
144
0.0
144
0.0
144
1.0
144
0.0
144
0.0
144
0.0
144
0.0
144
1.0
147
0.0208333333333333
147
0.0
147
0.0
147
0.0
147
0.0
147
0.0208333333333333
147
0.0
147
0.0
147
0.0
147
0.0
147
1.0
147
0.0
147
0.0
147
0.0
147
0.0
147
1.0
  0
MLEADERSTYLE
  5
66
102
{ACAD_REACTORS
330
65
102
}
330
65
100
AcDbMLeaderStyle
170
     2
171
     1
172
     0
 90
        2
 40
0.0
 41
0.0
173
     1
 91
-1056964608
340
5A
 92
       -2
290
     1
 42
0.09
291
     1
 43
0.36
  3
Standard
 44
0.18
300

342
55
174
     1
178
     6
175
     1
176
     0
 93
-1056964608
 45
0.18
292
     0
297
     0
 46
0.18
 94
-1056964608
 47
1.0
 49
1.0
140
1.0
293
     1
141
0.0
294
     1
177
     0
142
1.0
295
     0
296
     0
143
0.125
1001
ACAD_MLEADERVER
1070
     2
  0
MLINESTYLE
  5
5F
102
{ACAD_REACTORS
330
5E
102
}
330
5E
100
AcDbMlineStyle
  2
STANDARD
 70
     0
  3

 62
   256
 51
90.0
 52
90.0
 71
     2
 49
0.5
 62
   256
  6
BYLAYER
 49
-0.5
 62
   256
  6
BYLAYER
  0
ACDBPLACEHOLDER
  5
F
102
{ACAD_REACTORS
330
E
102
}
330
E
  0
SCALE
  5
43
102
{ACAD_REACTORS
330
42
102
}
330
42
100
AcDbScale
 70
     0
300
1:1
140
1.0
141
1.0
290
     1
  0
SCALE
  5
44
102
{ACAD_REACTORS
330
42
102
}
330
42
100
AcDbScale
 70
     0
300
1/128" = 1'-0"
140
0.0078125
141
12.0
290
     0
  0
SCALE
  5
45
102
{ACAD_REACTORS
330
42
102
}
330
42
100
AcDbScale
 70
     0
300
1/64" = 1'-0"
140
0.015625
141
12.0
290
     0
  0
SCALE
  5
46
102
{ACAD_REACTORS
330
42
102
}
330
42
100
AcDbScale
 70
     0
300
1/32" = 1'-0"
140
0.03125
141
12.0
290
     0
  0
SCALE
  5
47
102
{ACAD_REACTORS
330
42
102
}
330
42
100
AcDbScale
 70
     0
300
1/16" = 1'-0"
140
0.0625
141
12.0
290
     0
  0
SCALE
  5
48
102
{ACAD_REACTORS
330
42
102
}
330
42
100
AcDbScale
 70
     0
300
3/32" = 1'-0"
140
0.09375
141
12.0
290
     0
  0
SCALE
  5
49
102
{ACAD_REACTORS
330
42
102
}
330
42
100
AcDbScale
 70
     0
300
1/8" = 1'-0"
140
0.125
141
12.0
290
     0
  0
SCALE
  5
4A
102
{ACAD_REACTORS
330
42
102
}
330
42
100
AcDbScale
 70
     0
300
3/16" = 1'-0"
140
0.1875
141
12.0
290
     0
  0
SCALE
  5
4B
102
{ACAD_REACTORS
330
42
102
}
330
42
100
AcDbScale
 70
     0
300
1/4" = 1'-0"
140
0.25
141
12.0
290
     0
  0
SCALE
  5
4C
102
{ACAD_REACTORS
330
42
102
}
330
42
100
AcDbScale
 70
     0
300
3/8" = 1'-0"
140
0.375
141
12.0
290
     0
  0
SCALE
  5
4D
102
{ACAD_REACTORS
330
42
102
}
330
42
100
AcDbScale
 70
     0
300
1/2" = 1'-0"
140
0.5
141
12.0
290
     0
  0
SCALE
  5
4E
102
{ACAD_REACTORS
330
42
102
}
330
42
100
AcDbScale
 70
     0
300
3/4" = 1'-0"
140
0.75
141
12.0
290
     0
  0
SCALE
  5
4F
102
{ACAD_REACTORS
330
42
102
}
330
42
100
AcDbScale
 70
     0
300
1" = 1'-0"
140
1.0
141
12.0
290
     0
  0
SCALE
  5
50
102
{ACAD_REACTORS
330
42
102
}
330
42
100
AcDbScale
 70
     0
300
1-1/2" = 1'-0"
140
1.5
141
12.0
290
     0
  0
SCALE
  5
51
102
{ACAD_REACTORS
330
42
102
}
330
42
100
AcDbScale
 70
     0
300
3" = 1'-0"
140
3.0
141
12.0
290
     0
  0
SCALE
  5
52
102
{ACAD_REACTORS
330
42
102
}
330
42
100
AcDbScale
 70
     0
300
6" = 1'-0"
140
6.0
141
12.0
290
     0
  0
SCALE
  5
53
102
{ACAD_REACTORS
330
42
102
}
330
42
100
AcDbScale
 70
     0
300
1'-0" = 1'-0"
140
12.0
141
12.0
290
     0
  0
ACDBSECTIONVIEWSTYLE
  5
68
102
{ACAD_XDICTIONARY
360
567
102
}
102
{ACAD_REACTORS
330
67
102
}
330
67
100
AcDbModelDocViewStyle
 70
     0
  3
Imperial24
290
     0
100
AcDbSectionViewStyle
 70
     0
 71
     0
 90
       78
 71
     1
340
55
 40
0.24
340
0
340
0
 40
0.24
300
I, O, Q, S, X, Z
 40
0.48
 90
        3
 40
0.18
 90
        1
 71
     2
340
5C
 90
       25
340
5C
 90
       50
 40
0.24
 40
0.0
 40
0.24
 71
     3
340
55
 40
0.24
 90
        1
 40
0.75
 90
        1
300
%<\AcVar ViewType \f "%tc1">% %<\AcVar ViewSectionStartId>%-%<\AcVar ViewSectionEndId>%\PSCALE %<\AcVar ViewScale \f "%sn">%
 71
     4
300
ANSI31
 40
1.0
 90
        0
290
     0
290
     0
 90
        6
 40
0.0
 40
1.570796326794896
 40
0.2617993877991494
 40
1.308996938995747
 40
-0.2617993877991494
 40
1.832595714594046
  0
TABLESTYLE
  5
64
102
{ACAD_XDICTIONARY
360
52E
102
}
102
{ACAD_REACTORS
330
63
102
}
330
63
100
AcDbTableStyle
  3
Standard
 70
     0
 71
     0
 40
0.06
 41
0.06
280
     0
281
     0
  7
STANDARD
140
0.18
170
     2
 62
     0
 63
     7
283
     0
274
    -2
284
     1
 64
     0
275
    -2
285
     1
 65
     0
276
    -2
286
     1
 66
     0
277
    -2
287
     1
 67
     0
278
    -2
288
     1
 68
     0
279
    -2
289
     1
 69
     0
  7
STANDARD
140
0.25
170
     5
 62
     0
 63
     7
283
     0
274
    -2
284
     1
 64
     0
275
    -2
285
     1
 65
     0
276
    -2
286
     1
 66
     0
277
    -2
287
     1
 67
     0
278
    -2
288
     1
 68
     0
279
    -2
289
     1
 69
     0
  7
STANDARD
140
0.18
170
     5
 62
     0
 63
     7
283
     0
274
    -2
284
     1
 64
     0
275
    -2
285
     1
 65
     0
276
    -2
286
     1
 66
     0
277
    -2
287
     1
 67
     0
278
    -2
288
     1
 68
     0
279
    -2
289
     1
 69
     0
  0
VISUALSTYLE
  5
2F
102
{ACAD_XDICTIONARY
360
53F
102
}
102
{ACAD_REACTORS
330
29
102
}
330
29
100
AcDbVisualStyle
  2
2dWireframe
 70
     4
 71
     0
 72
     2
 73
     0
 90
        0
 40
-0.6
 41
-30.0
 62
     5
 63
     7
 74
     1
 91
        4
 64
     7
 65
   257
 75
     1
175
     1
 42
1.0
 92
        0
 66
   257
 43
1.0
 76
     1
 77
     6
 78
     2
 67
     7
 79
     5
170
     0
171
     0
290
     0
174
     0
 93
        1
 44
0.0
173
     0
291
     0
 45
0.0
1001
ACAD
1000
AcDbSavedByObjectVersion
1070
     0
  0
VISUALSTYLE
  5
2E
102
{ACAD_XDICTIONARY
360
53D
102
}
102
{ACAD_REACTORS
330
29
102
}
330
29
100
AcDbVisualStyle
  2
Basic
 70
     7
 71
     1
 72
     0
 73
     1
 90
        0
 40
-0.6
 41
-30.0
 62
     5
 63
     7
 74
     0
 91
        4
 64
     7
 65
   257
 75
     1
175
     1
 42
1.0
 92
        8
 66
     7
 43
1.0
 76
     1
 77
     6
 78
     2
 67
     7
 79
     5
170
     0
171
     0
290
     0
174
     0
 93
        1
 44
0.0
173
     0
291
     1
 45
0.0
1001
ACAD
1000
AcDbSavedByObjectVersion
1070
     0
  0
VISUALSTYLE
  5
35
102
{ACAD_XDICTIONARY
360
54B
102
}
102
{ACAD_REACTORS
330
29
102
}
330
29
100
AcDbVisualStyle
  2
Brighten
 70
    12
 71
     2
 72
     2
 73
     0
 90
        0
 40
-0.6
 41
-30.0
 62
     5
 63
     7
 74
     1
 91
        4
 64
     7
 65
   257
 75
     1
175
     1
 42
1.0
 92
        8
 66
     7
 43
1.0
 76
     1
 77
     6
 78
     2
 67
     7
 79
     5
170
     0
171
     0
290
     0
174
     0
 93
        1
 44
50.0
173
     0
291
     1
 45
0.0
1001
ACAD
1000
AcDbSavedByObjectVersion
1070
     0
  0
VISUALSTYLE
  5
39
102
{ACAD_XDICTIONARY
360
553
102
}
102
{ACAD_REACTORS
330
29
102
}
330
29
100
AcDbVisualStyle
  2
ColorChange
 70
    16
 71
     2
 72
     2
 73
     3
 90
        0
 40
-0.6
 41
-30.0
 62
     5
 63
     8
 74
     1
 91
        4
 64
     7
 65
   257
 75
     1
175
     1
 42
1.0
 92
        8
 66
     8
 43
1.0
 76
     1
 77
     6
 78
     2
 67
     7
 79
     5
170
     0
171
     0
290
     0
174
     0
 93
        1
 44
0.0
173
     0
291
     1
 45
0.0
1001
ACAD
1000
AcDbSavedByObjectVersion
1070
     0
  0
VISUALSTYLE
  5
32
102
{ACAD_XDICTIONARY
360
545
102
}
102
{ACAD_REACTORS
330
29
102
}
330
29
100
AcDbVisualStyle
  2
Conceptual
 70
     9
 71
     3
 72
     2
 73
     0
 90
        0
 40
-0.6
 41
-30.0
 62
     5
 63
     7
 74
     2
 91
        2
 64
     7
 65
   257
 75
     1
175
     1
 42
179.0
 92
        8
 66
     7
 43
1.0
 76
     1
 77
     6
 78
     2
 67
     7
 79
     3
170
     0
171
     0
290
     0
174
     0
 93
        1
 44
0.0
173
     0
291
     0
 45
0.0
1001
ACAD
1000
AcDbSavedByObjectVersion
1070
     0
  0
VISUALSTYLE
  5
34
102
{ACAD_XDICTIONARY
360
549
102
}
102
{ACAD_REACTORS
330
29
102
}
330
29
100
AcDbVisualStyle
  2
Dim
 70
    11
 71
     2
 72
     2
 73
     0
 90
        0
 40
-0.6
 41
-30.0
 62
     5
 63
     7
 74
     1
 91
        4
 64
     7
 65
   257
 75
     1
175
     1
 42
1.0
 92
        8
 66
     7
 43
1.0
 76
     1
 77
     6
 78
     2
 67
     7
 79
     5
170
     0
171
     0
290
     0
174
     0
 93
        1
 44
-50.0
173
     0
291
     1
 45
0.0
1001
ACAD
1000
AcDbSavedByObjectVersion
1070
     0
  0
VISUALSTYLE
  5
41
102
{ACAD_XDICTIONARY
360
563
102
}
102
{ACAD_REACTORS
330
29
102
}
330
29
100
AcDbVisualStyle
  2
EdgeColorOff
 70
    22
 71
     2
 72
     2
 73
     0
 90
        0
 40
-0.6
 41
-30.0
 62
     5
 63
     7
 74
     1
 91
        4
 64
     7
 65
   257
 75
     1
175
     1
 42
1.0
 92
        8
 66
     7
 43
1.0
 76
     1
 77
     6
 78
     2
 67
     7
 79
     5
170
     0
171
     0
290
     0
174
     0
 93
        1
 44
0.0
173
     0
291
     1
 45
0.0
1001
ACAD
1000
AcDbSavedByObjectVersion
1070
     0
  0
VISUALSTYLE
  5
38
102
{ACAD_XDICTIONARY
360
551
102
}
102
{ACAD_REACTORS
330
29
102
}
330
29
100
AcDbVisualStyle
  2
Facepattern
 70
    15
 71
     2
 72
     2
 73
     0
 90
        0
 40
-0.6
 41
-30.0
 62
     5
 63
     7
 74
     1
 91
        4
 64
     7
 65
   257
 75
     1
175
     1
 42
1.0
 92
        8
 66
     7
 43
1.0
 76
     1
 77
     6
 78
     2
 67
     7
 79
     5
170
     0
171
     0
290
     0
174
     0
 93
        1
 44
0.0
173
     0
291
     1
 45
0.0
1001
ACAD
1000
AcDbSavedByObjectVersion
1070
     0
  0
VISUALSTYLE
  5
2A
102
{ACAD_XDICTIONARY
360
535
102
}
102
{ACAD_REACTORS
330
29
102
}
330
29
100
AcDbVisualStyle
  2
Flat
 70
     0
 71
     2
 72
     1
 73
     1
 90
        2
 40
-0.6
 41
30.0
 62
     5
 63
     7
 74
     0
 91
        0
 64
     7
 65
   257
 75
     1
175
     1
 42
1.0
 92
        8
 66
     7
 43
1.0
 76
     1
 77
     6
 78
     2
 67
     7
 79
     5
170
     0
171
     0
290
     0
174
     0
 93
       13
 44
0.0
173
     0
291
     1
 45
0.0
1001
ACAD
1000
AcDbSavedByObjectVersion
1070
     0
  0
VISUALSTYLE
  5
2B
102
{ACAD_XDICTIONARY
360
537
102
}
102
{ACAD_REACTORS
330
29
102
}
330
29
100
AcDbVisualStyle
  2
FlatWithEdges
 70
     1
 71
     2
 72
     1
 73
     1
 90
        2
 40
-0.6
 41
30.0
 62
     5
 63
     7
 74
     1
 91
        0
 64
     7
 65
   257
 75
     1
175
     1
 42
1.0
 92
        0
 66
   257
 43
1.0
 76
     1
 77
     6
 78
     2
 67
     7
 79
     5
170
     0
171
     0
290
     0
174
     0
 93
       13
 44
0.0
173
     0
291
     1
 45
0.0
1001
ACAD
1000
AcDbSavedByObjectVersion
1070
     0
  0
VISUALSTYLE
  5
2C
102
{ACAD_XDICTIONARY
360
539
102
}
102
{ACAD_REACTORS
330
29
102
}
330
29
100
AcDbVisualStyle
  2
Gouraud
 70
     2
 71
     2
 72
     2
 73
     1
 90
        2
 40
-0.6
 41
30.0
 62
     5
 63
     7
 74
     0
 91
        0
 64
     7
 65
   257
 75
     1
175
     1
 42
1.0
 92
        0
 66
     7
 43
1.0
 76
     1
 77
     6
 78
     2
 67
     7
 79
     5
170
     0
171
     0
290
     0
174
     0
 93
       13
 44
0.0
173
     0
291
     1
 45
0.0
1001
ACAD
1000
AcDbSavedByObjectVersion
1070
     0
  0
VISUALSTYLE
  5
2D
102
{ACAD_XDICTIONARY
360
53B
102
}
102
{ACAD_REACTORS
330
29
102
}
330
29
100
AcDbVisualStyle
  2
GouraudWithEdges
 70
     3
 71
     2
 72
     2
 73
     1
 90
        2
 40
-0.6
 41
30.0
 62
     5
 63
     7
 74
     1
 91
        0
 64
     7
 65
   257
 75
     1
175
     1
 42
1.0
 92
        0
 66
   257
 43
1.0
 76
     1
 77
     6
 78
     2
 67
     7
 79
     5
170
     0
171
     0
290
     0
174
     0
 93
       13
 44
0.0
173
     0
291
     1
 45
0.0
1001
ACAD
1000
AcDbSavedByObjectVersion
1070
     0
  0
VISUALSTYLE
  5
31
102
{ACAD_XDICTIONARY
360
543
102
}
102
{ACAD_REACTORS
330
29
102
}
330
29
100
AcDbVisualStyle
  2
Hidden
 70
     6
 71
     1
 72
     2
 73
     2
 90
        0
 40
-0.6
 41
-30.0
 62
     5
 63
     7
 74
     2
 91
        2
 64
     7
 65
   257
 75
     2
175
     1
 42
40.0
 92
        0
 66
   257
 43
1.0
 76
     1
 77
     6
 78
     2
 67
     7
 79
     3
170
     0
171
     0
290
     0
174
     0
 93
        1
 44
0.0
173
     0
291
     0
 45
0.0
1001
ACAD
1000
AcDbSavedByObjectVersion
1070
     0
  0
VISUALSTYLE
  5
3F
102
{ACAD_XDICTIONARY
360
55F
102
}
102
{ACAD_REACTORS
330
29
102
}
330
29
100
AcDbVisualStyle
  2
JitterOff
 70
    20
 71
     2
 72
     2
 73
     0
 90
        0
 40
-0.6
 41
-30.0
 62
     5
 63
     7
 74
     1
 91
        4
 64
     7
 65
   257
 75
     1
175
     1
 42
1.0
 92
       10
 66
     7
 43
1.0
 76
     1
 77
     6
 78
     2
 67
     7
 79
     5
170
     0
171
     0
290
     0
174
     0
 93
        1
 44
0.0
173
     0
291
     1
 45
0.0
1001
ACAD
1000
AcDbSavedByObjectVersion
1070
     0
  0
VISUALSTYLE
  5
37
102
{ACAD_XDICTIONARY
360
54F
102
}
102
{ACAD_REACTORS
330
29
102
}
330
29
100
AcDbVisualStyle
  2
Linepattern
 70
    14
 71
     2
 72
     2
 73
     0
 90
        0
 40
-0.6
 41
-30.0
 62
     5
 63
     7
 74
     1
 91
        4
 64
     7
 65
   257
 75
     7
175
     7
 42
1.0
 92
        8
 66
     7
 43
1.0
 76
     1
 77
     6
 78
     2
 67
     7
 79
     5
170
     0
171
     0
290
     0
174
     0
 93
        1
 44
0.0
173
     0
291
     1
 45
0.0
1001
ACAD
1000
AcDbSavedByObjectVersion
1070
     0
  0
VISUALSTYLE
  5
40
102
{ACAD_XDICTIONARY
360
561
102
}
102
{ACAD_REACTORS
330
29
102
}
330
29
100
AcDbVisualStyle
  2
OverhangOff
 70
    21
 71
     2
 72
     2
 73
     0
 90
        0
 40
-0.6
 41
-30.0
 62
     5
 63
     7
 74
     1
 91
        4
 64
     7
 65
   257
 75
     1
175
     1
 42
1.0
 92
        9
 66
     7
 43
1.0
 76
     1
 77
     6
 78
     2
 67
     7
 79
     5
170
     0
171
     0
290
     0
174
     0
 93
        1
 44
0.0
173
     0
291
     1
 45
0.0
1001
ACAD
1000
AcDbSavedByObjectVersion
1070
     0
  0
VISUALSTYLE
  5
33
102
{ACAD_XDICTIONARY
360
547
102
}
102
{ACAD_REACTORS
330
29
102
}
330
29
100
AcDbVisualStyle
  2
Realistic
 70
     8
 71
     2
 72
     3
 73
     0
 90
        2
 40
-0.6
 41
30.0
 62
     5
 63
     7
 74
     0
 91
        0
 64
     7
 65
   257
 75
     1
175
     1
 42
1.0
 92
        8
 66
   257
 43
1.0
 76
     1
 77
     6
 78
     2
 67
     7
 79
     3
170
     0
171
     0
290
     0
174
     0
 93
       13
 44
0.0
173
     0
291
     0
 45
0.0
1001
ACAD
1000
AcDbSavedByObjectVersion
1070
     0
  0
VISUALSTYLE
  5
3E
102
{ACAD_XDICTIONARY
360
55D
102
}
102
{ACAD_REACTORS
330
29
102
}
330
29
100
AcDbVisualStyle
  2
Shaded
 70
    27
 71
     2
 72
     2
 73
     1
 90
        2
 40
-0.6
 41
30.0
 62
     5
 63
     7
 74
     0
 91
        4
 64
     7
 65
   257
 75
     1
175
     1
 42
1.0
 92
        8
 66
   257
 43
1.0
 76
     1
 77
     6
 78
     2
 67
     8
 79
     3
170
     0
171
     0
290
     0
174
     0
 93
        5
 44
0.0
173
     0
291
     0
 45
0.0
1001
ACAD
1000
AcDbSavedByObjectVersion
1070
     0
  0
VISUALSTYLE
  5
3D
102
{ACAD_XDICTIONARY
360
55B
102
}
102
{ACAD_REACTORS
330
29
102
}
330
29
100
AcDbVisualStyle
  2
Shaded with edges
 70
    26
 71
     2
 72
     2
 73
     1
 90
        2
 40
-0.6
 41
30.0
 62
     5
 63
     7
 74
     1
 91
        2
 64
     7
 65
   257
 75
     2
175
     1
 42
1.0
 92
        8
 66
   257
 43
1.0
 76
     1
 77
     6
 78
     2
 67
     7
 79
     3
170
     0
171
     0
290
     0
174
     0
 93
        5
 44
0.0
173
     0
291
     0
 45
0.0
1001
ACAD
1000
AcDbSavedByObjectVersion
1070
     0
  0
VISUALSTYLE
  5
3A
102
{ACAD_XDICTIONARY
360
555
102
}
102
{ACAD_REACTORS
330
29
102
}
330
29
100
AcDbVisualStyle
  2
Shades of Gray
 70
    23
 71
     2
 72
     2
 73
     3
 90
        0
 40
-0.6
 41
-30.0
 62
     5
 63
     7
 74
     2
 91
        2
 64
     7
 65
     7
 75
     1
175
     1
 42
40.0
 92
        8
 66
     7
 43
1.0
 76
     1
 77
     6
 78
     2
 67
     7
 79
     3
170
     0
171
     0
290
     0
174
     0
 93
        1
 44
0.0
173
     0
291
     0
 45
0.0
1001
ACAD
1000
AcDbSavedByObjectVersion
1070
     0
  0
VISUALSTYLE
  5
3B
102
{ACAD_XDICTIONARY
360
557
102
}
102
{ACAD_REACTORS
330
29
102
}
330
29
100
AcDbVisualStyle
  2
Sketchy
 70
    24
 71
     1
 72
     2
 73
     2
 90
        0
 40
-0.6
 41
-30.0
 62
     5
 63
     7
 74
     2
 91
        2
 64
     7
 65
     7
 75
     1
175
     1
 42
40.0
 92
       11
 66
     7
 43
1.0
 76
     1
 77
     6
 78
     2
 67
     7
 79
     6
170
     0
171
     0
290
     0
174
     0
 93
        1
 44
0.0
173
     0
291
     0
 45
0.0
1001
ACAD
1000
AcDbSavedByObjectVersion
1070
     0
  0
VISUALSTYLE
  5
36
102
{ACAD_XDICTIONARY
360
54D
102
}
102
{ACAD_REACTORS
330
29
102
}
330
29
100
AcDbVisualStyle
  2
Thicken
 70
    13
 71
     2
 72
     2
 73
     0
 90
        0
 40
-0.6
 41
-30.0
 62
     5
 63
     7
 74
     1
 91
        4
 64
     7
 65
   257
 75
     1
175
     1
 42
1.0
 92
       12
 66
     7
 43
1.0
 76
     1
 77
     6
 78
     2
 67
     7
 79
     5
170
     0
171
     0
290
     0
174
     0
 93
        1
 44
0.0
173
     0
291
     1
 45
0.0
1001
ACAD
1000
AcDbSavedByObjectVersion
1070
     0
  0
VISUALSTYLE
  5
30
102
{ACAD_XDICTIONARY
360
541
102
}
102
{ACAD_REACTORS
330
29
102
}
330
29
100
AcDbVisualStyle
  2
Wireframe
 70
     5
 71
     0
 72
     2
 73
     0
 90
        0
 40
-0.6
 41
-30.0
 62
     5
 63
     7
 74
     1
 91
        4
 64
     7
 65
   257
 75
     1
175
     1
 42
1.0
 92
        0
 66
   257
 43
1.0
 76
     1
 77
     6
 78
     2
 67
     7
 79
     3
170
     0
171
     0
290
     0
174
     0
 93
        1
 44
0.0
173
     0
291
     0
 45
0.0
1001
ACAD
1000
AcDbSavedByObjectVersion
1070
     0
  0
VISUALSTYLE
  5
3C
102
{ACAD_XDICTIONARY
360
559
102
}
102
{ACAD_REACTORS
330
29
102
}
330
29
100
AcDbVisualStyle
  2
X-Ray
 70
    25
 71
     2
 72
     2
 73
     1
 90
        1
 40
0.5
 41
-30.0
 62
     5
 63
     7
 74
     1
 91
        0
 64
     7
 65
   257
 75
     1
175
     1
 42
1.0
 92
        8
 66
     7
 43
1.0
 76
     1
 77
     6
 78
     2
 67
     7
 79
     3
170
     0
171
     0
290
     0
174
     0
 93
       13
 44
0.0
173
     0
291
     0
 45
0.0
1001
ACAD
1000
AcDbSavedByObjectVersion
1070
     0
  0
DICTIONARYVAR
  5
528
102
{ACAD_REACTORS
330
523
102
}
330
523
100
DictionaryVariables
280
     0
  1
1:1
  0
DICTIONARYVAR
  5
525
102
{ACAD_REACTORS
330
523
102
}
330
523
100
DictionaryVariables
280
     0
  1
STANDARD
  0
DICTIONARYVAR
  5
524
102
{ACAD_REACTORS
330
523
102
}
330
523
100
DictionaryVariables
280
     0
  1
STANDARD
  0
DICTIONARYVAR
  5
526
102
{ACAD_REACTORS
330
523
102
}
330
523
100
DictionaryVariables
280
     0
  1
Imperial24
  0
DICTIONARYVAR
  5
527
102
{ACAD_REACTORS
330
523
102
}
330
523
100
DictionaryVariables
280
     0
  1
Imperial24
  0
DICTIONARYVAR
  5
52B
102
{ACAD_REACTORS
330
523
102
}
330
523
100
DictionaryVariables
280
     0
  1
1
  0
DICTIONARYVAR
  5
52A
102
{ACAD_REACTORS
330
523
102
}
330
523
100
DictionaryVariables
280
     0
  1
0
  0
DICTIONARYVAR
  5
529
102
{ACAD_REACTORS
330
523
102
}
330
523
100
DictionaryVariables
280
     0
  1
127
  0
DICTIONARYVAR
  5
52C
102
{ACAD_REACTORS
330
523
102
}
330
523
100
DictionaryVariables
280
     0
  1
2
  0
DICTIONARY
  5
569
330
6A
100
AcDbDictionary
280
     1
281
     1
  3
ACAD_XREC_ROUNDTRIP
360
56A
  0
DICTIONARY
  5
56D
330
72
100
AcDbDictionary
280
     1
281
     1
  3
ACAD_XREC_ROUNDTRIP
360
56E
  0
DICTIONARY
  5
56B
330
6E
100
AcDbDictionary
280
     1
281
     1
  3
ACAD_XREC_ROUNDTRIP
360
56C
  0
DICTIONARY
  5
1A
330
19
100
AcDbDictionary
280
     1
281
     1
  3
ACAD_XREC_ROUNDTRIP
360
533
  3
BUMPTILE
360
1C
  3
DIFFUSETILE
360
1B
  3
OPACITYTILE
360
1F
  3
REFLECTIONTILE
360
1E
  3
REFRACTIONTILE
360
20
  3
SPECULARTILE
360
1D
  0
DICTIONARY
  5
12
330
11
100
AcDbDictionary
280
     1
281
     1
  3
ACAD_XREC_ROUNDTRIP
360
532
  3
BUMPTILE
360
14
  3
DIFFUSETILE
360
13
  3
OPACITYTILE
360
17
  3
REFLECTIONTILE
360
16
  3
REFRACTIONTILE
360
18
  3
SPECULARTILE
360
15
  0
DICTIONARY
  5
22
330
21
100
AcDbDictionary
280
     1
281
     1
  3
ACAD_XREC_ROUNDTRIP
360
534
  3
BUMPTILE
360
24
  3
DIFFUSETILE
360
23
  3
OPACITYTILE
360
27
  3
REFLECTIONTILE
360
26
  3
REFRACTIONTILE
360
28
  3
SPECULARTILE
360
25
  0
DICTIONARY
  5
567
330
68
100
AcDbDictionary
280
     1
281
     1
  3
ACAD_XREC_ROUNDTRIP
360
568
  0
DICTIONARY
  5
52E
330
64
100
AcDbDictionary
280
     1
281
     1
  3
ACAD_ROUNDTRIP_2008_TABLESTYLE_CELLSTYLEMAP
360
52F
  3
ACAD_XREC_ROUNDTRIP
360
565
  0
DICTIONARY
  5
53F
330
2F
100
AcDbDictionary
280
     1
281
     1
  3
ACAD_XREC_ROUNDTRIP
360
540
  0
DICTIONARY
  5
53D
330
2E
100
AcDbDictionary
280
     1
281
     1
  3
ACAD_XREC_ROUNDTRIP
360
53E
  0
DICTIONARY
  5
54B
330
35
100
AcDbDictionary
280
     1
281
     1
  3
ACAD_XREC_ROUNDTRIP
360
54C
  0
DICTIONARY
  5
553
330
39
100
AcDbDictionary
280
     1
281
     1
  3
ACAD_XREC_ROUNDTRIP
360
554
  0
DICTIONARY
  5
545
330
32
100
AcDbDictionary
280
     1
281
     1
  3
ACAD_XREC_ROUNDTRIP
360
546
  0
DICTIONARY
  5
549
330
34
100
AcDbDictionary
280
     1
281
     1
  3
ACAD_XREC_ROUNDTRIP
360
54A
  0
DICTIONARY
  5
563
330
41
100
AcDbDictionary
280
     1
281
     1
  3
ACAD_XREC_ROUNDTRIP
360
564
  0
DICTIONARY
  5
551
330
38
100
AcDbDictionary
280
     1
281
     1
  3
ACAD_XREC_ROUNDTRIP
360
552
  0
DICTIONARY
  5
535
330
2A
100
AcDbDictionary
280
     1
281
     1
  3
ACAD_XREC_ROUNDTRIP
360
536
  0
DICTIONARY
  5
537
330
2B
100
AcDbDictionary
280
     1
281
     1
  3
ACAD_XREC_ROUNDTRIP
360
538
  0
DICTIONARY
  5
539
330
2C
100
AcDbDictionary
280
     1
281
     1
  3
ACAD_XREC_ROUNDTRIP
360
53A
  0
DICTIONARY
  5
53B
330
2D
100
AcDbDictionary
280
     1
281
     1
  3
ACAD_XREC_ROUNDTRIP
360
53C
  0
DICTIONARY
  5
543
330
31
100
AcDbDictionary
280
     1
281
     1
  3
ACAD_XREC_ROUNDTRIP
360
544
  0
DICTIONARY
  5
55F
330
3F
100
AcDbDictionary
280
     1
281
     1
  3
ACAD_XREC_ROUNDTRIP
360
560
  0
DICTIONARY
  5
54F
330
37
100
AcDbDictionary
280
     1
281
     1
  3
ACAD_XREC_ROUNDTRIP
360
550
  0
DICTIONARY
  5
561
330
40
100
AcDbDictionary
280
     1
281
     1
  3
ACAD_XREC_ROUNDTRIP
360
562
  0
DICTIONARY
  5
547
330
33
100
AcDbDictionary
280
     1
281
     1
  3
ACAD_XREC_ROUNDTRIP
360
548
  0
DICTIONARY
  5
55D
330
3E
100
AcDbDictionary
280
     1
281
     1
  3
ACAD_XREC_ROUNDTRIP
360
55E
  0
DICTIONARY
  5
55B
330
3D
100
AcDbDictionary
280
     1
281
     1
  3
ACAD_XREC_ROUNDTRIP
360
55C
  0
DICTIONARY
  5
555
330
3A
100
AcDbDictionary
280
     1
281
     1
  3
ACAD_XREC_ROUNDTRIP
360
556
  0
DICTIONARY
  5
557
330
3B
100
AcDbDictionary
280
     1
281
     1
  3
ACAD_XREC_ROUNDTRIP
360
558
  0
DICTIONARY
  5
54D
330
36
100
AcDbDictionary
280
     1
281
     1
  3
ACAD_XREC_ROUNDTRIP
360
54E
  0
DICTIONARY
  5
541
330
30
100
AcDbDictionary
280
     1
281
     1
  3
ACAD_XREC_ROUNDTRIP
360
542
  0
DICTIONARY
  5
559
330
3C
100
AcDbDictionary
280
     1
281
     1
  3
ACAD_XREC_ROUNDTRIP
360
55A
  0
XRECORD
  5
56A
102
{ACAD_REACTORS
330
569
102
}
330
569
100
AcDbXrecord
280
     1
102
DISPLAYNAME
  1
Imperial24
102
FLAGS
 90
        0
  0
XRECORD
  5
56E
102
{ACAD_REACTORS
330
56D
102
}
330
56D
100
AcDbXrecord
280
     1
102
SHADEPLOT
 70
     0
102
SHADEPLOTRESLEVEL
 70
     2
102
SHADEPLOTCUSTOMDPI
 70
   300
  0
XRECORD
  5
56C
102
{ACAD_REACTORS
330
56B
102
}
330
56B
100
AcDbXrecord
280
     1
102
SHADEPLOT
 70
     0
102
SHADEPLOTRESLEVEL
 70
     2
102
SHADEPLOTCUSTOMDPI
 70
   300
  0
XRECORD
  5
533
102
{ACAD_REACTORS
330
1A
102
}
330
1A
100
AcDbXrecord
280
     1
102
MATERIAL
148
0.0
149
0.0
149
0.0
 93
        0
 94
      127
282
     0
 72
     0
 77
     0
171
     0
175
     0
179
     0
273
     0
  0
XRECORD
  5
1C
102
{ACAD_REACTORS
330
1A
102
}
330
1A
100
AcDbXrecord
280
     1
270
     1
271
     1
  0
XRECORD
  5
1B
102
{ACAD_REACTORS
330
1A
102
}
330
1A
100
AcDbXrecord
280
     1
270
     1
271
     1
  0
XRECORD
  5
1F
102
{ACAD_REACTORS
330
1A
102
}
330
1A
100
AcDbXrecord
280
     1
270
     1
271
     1
  0
XRECORD
  5
1E
102
{ACAD_REACTORS
330
1A
102
}
330
1A
100
AcDbXrecord
280
     1
270
     1
271
     1
  0
XRECORD
  5
20
102
{ACAD_REACTORS
330
1A
102
}
330
1A
100
AcDbXrecord
280
     1
270
     1
271
     1
  0
XRECORD
  5
1D
102
{ACAD_REACTORS
330
1A
102
}
330
1A
100
AcDbXrecord
280
     1
270
     1
271
     1
  0
XRECORD
  5
532
102
{ACAD_REACTORS
330
12
102
}
330
12
100
AcDbXrecord
280
     1
102
MATERIAL
148
0.0
149
0.0
149
0.0
 93
        0
 94
      127
282
     0
 72
     0
 77
     0
171
     0
175
     0
179
     0
273
     0
  0
XRECORD
  5
14
102
{ACAD_REACTORS
330
12
102
}
330
12
100
AcDbXrecord
280
     1
270
     1
271
     1
  0
XRECORD
  5
13
102
{ACAD_REACTORS
330
12
102
}
330
12
100
AcDbXrecord
280
     1
270
     1
271
     1
  0
XRECORD
  5
17
102
{ACAD_REACTORS
330
12
102
}
330
12
100
AcDbXrecord
280
     1
270
     1
271
     1
  0
XRECORD
  5
16
102
{ACAD_REACTORS
330
12
102
}
330
12
100
AcDbXrecord
280
     1
270
     1
271
     1
  0
XRECORD
  5
18
102
{ACAD_REACTORS
330
12
102
}
330
12
100
AcDbXrecord
280
     1
270
     1
271
     1
  0
XRECORD
  5
15
102
{ACAD_REACTORS
330
12
102
}
330
12
100
AcDbXrecord
280
     1
270
     1
271
     1
  0
XRECORD
  5
534
102
{ACAD_REACTORS
330
22
102
}
330
22
100
AcDbXrecord
280
     1
102
MATERIAL
148
0.0
149
0.0
149
0.0
 93
        0
 94
      127
282
     0
 72
     0
 77
     0
171
     0
175
     0
179
     0
273
     0
  0
XRECORD
  5
24
102
{ACAD_REACTORS
330
22
102
}
330
22
100
AcDbXrecord
280
     1
270
     1
271
     1
  0
XRECORD
  5
23
102
{ACAD_REACTORS
330
22
102
}
330
22
100
AcDbXrecord
280
     1
270
     1
271
     1
  0
XRECORD
  5
27
102
{ACAD_REACTORS
330
22
102
}
330
22
100
AcDbXrecord
280
     1
270
     1
271
     1
  0
XRECORD
  5
26
102
{ACAD_REACTORS
330
22
102
}
330
22
100
AcDbXrecord
280
     1
270
     1
271
     1
  0
XRECORD
  5
28
102
{ACAD_REACTORS
330
22
102
}
330
22
100
AcDbXrecord
280
     1
270
     1
271
     1
  0
XRECORD
  5
25
102
{ACAD_REACTORS
330
22
102
}
330
22
100
AcDbXrecord
280
     1
270
     1
271
     1
  0
XRECORD
  5
568
102
{ACAD_REACTORS
330
567
102
}
330
567
100
AcDbXrecord
280
     1
102
DISPLAYNAME
  1
Imperial24
102
FLAGS
 90
        0
  0
CELLSTYLEMAP
  5
52F
102
{ACAD_REACTORS
330
52E
102
}
330
52E
100
AcDbCellStyleMap
 90
        3
300
CELLSTYLE
  1
TABLEFORMAT_BEGIN
 90
        5
170
     1
 91
        0
 92
    32768
 62
   257
 93
        1
300
CONTENTFORMAT
  1
CONTENTFORMAT_BEGIN
 90
        0
 91
        0
 92
      512
 93
        0
300

 40
0.0
140
1.0
 94
        5
 62
     0
340
55
144
0.25
309
CONTENTFORMAT_END
171
     0
 94
        0
309
TABLEFORMAT_END
  1
CELLSTYLE_BEGIN
 90
        1
 91
        1
300
_TITLE
309
CELLSTYLE_END
300
CELLSTYLE
  1
TABLEFORMAT_BEGIN
 90
        5
170
     1
 91
        0
 92
        0
 62
   257
 93
        1
300
CONTENTFORMAT
  1
CONTENTFORMAT_BEGIN
 90
        0
 91
        0
 92
      512
 93
        0
300

 40
0.0
140
1.0
 94
        5
 62
     0
340
55
144
0.18
309
CONTENTFORMAT_END
171
     0
 94
        0
309
TABLEFORMAT_END
  1
CELLSTYLE_BEGIN
 90
        2
 91
        1
300
_HEADER
309
CELLSTYLE_END
300
CELLSTYLE
  1
TABLEFORMAT_BEGIN
 90
        5
170
     1
 91
        0
 92
        0
 62
   257
 93
        1
300
CONTENTFORMAT
  1
CONTENTFORMAT_BEGIN
 90
        0
 91
        0
 92
      512
 93
        0
300

 40
0.0
140
1.0
 94
        2
 62
     0
340
55
144
0.18
309
CONTENTFORMAT_END
171
     0
 94
        0
309
TABLEFORMAT_END
  1
CELLSTYLE_BEGIN
 90
        3
 91
        2
300
_DATA
309
CELLSTYLE_END
  0
XRECORD
  5
565
102
{ACAD_REACTORS
330
52E
102
}
330
52E
100
AcDbXrecord
280
     1
102
ACAD_ROUNDTRIP_PRE2007_TABLESTYLE
 90
      512
 91
        0
  1

 92
      512
 93
        0
  2

 94
      512
 95
        0
  3

  0
XRECORD
  5
540
102
{ACAD_REACTORS
330
53F
102
}
330
53F
100
AcDbXrecord
280
     1
102
RTVSPost2010Prop28
280
     1
102
RTVSPost2010PropOp28
 70
     1
102
RTVSPost2010Prop29
280
     1
102
RTVSPost2010PropOp29
 70
     1
102
RTVSPost2010Prop30
280
     0
102
RTVSPost2010PropOp30
 70
     1
102
RTVSPost2010Prop31
280
     0
102
RTVSPost2010PropOp31
 70
     1
102
RTVSPost2010Prop32
280
     0
102
RTVSPost2010PropOp32
 70
     1
102
RTVSPost2010Prop33
280
     0
102
RTVSPost2010PropOp33
 70
     1
102
RTVSPost2010Prop34
280
     0
102
RTVSPost2010PropOp34
 70
     1
102
RTVSPost2010Prop35
280
     0
102
RTVSPost2010PropOp35
 70
     1
102
RTVSPost2010Prop36
280
     0
102
RTVSPost2010PropOp36
 70
     1
102
RTVSPost2010Prop37
 90
       50
102
RTVSPost2010PropOp37
 70
     1
102
RTVSPost2010Prop38
140
0.0
102
RTVSPost2010PropOp38
 70
     1
102
RTVSPost2010Prop39
140
1.0
102
RTVSPost2010PropOp39
 70
     1
102
RTVSPost2010Prop40
 90
        0
102
RTVSPost2010PropOp40
 70
     1
102
RTVSPost2010Prop41ColorIndex
 90
       18
102
RTVSPost2010Prop41ColorRGB
 90
        0
102
RTVSPost2010PropOp41
 70
     1
102
RTVSPost2010Prop42
 90
       50
102
RTVSPost2010PropOp42
 70
     1
102
RTVSPost2010Prop43
 90
        3
102
RTVSPost2010PropOp43
 70
     1
102
RTVSPost2010Prop44ColorIndex
 90
        5
102
RTVSPost2010Prop44ColorRGB
 90
      255
102
RTVSPost2010PropOp44
 70
     1
102
RTVSPost2010Prop45
280
     0
102
RTVSPost2010PropOp45
 70
     1
102
RTVSPost2010Prop46
 90
       50
102
RTVSPost2010PropOp46
 70
     1
102
RTVSPost2010Prop47
 90
       50
102
RTVSPost2010PropOp47
 70
     1
102
RTVSPost2010Prop48
 90
       50
102
RTVSPost2010PropOp48
 70
     1
102
RTVSPost2010Prop49
280
     0
102
RTVSPost2010PropOp49
 70
     1
102
RTVSPost2010Prop50
 90
       50
102
RTVSPost2010PropOp50
 70
     1
102
RTVSPost2010Prop51ColorIndex
 90
      256
102
RTVSPost2010Prop51ColorRGB
 90
-16777216
102
RTVSPost2010PropOp51
 70
     0
102
RTVSPost2010Prop52
140
1.0
102
RTVSPost2010PropOp52
 70
     0
102
RTVSPost2010Prop53
 90
        2
102
RTVSPost2010PropOp53
 70
     1
102
RTVSPost2010Prop54
  1
strokes_ogs.tif
102
RTVSPost2010PropOp54
 70
     1
102
RTVSPost2010Prop55
280
     0
102
RTVSPost2010PropOp55
 70
     1
102
RTVSPost2010Prop56
140
1.0
102
RTVSPost2010PropOp56
 70
     1
102
RTVSPost2010Prop57
140
1.0
102
RTVSPost2010PropOp57
 70
     1
102
RTVSPropertyOp0
 70
     1
102
RTVSPropertyOp1
 70
     1
102
RTVSPropertyOp2
 70
     1
102
RTVSPropertyOp3
 70
     1
102
RTVSPropertyOp4
 70
     1
102
RTVSPropertyOp5
 70
     1
102
RTVSPropertyOp6
 70
     1
102
RTVSPropertyOp7
 70
     1
102
RTVSPropertyOp8
 70
     1
102
RTVSPropertyOp9
 70
     1
102
RTVSPropertyOp10
 70
     1
102
RTVSPropertyOp11
 70
     1
102
RTVSPropertyOp12
 70
     1
102
RTVSPropertyOp13
 70
     1
102
RTVSPropertyOp14
 70
     1
102
RTVSPropertyOp15
 70
     1
102
RTVSPropertyOp16
 70
     1
102
RTVSPropertyOp17
 70
     1
102
RTVSPropertyOp18
 70
     1
102
RTVSPropertyOp19
 70
     1
102
RTVSPropertyOp20
 70
     1
102
RTVSPropertyOp21
 70
     1
102
RTVSPropertyOp22
 70
     1
102
RTVSPropertyOp23
 70
     1
102
RTVSPropertyOp24
 70
     1
102
RTVSPropertyOp25
 70
     1
102
RTVSPropertyOp26
 70
     1
102
RTVSPropertyOp27
 70
     1
102
RTVSPropertyOp28
 70
     1
102
RTVSPropertyOp29
 70
     1
102
RTVSPropertyOp30
 70
     1
102
RTVSPropertyOp31
 70
     1
102
RTVSPropertyOp32
 70
     1
102
RTVSPropertyOp33
 70
     1
102
RTVSPropertyOp34
 70
     1
102
RTVSPropertyOp35
 70
     1
102
RTVSPropertyOp36
 70
     1
102
RTVSPropertyOp37
 70
     1
102
RTVSPropertyOp38
 70
     1
102
RTVSPropertyOp39
 70
     1
102
RTVSPropertyOp40
 70
     1
102
RTVSPropertyOp41
 70
     1
102
RTVSPropertyOp42
 70
     1
102
RTVSPropertyOp43
 70
     1
102
RTVSPropertyOp44
 70
     1
102
RTVSPropertyOp45
 70
     1
102
RTVSPropertyOp46
 70
     1
102
RTVSPropertyOp47
 70
     1
102
RTVSPropertyOp48
 70
     1
102
RTVSPropertyOp49
 70
     1
102
RTVSPropertyOp50
 70
     1
102
RTVSPropertyOp51
 70
     0
102
RTVSPropertyOp52
 70
     0
102
RTVSPropertyOp53
 70
     1
102
RTVSPropertyOp54
 70
     1
102
RTVSPropertyOp55
 70
     1
102
RTVSPropertyOp56
 70
     1
102
RTVSPropertyOp57
 70
     1
102
RTVSPropertyOp58
 70
     1
102
RTVSPropertyOp59
 70
     1
102
RTVSPropertyOp60
 70
     1
102
RTVSPropertyOp61
 70
     1
102
RTVSPropertyOp62
 70
     1
  0
XRECORD
  5
53E
102
{ACAD_REACTORS
330
53D
102
}
330
53D
100
AcDbXrecord
280
     1
102
RTVSPost2010Prop28
280
     0
102
RTVSPost2010PropOp28
 70
     1
102
RTVSPost2010Prop29
280
     1
102
RTVSPost2010PropOp29
 70
     1
102
RTVSPost2010Prop30
280
     1
102
RTVSPost2010PropOp30
 70
     1
102
RTVSPost2010Prop31
280
     0
102
RTVSPost2010PropOp31
 70
     1
102
RTVSPost2010Prop32
280
     0
102
RTVSPost2010PropOp32
 70
     1
102
RTVSPost2010Prop33
280
     0
102
RTVSPost2010PropOp33
 70
     1
102
RTVSPost2010Prop34
280
     0
102
RTVSPost2010PropOp34
 70
     1
102
RTVSPost2010Prop35
280
     0
102
RTVSPost2010PropOp35
 70
     1
102
RTVSPost2010Prop36
280
     0
102
RTVSPost2010PropOp36
 70
     1
102
RTVSPost2010Prop37
 90
       50
102
RTVSPost2010PropOp37
 70
     1
102
RTVSPost2010Prop38
140
0.0
102
RTVSPost2010PropOp38
 70
     1
102
RTVSPost2010Prop39
140
1.0
102
RTVSPost2010PropOp39
 70
     1
102
RTVSPost2010Prop40
 90
        0
102
RTVSPost2010PropOp40
 70
     1
102
RTVSPost2010Prop41ColorIndex
 90
       18
102
RTVSPost2010Prop41ColorRGB
 90
        0
102
RTVSPost2010PropOp41
 70
     1
102
RTVSPost2010Prop42
 90
       50
102
RTVSPost2010PropOp42
 70
     1
102
RTVSPost2010Prop43
 90
        3
102
RTVSPost2010PropOp43
 70
     1
102
RTVSPost2010Prop44ColorIndex
 90
        5
102
RTVSPost2010Prop44ColorRGB
 90
      255
102
RTVSPost2010PropOp44
 70
     1
102
RTVSPost2010Prop45
280
     0
102
RTVSPost2010PropOp45
 70
     1
102
RTVSPost2010Prop46
 90
       50
102
RTVSPost2010PropOp46
 70
     1
102
RTVSPost2010Prop47
 90
       50
102
RTVSPost2010PropOp47
 70
     1
102
RTVSPost2010Prop48
 90
       50
102
RTVSPost2010PropOp48
 70
     1
102
RTVSPost2010Prop49
280
     0
102
RTVSPost2010PropOp49
 70
     1
102
RTVSPost2010Prop50
 90
       50
102
RTVSPost2010PropOp50
 70
     1
102
RTVSPost2010Prop51ColorIndex
 90
      256
102
RTVSPost2010Prop51ColorRGB
 90
-16777216
102
RTVSPost2010PropOp51
 70
     0
102
RTVSPost2010Prop52
140
1.0
102
RTVSPost2010PropOp52
 70
     0
102
RTVSPost2010Prop53
 90
        2
102
RTVSPost2010PropOp53
 70
     1
102
RTVSPost2010Prop54
  1
strokes_ogs.tif
102
RTVSPost2010PropOp54
 70
     1
102
RTVSPost2010Prop55
280
     0
102
RTVSPost2010PropOp55
 70
     1
102
RTVSPost2010Prop56
140
1.0
102
RTVSPost2010PropOp56
 70
     1
102
RTVSPost2010Prop57
140
1.0
102
RTVSPost2010PropOp57
 70
     1
102
RTVSPropertyOp0
 70
     1
102
RTVSPropertyOp1
 70
     1
102
RTVSPropertyOp2
 70
     1
102
RTVSPropertyOp3
 70
     1
102
RTVSPropertyOp4
 70
     1
102
RTVSPropertyOp5
 70
     1
102
RTVSPropertyOp6
 70
     1
102
RTVSPropertyOp7
 70
     1
102
RTVSPropertyOp8
 70
     1
102
RTVSPropertyOp9
 70
     1
102
RTVSPropertyOp10
 70
     1
102
RTVSPropertyOp11
 70
     1
102
RTVSPropertyOp12
 70
     1
102
RTVSPropertyOp13
 70
     1
102
RTVSPropertyOp14
 70
     1
102
RTVSPropertyOp15
 70
     1
102
RTVSPropertyOp16
 70
     1
102
RTVSPropertyOp17
 70
     1
102
RTVSPropertyOp18
 70
     1
102
RTVSPropertyOp19
 70
     1
102
RTVSPropertyOp20
 70
     1
102
RTVSPropertyOp21
 70
     1
102
RTVSPropertyOp22
 70
     1
102
RTVSPropertyOp23
 70
     1
102
RTVSPropertyOp24
 70
     1
102
RTVSPropertyOp25
 70
     1
102
RTVSPropertyOp26
 70
     1
102
RTVSPropertyOp27
 70
     1
102
RTVSPropertyOp28
 70
     1
102
RTVSPropertyOp29
 70
     1
102
RTVSPropertyOp30
 70
     1
102
RTVSPropertyOp31
 70
     1
102
RTVSPropertyOp32
 70
     1
102
RTVSPropertyOp33
 70
     1
102
RTVSPropertyOp34
 70
     1
102
RTVSPropertyOp35
 70
     1
102
RTVSPropertyOp36
 70
     1
102
RTVSPropertyOp37
 70
     1
102
RTVSPropertyOp38
 70
     1
102
RTVSPropertyOp39
 70
     1
102
RTVSPropertyOp40
 70
     1
102
RTVSPropertyOp41
 70
     1
102
RTVSPropertyOp42
 70
     1
102
RTVSPropertyOp43
 70
     1
102
RTVSPropertyOp44
 70
     1
102
RTVSPropertyOp45
 70
     1
102
RTVSPropertyOp46
 70
     1
102
RTVSPropertyOp47
 70
     1
102
RTVSPropertyOp48
 70
     1
102
RTVSPropertyOp49
 70
     1
102
RTVSPropertyOp50
 70
     1
102
RTVSPropertyOp51
 70
     0
102
RTVSPropertyOp52
 70
     0
102
RTVSPropertyOp53
 70
     1
102
RTVSPropertyOp54
 70
     1
102
RTVSPropertyOp55
 70
     1
102
RTVSPropertyOp56
 70
     1
102
RTVSPropertyOp57
 70
     1
102
RTVSPropertyOp58
 70
     1
102
RTVSPropertyOp59
 70
     1
102
RTVSPropertyOp60
 70
     1
102
RTVSPropertyOp61
 70
     1
102
RTVSPropertyOp62
 70
     1
  0
XRECORD
  5
54C
102
{ACAD_REACTORS
330
54B
102
}
330
54B
100
AcDbXrecord
280
     1
102
RTVSPost2010Prop28
280
     0
102
RTVSPost2010PropOp28
 70
     1
102
RTVSPost2010Prop29
280
     1
102
RTVSPost2010PropOp29
 70
     1
102
RTVSPost2010Prop30
280
     1
102
RTVSPost2010PropOp30
 70
     1
102
RTVSPost2010Prop31
280
     0
102
RTVSPost2010PropOp31
 70
     1
102
RTVSPost2010Prop32
280
     0
102
RTVSPost2010PropOp32
 70
     1
102
RTVSPost2010Prop33
280
     0
102
RTVSPost2010PropOp33
 70
     1
102
RTVSPost2010Prop34
280
     0
102
RTVSPost2010PropOp34
 70
     1
102
RTVSPost2010Prop35
280
     0
102
RTVSPost2010PropOp35
 70
     1
102
RTVSPost2010Prop36
280
     0
102
RTVSPost2010PropOp36
 70
     1
102
RTVSPost2010Prop37
 90
       50
102
RTVSPost2010PropOp37
 70
     1
102
RTVSPost2010Prop38
140
0.0
102
RTVSPost2010PropOp38
 70
     1
102
RTVSPost2010Prop39
140
1.0
102
RTVSPost2010PropOp39
 70
     1
102
RTVSPost2010Prop40
 90
        0
102
RTVSPost2010PropOp40
 70
     1
102
RTVSPost2010Prop41ColorIndex
 90
       18
102
RTVSPost2010Prop41ColorRGB
 90
        0
102
RTVSPost2010PropOp41
 70
     1
102
RTVSPost2010Prop42
 90
       50
102
RTVSPost2010PropOp42
 70
     1
102
RTVSPost2010Prop43
 90
        3
102
RTVSPost2010PropOp43
 70
     1
102
RTVSPost2010Prop44ColorIndex
 90
        5
102
RTVSPost2010Prop44ColorRGB
 90
      255
102
RTVSPost2010PropOp44
 70
     1
102
RTVSPost2010Prop45
280
     0
102
RTVSPost2010PropOp45
 70
     1
102
RTVSPost2010Prop46
 90
       50
102
RTVSPost2010PropOp46
 70
     1
102
RTVSPost2010Prop47
 90
       50
102
RTVSPost2010PropOp47
 70
     1
102
RTVSPost2010Prop48
 90
       50
102
RTVSPost2010PropOp48
 70
     1
102
RTVSPost2010Prop49
280
     0
102
RTVSPost2010PropOp49
 70
     1
102
RTVSPost2010Prop50
 90
       50
102
RTVSPost2010PropOp50
 70
     1
102
RTVSPost2010Prop51ColorIndex
 90
      256
102
RTVSPost2010Prop51ColorRGB
 90
-16777216
102
RTVSPost2010PropOp51
 70
     0
102
RTVSPost2010Prop52
140
1.0
102
RTVSPost2010PropOp52
 70
     0
102
RTVSPost2010Prop53
 90
        2
102
RTVSPost2010PropOp53
 70
     1
102
RTVSPost2010Prop54
  1
strokes_ogs.tif
102
RTVSPost2010PropOp54
 70
     1
102
RTVSPost2010Prop55
280
     0
102
RTVSPost2010PropOp55
 70
     1
102
RTVSPost2010Prop56
140
1.0
102
RTVSPost2010PropOp56
 70
     1
102
RTVSPost2010Prop57
140
1.0
102
RTVSPost2010PropOp57
 70
     1
102
RTVSPropertyOp0
 70
     1
102
RTVSPropertyOp1
 70
     1
102
RTVSPropertyOp2
 70
     1
102
RTVSPropertyOp3
 70
     1
102
RTVSPropertyOp4
 70
     1
102
RTVSPropertyOp5
 70
     1
102
RTVSPropertyOp6
 70
     1
102
RTVSPropertyOp7
 70
     1
102
RTVSPropertyOp8
 70
     1
102
RTVSPropertyOp9
 70
     1
102
RTVSPropertyOp10
 70
     1
102
RTVSPropertyOp11
 70
     1
102
RTVSPropertyOp12
 70
     1
102
RTVSPropertyOp13
 70
     1
102
RTVSPropertyOp14
 70
     1
102
RTVSPropertyOp15
 70
     1
102
RTVSPropertyOp16
 70
     1
102
RTVSPropertyOp17
 70
     1
102
RTVSPropertyOp18
 70
     1
102
RTVSPropertyOp19
 70
     1
102
RTVSPropertyOp20
 70
     1
102
RTVSPropertyOp21
 70
     1
102
RTVSPropertyOp22
 70
     1
102
RTVSPropertyOp23
 70
     1
102
RTVSPropertyOp24
 70
     1
102
RTVSPropertyOp25
 70
     1
102
RTVSPropertyOp26
 70
     1
102
RTVSPropertyOp27
 70
     1
102
RTVSPropertyOp28
 70
     1
102
RTVSPropertyOp29
 70
     1
102
RTVSPropertyOp30
 70
     1
102
RTVSPropertyOp31
 70
     1
102
RTVSPropertyOp32
 70
     1
102
RTVSPropertyOp33
 70
     1
102
RTVSPropertyOp34
 70
     1
102
RTVSPropertyOp35
 70
     1
102
RTVSPropertyOp36
 70
     1
102
RTVSPropertyOp37
 70
     1
102
RTVSPropertyOp38
 70
     1
102
RTVSPropertyOp39
 70
     1
102
RTVSPropertyOp40
 70
     1
102
RTVSPropertyOp41
 70
     1
102
RTVSPropertyOp42
 70
     1
102
RTVSPropertyOp43
 70
     1
102
RTVSPropertyOp44
 70
     1
102
RTVSPropertyOp45
 70
     1
102
RTVSPropertyOp46
 70
     1
102
RTVSPropertyOp47
 70
     1
102
RTVSPropertyOp48
 70
     1
102
RTVSPropertyOp49
 70
     1
102
RTVSPropertyOp50
 70
     1
102
RTVSPropertyOp51
 70
     0
102
RTVSPropertyOp52
 70
     0
102
RTVSPropertyOp53
 70
     1
102
RTVSPropertyOp54
 70
     1
102
RTVSPropertyOp55
 70
     1
102
RTVSPropertyOp56
 70
     1
102
RTVSPropertyOp57
 70
     1
102
RTVSPropertyOp58
 70
     1
102
RTVSPropertyOp59
 70
     1
102
RTVSPropertyOp60
 70
     1
102
RTVSPropertyOp61
 70
     1
102
RTVSPropertyOp62
 70
     1
  0
XRECORD
  5
554
102
{ACAD_REACTORS
330
553
102
}
330
553
100
AcDbXrecord
280
     1
102
RTVSPost2010Prop28
280
     0
102
RTVSPost2010PropOp28
 70
     1
102
RTVSPost2010Prop29
280
     1
102
RTVSPost2010PropOp29
 70
     1
102
RTVSPost2010Prop30
280
     1
102
RTVSPost2010PropOp30
 70
     1
102
RTVSPost2010Prop31
280
     0
102
RTVSPost2010PropOp31
 70
     1
102
RTVSPost2010Prop32
280
     0
102
RTVSPost2010PropOp32
 70
     1
102
RTVSPost2010Prop33
280
     0
102
RTVSPost2010PropOp33
 70
     1
102
RTVSPost2010Prop34
280
     0
102
RTVSPost2010PropOp34
 70
     1
102
RTVSPost2010Prop35
280
     0
102
RTVSPost2010PropOp35
 70
     1
102
RTVSPost2010Prop36
280
     0
102
RTVSPost2010PropOp36
 70
     1
102
RTVSPost2010Prop37
 90
       50
102
RTVSPost2010PropOp37
 70
     1
102
RTVSPost2010Prop38
140
0.0
102
RTVSPost2010PropOp38
 70
     1
102
RTVSPost2010Prop39
140
1.0
102
RTVSPost2010PropOp39
 70
     1
102
RTVSPost2010Prop40
 90
        0
102
RTVSPost2010PropOp40
 70
     1
102
RTVSPost2010Prop41ColorIndex
 90
       18
102
RTVSPost2010Prop41ColorRGB
 90
        0
102
RTVSPost2010PropOp41
 70
     1
102
RTVSPost2010Prop42
 90
       50
102
RTVSPost2010PropOp42
 70
     1
102
RTVSPost2010Prop43
 90
        3
102
RTVSPost2010PropOp43
 70
     1
102
RTVSPost2010Prop44ColorIndex
 90
        5
102
RTVSPost2010Prop44ColorRGB
 90
      255
102
RTVSPost2010PropOp44
 70
     1
102
RTVSPost2010Prop45
280
     0
102
RTVSPost2010PropOp45
 70
     1
102
RTVSPost2010Prop46
 90
       50
102
RTVSPost2010PropOp46
 70
     1
102
RTVSPost2010Prop47
 90
       50
102
RTVSPost2010PropOp47
 70
     1
102
RTVSPost2010Prop48
 90
       50
102
RTVSPost2010PropOp48
 70
     1
102
RTVSPost2010Prop49
280
     0
102
RTVSPost2010PropOp49
 70
     1
102
RTVSPost2010Prop50
 90
       50
102
RTVSPost2010PropOp50
 70
     1
102
RTVSPost2010Prop51ColorIndex
 90
      256
102
RTVSPost2010Prop51ColorRGB
 90
-16777216
102
RTVSPost2010PropOp51
 70
     0
102
RTVSPost2010Prop52
140
1.0
102
RTVSPost2010PropOp52
 70
     0
102
RTVSPost2010Prop53
 90
        2
102
RTVSPost2010PropOp53
 70
     1
102
RTVSPost2010Prop54
  1
strokes_ogs.tif
102
RTVSPost2010PropOp54
 70
     1
102
RTVSPost2010Prop55
280
     0
102
RTVSPost2010PropOp55
 70
     1
102
RTVSPost2010Prop56
140
1.0
102
RTVSPost2010PropOp56
 70
     1
102
RTVSPost2010Prop57
140
1.0
102
RTVSPost2010PropOp57
 70
     1
102
RTVSPropertyOp0
 70
     1
102
RTVSPropertyOp1
 70
     1
102
RTVSPropertyOp2
 70
     1
102
RTVSPropertyOp3
 70
     1
102
RTVSPropertyOp4
 70
     1
102
RTVSPropertyOp5
 70
     1
102
RTVSPropertyOp6
 70
     1
102
RTVSPropertyOp7
 70
     1
102
RTVSPropertyOp8
 70
     1
102
RTVSPropertyOp9
 70
     1
102
RTVSPropertyOp10
 70
     1
102
RTVSPropertyOp11
 70
     1
102
RTVSPropertyOp12
 70
     1
102
RTVSPropertyOp13
 70
     1
102
RTVSPropertyOp14
 70
     1
102
RTVSPropertyOp15
 70
     1
102
RTVSPropertyOp16
 70
     1
102
RTVSPropertyOp17
 70
     1
102
RTVSPropertyOp18
 70
     1
102
RTVSPropertyOp19
 70
     1
102
RTVSPropertyOp20
 70
     1
102
RTVSPropertyOp21
 70
     1
102
RTVSPropertyOp22
 70
     1
102
RTVSPropertyOp23
 70
     1
102
RTVSPropertyOp24
 70
     1
102
RTVSPropertyOp25
 70
     1
102
RTVSPropertyOp26
 70
     1
102
RTVSPropertyOp27
 70
     1
102
RTVSPropertyOp28
 70
     1
102
RTVSPropertyOp29
 70
     1
102
RTVSPropertyOp30
 70
     1
102
RTVSPropertyOp31
 70
     1
102
RTVSPropertyOp32
 70
     1
102
RTVSPropertyOp33
 70
     1
102
RTVSPropertyOp34
 70
     1
102
RTVSPropertyOp35
 70
     1
102
RTVSPropertyOp36
 70
     1
102
RTVSPropertyOp37
 70
     1
102
RTVSPropertyOp38
 70
     1
102
RTVSPropertyOp39
 70
     1
102
RTVSPropertyOp40
 70
     1
102
RTVSPropertyOp41
 70
     1
102
RTVSPropertyOp42
 70
     1
102
RTVSPropertyOp43
 70
     1
102
RTVSPropertyOp44
 70
     1
102
RTVSPropertyOp45
 70
     1
102
RTVSPropertyOp46
 70
     1
102
RTVSPropertyOp47
 70
     1
102
RTVSPropertyOp48
 70
     1
102
RTVSPropertyOp49
 70
     1
102
RTVSPropertyOp50
 70
     1
102
RTVSPropertyOp51
 70
     0
102
RTVSPropertyOp52
 70
     0
102
RTVSPropertyOp53
 70
     1
102
RTVSPropertyOp54
 70
     1
102
RTVSPropertyOp55
 70
     1
102
RTVSPropertyOp56
 70
     1
102
RTVSPropertyOp57
 70
     1
102
RTVSPropertyOp58
 70
     1
102
RTVSPropertyOp59
 70
     1
102
RTVSPropertyOp60
 70
     1
102
RTVSPropertyOp61
 70
     1
102
RTVSPropertyOp62
 70
     1
  0
XRECORD
  5
546
102
{ACAD_REACTORS
330
545
102
}
330
545
100
AcDbXrecord
280
     1
102
RTVSPost2010Prop28
280
     0
102
RTVSPost2010PropOp28
 70
     1
102
RTVSPost2010Prop29
280
     1
102
RTVSPost2010PropOp29
 70
     1
102
RTVSPost2010Prop30
280
     1
102
RTVSPost2010PropOp30
 70
     1
102
RTVSPost2010Prop31
280
     0
102
RTVSPost2010PropOp31
 70
     1
102
RTVSPost2010Prop32
280
     0
102
RTVSPost2010PropOp32
 70
     1
102
RTVSPost2010Prop33
280
     0
102
RTVSPost2010PropOp33
 70
     1
102
RTVSPost2010Prop34
280
     0
102
RTVSPost2010PropOp34
 70
     1
102
RTVSPost2010Prop35
280
     0
102
RTVSPost2010PropOp35
 70
     1
102
RTVSPost2010Prop36
280
     0
102
RTVSPost2010PropOp36
 70
     1
102
RTVSPost2010Prop37
 90
       50
102
RTVSPost2010PropOp37
 70
     1
102
RTVSPost2010Prop38
140
0.0
102
RTVSPost2010PropOp38
 70
     1
102
RTVSPost2010Prop39
140
1.0
102
RTVSPost2010PropOp39
 70
     1
102
RTVSPost2010Prop40
 90
        0
102
RTVSPost2010PropOp40
 70
     1
102
RTVSPost2010Prop41ColorIndex
 90
       18
102
RTVSPost2010Prop41ColorRGB
 90
        0
102
RTVSPost2010PropOp41
 70
     1
102
RTVSPost2010Prop42
 90
       50
102
RTVSPost2010PropOp42
 70
     1
102
RTVSPost2010Prop43
 90
        3
102
RTVSPost2010PropOp43
 70
     1
102
RTVSPost2010Prop44ColorIndex
 90
        5
102
RTVSPost2010Prop44ColorRGB
 90
      255
102
RTVSPost2010PropOp44
 70
     1
102
RTVSPost2010Prop45
280
     0
102
RTVSPost2010PropOp45
 70
     1
102
RTVSPost2010Prop46
 90
       50
102
RTVSPost2010PropOp46
 70
     1
102
RTVSPost2010Prop47
 90
       50
102
RTVSPost2010PropOp47
 70
     1
102
RTVSPost2010Prop48
 90
       50
102
RTVSPost2010PropOp48
 70
     1
102
RTVSPost2010Prop49
280
     0
102
RTVSPost2010PropOp49
 70
     1
102
RTVSPost2010Prop50
 90
       50
102
RTVSPost2010PropOp50
 70
     1
102
RTVSPost2010Prop51ColorIndex
 90
      256
102
RTVSPost2010Prop51ColorRGB
 90
-16777216
102
RTVSPost2010PropOp51
 70
     0
102
RTVSPost2010Prop52
140
1.0
102
RTVSPost2010PropOp52
 70
     0
102
RTVSPost2010Prop53
 90
        2
102
RTVSPost2010PropOp53
 70
     1
102
RTVSPost2010Prop54
  1
strokes_ogs.tif
102
RTVSPost2010PropOp54
 70
     1
102
RTVSPost2010Prop55
280
     0
102
RTVSPost2010PropOp55
 70
     1
102
RTVSPost2010Prop56
140
1.0
102
RTVSPost2010PropOp56
 70
     1
102
RTVSPost2010Prop57
140
1.0
102
RTVSPost2010PropOp57
 70
     1
102
RTVSPropertyOp0
 70
     1
102
RTVSPropertyOp1
 70
     1
102
RTVSPropertyOp2
 70
     1
102
RTVSPropertyOp3
 70
     1
102
RTVSPropertyOp4
 70
     1
102
RTVSPropertyOp5
 70
     1
102
RTVSPropertyOp6
 70
     1
102
RTVSPropertyOp7
 70
     1
102
RTVSPropertyOp8
 70
     1
102
RTVSPropertyOp9
 70
     1
102
RTVSPropertyOp10
 70
     1
102
RTVSPropertyOp11
 70
     1
102
RTVSPropertyOp12
 70
     1
102
RTVSPropertyOp13
 70
     1
102
RTVSPropertyOp14
 70
     1
102
RTVSPropertyOp15
 70
     1
102
RTVSPropertyOp16
 70
     1
102
RTVSPropertyOp17
 70
     1
102
RTVSPropertyOp18
 70
     1
102
RTVSPropertyOp19
 70
     1
102
RTVSPropertyOp20
 70
     1
102
RTVSPropertyOp21
 70
     1
102
RTVSPropertyOp22
 70
     1
102
RTVSPropertyOp23
 70
     1
102
RTVSPropertyOp24
 70
     1
102
RTVSPropertyOp25
 70
     1
102
RTVSPropertyOp26
 70
     1
102
RTVSPropertyOp27
 70
     1
102
RTVSPropertyOp28
 70
     1
102
RTVSPropertyOp29
 70
     1
102
RTVSPropertyOp30
 70
     1
102
RTVSPropertyOp31
 70
     1
102
RTVSPropertyOp32
 70
     1
102
RTVSPropertyOp33
 70
     1
102
RTVSPropertyOp34
 70
     1
102
RTVSPropertyOp35
 70
     1
102
RTVSPropertyOp36
 70
     1
102
RTVSPropertyOp37
 70
     1
102
RTVSPropertyOp38
 70
     1
102
RTVSPropertyOp39
 70
     1
102
RTVSPropertyOp40
 70
     1
102
RTVSPropertyOp41
 70
     1
102
RTVSPropertyOp42
 70
     1
102
RTVSPropertyOp43
 70
     1
102
RTVSPropertyOp44
 70
     1
102
RTVSPropertyOp45
 70
     1
102
RTVSPropertyOp46
 70
     1
102
RTVSPropertyOp47
 70
     1
102
RTVSPropertyOp48
 70
     1
102
RTVSPropertyOp49
 70
     1
102
RTVSPropertyOp50
 70
     1
102
RTVSPropertyOp51
 70
     0
102
RTVSPropertyOp52
 70
     0
102
RTVSPropertyOp53
 70
     1
102
RTVSPropertyOp54
 70
     1
102
RTVSPropertyOp55
 70
     1
102
RTVSPropertyOp56
 70
     1
102
RTVSPropertyOp57
 70
     1
102
RTVSPropertyOp58
 70
     1
102
RTVSPropertyOp59
 70
     1
102
RTVSPropertyOp60
 70
     1
102
RTVSPropertyOp61
 70
     1
102
RTVSPropertyOp62
 70
     1
  0
XRECORD
  5
54A
102
{ACAD_REACTORS
330
549
102
}
330
549
100
AcDbXrecord
280
     1
102
RTVSPost2010Prop28
280
     0
102
RTVSPost2010PropOp28
 70
     1
102
RTVSPost2010Prop29
280
     1
102
RTVSPost2010PropOp29
 70
     1
102
RTVSPost2010Prop30
280
     1
102
RTVSPost2010PropOp30
 70
     1
102
RTVSPost2010Prop31
280
     0
102
RTVSPost2010PropOp31
 70
     1
102
RTVSPost2010Prop32
280
     0
102
RTVSPost2010PropOp32
 70
     1
102
RTVSPost2010Prop33
280
     0
102
RTVSPost2010PropOp33
 70
     1
102
RTVSPost2010Prop34
280
     0
102
RTVSPost2010PropOp34
 70
     1
102
RTVSPost2010Prop35
280
     0
102
RTVSPost2010PropOp35
 70
     1
102
RTVSPost2010Prop36
280
     0
102
RTVSPost2010PropOp36
 70
     1
102
RTVSPost2010Prop37
 90
       50
102
RTVSPost2010PropOp37
 70
     1
102
RTVSPost2010Prop38
140
0.0
102
RTVSPost2010PropOp38
 70
     1
102
RTVSPost2010Prop39
140
1.0
102
RTVSPost2010PropOp39
 70
     1
102
RTVSPost2010Prop40
 90
        0
102
RTVSPost2010PropOp40
 70
     1
102
RTVSPost2010Prop41ColorIndex
 90
       18
102
RTVSPost2010Prop41ColorRGB
 90
        0
102
RTVSPost2010PropOp41
 70
     1
102
RTVSPost2010Prop42
 90
       50
102
RTVSPost2010PropOp42
 70
     1
102
RTVSPost2010Prop43
 90
        3
102
RTVSPost2010PropOp43
 70
     1
102
RTVSPost2010Prop44ColorIndex
 90
        5
102
RTVSPost2010Prop44ColorRGB
 90
      255
102
RTVSPost2010PropOp44
 70
     1
102
RTVSPost2010Prop45
280
     0
102
RTVSPost2010PropOp45
 70
     1
102
RTVSPost2010Prop46
 90
       50
102
RTVSPost2010PropOp46
 70
     1
102
RTVSPost2010Prop47
 90
       50
102
RTVSPost2010PropOp47
 70
     1
102
RTVSPost2010Prop48
 90
       50
102
RTVSPost2010PropOp48
 70
     1
102
RTVSPost2010Prop49
280
     0
102
RTVSPost2010PropOp49
 70
     1
102
RTVSPost2010Prop50
 90
       50
102
RTVSPost2010PropOp50
 70
     1
102
RTVSPost2010Prop51ColorIndex
 90
      256
102
RTVSPost2010Prop51ColorRGB
 90
-16777216
102
RTVSPost2010PropOp51
 70
     0
102
RTVSPost2010Prop52
140
1.0
102
RTVSPost2010PropOp52
 70
     0
102
RTVSPost2010Prop53
 90
        2
102
RTVSPost2010PropOp53
 70
     1
102
RTVSPost2010Prop54
  1
strokes_ogs.tif
102
RTVSPost2010PropOp54
 70
     1
102
RTVSPost2010Prop55
280
     0
102
RTVSPost2010PropOp55
 70
     1
102
RTVSPost2010Prop56
140
1.0
102
RTVSPost2010PropOp56
 70
     1
102
RTVSPost2010Prop57
140
1.0
102
RTVSPost2010PropOp57
 70
     1
102
RTVSPropertyOp0
 70
     1
102
RTVSPropertyOp1
 70
     1
102
RTVSPropertyOp2
 70
     1
102
RTVSPropertyOp3
 70
     1
102
RTVSPropertyOp4
 70
     1
102
RTVSPropertyOp5
 70
     1
102
RTVSPropertyOp6
 70
     1
102
RTVSPropertyOp7
 70
     1
102
RTVSPropertyOp8
 70
     1
102
RTVSPropertyOp9
 70
     1
102
RTVSPropertyOp10
 70
     1
102
RTVSPropertyOp11
 70
     1
102
RTVSPropertyOp12
 70
     1
102
RTVSPropertyOp13
 70
     1
102
RTVSPropertyOp14
 70
     1
102
RTVSPropertyOp15
 70
     1
102
RTVSPropertyOp16
 70
     1
102
RTVSPropertyOp17
 70
     1
102
RTVSPropertyOp18
 70
     1
102
RTVSPropertyOp19
 70
     1
102
RTVSPropertyOp20
 70
     1
102
RTVSPropertyOp21
 70
     1
102
RTVSPropertyOp22
 70
     1
102
RTVSPropertyOp23
 70
     1
102
RTVSPropertyOp24
 70
     1
102
RTVSPropertyOp25
 70
     1
102
RTVSPropertyOp26
 70
     1
102
RTVSPropertyOp27
 70
     1
102
RTVSPropertyOp28
 70
     1
102
RTVSPropertyOp29
 70
     1
102
RTVSPropertyOp30
 70
     1
102
RTVSPropertyOp31
 70
     1
102
RTVSPropertyOp32
 70
     1
102
RTVSPropertyOp33
 70
     1
102
RTVSPropertyOp34
 70
     1
102
RTVSPropertyOp35
 70
     1
102
RTVSPropertyOp36
 70
     1
102
RTVSPropertyOp37
 70
     1
102
RTVSPropertyOp38
 70
     1
102
RTVSPropertyOp39
 70
     1
102
RTVSPropertyOp40
 70
     1
102
RTVSPropertyOp41
 70
     1
102
RTVSPropertyOp42
 70
     1
102
RTVSPropertyOp43
 70
     1
102
RTVSPropertyOp44
 70
     1
102
RTVSPropertyOp45
 70
     1
102
RTVSPropertyOp46
 70
     1
102
RTVSPropertyOp47
 70
     1
102
RTVSPropertyOp48
 70
     1
102
RTVSPropertyOp49
 70
     1
102
RTVSPropertyOp50
 70
     1
102
RTVSPropertyOp51
 70
     0
102
RTVSPropertyOp52
 70
     0
102
RTVSPropertyOp53
 70
     1
102
RTVSPropertyOp54
 70
     1
102
RTVSPropertyOp55
 70
     1
102
RTVSPropertyOp56
 70
     1
102
RTVSPropertyOp57
 70
     1
102
RTVSPropertyOp58
 70
     1
102
RTVSPropertyOp59
 70
     1
102
RTVSPropertyOp60
 70
     1
102
RTVSPropertyOp61
 70
     1
102
RTVSPropertyOp62
 70
     1
  0
XRECORD
  5
564
102
{ACAD_REACTORS
330
563
102
}
330
563
100
AcDbXrecord
280
     1
102
RTVSPost2010Prop28
280
     0
102
RTVSPost2010PropOp28
 70
     1
102
RTVSPost2010Prop29
280
     1
102
RTVSPost2010PropOp29
 70
     1
102
RTVSPost2010Prop30
280
     1
102
RTVSPost2010PropOp30
 70
     1
102
RTVSPost2010Prop31
280
     0
102
RTVSPost2010PropOp31
 70
     1
102
RTVSPost2010Prop32
280
     0
102
RTVSPost2010PropOp32
 70
     1
102
RTVSPost2010Prop33
280
     0
102
RTVSPost2010PropOp33
 70
     1
102
RTVSPost2010Prop34
280
     0
102
RTVSPost2010PropOp34
 70
     1
102
RTVSPost2010Prop35
280
     0
102
RTVSPost2010PropOp35
 70
     1
102
RTVSPost2010Prop36
280
     0
102
RTVSPost2010PropOp36
 70
     1
102
RTVSPost2010Prop37
 90
       50
102
RTVSPost2010PropOp37
 70
     0
102
RTVSPost2010Prop38
140
0.0
102
RTVSPost2010PropOp38
 70
     0
102
RTVSPost2010Prop39
140
1.0
102
RTVSPost2010PropOp39
 70
     0
102
RTVSPost2010Prop40
 90
        0
102
RTVSPost2010PropOp40
 70
     0
102
RTVSPost2010Prop41ColorIndex
 90
       18
102
RTVSPost2010Prop41ColorRGB
 90
        0
102
RTVSPost2010PropOp41
 70
     0
102
RTVSPost2010Prop42
 90
       50
102
RTVSPost2010PropOp42
 70
     0
102
RTVSPost2010Prop43
 90
        3
102
RTVSPost2010PropOp43
 70
     0
102
RTVSPost2010Prop44ColorIndex
 90
        5
102
RTVSPost2010Prop44ColorRGB
 90
      255
102
RTVSPost2010PropOp44
 70
     0
102
RTVSPost2010Prop45
280
     0
102
RTVSPost2010PropOp45
 70
     1
102
RTVSPost2010Prop46
 90
       50
102
RTVSPost2010PropOp46
 70
     0
102
RTVSPost2010Prop47
 90
       50
102
RTVSPost2010PropOp47
 70
     0
102
RTVSPost2010Prop48
 90
       50
102
RTVSPost2010PropOp48
 70
     0
102
RTVSPost2010Prop49
280
     0
102
RTVSPost2010PropOp49
 70
     1
102
RTVSPost2010Prop50
 90
       50
102
RTVSPost2010PropOp50
 70
     0
102
RTVSPost2010Prop51ColorIndex
 90
      256
102
RTVSPost2010Prop51ColorRGB
 90
-16777216
102
RTVSPost2010PropOp51
 70
     0
102
RTVSPost2010Prop52
140
1.0
102
RTVSPost2010PropOp52
 70
     0
102
RTVSPost2010Prop53
 90
        2
102
RTVSPost2010PropOp53
 70
     0
102
RTVSPost2010Prop54
  1
strokes_ogs.tif
102
RTVSPost2010PropOp54
 70
     0
102
RTVSPost2010Prop55
280
     0
102
RTVSPost2010PropOp55
 70
     1
102
RTVSPost2010Prop56
140
1.0
102
RTVSPost2010PropOp56
 70
     0
102
RTVSPost2010Prop57
140
1.0
102
RTVSPost2010PropOp57
 70
     0
102
RTVSPropertyOp0
 70
     0
102
RTVSPropertyOp1
 70
     0
102
RTVSPropertyOp2
 70
     0
102
RTVSPropertyOp3
 70
     0
102
RTVSPropertyOp4
 70
     0
102
RTVSPropertyOp5
 70
     0
102
RTVSPropertyOp6
 70
     0
102
RTVSPropertyOp7
 70
     0
102
RTVSPropertyOp8
 70
     0
102
RTVSPropertyOp9
 70
     0
102
RTVSPropertyOp10
 70
     0
102
RTVSPropertyOp11
 70
     0
102
RTVSPropertyOp12
 70
     0
102
RTVSPropertyOp13
 70
     0
102
RTVSPropertyOp14
 70
     2
102
RTVSPropertyOp15
 70
     0
102
RTVSPropertyOp16
 70
     0
102
RTVSPropertyOp17
 70
     0
102
RTVSPropertyOp18
 70
     0
102
RTVSPropertyOp19
 70
     0
102
RTVSPropertyOp20
 70
     0
102
RTVSPropertyOp21
 70
     0
102
RTVSPropertyOp22
 70
     0
102
RTVSPropertyOp23
 70
     0
102
RTVSPropertyOp24
 70
     0
102
RTVSPropertyOp25
 70
     0
102
RTVSPropertyOp26
 70
     0
102
RTVSPropertyOp27
 70
     0
102
RTVSPropertyOp28
 70
     1
102
RTVSPropertyOp29
 70
     1
102
RTVSPropertyOp30
 70
     1
102
RTVSPropertyOp31
 70
     1
102
RTVSPropertyOp32
 70
     1
102
RTVSPropertyOp33
 70
     1
102
RTVSPropertyOp34
 70
     1
102
RTVSPropertyOp35
 70
     1
102
RTVSPropertyOp36
 70
     1
102
RTVSPropertyOp37
 70
     0
102
RTVSPropertyOp38
 70
     0
102
RTVSPropertyOp39
 70
     0
102
RTVSPropertyOp40
 70
     0
102
RTVSPropertyOp41
 70
     0
102
RTVSPropertyOp42
 70
     0
102
RTVSPropertyOp43
 70
     0
102
RTVSPropertyOp44
 70
     0
102
RTVSPropertyOp45
 70
     1
102
RTVSPropertyOp46
 70
     0
102
RTVSPropertyOp47
 70
     0
102
RTVSPropertyOp48
 70
     0
102
RTVSPropertyOp49
 70
     1
102
RTVSPropertyOp50
 70
     0
102
RTVSPropertyOp51
 70
     0
102
RTVSPropertyOp52
 70
     0
102
RTVSPropertyOp53
 70
     0
102
RTVSPropertyOp54
 70
     0
102
RTVSPropertyOp55
 70
     1
102
RTVSPropertyOp56
 70
     0
102
RTVSPropertyOp57
 70
     0
102
RTVSPropertyOp58
 70
     0
102
RTVSPropertyOp59
 70
     0
102
RTVSPropertyOp60
 70
     0
102
RTVSPropertyOp61
 70
     0
102
RTVSPropertyOp62
 70
     0
  0
XRECORD
  5
552
102
{ACAD_REACTORS
330
551
102
}
330
551
100
AcDbXrecord
280
     1
102
RTVSPost2010Prop28
280
     0
102
RTVSPost2010PropOp28
 70
     1
102
RTVSPost2010Prop29
280
     1
102
RTVSPost2010PropOp29
 70
     1
102
RTVSPost2010Prop30
280
     1
102
RTVSPost2010PropOp30
 70
     1
102
RTVSPost2010Prop31
280
     0
102
RTVSPost2010PropOp31
 70
     1
102
RTVSPost2010Prop32
280
     0
102
RTVSPost2010PropOp32
 70
     1
102
RTVSPost2010Prop33
280
     0
102
RTVSPost2010PropOp33
 70
     1
102
RTVSPost2010Prop34
280
     0
102
RTVSPost2010PropOp34
 70
     1
102
RTVSPost2010Prop35
280
     0
102
RTVSPost2010PropOp35
 70
     1
102
RTVSPost2010Prop36
280
     0
102
RTVSPost2010PropOp36
 70
     1
102
RTVSPost2010Prop37
 90
       50
102
RTVSPost2010PropOp37
 70
     1
102
RTVSPost2010Prop38
140
0.0
102
RTVSPost2010PropOp38
 70
     1
102
RTVSPost2010Prop39
140
1.0
102
RTVSPost2010PropOp39
 70
     1
102
RTVSPost2010Prop40
 90
        0
102
RTVSPost2010PropOp40
 70
     1
102
RTVSPost2010Prop41ColorIndex
 90
       18
102
RTVSPost2010Prop41ColorRGB
 90
        0
102
RTVSPost2010PropOp41
 70
     1
102
RTVSPost2010Prop42
 90
       50
102
RTVSPost2010PropOp42
 70
     1
102
RTVSPost2010Prop43
 90
        3
102
RTVSPost2010PropOp43
 70
     1
102
RTVSPost2010Prop44ColorIndex
 90
        5
102
RTVSPost2010Prop44ColorRGB
 90
      255
102
RTVSPost2010PropOp44
 70
     1
102
RTVSPost2010Prop45
280
     0
102
RTVSPost2010PropOp45
 70
     1
102
RTVSPost2010Prop46
 90
       50
102
RTVSPost2010PropOp46
 70
     1
102
RTVSPost2010Prop47
 90
       50
102
RTVSPost2010PropOp47
 70
     1
102
RTVSPost2010Prop48
 90
       50
102
RTVSPost2010PropOp48
 70
     1
102
RTVSPost2010Prop49
280
     0
102
RTVSPost2010PropOp49
 70
     1
102
RTVSPost2010Prop50
 90
       50
102
RTVSPost2010PropOp50
 70
     1
102
RTVSPost2010Prop51ColorIndex
 90
      256
102
RTVSPost2010Prop51ColorRGB
 90
-16777216
102
RTVSPost2010PropOp51
 70
     0
102
RTVSPost2010Prop52
140
1.0
102
RTVSPost2010PropOp52
 70
     0
102
RTVSPost2010Prop53
 90
        2
102
RTVSPost2010PropOp53
 70
     1
102
RTVSPost2010Prop54
  1
strokes_ogs.tif
102
RTVSPost2010PropOp54
 70
     1
102
RTVSPost2010Prop55
280
     0
102
RTVSPost2010PropOp55
 70
     1
102
RTVSPost2010Prop56
140
1.0
102
RTVSPost2010PropOp56
 70
     1
102
RTVSPost2010Prop57
140
1.0
102
RTVSPost2010PropOp57
 70
     1
102
RTVSPropertyOp0
 70
     1
102
RTVSPropertyOp1
 70
     1
102
RTVSPropertyOp2
 70
     1
102
RTVSPropertyOp3
 70
     1
102
RTVSPropertyOp4
 70
     1
102
RTVSPropertyOp5
 70
     1
102
RTVSPropertyOp6
 70
     1
102
RTVSPropertyOp7
 70
     1
102
RTVSPropertyOp8
 70
     1
102
RTVSPropertyOp9
 70
     1
102
RTVSPropertyOp10
 70
     1
102
RTVSPropertyOp11
 70
     1
102
RTVSPropertyOp12
 70
     1
102
RTVSPropertyOp13
 70
     1
102
RTVSPropertyOp14
 70
     1
102
RTVSPropertyOp15
 70
     1
102
RTVSPropertyOp16
 70
     1
102
RTVSPropertyOp17
 70
     1
102
RTVSPropertyOp18
 70
     1
102
RTVSPropertyOp19
 70
     1
102
RTVSPropertyOp20
 70
     1
102
RTVSPropertyOp21
 70
     1
102
RTVSPropertyOp22
 70
     1
102
RTVSPropertyOp23
 70
     1
102
RTVSPropertyOp24
 70
     1
102
RTVSPropertyOp25
 70
     1
102
RTVSPropertyOp26
 70
     1
102
RTVSPropertyOp27
 70
     1
102
RTVSPropertyOp28
 70
     1
102
RTVSPropertyOp29
 70
     1
102
RTVSPropertyOp30
 70
     1
102
RTVSPropertyOp31
 70
     1
102
RTVSPropertyOp32
 70
     1
102
RTVSPropertyOp33
 70
     1
102
RTVSPropertyOp34
 70
     1
102
RTVSPropertyOp35
 70
     1
102
RTVSPropertyOp36
 70
     1
102
RTVSPropertyOp37
 70
     1
102
RTVSPropertyOp38
 70
     1
102
RTVSPropertyOp39
 70
     1
102
RTVSPropertyOp40
 70
     1
102
RTVSPropertyOp41
 70
     1
102
RTVSPropertyOp42
 70
     1
102
RTVSPropertyOp43
 70
     1
102
RTVSPropertyOp44
 70
     1
102
RTVSPropertyOp45
 70
     1
102
RTVSPropertyOp46
 70
     1
102
RTVSPropertyOp47
 70
     1
102
RTVSPropertyOp48
 70
     1
102
RTVSPropertyOp49
 70
     1
102
RTVSPropertyOp50
 70
     1
102
RTVSPropertyOp51
 70
     0
102
RTVSPropertyOp52
 70
     0
102
RTVSPropertyOp53
 70
     1
102
RTVSPropertyOp54
 70
     1
102
RTVSPropertyOp55
 70
     1
102
RTVSPropertyOp56
 70
     1
102
RTVSPropertyOp57
 70
     1
102
RTVSPropertyOp58
 70
     1
102
RTVSPropertyOp59
 70
     1
102
RTVSPropertyOp60
 70
     1
102
RTVSPropertyOp61
 70
     1
102
RTVSPropertyOp62
 70
     1
  0
XRECORD
  5
536
102
{ACAD_REACTORS
330
535
102
}
330
535
100
AcDbXrecord
280
     1
102
RTVSPost2010Prop28
280
     0
102
RTVSPost2010PropOp28
 70
     1
102
RTVSPost2010Prop29
280
     1
102
RTVSPost2010PropOp29
 70
     1
102
RTVSPost2010Prop30
280
     1
102
RTVSPost2010PropOp30
 70
     1
102
RTVSPost2010Prop31
280
     0
102
RTVSPost2010PropOp31
 70
     1
102
RTVSPost2010Prop32
280
     0
102
RTVSPost2010PropOp32
 70
     1
102
RTVSPost2010Prop33
280
     0
102
RTVSPost2010PropOp33
 70
     1
102
RTVSPost2010Prop34
280
     0
102
RTVSPost2010PropOp34
 70
     1
102
RTVSPost2010Prop35
280
     0
102
RTVSPost2010PropOp35
 70
     1
102
RTVSPost2010Prop36
280
     0
102
RTVSPost2010PropOp36
 70
     1
102
RTVSPost2010Prop37
 90
       50
102
RTVSPost2010PropOp37
 70
     1
102
RTVSPost2010Prop38
140
0.0
102
RTVSPost2010PropOp38
 70
     1
102
RTVSPost2010Prop39
140
1.0
102
RTVSPost2010PropOp39
 70
     1
102
RTVSPost2010Prop40
 90
        0
102
RTVSPost2010PropOp40
 70
     1
102
RTVSPost2010Prop41ColorIndex
 90
       18
102
RTVSPost2010Prop41ColorRGB
 90
        0
102
RTVSPost2010PropOp41
 70
     1
102
RTVSPost2010Prop42
 90
       50
102
RTVSPost2010PropOp42
 70
     1
102
RTVSPost2010Prop43
 90
        3
102
RTVSPost2010PropOp43
 70
     1
102
RTVSPost2010Prop44ColorIndex
 90
        5
102
RTVSPost2010Prop44ColorRGB
 90
      255
102
RTVSPost2010PropOp44
 70
     1
102
RTVSPost2010Prop45
280
     0
102
RTVSPost2010PropOp45
 70
     1
102
RTVSPost2010Prop46
 90
       50
102
RTVSPost2010PropOp46
 70
     1
102
RTVSPost2010Prop47
 90
       50
102
RTVSPost2010PropOp47
 70
     1
102
RTVSPost2010Prop48
 90
       50
102
RTVSPost2010PropOp48
 70
     1
102
RTVSPost2010Prop49
280
     0
102
RTVSPost2010PropOp49
 70
     1
102
RTVSPost2010Prop50
 90
       50
102
RTVSPost2010PropOp50
 70
     1
102
RTVSPost2010Prop51ColorIndex
 90
      256
102
RTVSPost2010Prop51ColorRGB
 90
-16777216
102
RTVSPost2010PropOp51
 70
     0
102
RTVSPost2010Prop52
140
1.0
102
RTVSPost2010PropOp52
 70
     0
102
RTVSPost2010Prop53
 90
        2
102
RTVSPost2010PropOp53
 70
     1
102
RTVSPost2010Prop54
  1
strokes_ogs.tif
102
RTVSPost2010PropOp54
 70
     1
102
RTVSPost2010Prop55
280
     0
102
RTVSPost2010PropOp55
 70
     1
102
RTVSPost2010Prop56
140
1.0
102
RTVSPost2010PropOp56
 70
     1
102
RTVSPost2010Prop57
140
1.0
102
RTVSPost2010PropOp57
 70
     1
102
RTVSPropertyOp0
 70
     1
102
RTVSPropertyOp1
 70
     1
102
RTVSPropertyOp2
 70
     1
102
RTVSPropertyOp3
 70
     1
102
RTVSPropertyOp4
 70
     1
102
RTVSPropertyOp5
 70
     1
102
RTVSPropertyOp6
 70
     1
102
RTVSPropertyOp7
 70
     1
102
RTVSPropertyOp8
 70
     1
102
RTVSPropertyOp9
 70
     1
102
RTVSPropertyOp10
 70
     1
102
RTVSPropertyOp11
 70
     1
102
RTVSPropertyOp12
 70
     1
102
RTVSPropertyOp13
 70
     1
102
RTVSPropertyOp14
 70
     1
102
RTVSPropertyOp15
 70
     1
102
RTVSPropertyOp16
 70
     1
102
RTVSPropertyOp17
 70
     1
102
RTVSPropertyOp18
 70
     1
102
RTVSPropertyOp19
 70
     1
102
RTVSPropertyOp20
 70
     1
102
RTVSPropertyOp21
 70
     1
102
RTVSPropertyOp22
 70
     1
102
RTVSPropertyOp23
 70
     1
102
RTVSPropertyOp24
 70
     1
102
RTVSPropertyOp25
 70
     1
102
RTVSPropertyOp26
 70
     1
102
RTVSPropertyOp27
 70
     1
102
RTVSPropertyOp28
 70
     1
102
RTVSPropertyOp29
 70
     1
102
RTVSPropertyOp30
 70
     1
102
RTVSPropertyOp31
 70
     1
102
RTVSPropertyOp32
 70
     1
102
RTVSPropertyOp33
 70
     1
102
RTVSPropertyOp34
 70
     1
102
RTVSPropertyOp35
 70
     1
102
RTVSPropertyOp36
 70
     1
102
RTVSPropertyOp37
 70
     1
102
RTVSPropertyOp38
 70
     1
102
RTVSPropertyOp39
 70
     1
102
RTVSPropertyOp40
 70
     1
102
RTVSPropertyOp41
 70
     1
102
RTVSPropertyOp42
 70
     1
102
RTVSPropertyOp43
 70
     1
102
RTVSPropertyOp44
 70
     1
102
RTVSPropertyOp45
 70
     1
102
RTVSPropertyOp46
 70
     1
102
RTVSPropertyOp47
 70
     1
102
RTVSPropertyOp48
 70
     1
102
RTVSPropertyOp49
 70
     1
102
RTVSPropertyOp50
 70
     1
102
RTVSPropertyOp51
 70
     0
102
RTVSPropertyOp52
 70
     0
102
RTVSPropertyOp53
 70
     1
102
RTVSPropertyOp54
 70
     1
102
RTVSPropertyOp55
 70
     1
102
RTVSPropertyOp56
 70
     1
102
RTVSPropertyOp57
 70
     1
102
RTVSPropertyOp58
 70
     1
102
RTVSPropertyOp59
 70
     1
102
RTVSPropertyOp60
 70
     1
102
RTVSPropertyOp61
 70
     1
102
RTVSPropertyOp62
 70
     1
  0
XRECORD
  5
538
102
{ACAD_REACTORS
330
537
102
}
330
537
100
AcDbXrecord
280
     1
102
RTVSPost2010Prop28
280
     0
102
RTVSPost2010PropOp28
 70
     1
102
RTVSPost2010Prop29
280
     1
102
RTVSPost2010PropOp29
 70
     1
102
RTVSPost2010Prop30
280
     1
102
RTVSPost2010PropOp30
 70
     1
102
RTVSPost2010Prop31
280
     0
102
RTVSPost2010PropOp31
 70
     1
102
RTVSPost2010Prop32
280
     0
102
RTVSPost2010PropOp32
 70
     1
102
RTVSPost2010Prop33
280
     0
102
RTVSPost2010PropOp33
 70
     1
102
RTVSPost2010Prop34
280
     0
102
RTVSPost2010PropOp34
 70
     1
102
RTVSPost2010Prop35
280
     0
102
RTVSPost2010PropOp35
 70
     1
102
RTVSPost2010Prop36
280
     0
102
RTVSPost2010PropOp36
 70
     1
102
RTVSPost2010Prop37
 90
       50
102
RTVSPost2010PropOp37
 70
     1
102
RTVSPost2010Prop38
140
0.0
102
RTVSPost2010PropOp38
 70
     1
102
RTVSPost2010Prop39
140
1.0
102
RTVSPost2010PropOp39
 70
     1
102
RTVSPost2010Prop40
 90
        0
102
RTVSPost2010PropOp40
 70
     1
102
RTVSPost2010Prop41ColorIndex
 90
       18
102
RTVSPost2010Prop41ColorRGB
 90
        0
102
RTVSPost2010PropOp41
 70
     1
102
RTVSPost2010Prop42
 90
       50
102
RTVSPost2010PropOp42
 70
     1
102
RTVSPost2010Prop43
 90
        3
102
RTVSPost2010PropOp43
 70
     1
102
RTVSPost2010Prop44ColorIndex
 90
        5
102
RTVSPost2010Prop44ColorRGB
 90
      255
102
RTVSPost2010PropOp44
 70
     1
102
RTVSPost2010Prop45
280
     0
102
RTVSPost2010PropOp45
 70
     1
102
RTVSPost2010Prop46
 90
       50
102
RTVSPost2010PropOp46
 70
     1
102
RTVSPost2010Prop47
 90
       50
102
RTVSPost2010PropOp47
 70
     1
102
RTVSPost2010Prop48
 90
       50
102
RTVSPost2010PropOp48
 70
     1
102
RTVSPost2010Prop49
280
     0
102
RTVSPost2010PropOp49
 70
     1
102
RTVSPost2010Prop50
 90
       50
102
RTVSPost2010PropOp50
 70
     1
102
RTVSPost2010Prop51ColorIndex
 90
      256
102
RTVSPost2010Prop51ColorRGB
 90
-16777216
102
RTVSPost2010PropOp51
 70
     0
102
RTVSPost2010Prop52
140
1.0
102
RTVSPost2010PropOp52
 70
     0
102
RTVSPost2010Prop53
 90
        2
102
RTVSPost2010PropOp53
 70
     1
102
RTVSPost2010Prop54
  1
strokes_ogs.tif
102
RTVSPost2010PropOp54
 70
     1
102
RTVSPost2010Prop55
280
     0
102
RTVSPost2010PropOp55
 70
     1
102
RTVSPost2010Prop56
140
1.0
102
RTVSPost2010PropOp56
 70
     1
102
RTVSPost2010Prop57
140
1.0
102
RTVSPost2010PropOp57
 70
     1
102
RTVSPropertyOp0
 70
     1
102
RTVSPropertyOp1
 70
     1
102
RTVSPropertyOp2
 70
     1
102
RTVSPropertyOp3
 70
     1
102
RTVSPropertyOp4
 70
     1
102
RTVSPropertyOp5
 70
     1
102
RTVSPropertyOp6
 70
     1
102
RTVSPropertyOp7
 70
     1
102
RTVSPropertyOp8
 70
     1
102
RTVSPropertyOp9
 70
     1
102
RTVSPropertyOp10
 70
     1
102
RTVSPropertyOp11
 70
     1
102
RTVSPropertyOp12
 70
     1
102
RTVSPropertyOp13
 70
     1
102
RTVSPropertyOp14
 70
     1
102
RTVSPropertyOp15
 70
     1
102
RTVSPropertyOp16
 70
     1
102
RTVSPropertyOp17
 70
     1
102
RTVSPropertyOp18
 70
     1
102
RTVSPropertyOp19
 70
     1
102
RTVSPropertyOp20
 70
     1
102
RTVSPropertyOp21
 70
     1
102
RTVSPropertyOp22
 70
     1
102
RTVSPropertyOp23
 70
     1
102
RTVSPropertyOp24
 70
     1
102
RTVSPropertyOp25
 70
     1
102
RTVSPropertyOp26
 70
     1
102
RTVSPropertyOp27
 70
     1
102
RTVSPropertyOp28
 70
     1
102
RTVSPropertyOp29
 70
     1
102
RTVSPropertyOp30
 70
     1
102
RTVSPropertyOp31
 70
     1
102
RTVSPropertyOp32
 70
     1
102
RTVSPropertyOp33
 70
     1
102
RTVSPropertyOp34
 70
     1
102
RTVSPropertyOp35
 70
     1
102
RTVSPropertyOp36
 70
     1
102
RTVSPropertyOp37
 70
     1
102
RTVSPropertyOp38
 70
     1
102
RTVSPropertyOp39
 70
     1
102
RTVSPropertyOp40
 70
     1
102
RTVSPropertyOp41
 70
     1
102
RTVSPropertyOp42
 70
     1
102
RTVSPropertyOp43
 70
     1
102
RTVSPropertyOp44
 70
     1
102
RTVSPropertyOp45
 70
     1
102
RTVSPropertyOp46
 70
     1
102
RTVSPropertyOp47
 70
     1
102
RTVSPropertyOp48
 70
     1
102
RTVSPropertyOp49
 70
     1
102
RTVSPropertyOp50
 70
     1
102
RTVSPropertyOp51
 70
     0
102
RTVSPropertyOp52
 70
     0
102
RTVSPropertyOp53
 70
     1
102
RTVSPropertyOp54
 70
     1
102
RTVSPropertyOp55
 70
     1
102
RTVSPropertyOp56
 70
     1
102
RTVSPropertyOp57
 70
     1
102
RTVSPropertyOp58
 70
     1
102
RTVSPropertyOp59
 70
     1
102
RTVSPropertyOp60
 70
     1
102
RTVSPropertyOp61
 70
     1
102
RTVSPropertyOp62
 70
     1
  0
XRECORD
  5
53A
102
{ACAD_REACTORS
330
539
102
}
330
539
100
AcDbXrecord
280
     1
102
RTVSPost2010Prop28
280
     0
102
RTVSPost2010PropOp28
 70
     1
102
RTVSPost2010Prop29
280
     1
102
RTVSPost2010PropOp29
 70
     1
102
RTVSPost2010Prop30
280
     1
102
RTVSPost2010PropOp30
 70
     1
102
RTVSPost2010Prop31
280
     0
102
RTVSPost2010PropOp31
 70
     1
102
RTVSPost2010Prop32
280
     0
102
RTVSPost2010PropOp32
 70
     1
102
RTVSPost2010Prop33
280
     0
102
RTVSPost2010PropOp33
 70
     1
102
RTVSPost2010Prop34
280
     0
102
RTVSPost2010PropOp34
 70
     1
102
RTVSPost2010Prop35
280
     0
102
RTVSPost2010PropOp35
 70
     1
102
RTVSPost2010Prop36
280
     0
102
RTVSPost2010PropOp36
 70
     1
102
RTVSPost2010Prop37
 90
       50
102
RTVSPost2010PropOp37
 70
     1
102
RTVSPost2010Prop38
140
0.0
102
RTVSPost2010PropOp38
 70
     1
102
RTVSPost2010Prop39
140
1.0
102
RTVSPost2010PropOp39
 70
     1
102
RTVSPost2010Prop40
 90
        0
102
RTVSPost2010PropOp40
 70
     1
102
RTVSPost2010Prop41ColorIndex
 90
       18
102
RTVSPost2010Prop41ColorRGB
 90
        0
102
RTVSPost2010PropOp41
 70
     1
102
RTVSPost2010Prop42
 90
       50
102
RTVSPost2010PropOp42
 70
     1
102
RTVSPost2010Prop43
 90
        3
102
RTVSPost2010PropOp43
 70
     1
102
RTVSPost2010Prop44ColorIndex
 90
        5
102
RTVSPost2010Prop44ColorRGB
 90
      255
102
RTVSPost2010PropOp44
 70
     1
102
RTVSPost2010Prop45
280
     0
102
RTVSPost2010PropOp45
 70
     1
102
RTVSPost2010Prop46
 90
       50
102
RTVSPost2010PropOp46
 70
     1
102
RTVSPost2010Prop47
 90
       50
102
RTVSPost2010PropOp47
 70
     1
102
RTVSPost2010Prop48
 90
       50
102
RTVSPost2010PropOp48
 70
     1
102
RTVSPost2010Prop49
280
     0
102
RTVSPost2010PropOp49
 70
     1
102
RTVSPost2010Prop50
 90
       50
102
RTVSPost2010PropOp50
 70
     1
102
RTVSPost2010Prop51ColorIndex
 90
      256
102
RTVSPost2010Prop51ColorRGB
 90
-16777216
102
RTVSPost2010PropOp51
 70
     0
102
RTVSPost2010Prop52
140
1.0
102
RTVSPost2010PropOp52
 70
     0
102
RTVSPost2010Prop53
 90
        2
102
RTVSPost2010PropOp53
 70
     1
102
RTVSPost2010Prop54
  1
strokes_ogs.tif
102
RTVSPost2010PropOp54
 70
     1
102
RTVSPost2010Prop55
280
     0
102
RTVSPost2010PropOp55
 70
     1
102
RTVSPost2010Prop56
140
1.0
102
RTVSPost2010PropOp56
 70
     1
102
RTVSPost2010Prop57
140
1.0
102
RTVSPost2010PropOp57
 70
     1
102
RTVSPropertyOp0
 70
     1
102
RTVSPropertyOp1
 70
     1
102
RTVSPropertyOp2
 70
     1
102
RTVSPropertyOp3
 70
     1
102
RTVSPropertyOp4
 70
     1
102
RTVSPropertyOp5
 70
     1
102
RTVSPropertyOp6
 70
     1
102
RTVSPropertyOp7
 70
     1
102
RTVSPropertyOp8
 70
     1
102
RTVSPropertyOp9
 70
     1
102
RTVSPropertyOp10
 70
     1
102
RTVSPropertyOp11
 70
     1
102
RTVSPropertyOp12
 70
     1
102
RTVSPropertyOp13
 70
     1
102
RTVSPropertyOp14
 70
     1
102
RTVSPropertyOp15
 70
     1
102
RTVSPropertyOp16
 70
     1
102
RTVSPropertyOp17
 70
     1
102
RTVSPropertyOp18
 70
     1
102
RTVSPropertyOp19
 70
     1
102
RTVSPropertyOp20
 70
     1
102
RTVSPropertyOp21
 70
     1
102
RTVSPropertyOp22
 70
     1
102
RTVSPropertyOp23
 70
     1
102
RTVSPropertyOp24
 70
     1
102
RTVSPropertyOp25
 70
     1
102
RTVSPropertyOp26
 70
     1
102
RTVSPropertyOp27
 70
     1
102
RTVSPropertyOp28
 70
     1
102
RTVSPropertyOp29
 70
     1
102
RTVSPropertyOp30
 70
     1
102
RTVSPropertyOp31
 70
     1
102
RTVSPropertyOp32
 70
     1
102
RTVSPropertyOp33
 70
     1
102
RTVSPropertyOp34
 70
     1
102
RTVSPropertyOp35
 70
     1
102
RTVSPropertyOp36
 70
     1
102
RTVSPropertyOp37
 70
     1
102
RTVSPropertyOp38
 70
     1
102
RTVSPropertyOp39
 70
     1
102
RTVSPropertyOp40
 70
     1
102
RTVSPropertyOp41
 70
     1
102
RTVSPropertyOp42
 70
     1
102
RTVSPropertyOp43
 70
     1
102
RTVSPropertyOp44
 70
     1
102
RTVSPropertyOp45
 70
     1
102
RTVSPropertyOp46
 70
     1
102
RTVSPropertyOp47
 70
     1
102
RTVSPropertyOp48
 70
     1
102
RTVSPropertyOp49
 70
     1
102
RTVSPropertyOp50
 70
     1
102
RTVSPropertyOp51
 70
     0
102
RTVSPropertyOp52
 70
     0
102
RTVSPropertyOp53
 70
     1
102
RTVSPropertyOp54
 70
     1
102
RTVSPropertyOp55
 70
     1
102
RTVSPropertyOp56
 70
     1
102
RTVSPropertyOp57
 70
     1
102
RTVSPropertyOp58
 70
     1
102
RTVSPropertyOp59
 70
     1
102
RTVSPropertyOp60
 70
     1
102
RTVSPropertyOp61
 70
     1
102
RTVSPropertyOp62
 70
     1
  0
XRECORD
  5
53C
102
{ACAD_REACTORS
330
53B
102
}
330
53B
100
AcDbXrecord
280
     1
102
RTVSPost2010Prop28
280
     0
102
RTVSPost2010PropOp28
 70
     1
102
RTVSPost2010Prop29
280
     1
102
RTVSPost2010PropOp29
 70
     1
102
RTVSPost2010Prop30
280
     1
102
RTVSPost2010PropOp30
 70
     1
102
RTVSPost2010Prop31
280
     0
102
RTVSPost2010PropOp31
 70
     1
102
RTVSPost2010Prop32
280
     0
102
RTVSPost2010PropOp32
 70
     1
102
RTVSPost2010Prop33
280
     0
102
RTVSPost2010PropOp33
 70
     1
102
RTVSPost2010Prop34
280
     0
102
RTVSPost2010PropOp34
 70
     1
102
RTVSPost2010Prop35
280
     0
102
RTVSPost2010PropOp35
 70
     1
102
RTVSPost2010Prop36
280
     0
102
RTVSPost2010PropOp36
 70
     1
102
RTVSPost2010Prop37
 90
       50
102
RTVSPost2010PropOp37
 70
     1
102
RTVSPost2010Prop38
140
0.0
102
RTVSPost2010PropOp38
 70
     1
102
RTVSPost2010Prop39
140
1.0
102
RTVSPost2010PropOp39
 70
     1
102
RTVSPost2010Prop40
 90
        0
102
RTVSPost2010PropOp40
 70
     1
102
RTVSPost2010Prop41ColorIndex
 90
       18
102
RTVSPost2010Prop41ColorRGB
 90
        0
102
RTVSPost2010PropOp41
 70
     1
102
RTVSPost2010Prop42
 90
       50
102
RTVSPost2010PropOp42
 70
     1
102
RTVSPost2010Prop43
 90
        3
102
RTVSPost2010PropOp43
 70
     1
102
RTVSPost2010Prop44ColorIndex
 90
        5
102
RTVSPost2010Prop44ColorRGB
 90
      255
102
RTVSPost2010PropOp44
 70
     1
102
RTVSPost2010Prop45
280
     0
102
RTVSPost2010PropOp45
 70
     1
102
RTVSPost2010Prop46
 90
       50
102
RTVSPost2010PropOp46
 70
     1
102
RTVSPost2010Prop47
 90
       50
102
RTVSPost2010PropOp47
 70
     1
102
RTVSPost2010Prop48
 90
       50
102
RTVSPost2010PropOp48
 70
     1
102
RTVSPost2010Prop49
280
     0
102
RTVSPost2010PropOp49
 70
     1
102
RTVSPost2010Prop50
 90
       50
102
RTVSPost2010PropOp50
 70
     1
102
RTVSPost2010Prop51ColorIndex
 90
      256
102
RTVSPost2010Prop51ColorRGB
 90
-16777216
102
RTVSPost2010PropOp51
 70
     0
102
RTVSPost2010Prop52
140
1.0
102
RTVSPost2010PropOp52
 70
     0
102
RTVSPost2010Prop53
 90
        2
102
RTVSPost2010PropOp53
 70
     1
102
RTVSPost2010Prop54
  1
strokes_ogs.tif
102
RTVSPost2010PropOp54
 70
     1
102
RTVSPost2010Prop55
280
     0
102
RTVSPost2010PropOp55
 70
     1
102
RTVSPost2010Prop56
140
1.0
102
RTVSPost2010PropOp56
 70
     1
102
RTVSPost2010Prop57
140
1.0
102
RTVSPost2010PropOp57
 70
     1
102
RTVSPropertyOp0
 70
     1
102
RTVSPropertyOp1
 70
     1
102
RTVSPropertyOp2
 70
     1
102
RTVSPropertyOp3
 70
     1
102
RTVSPropertyOp4
 70
     1
102
RTVSPropertyOp5
 70
     1
102
RTVSPropertyOp6
 70
     1
102
RTVSPropertyOp7
 70
     1
102
RTVSPropertyOp8
 70
     1
102
RTVSPropertyOp9
 70
     1
102
RTVSPropertyOp10
 70
     1
102
RTVSPropertyOp11
 70
     1
102
RTVSPropertyOp12
 70
     1
102
RTVSPropertyOp13
 70
     1
102
RTVSPropertyOp14
 70
     1
102
RTVSPropertyOp15
 70
     1
102
RTVSPropertyOp16
 70
     1
102
RTVSPropertyOp17
 70
     1
102
RTVSPropertyOp18
 70
     1
102
RTVSPropertyOp19
 70
     1
102
RTVSPropertyOp20
 70
     1
102
RTVSPropertyOp21
 70
     1
102
RTVSPropertyOp22
 70
     1
102
RTVSPropertyOp23
 70
     1
102
RTVSPropertyOp24
 70
     1
102
RTVSPropertyOp25
 70
     1
102
RTVSPropertyOp26
 70
     1
102
RTVSPropertyOp27
 70
     1
102
RTVSPropertyOp28
 70
     1
102
RTVSPropertyOp29
 70
     1
102
RTVSPropertyOp30
 70
     1
102
RTVSPropertyOp31
 70
     1
102
RTVSPropertyOp32
 70
     1
102
RTVSPropertyOp33
 70
     1
102
RTVSPropertyOp34
 70
     1
102
RTVSPropertyOp35
 70
     1
102
RTVSPropertyOp36
 70
     1
102
RTVSPropertyOp37
 70
     1
102
RTVSPropertyOp38
 70
     1
102
RTVSPropertyOp39
 70
     1
102
RTVSPropertyOp40
 70
     1
102
RTVSPropertyOp41
 70
     1
102
RTVSPropertyOp42
 70
     1
102
RTVSPropertyOp43
 70
     1
102
RTVSPropertyOp44
 70
     1
102
RTVSPropertyOp45
 70
     1
102
RTVSPropertyOp46
 70
     1
102
RTVSPropertyOp47
 70
     1
102
RTVSPropertyOp48
 70
     1
102
RTVSPropertyOp49
 70
     1
102
RTVSPropertyOp50
 70
     1
102
RTVSPropertyOp51
 70
     0
102
RTVSPropertyOp52
 70
     0
102
RTVSPropertyOp53
 70
     1
102
RTVSPropertyOp54
 70
     1
102
RTVSPropertyOp55
 70
     1
102
RTVSPropertyOp56
 70
     1
102
RTVSPropertyOp57
 70
     1
102
RTVSPropertyOp58
 70
     1
102
RTVSPropertyOp59
 70
     1
102
RTVSPropertyOp60
 70
     1
102
RTVSPropertyOp61
 70
     1
102
RTVSPropertyOp62
 70
     1
  0
XRECORD
  5
544
102
{ACAD_REACTORS
330
543
102
}
330
543
100
AcDbXrecord
280
     1
102
RTVSPost2010Prop28
280
     0
102
RTVSPost2010PropOp28
 70
     1
102
RTVSPost2010Prop29
280
     1
102
RTVSPost2010PropOp29
 70
     1
102
RTVSPost2010Prop30
280
     1
102
RTVSPost2010PropOp30
 70
     1
102
RTVSPost2010Prop31
280
     0
102
RTVSPost2010PropOp31
 70
     1
102
RTVSPost2010Prop32
280
     0
102
RTVSPost2010PropOp32
 70
     1
102
RTVSPost2010Prop33
280
     0
102
RTVSPost2010PropOp33
 70
     1
102
RTVSPost2010Prop34
280
     0
102
RTVSPost2010PropOp34
 70
     1
102
RTVSPost2010Prop35
280
     0
102
RTVSPost2010PropOp35
 70
     1
102
RTVSPost2010Prop36
280
     0
102
RTVSPost2010PropOp36
 70
     1
102
RTVSPost2010Prop37
 90
       50
102
RTVSPost2010PropOp37
 70
     1
102
RTVSPost2010Prop38
140
0.0
102
RTVSPost2010PropOp38
 70
     1
102
RTVSPost2010Prop39
140
1.0
102
RTVSPost2010PropOp39
 70
     1
102
RTVSPost2010Prop40
 90
        0
102
RTVSPost2010PropOp40
 70
     1
102
RTVSPost2010Prop41ColorIndex
 90
       18
102
RTVSPost2010Prop41ColorRGB
 90
        0
102
RTVSPost2010PropOp41
 70
     1
102
RTVSPost2010Prop42
 90
       50
102
RTVSPost2010PropOp42
 70
     1
102
RTVSPost2010Prop43
 90
        3
102
RTVSPost2010PropOp43
 70
     1
102
RTVSPost2010Prop44ColorIndex
 90
        5
102
RTVSPost2010Prop44ColorRGB
 90
      255
102
RTVSPost2010PropOp44
 70
     1
102
RTVSPost2010Prop45
280
     0
102
RTVSPost2010PropOp45
 70
     1
102
RTVSPost2010Prop46
 90
       50
102
RTVSPost2010PropOp46
 70
     1
102
RTVSPost2010Prop47
 90
       50
102
RTVSPost2010PropOp47
 70
     1
102
RTVSPost2010Prop48
 90
       50
102
RTVSPost2010PropOp48
 70
     1
102
RTVSPost2010Prop49
280
     0
102
RTVSPost2010PropOp49
 70
     1
102
RTVSPost2010Prop50
 90
       50
102
RTVSPost2010PropOp50
 70
     1
102
RTVSPost2010Prop51ColorIndex
 90
      256
102
RTVSPost2010Prop51ColorRGB
 90
-16777216
102
RTVSPost2010PropOp51
 70
     0
102
RTVSPost2010Prop52
140
1.0
102
RTVSPost2010PropOp52
 70
     0
102
RTVSPost2010Prop53
 90
        2
102
RTVSPost2010PropOp53
 70
     1
102
RTVSPost2010Prop54
  1
strokes_ogs.tif
102
RTVSPost2010PropOp54
 70
     1
102
RTVSPost2010Prop55
280
     0
102
RTVSPost2010PropOp55
 70
     1
102
RTVSPost2010Prop56
140
1.0
102
RTVSPost2010PropOp56
 70
     1
102
RTVSPost2010Prop57
140
1.0
102
RTVSPost2010PropOp57
 70
     1
102
RTVSPropertyOp0
 70
     1
102
RTVSPropertyOp1
 70
     1
102
RTVSPropertyOp2
 70
     1
102
RTVSPropertyOp3
 70
     1
102
RTVSPropertyOp4
 70
     1
102
RTVSPropertyOp5
 70
     1
102
RTVSPropertyOp6
 70
     1
102
RTVSPropertyOp7
 70
     1
102
RTVSPropertyOp8
 70
     1
102
RTVSPropertyOp9
 70
     1
102
RTVSPropertyOp10
 70
     1
102
RTVSPropertyOp11
 70
     1
102
RTVSPropertyOp12
 70
     1
102
RTVSPropertyOp13
 70
     1
102
RTVSPropertyOp14
 70
     1
102
RTVSPropertyOp15
 70
     1
102
RTVSPropertyOp16
 70
     1
102
RTVSPropertyOp17
 70
     1
102
RTVSPropertyOp18
 70
     1
102
RTVSPropertyOp19
 70
     1
102
RTVSPropertyOp20
 70
     1
102
RTVSPropertyOp21
 70
     1
102
RTVSPropertyOp22
 70
     1
102
RTVSPropertyOp23
 70
     1
102
RTVSPropertyOp24
 70
     1
102
RTVSPropertyOp25
 70
     1
102
RTVSPropertyOp26
 70
     1
102
RTVSPropertyOp27
 70
     1
102
RTVSPropertyOp28
 70
     1
102
RTVSPropertyOp29
 70
     1
102
RTVSPropertyOp30
 70
     1
102
RTVSPropertyOp31
 70
     1
102
RTVSPropertyOp32
 70
     1
102
RTVSPropertyOp33
 70
     1
102
RTVSPropertyOp34
 70
     1
102
RTVSPropertyOp35
 70
     1
102
RTVSPropertyOp36
 70
     1
102
RTVSPropertyOp37
 70
     1
102
RTVSPropertyOp38
 70
     1
102
RTVSPropertyOp39
 70
     1
102
RTVSPropertyOp40
 70
     1
102
RTVSPropertyOp41
 70
     1
102
RTVSPropertyOp42
 70
     1
102
RTVSPropertyOp43
 70
     1
102
RTVSPropertyOp44
 70
     1
102
RTVSPropertyOp45
 70
     1
102
RTVSPropertyOp46
 70
     1
102
RTVSPropertyOp47
 70
     1
102
RTVSPropertyOp48
 70
     1
102
RTVSPropertyOp49
 70
     1
102
RTVSPropertyOp50
 70
     1
102
RTVSPropertyOp51
 70
     0
102
RTVSPropertyOp52
 70
     0
102
RTVSPropertyOp53
 70
     1
102
RTVSPropertyOp54
 70
     1
102
RTVSPropertyOp55
 70
     1
102
RTVSPropertyOp56
 70
     1
102
RTVSPropertyOp57
 70
     1
102
RTVSPropertyOp58
 70
     1
102
RTVSPropertyOp59
 70
     1
102
RTVSPropertyOp60
 70
     1
102
RTVSPropertyOp61
 70
     1
102
RTVSPropertyOp62
 70
     1
  0
XRECORD
  5
560
102
{ACAD_REACTORS
330
55F
102
}
330
55F
100
AcDbXrecord
280
     1
102
RTVSPost2010Prop28
280
     0
102
RTVSPost2010PropOp28
 70
     1
102
RTVSPost2010Prop29
280
     1
102
RTVSPost2010PropOp29
 70
     1
102
RTVSPost2010Prop30
280
     1
102
RTVSPost2010PropOp30
 70
     1
102
RTVSPost2010Prop31
280
     0
102
RTVSPost2010PropOp31
 70
     1
102
RTVSPost2010Prop32
280
     0
102
RTVSPost2010PropOp32
 70
     1
102
RTVSPost2010Prop33
280
     0
102
RTVSPost2010PropOp33
 70
     1
102
RTVSPost2010Prop34
280
     0
102
RTVSPost2010PropOp34
 70
     1
102
RTVSPost2010Prop35
280
     0
102
RTVSPost2010PropOp35
 70
     1
102
RTVSPost2010Prop36
280
     0
102
RTVSPost2010PropOp36
 70
     1
102
RTVSPost2010Prop37
 90
       50
102
RTVSPost2010PropOp37
 70
     0
102
RTVSPost2010Prop38
140
0.0
102
RTVSPost2010PropOp38
 70
     0
102
RTVSPost2010Prop39
140
1.0
102
RTVSPost2010PropOp39
 70
     0
102
RTVSPost2010Prop40
 90
        0
102
RTVSPost2010PropOp40
 70
     0
102
RTVSPost2010Prop41ColorIndex
 90
       18
102
RTVSPost2010Prop41ColorRGB
 90
        0
102
RTVSPost2010PropOp41
 70
     0
102
RTVSPost2010Prop42
 90
       50
102
RTVSPost2010PropOp42
 70
     0
102
RTVSPost2010Prop43
 90
        3
102
RTVSPost2010PropOp43
 70
     0
102
RTVSPost2010Prop44ColorIndex
 90
        5
102
RTVSPost2010Prop44ColorRGB
 90
      255
102
RTVSPost2010PropOp44
 70
     0
102
RTVSPost2010Prop45
280
     0
102
RTVSPost2010PropOp45
 70
     1
102
RTVSPost2010Prop46
 90
       50
102
RTVSPost2010PropOp46
 70
     0
102
RTVSPost2010Prop47
 90
       50
102
RTVSPost2010PropOp47
 70
     0
102
RTVSPost2010Prop48
 90
       50
102
RTVSPost2010PropOp48
 70
     0
102
RTVSPost2010Prop49
280
     0
102
RTVSPost2010PropOp49
 70
     1
102
RTVSPost2010Prop50
 90
       50
102
RTVSPost2010PropOp50
 70
     0
102
RTVSPost2010Prop51ColorIndex
 90
      256
102
RTVSPost2010Prop51ColorRGB
 90
-16777216
102
RTVSPost2010PropOp51
 70
     0
102
RTVSPost2010Prop52
140
1.0
102
RTVSPost2010PropOp52
 70
     0
102
RTVSPost2010Prop53
 90
        2
102
RTVSPost2010PropOp53
 70
     0
102
RTVSPost2010Prop54
  1
strokes_ogs.tif
102
RTVSPost2010PropOp54
 70
     0
102
RTVSPost2010Prop55
280
     0
102
RTVSPost2010PropOp55
 70
     1
102
RTVSPost2010Prop56
140
1.0
102
RTVSPost2010PropOp56
 70
     0
102
RTVSPost2010Prop57
140
1.0
102
RTVSPost2010PropOp57
 70
     0
102
RTVSPropertyOp0
 70
     0
102
RTVSPropertyOp1
 70
     0
102
RTVSPropertyOp2
 70
     0
102
RTVSPropertyOp3
 70
     0
102
RTVSPropertyOp4
 70
     0
102
RTVSPropertyOp5
 70
     0
102
RTVSPropertyOp6
 70
     0
102
RTVSPropertyOp7
 70
     0
102
RTVSPropertyOp8
 70
     0
102
RTVSPropertyOp9
 70
     0
102
RTVSPropertyOp10
 70
     0
102
RTVSPropertyOp11
 70
     0
102
RTVSPropertyOp12
 70
     0
102
RTVSPropertyOp13
 70
     0
102
RTVSPropertyOp14
 70
     2
102
RTVSPropertyOp15
 70
     0
102
RTVSPropertyOp16
 70
     0
102
RTVSPropertyOp17
 70
     0
102
RTVSPropertyOp18
 70
     0
102
RTVSPropertyOp19
 70
     0
102
RTVSPropertyOp20
 70
     0
102
RTVSPropertyOp21
 70
     0
102
RTVSPropertyOp22
 70
     0
102
RTVSPropertyOp23
 70
     0
102
RTVSPropertyOp24
 70
     0
102
RTVSPropertyOp25
 70
     0
102
RTVSPropertyOp26
 70
     0
102
RTVSPropertyOp27
 70
     0
102
RTVSPropertyOp28
 70
     1
102
RTVSPropertyOp29
 70
     1
102
RTVSPropertyOp30
 70
     1
102
RTVSPropertyOp31
 70
     1
102
RTVSPropertyOp32
 70
     1
102
RTVSPropertyOp33
 70
     1
102
RTVSPropertyOp34
 70
     1
102
RTVSPropertyOp35
 70
     1
102
RTVSPropertyOp36
 70
     1
102
RTVSPropertyOp37
 70
     0
102
RTVSPropertyOp38
 70
     0
102
RTVSPropertyOp39
 70
     0
102
RTVSPropertyOp40
 70
     0
102
RTVSPropertyOp41
 70
     0
102
RTVSPropertyOp42
 70
     0
102
RTVSPropertyOp43
 70
     0
102
RTVSPropertyOp44
 70
     0
102
RTVSPropertyOp45
 70
     1
102
RTVSPropertyOp46
 70
     0
102
RTVSPropertyOp47
 70
     0
102
RTVSPropertyOp48
 70
     0
102
RTVSPropertyOp49
 70
     1
102
RTVSPropertyOp50
 70
     0
102
RTVSPropertyOp51
 70
     0
102
RTVSPropertyOp52
 70
     0
102
RTVSPropertyOp53
 70
     0
102
RTVSPropertyOp54
 70
     0
102
RTVSPropertyOp55
 70
     1
102
RTVSPropertyOp56
 70
     0
102
RTVSPropertyOp57
 70
     0
102
RTVSPropertyOp58
 70
     0
102
RTVSPropertyOp59
 70
     0
102
RTVSPropertyOp60
 70
     0
102
RTVSPropertyOp61
 70
     0
102
RTVSPropertyOp62
 70
     0
  0
XRECORD
  5
550
102
{ACAD_REACTORS
330
54F
102
}
330
54F
100
AcDbXrecord
280
     1
102
RTVSPost2010Prop28
280
     0
102
RTVSPost2010PropOp28
 70
     1
102
RTVSPost2010Prop29
280
     1
102
RTVSPost2010PropOp29
 70
     1
102
RTVSPost2010Prop30
280
     1
102
RTVSPost2010PropOp30
 70
     1
102
RTVSPost2010Prop31
280
     0
102
RTVSPost2010PropOp31
 70
     1
102
RTVSPost2010Prop32
280
     0
102
RTVSPost2010PropOp32
 70
     1
102
RTVSPost2010Prop33
280
     0
102
RTVSPost2010PropOp33
 70
     1
102
RTVSPost2010Prop34
280
     0
102
RTVSPost2010PropOp34
 70
     1
102
RTVSPost2010Prop35
280
     0
102
RTVSPost2010PropOp35
 70
     1
102
RTVSPost2010Prop36
280
     0
102
RTVSPost2010PropOp36
 70
     1
102
RTVSPost2010Prop37
 90
       50
102
RTVSPost2010PropOp37
 70
     1
102
RTVSPost2010Prop38
140
0.0
102
RTVSPost2010PropOp38
 70
     1
102
RTVSPost2010Prop39
140
1.0
102
RTVSPost2010PropOp39
 70
     1
102
RTVSPost2010Prop40
 90
        0
102
RTVSPost2010PropOp40
 70
     1
102
RTVSPost2010Prop41ColorIndex
 90
       18
102
RTVSPost2010Prop41ColorRGB
 90
        0
102
RTVSPost2010PropOp41
 70
     1
102
RTVSPost2010Prop42
 90
       50
102
RTVSPost2010PropOp42
 70
     1
102
RTVSPost2010Prop43
 90
        3
102
RTVSPost2010PropOp43
 70
     1
102
RTVSPost2010Prop44ColorIndex
 90
        5
102
RTVSPost2010Prop44ColorRGB
 90
      255
102
RTVSPost2010PropOp44
 70
     1
102
RTVSPost2010Prop45
280
     0
102
RTVSPost2010PropOp45
 70
     1
102
RTVSPost2010Prop46
 90
       50
102
RTVSPost2010PropOp46
 70
     1
102
RTVSPost2010Prop47
 90
       50
102
RTVSPost2010PropOp47
 70
     1
102
RTVSPost2010Prop48
 90
       50
102
RTVSPost2010PropOp48
 70
     1
102
RTVSPost2010Prop49
280
     0
102
RTVSPost2010PropOp49
 70
     1
102
RTVSPost2010Prop50
 90
       50
102
RTVSPost2010PropOp50
 70
     1
102
RTVSPost2010Prop51ColorIndex
 90
      256
102
RTVSPost2010Prop51ColorRGB
 90
-16777216
102
RTVSPost2010PropOp51
 70
     0
102
RTVSPost2010Prop52
140
1.0
102
RTVSPost2010PropOp52
 70
     0
102
RTVSPost2010Prop53
 90
        2
102
RTVSPost2010PropOp53
 70
     1
102
RTVSPost2010Prop54
  1
strokes_ogs.tif
102
RTVSPost2010PropOp54
 70
     1
102
RTVSPost2010Prop55
280
     0
102
RTVSPost2010PropOp55
 70
     1
102
RTVSPost2010Prop56
140
1.0
102
RTVSPost2010PropOp56
 70
     1
102
RTVSPost2010Prop57
140
1.0
102
RTVSPost2010PropOp57
 70
     1
102
RTVSPropertyOp0
 70
     1
102
RTVSPropertyOp1
 70
     1
102
RTVSPropertyOp2
 70
     1
102
RTVSPropertyOp3
 70
     1
102
RTVSPropertyOp4
 70
     1
102
RTVSPropertyOp5
 70
     1
102
RTVSPropertyOp6
 70
     1
102
RTVSPropertyOp7
 70
     1
102
RTVSPropertyOp8
 70
     1
102
RTVSPropertyOp9
 70
     1
102
RTVSPropertyOp10
 70
     1
102
RTVSPropertyOp11
 70
     1
102
RTVSPropertyOp12
 70
     1
102
RTVSPropertyOp13
 70
     1
102
RTVSPropertyOp14
 70
     1
102
RTVSPropertyOp15
 70
     1
102
RTVSPropertyOp16
 70
     1
102
RTVSPropertyOp17
 70
     1
102
RTVSPropertyOp18
 70
     1
102
RTVSPropertyOp19
 70
     1
102
RTVSPropertyOp20
 70
     1
102
RTVSPropertyOp21
 70
     1
102
RTVSPropertyOp22
 70
     1
102
RTVSPropertyOp23
 70
     1
102
RTVSPropertyOp24
 70
     1
102
RTVSPropertyOp25
 70
     1
102
RTVSPropertyOp26
 70
     1
102
RTVSPropertyOp27
 70
     1
102
RTVSPropertyOp28
 70
     1
102
RTVSPropertyOp29
 70
     1
102
RTVSPropertyOp30
 70
     1
102
RTVSPropertyOp31
 70
     1
102
RTVSPropertyOp32
 70
     1
102
RTVSPropertyOp33
 70
     1
102
RTVSPropertyOp34
 70
     1
102
RTVSPropertyOp35
 70
     1
102
RTVSPropertyOp36
 70
     1
102
RTVSPropertyOp37
 70
     1
102
RTVSPropertyOp38
 70
     1
102
RTVSPropertyOp39
 70
     1
102
RTVSPropertyOp40
 70
     1
102
RTVSPropertyOp41
 70
     1
102
RTVSPropertyOp42
 70
     1
102
RTVSPropertyOp43
 70
     1
102
RTVSPropertyOp44
 70
     1
102
RTVSPropertyOp45
 70
     1
102
RTVSPropertyOp46
 70
     1
102
RTVSPropertyOp47
 70
     1
102
RTVSPropertyOp48
 70
     1
102
RTVSPropertyOp49
 70
     1
102
RTVSPropertyOp50
 70
     1
102
RTVSPropertyOp51
 70
     0
102
RTVSPropertyOp52
 70
     0
102
RTVSPropertyOp53
 70
     1
102
RTVSPropertyOp54
 70
     1
102
RTVSPropertyOp55
 70
     1
102
RTVSPropertyOp56
 70
     1
102
RTVSPropertyOp57
 70
     1
102
RTVSPropertyOp58
 70
     1
102
RTVSPropertyOp59
 70
     1
102
RTVSPropertyOp60
 70
     1
102
RTVSPropertyOp61
 70
     1
102
RTVSPropertyOp62
 70
     1
  0
XRECORD
  5
562
102
{ACAD_REACTORS
330
561
102
}
330
561
100
AcDbXrecord
280
     1
102
RTVSPost2010Prop28
280
     0
102
RTVSPost2010PropOp28
 70
     1
102
RTVSPost2010Prop29
280
     1
102
RTVSPost2010PropOp29
 70
     1
102
RTVSPost2010Prop30
280
     1
102
RTVSPost2010PropOp30
 70
     1
102
RTVSPost2010Prop31
280
     0
102
RTVSPost2010PropOp31
 70
     1
102
RTVSPost2010Prop32
280
     0
102
RTVSPost2010PropOp32
 70
     1
102
RTVSPost2010Prop33
280
     0
102
RTVSPost2010PropOp33
 70
     1
102
RTVSPost2010Prop34
280
     0
102
RTVSPost2010PropOp34
 70
     1
102
RTVSPost2010Prop35
280
     0
102
RTVSPost2010PropOp35
 70
     1
102
RTVSPost2010Prop36
280
     0
102
RTVSPost2010PropOp36
 70
     1
102
RTVSPost2010Prop37
 90
       50
102
RTVSPost2010PropOp37
 70
     0
102
RTVSPost2010Prop38
140
0.0
102
RTVSPost2010PropOp38
 70
     0
102
RTVSPost2010Prop39
140
1.0
102
RTVSPost2010PropOp39
 70
     0
102
RTVSPost2010Prop40
 90
        0
102
RTVSPost2010PropOp40
 70
     0
102
RTVSPost2010Prop41ColorIndex
 90
       18
102
RTVSPost2010Prop41ColorRGB
 90
        0
102
RTVSPost2010PropOp41
 70
     0
102
RTVSPost2010Prop42
 90
       50
102
RTVSPost2010PropOp42
 70
     0
102
RTVSPost2010Prop43
 90
        3
102
RTVSPost2010PropOp43
 70
     0
102
RTVSPost2010Prop44ColorIndex
 90
        5
102
RTVSPost2010Prop44ColorRGB
 90
      255
102
RTVSPost2010PropOp44
 70
     0
102
RTVSPost2010Prop45
280
     0
102
RTVSPost2010PropOp45
 70
     1
102
RTVSPost2010Prop46
 90
       50
102
RTVSPost2010PropOp46
 70
     0
102
RTVSPost2010Prop47
 90
       50
102
RTVSPost2010PropOp47
 70
     0
102
RTVSPost2010Prop48
 90
       50
102
RTVSPost2010PropOp48
 70
     0
102
RTVSPost2010Prop49
280
     0
102
RTVSPost2010PropOp49
 70
     1
102
RTVSPost2010Prop50
 90
       50
102
RTVSPost2010PropOp50
 70
     0
102
RTVSPost2010Prop51ColorIndex
 90
      256
102
RTVSPost2010Prop51ColorRGB
 90
-16777216
102
RTVSPost2010PropOp51
 70
     0
102
RTVSPost2010Prop52
140
1.0
102
RTVSPost2010PropOp52
 70
     0
102
RTVSPost2010Prop53
 90
        2
102
RTVSPost2010PropOp53
 70
     0
102
RTVSPost2010Prop54
  1
strokes_ogs.tif
102
RTVSPost2010PropOp54
 70
     0
102
RTVSPost2010Prop55
280
     0
102
RTVSPost2010PropOp55
 70
     1
102
RTVSPost2010Prop56
140
1.0
102
RTVSPost2010PropOp56
 70
     0
102
RTVSPost2010Prop57
140
1.0
102
RTVSPost2010PropOp57
 70
     0
102
RTVSPropertyOp0
 70
     0
102
RTVSPropertyOp1
 70
     0
102
RTVSPropertyOp2
 70
     0
102
RTVSPropertyOp3
 70
     0
102
RTVSPropertyOp4
 70
     0
102
RTVSPropertyOp5
 70
     0
102
RTVSPropertyOp6
 70
     0
102
RTVSPropertyOp7
 70
     0
102
RTVSPropertyOp8
 70
     0
102
RTVSPropertyOp9
 70
     0
102
RTVSPropertyOp10
 70
     0
102
RTVSPropertyOp11
 70
     0
102
RTVSPropertyOp12
 70
     0
102
RTVSPropertyOp13
 70
     0
102
RTVSPropertyOp14
 70
     2
102
RTVSPropertyOp15
 70
     0
102
RTVSPropertyOp16
 70
     0
102
RTVSPropertyOp17
 70
     0
102
RTVSPropertyOp18
 70
     0
102
RTVSPropertyOp19
 70
     0
102
RTVSPropertyOp20
 70
     0
102
RTVSPropertyOp21
 70
     0
102
RTVSPropertyOp22
 70
     0
102
RTVSPropertyOp23
 70
     0
102
RTVSPropertyOp24
 70
     0
102
RTVSPropertyOp25
 70
     0
102
RTVSPropertyOp26
 70
     0
102
RTVSPropertyOp27
 70
     0
102
RTVSPropertyOp28
 70
     1
102
RTVSPropertyOp29
 70
     1
102
RTVSPropertyOp30
 70
     1
102
RTVSPropertyOp31
 70
     1
102
RTVSPropertyOp32
 70
     1
102
RTVSPropertyOp33
 70
     1
102
RTVSPropertyOp34
 70
     1
102
RTVSPropertyOp35
 70
     1
102
RTVSPropertyOp36
 70
     1
102
RTVSPropertyOp37
 70
     0
102
RTVSPropertyOp38
 70
     0
102
RTVSPropertyOp39
 70
     0
102
RTVSPropertyOp40
 70
     0
102
RTVSPropertyOp41
 70
     0
102
RTVSPropertyOp42
 70
     0
102
RTVSPropertyOp43
 70
     0
102
RTVSPropertyOp44
 70
     0
102
RTVSPropertyOp45
 70
     1
102
RTVSPropertyOp46
 70
     0
102
RTVSPropertyOp47
 70
     0
102
RTVSPropertyOp48
 70
     0
102
RTVSPropertyOp49
 70
     1
102
RTVSPropertyOp50
 70
     0
102
RTVSPropertyOp51
 70
     0
102
RTVSPropertyOp52
 70
     0
102
RTVSPropertyOp53
 70
     0
102
RTVSPropertyOp54
 70
     0
102
RTVSPropertyOp55
 70
     1
102
RTVSPropertyOp56
 70
     0
102
RTVSPropertyOp57
 70
     0
102
RTVSPropertyOp58
 70
     0
102
RTVSPropertyOp59
 70
     0
102
RTVSPropertyOp60
 70
     0
102
RTVSPropertyOp61
 70
     0
102
RTVSPropertyOp62
 70
     0
  0
XRECORD
  5
548
102
{ACAD_REACTORS
330
547
102
}
330
547
100
AcDbXrecord
280
     1
102
RTVSPost2010Prop28
280
     0
102
RTVSPost2010PropOp28
 70
     1
102
RTVSPost2010Prop29
280
     1
102
RTVSPost2010PropOp29
 70
     1
102
RTVSPost2010Prop30
280
     1
102
RTVSPost2010PropOp30
 70
     1
102
RTVSPost2010Prop31
280
     0
102
RTVSPost2010PropOp31
 70
     1
102
RTVSPost2010Prop32
280
     0
102
RTVSPost2010PropOp32
 70
     1
102
RTVSPost2010Prop33
280
     0
102
RTVSPost2010PropOp33
 70
     1
102
RTVSPost2010Prop34
280
     0
102
RTVSPost2010PropOp34
 70
     1
102
RTVSPost2010Prop35
280
     0
102
RTVSPost2010PropOp35
 70
     1
102
RTVSPost2010Prop36
280
     0
102
RTVSPost2010PropOp36
 70
     1
102
RTVSPost2010Prop37
 90
       50
102
RTVSPost2010PropOp37
 70
     1
102
RTVSPost2010Prop38
140
0.0
102
RTVSPost2010PropOp38
 70
     1
102
RTVSPost2010Prop39
140
1.0
102
RTVSPost2010PropOp39
 70
     1
102
RTVSPost2010Prop40
 90
        0
102
RTVSPost2010PropOp40
 70
     1
102
RTVSPost2010Prop41ColorIndex
 90
       18
102
RTVSPost2010Prop41ColorRGB
 90
        0
102
RTVSPost2010PropOp41
 70
     1
102
RTVSPost2010Prop42
 90
       50
102
RTVSPost2010PropOp42
 70
     1
102
RTVSPost2010Prop43
 90
        3
102
RTVSPost2010PropOp43
 70
     1
102
RTVSPost2010Prop44ColorIndex
 90
        5
102
RTVSPost2010Prop44ColorRGB
 90
      255
102
RTVSPost2010PropOp44
 70
     1
102
RTVSPost2010Prop45
280
     0
102
RTVSPost2010PropOp45
 70
     1
102
RTVSPost2010Prop46
 90
       50
102
RTVSPost2010PropOp46
 70
     1
102
RTVSPost2010Prop47
 90
       50
102
RTVSPost2010PropOp47
 70
     1
102
RTVSPost2010Prop48
 90
       50
102
RTVSPost2010PropOp48
 70
     1
102
RTVSPost2010Prop49
280
     0
102
RTVSPost2010PropOp49
 70
     1
102
RTVSPost2010Prop50
 90
       50
102
RTVSPost2010PropOp50
 70
     1
102
RTVSPost2010Prop51ColorIndex
 90
      256
102
RTVSPost2010Prop51ColorRGB
 90
-16777216
102
RTVSPost2010PropOp51
 70
     0
102
RTVSPost2010Prop52
140
1.0
102
RTVSPost2010PropOp52
 70
     0
102
RTVSPost2010Prop53
 90
        2
102
RTVSPost2010PropOp53
 70
     1
102
RTVSPost2010Prop54
  1
strokes_ogs.tif
102
RTVSPost2010PropOp54
 70
     1
102
RTVSPost2010Prop55
280
     0
102
RTVSPost2010PropOp55
 70
     1
102
RTVSPost2010Prop56
140
1.0
102
RTVSPost2010PropOp56
 70
     1
102
RTVSPost2010Prop57
140
1.0
102
RTVSPost2010PropOp57
 70
     1
102
RTVSPropertyOp0
 70
     1
102
RTVSPropertyOp1
 70
     1
102
RTVSPropertyOp2
 70
     1
102
RTVSPropertyOp3
 70
     1
102
RTVSPropertyOp4
 70
     1
102
RTVSPropertyOp5
 70
     1
102
RTVSPropertyOp6
 70
     1
102
RTVSPropertyOp7
 70
     1
102
RTVSPropertyOp8
 70
     1
102
RTVSPropertyOp9
 70
     1
102
RTVSPropertyOp10
 70
     1
102
RTVSPropertyOp11
 70
     1
102
RTVSPropertyOp12
 70
     1
102
RTVSPropertyOp13
 70
     1
102
RTVSPropertyOp14
 70
     1
102
RTVSPropertyOp15
 70
     1
102
RTVSPropertyOp16
 70
     1
102
RTVSPropertyOp17
 70
     1
102
RTVSPropertyOp18
 70
     1
102
RTVSPropertyOp19
 70
     1
102
RTVSPropertyOp20
 70
     1
102
RTVSPropertyOp21
 70
     1
102
RTVSPropertyOp22
 70
     1
102
RTVSPropertyOp23
 70
     1
102
RTVSPropertyOp24
 70
     1
102
RTVSPropertyOp25
 70
     1
102
RTVSPropertyOp26
 70
     1
102
RTVSPropertyOp27
 70
     1
102
RTVSPropertyOp28
 70
     1
102
RTVSPropertyOp29
 70
     1
102
RTVSPropertyOp30
 70
     1
102
RTVSPropertyOp31
 70
     1
102
RTVSPropertyOp32
 70
     1
102
RTVSPropertyOp33
 70
     1
102
RTVSPropertyOp34
 70
     1
102
RTVSPropertyOp35
 70
     1
102
RTVSPropertyOp36
 70
     1
102
RTVSPropertyOp37
 70
     1
102
RTVSPropertyOp38
 70
     1
102
RTVSPropertyOp39
 70
     1
102
RTVSPropertyOp40
 70
     1
102
RTVSPropertyOp41
 70
     1
102
RTVSPropertyOp42
 70
     1
102
RTVSPropertyOp43
 70
     1
102
RTVSPropertyOp44
 70
     1
102
RTVSPropertyOp45
 70
     1
102
RTVSPropertyOp46
 70
     1
102
RTVSPropertyOp47
 70
     1
102
RTVSPropertyOp48
 70
     1
102
RTVSPropertyOp49
 70
     1
102
RTVSPropertyOp50
 70
     1
102
RTVSPropertyOp51
 70
     0
102
RTVSPropertyOp52
 70
     0
102
RTVSPropertyOp53
 70
     1
102
RTVSPropertyOp54
 70
     1
102
RTVSPropertyOp55
 70
     1
102
RTVSPropertyOp56
 70
     1
102
RTVSPropertyOp57
 70
     1
102
RTVSPropertyOp58
 70
     1
102
RTVSPropertyOp59
 70
     1
102
RTVSPropertyOp60
 70
     1
102
RTVSPropertyOp61
 70
     1
102
RTVSPropertyOp62
 70
     1
  0
XRECORD
  5
55E
102
{ACAD_REACTORS
330
55D
102
}
330
55D
100
AcDbXrecord
280
     1
102
RTVSPost2010Prop28
280
     0
102
RTVSPost2010PropOp28
 70
     1
102
RTVSPost2010Prop29
280
     1
102
RTVSPost2010PropOp29
 70
     1
102
RTVSPost2010Prop30
280
     1
102
RTVSPost2010PropOp30
 70
     1
102
RTVSPost2010Prop31
280
     0
102
RTVSPost2010PropOp31
 70
     1
102
RTVSPost2010Prop32
280
     0
102
RTVSPost2010PropOp32
 70
     1
102
RTVSPost2010Prop33
280
     0
102
RTVSPost2010PropOp33
 70
     1
102
RTVSPost2010Prop34
280
     0
102
RTVSPost2010PropOp34
 70
     1
102
RTVSPost2010Prop35
280
     0
102
RTVSPost2010PropOp35
 70
     1
102
RTVSPost2010Prop36
280
     0
102
RTVSPost2010PropOp36
 70
     1
102
RTVSPost2010Prop37
 90
       50
102
RTVSPost2010PropOp37
 70
     1
102
RTVSPost2010Prop38
140
0.0
102
RTVSPost2010PropOp38
 70
     1
102
RTVSPost2010Prop39
140
1.0
102
RTVSPost2010PropOp39
 70
     1
102
RTVSPost2010Prop40
 90
        0
102
RTVSPost2010PropOp40
 70
     1
102
RTVSPost2010Prop41ColorIndex
 90
       18
102
RTVSPost2010Prop41ColorRGB
 90
        0
102
RTVSPost2010PropOp41
 70
     1
102
RTVSPost2010Prop42
 90
       50
102
RTVSPost2010PropOp42
 70
     1
102
RTVSPost2010Prop43
 90
        3
102
RTVSPost2010PropOp43
 70
     1
102
RTVSPost2010Prop44ColorIndex
 90
        5
102
RTVSPost2010Prop44ColorRGB
 90
      255
102
RTVSPost2010PropOp44
 70
     1
102
RTVSPost2010Prop45
280
     0
102
RTVSPost2010PropOp45
 70
     1
102
RTVSPost2010Prop46
 90
       50
102
RTVSPost2010PropOp46
 70
     1
102
RTVSPost2010Prop47
 90
       50
102
RTVSPost2010PropOp47
 70
     1
102
RTVSPost2010Prop48
 90
       50
102
RTVSPost2010PropOp48
 70
     1
102
RTVSPost2010Prop49
280
     0
102
RTVSPost2010PropOp49
 70
     1
102
RTVSPost2010Prop50
 90
       50
102
RTVSPost2010PropOp50
 70
     1
102
RTVSPost2010Prop51ColorIndex
 90
      256
102
RTVSPost2010Prop51ColorRGB
 90
-16777216
102
RTVSPost2010PropOp51
 70
     0
102
RTVSPost2010Prop52
140
1.0
102
RTVSPost2010PropOp52
 70
     0
102
RTVSPost2010Prop53
 90
        2
102
RTVSPost2010PropOp53
 70
     1
102
RTVSPost2010Prop54
  1
strokes_ogs.tif
102
RTVSPost2010PropOp54
 70
     1
102
RTVSPost2010Prop55
280
     0
102
RTVSPost2010PropOp55
 70
     1
102
RTVSPost2010Prop56
140
1.0
102
RTVSPost2010PropOp56
 70
     1
102
RTVSPost2010Prop57
140
1.0
102
RTVSPost2010PropOp57
 70
     1
102
RTVSPropertyOp0
 70
     1
102
RTVSPropertyOp1
 70
     1
102
RTVSPropertyOp2
 70
     1
102
RTVSPropertyOp3
 70
     1
102
RTVSPropertyOp4
 70
     1
102
RTVSPropertyOp5
 70
     1
102
RTVSPropertyOp6
 70
     1
102
RTVSPropertyOp7
 70
     1
102
RTVSPropertyOp8
 70
     1
102
RTVSPropertyOp9
 70
     1
102
RTVSPropertyOp10
 70
     1
102
RTVSPropertyOp11
 70
     1
102
RTVSPropertyOp12
 70
     1
102
RTVSPropertyOp13
 70
     1
102
RTVSPropertyOp14
 70
     1
102
RTVSPropertyOp15
 70
     1
102
RTVSPropertyOp16
 70
     1
102
RTVSPropertyOp17
 70
     1
102
RTVSPropertyOp18
 70
     1
102
RTVSPropertyOp19
 70
     1
102
RTVSPropertyOp20
 70
     1
102
RTVSPropertyOp21
 70
     1
102
RTVSPropertyOp22
 70
     1
102
RTVSPropertyOp23
 70
     1
102
RTVSPropertyOp24
 70
     1
102
RTVSPropertyOp25
 70
     1
102
RTVSPropertyOp26
 70
     1
102
RTVSPropertyOp27
 70
     1
102
RTVSPropertyOp28
 70
     1
102
RTVSPropertyOp29
 70
     1
102
RTVSPropertyOp30
 70
     1
102
RTVSPropertyOp31
 70
     1
102
RTVSPropertyOp32
 70
     1
102
RTVSPropertyOp33
 70
     1
102
RTVSPropertyOp34
 70
     1
102
RTVSPropertyOp35
 70
     1
102
RTVSPropertyOp36
 70
     1
102
RTVSPropertyOp37
 70
     1
102
RTVSPropertyOp38
 70
     1
102
RTVSPropertyOp39
 70
     1
102
RTVSPropertyOp40
 70
     1
102
RTVSPropertyOp41
 70
     1
102
RTVSPropertyOp42
 70
     1
102
RTVSPropertyOp43
 70
     1
102
RTVSPropertyOp44
 70
     1
102
RTVSPropertyOp45
 70
     1
102
RTVSPropertyOp46
 70
     1
102
RTVSPropertyOp47
 70
     1
102
RTVSPropertyOp48
 70
     1
102
RTVSPropertyOp49
 70
     1
102
RTVSPropertyOp50
 70
     1
102
RTVSPropertyOp51
 70
     0
102
RTVSPropertyOp52
 70
     0
102
RTVSPropertyOp53
 70
     1
102
RTVSPropertyOp54
 70
     1
102
RTVSPropertyOp55
 70
     1
102
RTVSPropertyOp56
 70
     1
102
RTVSPropertyOp57
 70
     1
102
RTVSPropertyOp58
 70
     1
102
RTVSPropertyOp59
 70
     1
102
RTVSPropertyOp60
 70
     1
102
RTVSPropertyOp61
 70
     1
102
RTVSPropertyOp62
 70
     1
  0
XRECORD
  5
55C
102
{ACAD_REACTORS
330
55B
102
}
330
55B
100
AcDbXrecord
280
     1
102
RTVSPost2010Prop28
280
     0
102
RTVSPost2010PropOp28
 70
     1
102
RTVSPost2010Prop29
280
     1
102
RTVSPost2010PropOp29
 70
     1
102
RTVSPost2010Prop30
280
     1
102
RTVSPost2010PropOp30
 70
     1
102
RTVSPost2010Prop31
280
     0
102
RTVSPost2010PropOp31
 70
     1
102
RTVSPost2010Prop32
280
     0
102
RTVSPost2010PropOp32
 70
     1
102
RTVSPost2010Prop33
280
     0
102
RTVSPost2010PropOp33
 70
     1
102
RTVSPost2010Prop34
280
     0
102
RTVSPost2010PropOp34
 70
     1
102
RTVSPost2010Prop35
280
     0
102
RTVSPost2010PropOp35
 70
     1
102
RTVSPost2010Prop36
280
     0
102
RTVSPost2010PropOp36
 70
     1
102
RTVSPost2010Prop37
 90
       50
102
RTVSPost2010PropOp37
 70
     1
102
RTVSPost2010Prop38
140
0.0
102
RTVSPost2010PropOp38
 70
     1
102
RTVSPost2010Prop39
140
1.0
102
RTVSPost2010PropOp39
 70
     1
102
RTVSPost2010Prop40
 90
        0
102
RTVSPost2010PropOp40
 70
     1
102
RTVSPost2010Prop41ColorIndex
 90
       18
102
RTVSPost2010Prop41ColorRGB
 90
        0
102
RTVSPost2010PropOp41
 70
     1
102
RTVSPost2010Prop42
 90
       50
102
RTVSPost2010PropOp42
 70
     1
102
RTVSPost2010Prop43
 90
        3
102
RTVSPost2010PropOp43
 70
     1
102
RTVSPost2010Prop44ColorIndex
 90
        5
102
RTVSPost2010Prop44ColorRGB
 90
      255
102
RTVSPost2010PropOp44
 70
     1
102
RTVSPost2010Prop45
280
     0
102
RTVSPost2010PropOp45
 70
     1
102
RTVSPost2010Prop46
 90
       50
102
RTVSPost2010PropOp46
 70
     1
102
RTVSPost2010Prop47
 90
       50
102
RTVSPost2010PropOp47
 70
     1
102
RTVSPost2010Prop48
 90
       50
102
RTVSPost2010PropOp48
 70
     1
102
RTVSPost2010Prop49
280
     0
102
RTVSPost2010PropOp49
 70
     1
102
RTVSPost2010Prop50
 90
       50
102
RTVSPost2010PropOp50
 70
     1
102
RTVSPost2010Prop51ColorIndex
 90
      256
102
RTVSPost2010Prop51ColorRGB
 90
-16777216
102
RTVSPost2010PropOp51
 70
     0
102
RTVSPost2010Prop52
140
1.0
102
RTVSPost2010PropOp52
 70
     0
102
RTVSPost2010Prop53
 90
        2
102
RTVSPost2010PropOp53
 70
     1
102
RTVSPost2010Prop54
  1
strokes_ogs.tif
102
RTVSPost2010PropOp54
 70
     1
102
RTVSPost2010Prop55
280
     0
102
RTVSPost2010PropOp55
 70
     1
102
RTVSPost2010Prop56
140
1.0
102
RTVSPost2010PropOp56
 70
     1
102
RTVSPost2010Prop57
140
1.0
102
RTVSPost2010PropOp57
 70
     1
102
RTVSPropertyOp0
 70
     1
102
RTVSPropertyOp1
 70
     1
102
RTVSPropertyOp2
 70
     1
102
RTVSPropertyOp3
 70
     1
102
RTVSPropertyOp4
 70
     1
102
RTVSPropertyOp5
 70
     1
102
RTVSPropertyOp6
 70
     1
102
RTVSPropertyOp7
 70
     1
102
RTVSPropertyOp8
 70
     1
102
RTVSPropertyOp9
 70
     1
102
RTVSPropertyOp10
 70
     1
102
RTVSPropertyOp11
 70
     1
102
RTVSPropertyOp12
 70
     1
102
RTVSPropertyOp13
 70
     1
102
RTVSPropertyOp14
 70
     1
102
RTVSPropertyOp15
 70
     1
102
RTVSPropertyOp16
 70
     1
102
RTVSPropertyOp17
 70
     1
102
RTVSPropertyOp18
 70
     1
102
RTVSPropertyOp19
 70
     1
102
RTVSPropertyOp20
 70
     1
102
RTVSPropertyOp21
 70
     1
102
RTVSPropertyOp22
 70
     1
102
RTVSPropertyOp23
 70
     1
102
RTVSPropertyOp24
 70
     1
102
RTVSPropertyOp25
 70
     1
102
RTVSPropertyOp26
 70
     1
102
RTVSPropertyOp27
 70
     1
102
RTVSPropertyOp28
 70
     1
102
RTVSPropertyOp29
 70
     1
102
RTVSPropertyOp30
 70
     1
102
RTVSPropertyOp31
 70
     1
102
RTVSPropertyOp32
 70
     1
102
RTVSPropertyOp33
 70
     1
102
RTVSPropertyOp34
 70
     1
102
RTVSPropertyOp35
 70
     1
102
RTVSPropertyOp36
 70
     1
102
RTVSPropertyOp37
 70
     1
102
RTVSPropertyOp38
 70
     1
102
RTVSPropertyOp39
 70
     1
102
RTVSPropertyOp40
 70
     1
102
RTVSPropertyOp41
 70
     1
102
RTVSPropertyOp42
 70
     1
102
RTVSPropertyOp43
 70
     1
102
RTVSPropertyOp44
 70
     1
102
RTVSPropertyOp45
 70
     1
102
RTVSPropertyOp46
 70
     1
102
RTVSPropertyOp47
 70
     1
102
RTVSPropertyOp48
 70
     1
102
RTVSPropertyOp49
 70
     1
102
RTVSPropertyOp50
 70
     1
102
RTVSPropertyOp51
 70
     0
102
RTVSPropertyOp52
 70
     0
102
RTVSPropertyOp53
 70
     1
102
RTVSPropertyOp54
 70
     1
102
RTVSPropertyOp55
 70
     1
102
RTVSPropertyOp56
 70
     1
102
RTVSPropertyOp57
 70
     1
102
RTVSPropertyOp58
 70
     1
102
RTVSPropertyOp59
 70
     1
102
RTVSPropertyOp60
 70
     1
102
RTVSPropertyOp61
 70
     1
102
RTVSPropertyOp62
 70
     1
  0
XRECORD
  5
556
102
{ACAD_REACTORS
330
555
102
}
330
555
100
AcDbXrecord
280
     1
102
RTVSPost2010Prop28
280
     0
102
RTVSPost2010PropOp28
 70
     1
102
RTVSPost2010Prop29
280
     1
102
RTVSPost2010PropOp29
 70
     1
102
RTVSPost2010Prop30
280
     1
102
RTVSPost2010PropOp30
 70
     1
102
RTVSPost2010Prop31
280
     0
102
RTVSPost2010PropOp31
 70
     1
102
RTVSPost2010Prop32
280
     0
102
RTVSPost2010PropOp32
 70
     1
102
RTVSPost2010Prop33
280
     0
102
RTVSPost2010PropOp33
 70
     1
102
RTVSPost2010Prop34
280
     0
102
RTVSPost2010PropOp34
 70
     1
102
RTVSPost2010Prop35
280
     0
102
RTVSPost2010PropOp35
 70
     1
102
RTVSPost2010Prop36
280
     0
102
RTVSPost2010PropOp36
 70
     1
102
RTVSPost2010Prop37
 90
       50
102
RTVSPost2010PropOp37
 70
     1
102
RTVSPost2010Prop38
140
0.0
102
RTVSPost2010PropOp38
 70
     1
102
RTVSPost2010Prop39
140
1.0
102
RTVSPost2010PropOp39
 70
     1
102
RTVSPost2010Prop40
 90
        0
102
RTVSPost2010PropOp40
 70
     1
102
RTVSPost2010Prop41ColorIndex
 90
       18
102
RTVSPost2010Prop41ColorRGB
 90
        0
102
RTVSPost2010PropOp41
 70
     1
102
RTVSPost2010Prop42
 90
       50
102
RTVSPost2010PropOp42
 70
     1
102
RTVSPost2010Prop43
 90
        3
102
RTVSPost2010PropOp43
 70
     1
102
RTVSPost2010Prop44ColorIndex
 90
        5
102
RTVSPost2010Prop44ColorRGB
 90
      255
102
RTVSPost2010PropOp44
 70
     1
102
RTVSPost2010Prop45
280
     0
102
RTVSPost2010PropOp45
 70
     1
102
RTVSPost2010Prop46
 90
       50
102
RTVSPost2010PropOp46
 70
     1
102
RTVSPost2010Prop47
 90
       50
102
RTVSPost2010PropOp47
 70
     1
102
RTVSPost2010Prop48
 90
       50
102
RTVSPost2010PropOp48
 70
     1
102
RTVSPost2010Prop49
280
     0
102
RTVSPost2010PropOp49
 70
     1
102
RTVSPost2010Prop50
 90
       50
102
RTVSPost2010PropOp50
 70
     1
102
RTVSPost2010Prop51ColorIndex
 90
      256
102
RTVSPost2010Prop51ColorRGB
 90
-16777216
102
RTVSPost2010PropOp51
 70
     0
102
RTVSPost2010Prop52
140
1.0
102
RTVSPost2010PropOp52
 70
     0
102
RTVSPost2010Prop53
 90
        2
102
RTVSPost2010PropOp53
 70
     1
102
RTVSPost2010Prop54
  1
strokes_ogs.tif
102
RTVSPost2010PropOp54
 70
     1
102
RTVSPost2010Prop55
280
     0
102
RTVSPost2010PropOp55
 70
     1
102
RTVSPost2010Prop56
140
1.0
102
RTVSPost2010PropOp56
 70
     1
102
RTVSPost2010Prop57
140
1.0
102
RTVSPost2010PropOp57
 70
     1
102
RTVSPropertyOp0
 70
     1
102
RTVSPropertyOp1
 70
     1
102
RTVSPropertyOp2
 70
     1
102
RTVSPropertyOp3
 70
     1
102
RTVSPropertyOp4
 70
     1
102
RTVSPropertyOp5
 70
     1
102
RTVSPropertyOp6
 70
     1
102
RTVSPropertyOp7
 70
     1
102
RTVSPropertyOp8
 70
     1
102
RTVSPropertyOp9
 70
     1
102
RTVSPropertyOp10
 70
     1
102
RTVSPropertyOp11
 70
     1
102
RTVSPropertyOp12
 70
     1
102
RTVSPropertyOp13
 70
     1
102
RTVSPropertyOp14
 70
     1
102
RTVSPropertyOp15
 70
     1
102
RTVSPropertyOp16
 70
     1
102
RTVSPropertyOp17
 70
     1
102
RTVSPropertyOp18
 70
     1
102
RTVSPropertyOp19
 70
     1
102
RTVSPropertyOp20
 70
     1
102
RTVSPropertyOp21
 70
     1
102
RTVSPropertyOp22
 70
     1
102
RTVSPropertyOp23
 70
     1
102
RTVSPropertyOp24
 70
     1
102
RTVSPropertyOp25
 70
     1
102
RTVSPropertyOp26
 70
     1
102
RTVSPropertyOp27
 70
     1
102
RTVSPropertyOp28
 70
     1
102
RTVSPropertyOp29
 70
     1
102
RTVSPropertyOp30
 70
     1
102
RTVSPropertyOp31
 70
     1
102
RTVSPropertyOp32
 70
     1
102
RTVSPropertyOp33
 70
     1
102
RTVSPropertyOp34
 70
     1
102
RTVSPropertyOp35
 70
     1
102
RTVSPropertyOp36
 70
     1
102
RTVSPropertyOp37
 70
     1
102
RTVSPropertyOp38
 70
     1
102
RTVSPropertyOp39
 70
     1
102
RTVSPropertyOp40
 70
     1
102
RTVSPropertyOp41
 70
     1
102
RTVSPropertyOp42
 70
     1
102
RTVSPropertyOp43
 70
     1
102
RTVSPropertyOp44
 70
     1
102
RTVSPropertyOp45
 70
     1
102
RTVSPropertyOp46
 70
     1
102
RTVSPropertyOp47
 70
     1
102
RTVSPropertyOp48
 70
     1
102
RTVSPropertyOp49
 70
     1
102
RTVSPropertyOp50
 70
     1
102
RTVSPropertyOp51
 70
     0
102
RTVSPropertyOp52
 70
     0
102
RTVSPropertyOp53
 70
     1
102
RTVSPropertyOp54
 70
     1
102
RTVSPropertyOp55
 70
     1
102
RTVSPropertyOp56
 70
     1
102
RTVSPropertyOp57
 70
     1
102
RTVSPropertyOp58
 70
     1
102
RTVSPropertyOp59
 70
     1
102
RTVSPropertyOp60
 70
     1
102
RTVSPropertyOp61
 70
     1
102
RTVSPropertyOp62
 70
     1
  0
XRECORD
  5
558
102
{ACAD_REACTORS
330
557
102
}
330
557
100
AcDbXrecord
280
     1
102
RTVSPost2010Prop28
280
     0
102
RTVSPost2010PropOp28
 70
     1
102
RTVSPost2010Prop29
280
     1
102
RTVSPost2010PropOp29
 70
     1
102
RTVSPost2010Prop30
280
     1
102
RTVSPost2010PropOp30
 70
     1
102
RTVSPost2010Prop31
280
     0
102
RTVSPost2010PropOp31
 70
     1
102
RTVSPost2010Prop32
280
     0
102
RTVSPost2010PropOp32
 70
     1
102
RTVSPost2010Prop33
280
     0
102
RTVSPost2010PropOp33
 70
     1
102
RTVSPost2010Prop34
280
     0
102
RTVSPost2010PropOp34
 70
     1
102
RTVSPost2010Prop35
280
     0
102
RTVSPost2010PropOp35
 70
     1
102
RTVSPost2010Prop36
280
     0
102
RTVSPost2010PropOp36
 70
     1
102
RTVSPost2010Prop37
 90
       50
102
RTVSPost2010PropOp37
 70
     1
102
RTVSPost2010Prop38
140
0.0
102
RTVSPost2010PropOp38
 70
     1
102
RTVSPost2010Prop39
140
1.0
102
RTVSPost2010PropOp39
 70
     1
102
RTVSPost2010Prop40
 90
        0
102
RTVSPost2010PropOp40
 70
     1
102
RTVSPost2010Prop41ColorIndex
 90
       18
102
RTVSPost2010Prop41ColorRGB
 90
        0
102
RTVSPost2010PropOp41
 70
     1
102
RTVSPost2010Prop42
 90
       50
102
RTVSPost2010PropOp42
 70
     1
102
RTVSPost2010Prop43
 90
        3
102
RTVSPost2010PropOp43
 70
     1
102
RTVSPost2010Prop44ColorIndex
 90
        5
102
RTVSPost2010Prop44ColorRGB
 90
      255
102
RTVSPost2010PropOp44
 70
     1
102
RTVSPost2010Prop45
280
     0
102
RTVSPost2010PropOp45
 70
     1
102
RTVSPost2010Prop46
 90
       50
102
RTVSPost2010PropOp46
 70
     1
102
RTVSPost2010Prop47
 90
       50
102
RTVSPost2010PropOp47
 70
     1
102
RTVSPost2010Prop48
 90
       50
102
RTVSPost2010PropOp48
 70
     1
102
RTVSPost2010Prop49
280
     0
102
RTVSPost2010PropOp49
 70
     1
102
RTVSPost2010Prop50
 90
       50
102
RTVSPost2010PropOp50
 70
     1
102
RTVSPost2010Prop51ColorIndex
 90
      256
102
RTVSPost2010Prop51ColorRGB
 90
-16777216
102
RTVSPost2010PropOp51
 70
     0
102
RTVSPost2010Prop52
140
1.0
102
RTVSPost2010PropOp52
 70
     0
102
RTVSPost2010Prop53
 90
        2
102
RTVSPost2010PropOp53
 70
     1
102
RTVSPost2010Prop54
  1
strokes_ogs.tif
102
RTVSPost2010PropOp54
 70
     1
102
RTVSPost2010Prop55
280
     0
102
RTVSPost2010PropOp55
 70
     1
102
RTVSPost2010Prop56
140
1.0
102
RTVSPost2010PropOp56
 70
     1
102
RTVSPost2010Prop57
140
1.0
102
RTVSPost2010PropOp57
 70
     1
102
RTVSPropertyOp0
 70
     1
102
RTVSPropertyOp1
 70
     1
102
RTVSPropertyOp2
 70
     1
102
RTVSPropertyOp3
 70
     1
102
RTVSPropertyOp4
 70
     1
102
RTVSPropertyOp5
 70
     1
102
RTVSPropertyOp6
 70
     1
102
RTVSPropertyOp7
 70
     1
102
RTVSPropertyOp8
 70
     1
102
RTVSPropertyOp9
 70
     1
102
RTVSPropertyOp10
 70
     1
102
RTVSPropertyOp11
 70
     1
102
RTVSPropertyOp12
 70
     1
102
RTVSPropertyOp13
 70
     1
102
RTVSPropertyOp14
 70
     1
102
RTVSPropertyOp15
 70
     1
102
RTVSPropertyOp16
 70
     1
102
RTVSPropertyOp17
 70
     1
102
RTVSPropertyOp18
 70
     1
102
RTVSPropertyOp19
 70
     1
102
RTVSPropertyOp20
 70
     1
102
RTVSPropertyOp21
 70
     1
102
RTVSPropertyOp22
 70
     1
102
RTVSPropertyOp23
 70
     1
102
RTVSPropertyOp24
 70
     1
102
RTVSPropertyOp25
 70
     1
102
RTVSPropertyOp26
 70
     1
102
RTVSPropertyOp27
 70
     1
102
RTVSPropertyOp28
 70
     1
102
RTVSPropertyOp29
 70
     1
102
RTVSPropertyOp30
 70
     1
102
RTVSPropertyOp31
 70
     1
102
RTVSPropertyOp32
 70
     1
102
RTVSPropertyOp33
 70
     1
102
RTVSPropertyOp34
 70
     1
102
RTVSPropertyOp35
 70
     1
102
RTVSPropertyOp36
 70
     1
102
RTVSPropertyOp37
 70
     1
102
RTVSPropertyOp38
 70
     1
102
RTVSPropertyOp39
 70
     1
102
RTVSPropertyOp40
 70
     1
102
RTVSPropertyOp41
 70
     1
102
RTVSPropertyOp42
 70
     1
102
RTVSPropertyOp43
 70
     1
102
RTVSPropertyOp44
 70
     1
102
RTVSPropertyOp45
 70
     1
102
RTVSPropertyOp46
 70
     1
102
RTVSPropertyOp47
 70
     1
102
RTVSPropertyOp48
 70
     1
102
RTVSPropertyOp49
 70
     1
102
RTVSPropertyOp50
 70
     1
102
RTVSPropertyOp51
 70
     0
102
RTVSPropertyOp52
 70
     0
102
RTVSPropertyOp53
 70
     1
102
RTVSPropertyOp54
 70
     1
102
RTVSPropertyOp55
 70
     1
102
RTVSPropertyOp56
 70
     1
102
RTVSPropertyOp57
 70
     1
102
RTVSPropertyOp58
 70
     1
102
RTVSPropertyOp59
 70
     1
102
RTVSPropertyOp60
 70
     1
102
RTVSPropertyOp61
 70
     1
102
RTVSPropertyOp62
 70
     1
  0
XRECORD
  5
54E
102
{ACAD_REACTORS
330
54D
102
}
330
54D
100
AcDbXrecord
280
     1
102
RTVSPost2010Prop28
280
     0
102
RTVSPost2010PropOp28
 70
     1
102
RTVSPost2010Prop29
280
     1
102
RTVSPost2010PropOp29
 70
     1
102
RTVSPost2010Prop30
280
     1
102
RTVSPost2010PropOp30
 70
     1
102
RTVSPost2010Prop31
280
     0
102
RTVSPost2010PropOp31
 70
     1
102
RTVSPost2010Prop32
280
     0
102
RTVSPost2010PropOp32
 70
     1
102
RTVSPost2010Prop33
280
     0
102
RTVSPost2010PropOp33
 70
     1
102
RTVSPost2010Prop34
280
     0
102
RTVSPost2010PropOp34
 70
     1
102
RTVSPost2010Prop35
280
     0
102
RTVSPost2010PropOp35
 70
     1
102
RTVSPost2010Prop36
280
     0
102
RTVSPost2010PropOp36
 70
     1
102
RTVSPost2010Prop37
 90
       50
102
RTVSPost2010PropOp37
 70
     1
102
RTVSPost2010Prop38
140
0.0
102
RTVSPost2010PropOp38
 70
     1
102
RTVSPost2010Prop39
140
1.0
102
RTVSPost2010PropOp39
 70
     1
102
RTVSPost2010Prop40
 90
        0
102
RTVSPost2010PropOp40
 70
     1
102
RTVSPost2010Prop41ColorIndex
 90
       18
102
RTVSPost2010Prop41ColorRGB
 90
        0
102
RTVSPost2010PropOp41
 70
     1
102
RTVSPost2010Prop42
 90
       50
102
RTVSPost2010PropOp42
 70
     1
102
RTVSPost2010Prop43
 90
        3
102
RTVSPost2010PropOp43
 70
     1
102
RTVSPost2010Prop44ColorIndex
 90
        5
102
RTVSPost2010Prop44ColorRGB
 90
      255
102
RTVSPost2010PropOp44
 70
     1
102
RTVSPost2010Prop45
280
     0
102
RTVSPost2010PropOp45
 70
     1
102
RTVSPost2010Prop46
 90
       50
102
RTVSPost2010PropOp46
 70
     1
102
RTVSPost2010Prop47
 90
       50
102
RTVSPost2010PropOp47
 70
     1
102
RTVSPost2010Prop48
 90
       50
102
RTVSPost2010PropOp48
 70
     1
102
RTVSPost2010Prop49
280
     0
102
RTVSPost2010PropOp49
 70
     1
102
RTVSPost2010Prop50
 90
       50
102
RTVSPost2010PropOp50
 70
     1
102
RTVSPost2010Prop51ColorIndex
 90
      256
102
RTVSPost2010Prop51ColorRGB
 90
-16777216
102
RTVSPost2010PropOp51
 70
     0
102
RTVSPost2010Prop52
140
1.0
102
RTVSPost2010PropOp52
 70
     0
102
RTVSPost2010Prop53
 90
        2
102
RTVSPost2010PropOp53
 70
     1
102
RTVSPost2010Prop54
  1
strokes_ogs.tif
102
RTVSPost2010PropOp54
 70
     1
102
RTVSPost2010Prop55
280
     0
102
RTVSPost2010PropOp55
 70
     1
102
RTVSPost2010Prop56
140
1.0
102
RTVSPost2010PropOp56
 70
     1
102
RTVSPost2010Prop57
140
1.0
102
RTVSPost2010PropOp57
 70
     1
102
RTVSPropertyOp0
 70
     1
102
RTVSPropertyOp1
 70
     1
102
RTVSPropertyOp2
 70
     1
102
RTVSPropertyOp3
 70
     1
102
RTVSPropertyOp4
 70
     1
102
RTVSPropertyOp5
 70
     1
102
RTVSPropertyOp6
 70
     1
102
RTVSPropertyOp7
 70
     1
102
RTVSPropertyOp8
 70
     1
102
RTVSPropertyOp9
 70
     1
102
RTVSPropertyOp10
 70
     1
102
RTVSPropertyOp11
 70
     1
102
RTVSPropertyOp12
 70
     1
102
RTVSPropertyOp13
 70
     1
102
RTVSPropertyOp14
 70
     1
102
RTVSPropertyOp15
 70
     1
102
RTVSPropertyOp16
 70
     1
102
RTVSPropertyOp17
 70
     1
102
RTVSPropertyOp18
 70
     1
102
RTVSPropertyOp19
 70
     1
102
RTVSPropertyOp20
 70
     1
102
RTVSPropertyOp21
 70
     1
102
RTVSPropertyOp22
 70
     1
102
RTVSPropertyOp23
 70
     1
102
RTVSPropertyOp24
 70
     1
102
RTVSPropertyOp25
 70
     1
102
RTVSPropertyOp26
 70
     1
102
RTVSPropertyOp27
 70
     1
102
RTVSPropertyOp28
 70
     1
102
RTVSPropertyOp29
 70
     1
102
RTVSPropertyOp30
 70
     1
102
RTVSPropertyOp31
 70
     1
102
RTVSPropertyOp32
 70
     1
102
RTVSPropertyOp33
 70
     1
102
RTVSPropertyOp34
 70
     1
102
RTVSPropertyOp35
 70
     1
102
RTVSPropertyOp36
 70
     1
102
RTVSPropertyOp37
 70
     1
102
RTVSPropertyOp38
 70
     1
102
RTVSPropertyOp39
 70
     1
102
RTVSPropertyOp40
 70
     1
102
RTVSPropertyOp41
 70
     1
102
RTVSPropertyOp42
 70
     1
102
RTVSPropertyOp43
 70
     1
102
RTVSPropertyOp44
 70
     1
102
RTVSPropertyOp45
 70
     1
102
RTVSPropertyOp46
 70
     1
102
RTVSPropertyOp47
 70
     1
102
RTVSPropertyOp48
 70
     1
102
RTVSPropertyOp49
 70
     1
102
RTVSPropertyOp50
 70
     1
102
RTVSPropertyOp51
 70
     0
102
RTVSPropertyOp52
 70
     0
102
RTVSPropertyOp53
 70
     1
102
RTVSPropertyOp54
 70
     1
102
RTVSPropertyOp55
 70
     1
102
RTVSPropertyOp56
 70
     1
102
RTVSPropertyOp57
 70
     1
102
RTVSPropertyOp58
 70
     1
102
RTVSPropertyOp59
 70
     1
102
RTVSPropertyOp60
 70
     1
102
RTVSPropertyOp61
 70
     1
102
RTVSPropertyOp62
 70
     1
  0
XRECORD
  5
542
102
{ACAD_REACTORS
330
541
102
}
330
541
100
AcDbXrecord
280
     1
102
RTVSPost2010Prop28
280
     0
102
RTVSPost2010PropOp28
 70
     1
102
RTVSPost2010Prop29
280
     1
102
RTVSPost2010PropOp29
 70
     1
102
RTVSPost2010Prop30
280
     1
102
RTVSPost2010PropOp30
 70
     1
102
RTVSPost2010Prop31
280
     0
102
RTVSPost2010PropOp31
 70
     1
102
RTVSPost2010Prop32
280
     0
102
RTVSPost2010PropOp32
 70
     1
102
RTVSPost2010Prop33
280
     0
102
RTVSPost2010PropOp33
 70
     1
102
RTVSPost2010Prop34
280
     0
102
RTVSPost2010PropOp34
 70
     1
102
RTVSPost2010Prop35
280
     0
102
RTVSPost2010PropOp35
 70
     1
102
RTVSPost2010Prop36
280
     0
102
RTVSPost2010PropOp36
 70
     1
102
RTVSPost2010Prop37
 90
       50
102
RTVSPost2010PropOp37
 70
     1
102
RTVSPost2010Prop38
140
0.0
102
RTVSPost2010PropOp38
 70
     1
102
RTVSPost2010Prop39
140
1.0
102
RTVSPost2010PropOp39
 70
     1
102
RTVSPost2010Prop40
 90
        0
102
RTVSPost2010PropOp40
 70
     1
102
RTVSPost2010Prop41ColorIndex
 90
       18
102
RTVSPost2010Prop41ColorRGB
 90
        0
102
RTVSPost2010PropOp41
 70
     1
102
RTVSPost2010Prop42
 90
       50
102
RTVSPost2010PropOp42
 70
     1
102
RTVSPost2010Prop43
 90
        3
102
RTVSPost2010PropOp43
 70
     1
102
RTVSPost2010Prop44ColorIndex
 90
        5
102
RTVSPost2010Prop44ColorRGB
 90
      255
102
RTVSPost2010PropOp44
 70
     1
102
RTVSPost2010Prop45
280
     0
102
RTVSPost2010PropOp45
 70
     1
102
RTVSPost2010Prop46
 90
       50
102
RTVSPost2010PropOp46
 70
     1
102
RTVSPost2010Prop47
 90
       50
102
RTVSPost2010PropOp47
 70
     1
102
RTVSPost2010Prop48
 90
       50
102
RTVSPost2010PropOp48
 70
     1
102
RTVSPost2010Prop49
280
     0
102
RTVSPost2010PropOp49
 70
     1
102
RTVSPost2010Prop50
 90
       50
102
RTVSPost2010PropOp50
 70
     1
102
RTVSPost2010Prop51ColorIndex
 90
      256
102
RTVSPost2010Prop51ColorRGB
 90
-16777216
102
RTVSPost2010PropOp51
 70
     0
102
RTVSPost2010Prop52
140
1.0
102
RTVSPost2010PropOp52
 70
     0
102
RTVSPost2010Prop53
 90
        2
102
RTVSPost2010PropOp53
 70
     1
102
RTVSPost2010Prop54
  1
strokes_ogs.tif
102
RTVSPost2010PropOp54
 70
     1
102
RTVSPost2010Prop55
280
     0
102
RTVSPost2010PropOp55
 70
     1
102
RTVSPost2010Prop56
140
1.0
102
RTVSPost2010PropOp56
 70
     1
102
RTVSPost2010Prop57
140
1.0
102
RTVSPost2010PropOp57
 70
     1
102
RTVSPropertyOp0
 70
     1
102
RTVSPropertyOp1
 70
     1
102
RTVSPropertyOp2
 70
     1
102
RTVSPropertyOp3
 70
     1
102
RTVSPropertyOp4
 70
     1
102
RTVSPropertyOp5
 70
     1
102
RTVSPropertyOp6
 70
     1
102
RTVSPropertyOp7
 70
     1
102
RTVSPropertyOp8
 70
     1
102
RTVSPropertyOp9
 70
     1
102
RTVSPropertyOp10
 70
     1
102
RTVSPropertyOp11
 70
     1
102
RTVSPropertyOp12
 70
     1
102
RTVSPropertyOp13
 70
     1
102
RTVSPropertyOp14
 70
     1
102
RTVSPropertyOp15
 70
     1
102
RTVSPropertyOp16
 70
     1
102
RTVSPropertyOp17
 70
     1
102
RTVSPropertyOp18
 70
     1
102
RTVSPropertyOp19
 70
     1
102
RTVSPropertyOp20
 70
     1
102
RTVSPropertyOp21
 70
     1
102
RTVSPropertyOp22
 70
     1
102
RTVSPropertyOp23
 70
     1
102
RTVSPropertyOp24
 70
     1
102
RTVSPropertyOp25
 70
     1
102
RTVSPropertyOp26
 70
     1
102
RTVSPropertyOp27
 70
     1
102
RTVSPropertyOp28
 70
     1
102
RTVSPropertyOp29
 70
     1
102
RTVSPropertyOp30
 70
     1
102
RTVSPropertyOp31
 70
     1
102
RTVSPropertyOp32
 70
     1
102
RTVSPropertyOp33
 70
     1
102
RTVSPropertyOp34
 70
     1
102
RTVSPropertyOp35
 70
     1
102
RTVSPropertyOp36
 70
     1
102
RTVSPropertyOp37
 70
     1
102
RTVSPropertyOp38
 70
     1
102
RTVSPropertyOp39
 70
     1
102
RTVSPropertyOp40
 70
     1
102
RTVSPropertyOp41
 70
     1
102
RTVSPropertyOp42
 70
     1
102
RTVSPropertyOp43
 70
     1
102
RTVSPropertyOp44
 70
     1
102
RTVSPropertyOp45
 70
     1
102
RTVSPropertyOp46
 70
     1
102
RTVSPropertyOp47
 70
     1
102
RTVSPropertyOp48
 70
     1
102
RTVSPropertyOp49
 70
     1
102
RTVSPropertyOp50
 70
     1
102
RTVSPropertyOp51
 70
     0
102
RTVSPropertyOp52
 70
     0
102
RTVSPropertyOp53
 70
     1
102
RTVSPropertyOp54
 70
     1
102
RTVSPropertyOp55
 70
     1
102
RTVSPropertyOp56
 70
     1
102
RTVSPropertyOp57
 70
     1
102
RTVSPropertyOp58
 70
     1
102
RTVSPropertyOp59
 70
     1
102
RTVSPropertyOp60
 70
     1
102
RTVSPropertyOp61
 70
     1
102
RTVSPropertyOp62
 70
     1
  0
XRECORD
  5
55A
102
{ACAD_REACTORS
330
559
102
}
330
559
100
AcDbXrecord
280
     1
102
RTVSPost2010Prop28
280
     0
102
RTVSPost2010PropOp28
 70
     1
102
RTVSPost2010Prop29
280
     1
102
RTVSPost2010PropOp29
 70
     1
102
RTVSPost2010Prop30
280
     1
102
RTVSPost2010PropOp30
 70
     1
102
RTVSPost2010Prop31
280
     0
102
RTVSPost2010PropOp31
 70
     1
102
RTVSPost2010Prop32
280
     0
102
RTVSPost2010PropOp32
 70
     1
102
RTVSPost2010Prop33
280
     0
102
RTVSPost2010PropOp33
 70
     1
102
RTVSPost2010Prop34
280
     0
102
RTVSPost2010PropOp34
 70
     1
102
RTVSPost2010Prop35
280
     0
102
RTVSPost2010PropOp35
 70
     1
102
RTVSPost2010Prop36
280
     0
102
RTVSPost2010PropOp36
 70
     1
102
RTVSPost2010Prop37
 90
       50
102
RTVSPost2010PropOp37
 70
     1
102
RTVSPost2010Prop38
140
0.0
102
RTVSPost2010PropOp38
 70
     1
102
RTVSPost2010Prop39
140
1.0
102
RTVSPost2010PropOp39
 70
     1
102
RTVSPost2010Prop40
 90
        0
102
RTVSPost2010PropOp40
 70
     1
102
RTVSPost2010Prop41ColorIndex
 90
       18
102
RTVSPost2010Prop41ColorRGB
 90
        0
102
RTVSPost2010PropOp41
 70
     1
102
RTVSPost2010Prop42
 90
       50
102
RTVSPost2010PropOp42
 70
     1
102
RTVSPost2010Prop43
 90
        3
102
RTVSPost2010PropOp43
 70
     1
102
RTVSPost2010Prop44ColorIndex
 90
        5
102
RTVSPost2010Prop44ColorRGB
 90
      255
102
RTVSPost2010PropOp44
 70
     1
102
RTVSPost2010Prop45
280
     0
102
RTVSPost2010PropOp45
 70
     1
102
RTVSPost2010Prop46
 90
       50
102
RTVSPost2010PropOp46
 70
     1
102
RTVSPost2010Prop47
 90
       50
102
RTVSPost2010PropOp47
 70
     1
102
RTVSPost2010Prop48
 90
       50
102
RTVSPost2010PropOp48
 70
     1
102
RTVSPost2010Prop49
280
     0
102
RTVSPost2010PropOp49
 70
     1
102
RTVSPost2010Prop50
 90
       50
102
RTVSPost2010PropOp50
 70
     1
102
RTVSPost2010Prop51ColorIndex
 90
      256
102
RTVSPost2010Prop51ColorRGB
 90
-16777216
102
RTVSPost2010PropOp51
 70
     0
102
RTVSPost2010Prop52
140
1.0
102
RTVSPost2010PropOp52
 70
     0
102
RTVSPost2010Prop53
 90
        2
102
RTVSPost2010PropOp53
 70
     1
102
RTVSPost2010Prop54
  1
strokes_ogs.tif
102
RTVSPost2010PropOp54
 70
     1
102
RTVSPost2010Prop55
280
     0
102
RTVSPost2010PropOp55
 70
     1
102
RTVSPost2010Prop56
140
1.0
102
RTVSPost2010PropOp56
 70
     1
102
RTVSPost2010Prop57
140
1.0
102
RTVSPost2010PropOp57
 70
     1
102
RTVSPropertyOp0
 70
     1
102
RTVSPropertyOp1
 70
     1
102
RTVSPropertyOp2
 70
     1
102
RTVSPropertyOp3
 70
     1
102
RTVSPropertyOp4
 70
     1
102
RTVSPropertyOp5
 70
     1
102
RTVSPropertyOp6
 70
     1
102
RTVSPropertyOp7
 70
     1
102
RTVSPropertyOp8
 70
     1
102
RTVSPropertyOp9
 70
     1
102
RTVSPropertyOp10
 70
     1
102
RTVSPropertyOp11
 70
     1
102
RTVSPropertyOp12
 70
     1
102
RTVSPropertyOp13
 70
     1
102
RTVSPropertyOp14
 70
     1
102
RTVSPropertyOp15
 70
     1
102
RTVSPropertyOp16
 70
     1
102
RTVSPropertyOp17
 70
     1
102
RTVSPropertyOp18
 70
     1
102
RTVSPropertyOp19
 70
     1
102
RTVSPropertyOp20
 70
     1
102
RTVSPropertyOp21
 70
     1
102
RTVSPropertyOp22
 70
     1
102
RTVSPropertyOp23
 70
     1
102
RTVSPropertyOp24
 70
     1
102
RTVSPropertyOp25
 70
     1
102
RTVSPropertyOp26
 70
     1
102
RTVSPropertyOp27
 70
     1
102
RTVSPropertyOp28
 70
     1
102
RTVSPropertyOp29
 70
     1
102
RTVSPropertyOp30
 70
     1
102
RTVSPropertyOp31
 70
     1
102
RTVSPropertyOp32
 70
     1
102
RTVSPropertyOp33
 70
     1
102
RTVSPropertyOp34
 70
     1
102
RTVSPropertyOp35
 70
     1
102
RTVSPropertyOp36
 70
     1
102
RTVSPropertyOp37
 70
     1
102
RTVSPropertyOp38
 70
     1
102
RTVSPropertyOp39
 70
     1
102
RTVSPropertyOp40
 70
     1
102
RTVSPropertyOp41
 70
     1
102
RTVSPropertyOp42
 70
     1
102
RTVSPropertyOp43
 70
     1
102
RTVSPropertyOp44
 70
     1
102
RTVSPropertyOp45
 70
     1
102
RTVSPropertyOp46
 70
     1
102
RTVSPropertyOp47
 70
     1
102
RTVSPropertyOp48
 70
     1
102
RTVSPropertyOp49
 70
     1
102
RTVSPropertyOp50
 70
     1
102
RTVSPropertyOp51
 70
     0
102
RTVSPropertyOp52
 70
     0
102
RTVSPropertyOp53
 70
     1
102
RTVSPropertyOp54
 70
     1
102
RTVSPropertyOp55
 70
     1
102
RTVSPropertyOp56
 70
     1
102
RTVSPropertyOp57
 70
     1
102
RTVSPropertyOp58
 70
     1
102
RTVSPropertyOp59
 70
     1
102
RTVSPropertyOp60
 70
     1
102
RTVSPropertyOp61
 70
     1
102
RTVSPropertyOp62
 70
     1
  0
ENDSEC
  0
EOF
