  0
SECTION
  2
HEADER
  9
$ACADVER
  1
AC1015
  9
$ACADMAINTVER
 70
    20
  9
$DWGCODEPAGE
  3
ANSI_932
  9
$INSBASE
 10
0.0
 20
0.0
 30
0.0
  9
$EXTMIN
 10
0.0
 20
0.0
 30
0.0
  9
$EXTMAX
 10
4200.0
 20
2970.0
 30
0.0
  9
$LIMMIN
 10
0.0
 20
0.0
  9
$LIMMAX
 10
12.0
 20
9.0
  9
$ORTHOMODE
 70
     0
  9
$REGENMODE
 70
     1
  9
$FILLMODE
 70
     1
  9
$QTEXTMODE
 70
     0
  9
$MIRRTEXT
 70
     0
  9
$LTSCALE
 40
10.0
  9
$ATTMODE
 70
     1
  9
$TEXTSIZE
 40
0.0
  9
$TRACEWID
 40
0.05
  9
$TEXTSTYLE
  7
STANDARD
  9
$CLAYER
  8
0
  9
$CELTYPE
  6
CONTINUOUS
  9
$CECOLOR
 62
   256
  9
$CELTSCALE
 40
1.0
  9
$DISPSILH
 70
     0
  9
$DIMSCALE
 40
1.0
  9
$DIMASZ
 40
0.18
  9
$DIMEXO
 40
0.0625
  9
$DIMDLI
 40
0.38
  9
$DIMRND
 40
0.0
  9
$DIMDLE
 40
0.0
  9
$DIMEXE
 40
0.18
  9
$DIMTP
 40
0.0
  9
$DIMTM
 40
0.0
  9
$DIMTXT
 40
0.18
  9
$DIMCEN
 40
0.09
  9
$DIMTSZ
 40
0.0
  9
$DIMTOL
 70
     0
  9
$DIMLIM
 70
     0
  9
$DIMTIH
 70
     1
  9
$DIMTOH
 70
     1
  9
$DIMSE1
 70
     0
  9
$DIMSE2
 70
     0
  9
$DIMTAD
 70
     0
  9
$DIMZIN
 70
     0
  9
$DIMBLK
  1

  9
$DIMASO
 70
     1
  9
$DIMSHO
 70
     1
  9
$DIMPOST
  1

  9
$DIMAPOST
  1

  9
$DIMALT
 70
     0
  9
$DIMALTD
 70
     2
  9
$DIMALTF
 40
25.4
  9
$DIMLFAC
 40
1.0
  9
$DIMTOFL
 70
     0
  9
$DIMTVP
 40
0.0
  9
$DIMTIX
 70
     0
  9
$DIMSOXD
 70
     0
  9
$DIMSAH
 70
     0
  9
$DIMBLK1
  1

  9
$DIMBLK2
  1

  9
$DIMSTYLE
  2
Standard
  9
$DIMCLRD
 70
     0
  9
$DIMCLRE
 70
     0
  9
$DIMCLRT
 70
     0
  9
$DIMTFAC
 40
1.0
  9
$DIMGAP
 40
0.09
  9
$DIMJUST
 70
     0
  9
$DIMSD1
 70
     0
  9
$DIMSD2
 70
     0
  9
$DIMTOLJ
 70
     1
  9
$DIMTZIN
 70
     0
  9
$DIMALTZ
 70
     0
  9
$DIMALTTZ
 70
     0
  9
$DIMUPT
 70
     0
  9
$DIMDEC
 70
     4
  9
$DIMTDEC
 70
     4
  9
$DIMALTU
 70
     2
  9
$DIMALTTD
 70
     2
  9
$DIMTXSTY
  7
STANDARD
  9
$DIMAUNIT
 70
     0
  9
$DIMADEC
 70
     0
  9
$DIMALTRND
 40
0.0
  9
$DIMAZIN
 70
     0
  9
$DIMDSEP
 70
    46
  9
$DIMATFIT
 70
     3
  9
$DIMFRAC
 70
     0
  9
$DIMLDRBLK
  1

  9
$DIMLUNIT
 70
     2
  9
$DIMLWD
 70
    -2
  9
$DIMLWE
 70
    -2
  9
$DIMTMOVE
 70
     0
  9
$LUNITS
 70
     2
  9
$LUPREC
 70
     4
  9
$SKETCHINC
 40
0.1
  9
$FILLETRAD
 40
0.0
  9
$AUNITS
 70
     0
  9
$AUPREC
 70
     0
  9
$MENU
  1
.
  9
$ELEVATION
 40
0.0
  9
$PELEVATION
 40
0.0
  9
$THICKNESS
 40
0.0
  9
$LIMCHECK
 70
     0
  9
$CHAMFERA
 40
0.0
  9
$CHAMFERB
 40
0.0
  9
$CHAMFERC
 40
0.0
  9
$CHAMFERD
 40
0.0
  9
$SKPOLY
 70
     0
  9
$TDCREATE
 40
2459620.659722222
  9
$TDUCREATE
 40
2459620.284722222
  9
$TDUPDATE
 40
2459620.660023148
  9
$TDUUPDATE
 40
2459620.285023148
  9
$TDINDWG
 40
0.0003009259
  9
$TDUSRTIMER
 40
0.0003009259
  9
$USRTIMER
 70
     1
  9
$ANGBASE
 50
0.0
  9
$ANGDIR
 70
     0
  9
$PDMODE
 70
     0
  9
$PDSIZE
 40
5.0
  9
$PLINEWID
 40
0.0
  9
$SPLFRAME
 70
     0
  9
$SPLINETYPE
 70
     6
  9
$SPLINESEGS
 70
     8
  9
$HANDSEED
  5
507
  9
$SURFTAB1
 70
     6
  9
$SURFTAB2
 70
     6
  9
$SURFTYPE
 70
     6
  9
$SURFU
 70
     6
  9
$SURFV
 70
     6
  9
$UCSBASE
  2

  9
$UCSNAME
  2

  9
$UCSORG
 10
0.0
 20
0.0
 30
0.0
  9
$UCSXDIR
 10
1.0
 20
0.0
 30
0.0
  9
$UCSYDIR
 10
0.0
 20
1.0
 30
0.0
  9
$UCSORTHOREF
  2

  9
$UCSORTHOVIEW
 70
     0
  9
$UCSORGTOP
 10
0.0
 20
0.0
 30
0.0
  9
$UCSORGBOTTOM
 10
0.0
 20
0.0
 30
0.0
  9
$UCSORGLEFT
 10
0.0
 20
0.0
 30
0.0
  9
$UCSORGRIGHT
 10
0.0
 20
0.0
 30
0.0
  9
$UCSORGFRONT
 10
0.0
 20
0.0
 30
0.0
  9
$UCSORGBACK
 10
0.0
 20
0.0
 30
0.0
  9
$PUCSBASE
  2

  9
$PUCSNAME
  2

  9
$PUCSORG
 10
0.0
 20
0.0
 30
0.0
  9
$PUCSXDIR
 10
1.0
 20
0.0
 30
0.0
  9
$PUCSYDIR
 10
0.0
 20
1.0
 30
0.0
  9
$PUCSORTHOREF
  2

  9
$PUCSORTHOVIEW
 70
     0
  9
$PUCSORGTOP
 10
0.0
 20
0.0
 30
0.0
  9
$PUCSORGBOTTOM
 10
0.0
 20
0.0
 30
0.0
  9
$PUCSORGLEFT
 10
0.0
 20
0.0
 30
0.0
  9
$PUCSORGRIGHT
 10
0.0
 20
0.0
 30
0.0
  9
$PUCSORGFRONT
 10
0.0
 20
0.0
 30
0.0
  9
$PUCSORGBACK
 10
0.0
 20
0.0
 30
0.0
  9
$USERI1
 70
     0
  9
$USERI2
 70
     0
  9
$USERI3
 70
     0
  9
$USERI4
 70
     0
  9
$USERI5
 70
     0
  9
$USERR1
 40
0.0
  9
$USERR2
 40
0.0
  9
$USERR3
 40
0.0
  9
$USERR4
 40
0.0
  9
$USERR5
 40
0.0
  9
$WORLDVIEW
 70
     1
  9
$SHADEDGE
 70
     3
  9
$SHADEDIF
 70
    70
  9
$TILEMODE
 70
     1
  9
$MAXACTVP
 70
    64
  9
$PINSBASE
 10
0.0
 20
0.0
 30
0.0
  9
$PLIMCHECK
 70
     0
  9
$PEXTMIN
 10
1.000000000000000E+20
 20
1.000000000000000E+20
 30
1.000000000000000E+20
  9
$PEXTMAX
 10
-1.000000000000000E+20
 20
-1.000000000000000E+20
 30
-1.000000000000000E+20
  9
$PLIMMIN
 10
0.0
 20
0.0
  9
$PLIMMAX
 10
12.0
 20
9.0
  9
$UNITMODE
 70
     0
  9
$VISRETAIN
 70
     1
  9
$PLINEGEN
 70
     0
  9
$PSLTSCALE
 70
     1
  9
$TREEDEPTH
 70
  3020
  9
$CMLSTYLE
  2
Standard
  9
$CMLJUST
 70
     0
  9
$CMLSCALE
 40
1.0
  9
$PROXYGRAPHICS
 70
     1
  9
$MEASUREMENT
 70
     0
  9
$CELWEIGHT
370
    -1
  9
$ENDCAPS
280
     0
  9
$JOINSTYLE
280
     0
  9
$LWDISPLAY
290
     0
  9
$INSUNITS
 70
     0
  9
$HYPERLINKBASE
  1

  9
$STYLESHEET
  1

  9
$XEDIT
290
     1
  9
$CEPSNTYPE
380
     0
  9
$PSTYLEMODE
290
     1
  9
$FINGERPRINTGUID
  2
{EEFD4F61-9971-A145-89D1-4F9ED204A1EF}
  9
$VERSIONGUID
  2
{FA1C0EF9-2748-AD43-B6E9-7B62A2C945A5}
  9
$EXTNAMES
290
     1
  9
$PSVPSCALE
 40
0.0
  9
$OLESTARTUP
290
     0
  0
ENDSEC
  0
SECTION
  2
CLASSES
  0
CLASS
  1
ACDBDICTIONARYWDFLT
  2
AcDbDictionaryWithDefault
  3
ObjectDBX Classes
 90
        0
280
     0
281
     0
  0
CLASS
  1
MATERIAL
  2
AcDbMaterial
  3
ObjectDBX Classes
 90
     1153
280
     0
281
     0
  0
CLASS
  1
VISUALSTYLE
  2
AcDbVisualStyle
  3
ObjectDBX Classes
 90
     4095
280
     0
281
     0
  0
CLASS
  1
SCALE
  2
AcDbScale
  3
ObjectDBX Classes
 90
     1153
280
     0
281
     0
  0
CLASS
  1
TABLESTYLE
  2
AcDbTableStyle
  3
ObjectDBX Classes
 90
     4095
280
     0
281
     0
  0
CLASS
  1
MLEADERSTYLE
  2
AcDbMLeaderStyle
  3
ACDB_MLEADERSTYLE_CLASS
 90
     4095
280
     0
281
     0
  0
CLASS
  1
ACDBSECTIONVIEWSTYLE
  2
AcDbSectionViewStyle
  3
ObjectDBX Classes
 90
     1025
280
     0
281
     0
  0
CLASS
  1
ACDBDETAILVIEWSTYLE
  2
AcDbDetailViewStyle
  3
ObjectDBX Classes
 90
     1025
280
     0
281
     0
  0
CLASS
  1
DICTIONARYVAR
  2
AcDbDictionaryVar
  3
ObjectDBX Classes
 90
        0
280
     0
281
     0
  0
CLASS
  1
CELLSTYLEMAP
  2
AcDbCellStyleMap
  3
ObjectDBX Classes
 90
     1152
280
     0
281
     0
  0
CLASS
  1
ACDBPLACEHOLDER
  2
AcDbPlaceHolder
  3
ObjectDBX Classes
 90
        0
280
     0
281
     0
  0
CLASS
  1
LAYOUT
  2
AcDbLayout
  3
ObjectDBX Classes
 90
        0
280
     0
281
     0
  0
ENDSEC
  0
SECTION
  2
TABLES
  0
TABLE
  2
VPORT
  5
8
330
0
100
AcDbSymbolTable
 70
     1
  0
VPORT
  5
8F
330
8
100
AcDbSymbolTableRecord
100
AcDbViewportTableRecord
  2
*Active
 70
     0
 10
0.0
 20
0.0
 11
1.0
 21
1.0
 12
2826.308648474145
 22
1149.072841177521
 13
0.0
 23
0.0
 14
1.0
 24
1.0
 15
0.0
 25
0.0
 16
0.0
 26
0.0
 36
1.0
 17
0.0
 27
0.0
 37
0.0
 40
4032.595250563969
 41
2.289855072463768
 42
50.0
 43
0.0
 44
0.0
 50
0.0
 51
0.0
 71
     0
 72
   100
 73
     1
 74
     0
 75
     1
 76
     0
 77
     0
 78
     0
281
     0
 65
     1
110
0.0
120
0.0
130
0.0
111
1.0
121
0.0
131
0.0
112
0.0
122
1.0
132
0.0
 79
     0
146
0.0
1001
ACAD_NAV_VCDISPLAY
1070
     3
  0
ENDTAB
  0
TABLE
  2
LTYPE
  5
5
330
0
100
AcDbSymbolTable
 70
     9
  0
LTYPE
  5
5A
330
5
100
AcDbSymbolTableRecord
100
AcDbLinetypeTableRecord
  2
ByBlock
 70
     0
  3

 72
    65
 73
     0
 40
0.0
  0
LTYPE
  5
5B
330
5
100
AcDbSymbolTableRecord
100
AcDbLinetypeTableRecord
  2
ByLayer
 70
     0
  3

 72
    65
 73
     0
 40
0.0
  0
LTYPE
  5
5C
330
5
100
AcDbSymbolTableRecord
100
AcDbLinetypeTableRecord
  2
CONTINUOUS
 70
     0
  3
SolidLine
 72
    65
 73
     0
 40
0.0
  0
LTYPE
  5
73
330
5
100
AcDbSymbolTableRecord
100
AcDbLinetypeTableRecord
  2
DOT
 70
     0
  3
--  --  --  --  --  --  --  --     
 72
    65
 73
     2
 40
3.0
 49
1.0
 74
     0
 49
-2.0
 74
     0
  0
LTYPE
  5
74
330
5
100
AcDbSymbolTableRecord
100
AcDbLinetypeTableRecord
  2
DASHED
 70
     0
  3
----    ----    ----    ----    
 72
    65
 73
     2
 40
5.0
 49
2.0
 74
     0
 49
-3.0
 74
     0
  0
LTYPE
  5
75
330
5
100
AcDbSymbolTableRecord
100
AcDbLinetypeTableRecord
  2
DASHED2
 70
     0
  3
------  ------  ------  ------ 
 72
    65
 73
     2
 40
10.0
 49
4.0
 74
     0
 49
-6.0
 74
     0
  0
LTYPE
  5
76
330
5
100
AcDbSymbolTableRecord
100
AcDbLinetypeTableRecord
  2
CENTER
 70
     0
  3
----- - ----- - ----- - ----- - 
 72
    65
 73
     4
 40
10.0
 49
6.0
 74
     0
 49
-3.0
 74
     0
 49
1.0
 74
     0
 49
-3.0
 74
     0
  0
LTYPE
  5
77
330
5
100
AcDbSymbolTableRecord
100
AcDbLinetypeTableRecord
  2
CENTER2
 70
     0
  3
----------  --  ----------  -- 
 72
    65
 73
     4
 40
17.0
 49
12.0
 74
     0
 49
-5.0
 74
     0
 49
2.0
 74
     0
 49
-5.0
 74
     0
  0
LTYPE
  5
78
330
5
100
AcDbSymbolTableRecord
100
AcDbLinetypeTableRecord
  2
PHANTOM
 70
     0
  3
--- - - --- - - --- - - --- - -
 72
    65
 73
     6
 40
13.0
 49
5.0
 74
     0
 49
-3.0
 74
     0
 49
1.0
 74
     0
 49
-3.0
 74
     0
 49
1.0
 74
     0
 49
-3.0
 74
     0
  0
LTYPE
  5
79
330
5
100
AcDbSymbolTableRecord
100
AcDbLinetypeTableRecord
  2
PHANTOM2
 70
     0
  3
--------  -  -  --------  -  -
 72
    65
 73
     6
 40
20.0
 49
6.0
 74
     0
 49
-5.0
 74
     0
 49
2.0
 74
     0
 49
-5.0
 74
     0
 49
2.0
 74
     0
 49
-5.0
 74
     0
  0
LTYPE
  5
7A
330
5
100
AcDbSymbolTableRecord
100
AcDbLinetypeTableRecord
  2
HIDDEN
 70
     0
  3
-   -   -   -   -   -   -   -   
 72
    65
 73
     2
 40
3.0
 49
0.5
 74
     0
 49
-2.5
 74
     0
  0
ENDTAB
  0
TABLE
  2
LAYER
  5
2
330
0
100
AcDbSymbolTable
 70
    14
  0
LAYER
  5
54
102
{ACAD_XDICTIONARY
360
49F
102
}
330
2
100
AcDbSymbolTableRecord
100
AcDbLayerTableRecord
  2
0
 70
     0
 62
     7
  6
CONTINUOUS
370
    -3
390
F
  0
LAYER
  5
7F
102
{ACAD_XDICTIONARY
360
4A1
102
}
330
2
100
AcDbSymbolTableRecord
100
AcDbLayerTableRecord
  2
2-0
 70
     0
 62
     3
  6
CONTINUOUS
370
    -3
390
F
  0
LAYER
  5
80
102
{ACAD_XDICTIONARY
360
4A3
102
}
330
2
100
AcDbSymbolTableRecord
100
AcDbLayerTableRecord
  2
3-0
 70
     0
 62
     7
  6
CONTINUOUS
370
    -3
390
F
  0
LAYER
  5
81
102
{ACAD_XDICTIONARY
360
4A5
102
}
330
2
100
AcDbSymbolTableRecord
100
AcDbLayerTableRecord
  2
4-0
 70
     0
 62
     7
  6
CONTINUOUS
370
    -3
390
F
  0
LAYER
  5
82
102
{ACAD_XDICTIONARY
360
4A7
102
}
330
2
100
AcDbSymbolTableRecord
100
AcDbLayerTableRecord
  2
5-0
 70
     0
 62
     7
  6
CONTINUOUS
370
    -3
390
F
  0
LAYER
  5
83
102
{ACAD_XDICTIONARY
360
4A9
102
}
330
2
100
AcDbSymbolTableRecord
100
AcDbLayerTableRecord
  2
6-0
 70
     0
 62
    -7
  6
CONTINUOUS
370
    -3
390
F
  0
LAYER
  5
84
102
{ACAD_XDICTIONARY
360
4AB
102
}
330
2
100
AcDbSymbolTableRecord
100
AcDbLayerTableRecord
  2
7-0
 70
     0
 62
    -7
  6
CONTINUOUS
370
    -3
390
F
  0
LAYER
  5
85
102
{ACAD_XDICTIONARY
360
4AD
102
}
330
2
100
AcDbSymbolTableRecord
100
AcDbLayerTableRecord
  2
8-0
 70
     0
 62
     7
  6
CONTINUOUS
370
    -3
390
F
  0
LAYER
  5
86
102
{ACAD_XDICTIONARY
360
4AF
102
}
330
2
100
AcDbSymbolTableRecord
100
AcDbLayerTableRecord
  2
9-0
 70
     0
 62
     7
  6
CONTINUOUS
370
    -3
390
F
  0
LAYER
  5
87
102
{ACAD_XDICTIONARY
360
4B1
102
}
330
2
100
AcDbSymbolTableRecord
100
AcDbLayerTableRecord
  2
A-0
 70
     0
 62
     1
  6
CONTINUOUS
370
    -3
390
F
  0
LAYER
  5
88
102
{ACAD_XDICTIONARY
360
4B3
102
}
330
2
100
AcDbSymbolTableRecord
100
AcDbLayerTableRecord
  2
B-0
 70
     0
 62
     6
  6
CENTER
370
    -3
390
F
  0
LAYER
  5
89
102
{ACAD_XDICTIONARY
360
4B5
102
}
330
2
100
AcDbSymbolTableRecord
100
AcDbLayerTableRecord
  2
C-0
 70
     0
 62
     3
  6
DASHED2
370
    -3
390
F
  0
LAYER
  5
8A
102
{ACAD_XDICTIONARY
360
4B7
102
}
330
2
100
AcDbSymbolTableRecord
100
AcDbLayerTableRecord
  2
D-0
 70
     0
 62
     5
  6
CONTINUOUS
370
    -3
390
F
  0
LAYER
  5
90
102
{ACAD_XDICTIONARY
360
4B9
102
}
330
2
100
AcDbSymbolTableRecord
100
AcDbLayerTableRecord
  2
1-0
 70
     0
 62
     7
  6
CONTINUOUS
370
    -3
390
F
  0
ENDTAB
  0
TABLE
  2
STYLE
  5
3
330
0
100
AcDbSymbolTable
 70
     6
  0
STYLE
  5
55
330
3
100
AcDbSymbolTableRecord
100
AcDbTextStyleTableRecord
  2
STANDARD
 70
     0
 40
0.0
 41
1.0
 50
0.0
 71
     0
 42
0.0
  3
txt.shx
  4
extfont.shx
  0
STYLE
  5
59
330
3
100
AcDbSymbolTableRecord
100
AcDbTextStyleTableRecord
  2
Annotative
 70
     0
 40
0.0
 41
1.0
 50
0.0
 71
     0
 42
0.2
  3
txt
  4

1001
AcadAnnotative
1000
AnnotativeData
1002
{
1070
     1
1070
     1
1002
}
  0
STYLE
  5
7B
330
3
100
AcDbSymbolTableRecord
100
AcDbTextStyleTableRecord
  2
TATEGAKI
 70
     4
 40
0.0
 41
1.0
 50
0.0
 71
     0
 42
0.0
  3
txt.shx
  4
extfont.shx
  0
STYLE
  5
7C
330
3
100
AcDbSymbolTableRecord
100
AcDbTextStyleTableRecord
  2
DIM
 70
     0
 40
0.0
 41
0.75
 50
0.0
 71
     0
 42
0.0
  3
txt.shx
  4
extfont.shx
  0
STYLE
  5
7D
330
3
100
AcDbSymbolTableRecord
100
AcDbTextStyleTableRecord
  2
_GOTHIC__
 70
     0
 40
0.0
 41
1.0
 50
0.0
 71
     0
 42
0.0
  3
MS Gothic
  4

  0
STYLE
  5
7E
330
3
100
AcDbSymbolTableRecord
100
AcDbTextStyleTableRecord
  2
_TATEGOTHIC_
 70
     4
 40
0.0
 41
1.0
 50
0.0
 71
     0
 42
0.0
  3
@MS Gothic
  4

  0
ENDTAB
  0
TABLE
  2
VIEW
  5
6
330
0
100
AcDbSymbolTable
 70
     0
  0
ENDTAB
  0
TABLE
  2
UCS
  5
7
330
0
100
AcDbSymbolTable
 70
     0
  0
ENDTAB
  0
TABLE
  2
APPID
  5
9
330
0
100
AcDbSymbolTable
 70
     4
  0
APPID
  5
56
330
9
100
AcDbSymbolTableRecord
100
AcDbRegAppTableRecord
  2
ACAD
 70
     0
  0
APPID
  5
5D
330
9
100
AcDbSymbolTableRecord
100
AcDbRegAppTableRecord
  2
AcadAnnotative
 70
     0
  0
APPID
  5
4C5
330
9
100
AcDbSymbolTableRecord
100
AcDbRegAppTableRecord
  2
ACAD_NAV_VCDISPLAY
 70
     0
  0
APPID
  5
4FE
330
9
100
AcDbSymbolTableRecord
100
AcDbRegAppTableRecord
  2
ACAD_MLEADERVER
 70
     0
  0
ENDTAB
  0
TABLE
  2
DIMSTYLE
  5
A
330
0
100
AcDbSymbolTable
 70
     2
100
AcDbDimStyleTable
 71
     0
  0
DIMSTYLE
105
57
330
A
100
AcDbSymbolTableRecord
100
AcDbDimStyleTableRecord
  2
Standard
 70
     0
340
55
  0
DIMSTYLE
105
58
330
A
100
AcDbSymbolTableRecord
100
AcDbDimStyleTableRecord
  2
Annotative
 70
     0
340
55
1001
AcadAnnotative
1000
AnnotativeData
1002
{
1070
     1
1070
     1
1002
}
  0
ENDTAB
  0
TABLE
  2
BLOCK_RECORD
  5
1
330
0
100
AcDbSymbolTable
 70
     0
  0
BLOCK_RECORD
  5
6F
330
1
100
AcDbSymbolTableRecord
100
AcDbBlockTableRecord
  2
*Model_Space
340
72
  0
BLOCK_RECORD
  5
6B
330
1
100
AcDbSymbolTableRecord
100
AcDbBlockTableRecord
  2
*Paper_Space
340
6E
  0
ENDTAB
  0
ENDSEC
  0
SECTION
  2
BLOCKS
  0
BLOCK
  5
70
330
6F
100
AcDbEntity
  8
0
100
AcDbBlockBegin
  2
*Model_Space
 70
     0
 10
0.0
 20
0.0
 30
0.0
  3
*Model_Space
  1

  0
ENDBLK
  5
71
330
6F
100
AcDbEntity
  8
0
100
AcDbBlockEnd
  0
BLOCK
  5
6C
330
6B
100
AcDbEntity
 67
     1
  8
0
100
AcDbBlockBegin
  2
*Paper_Space
 70
     0
 10
0.0
 20
0.0
 30
0.0
  3
*Paper_Space
  1

  0
ENDBLK
  5
6D
330
6B
100
AcDbEntity
 67
     1
  8
0
100
AcDbBlockEnd
  0
ENDSEC
  0
SECTION
  2
ENTITIES
  0
LINE
  5
91
330
6F
100
AcDbEntity
  8
1-0
  6
Continuous
 62
     7
100
AcDbLine
 10
0.0
 20
0.0
 30
0.0
 11
4200.0
 21
0.0
 31
0.0
  0
LINE
  5
92
330
6F
100
AcDbEntity
  8
1-0
  6
Continuous
 62
     7
100
AcDbLine
 10
4200.0
 20
0.0
 30
0.0
 11
4200.0
 21
2970.0
 31
0.0
  0
LINE
  5
93
330
6F
100
AcDbEntity
  8
1-0
  6
Continuous
 62
     7
100
AcDbLine
 10
4200.0
 20
2970.0
 30
0.0
 11
0.0
 21
2970.0
 31
0.0
  0
LINE
  5
94
330
6F
100
AcDbEntity
  8
1-0
  6
Continuous
 62
     7
100
AcDbLine
 10
0.0
 20
2970.0
 30
0.0
 11
0.0
 21
0.0
 31
0.0
  0
LINE
  5
95
330
6F
100
AcDbEntity
  8
9-0
  6
Continuous
 62
     7
100
AcDbLine
 10
100.0
 20
100.0
 30
0.0
 11
4100.0
 21
100.0
 31
0.0
  0
LINE
  5
96
330
6F
100
AcDbEntity
  8
9-0
  6
Continuous
 62
     7
100
AcDbLine
 10
2500.0
 20
300.0
 30
0.0
 11
4100.0
 21
300.0
 31
0.0
  0
LINE
  5
97
330
6F
100
AcDbEntity
  8
8-0
  6
Continuous
 62
     7
100
AcDbLine
 10
2500.0
 20
240.0
 30
0.0
 11
3150.0
 21
240.0
 31
0.0
  0
LINE
  5
98
330
6F
100
AcDbEntity
  8
9-0
  6
Continuous
 62
     7
100
AcDbLine
 10
4100.0
 20
100.0
 30
0.0
 11
4100.0
 21
2870.0
 31
0.0
  0
LINE
  5
99
330
6F
100
AcDbEntity
  8
9-0
  6
Continuous
 62
     7
100
AcDbLine
 10
4100.0
 20
2870.0
 30
0.0
 11
100.0
 21
2870.0
 31
0.0
  0
LINE
  5
9A
330
6F
100
AcDbEntity
  8
9-0
  6
Continuous
 62
     7
100
AcDbLine
 10
100.0
 20
2870.0
 30
0.0
 11
100.0
 21
100.0
 31
0.0
  0
LINE
  5
9B
330
6F
100
AcDbEntity
  8
8-0
  6
Continuous
 62
     7
100
AcDbLine
 10
3150.0
 20
100.0
 30
0.0
 11
3150.0
 21
300.0
 31
0.0
  0
LINE
  5
9C
330
6F
100
AcDbEntity
  8
9-0
  6
Continuous
 62
     7
100
AcDbLine
 10
2500.0
 20
100.0
 30
0.0
 11
2500.0
 21
300.0
 31
0.0
  0
TEXT
  5
9D
330
6F
100
AcDbEntity
  8
D-0
 62
     5
100
AcDbText
 10
2788.434
 20
252.531
 30
0.0
 40
31.104
  1
品番
100
AcDbText
  0
TEXT
  5
9E
330
6F
100
AcDbEntity
  8
D-0
 62
     5
100
AcDbText
 10
2644.839000000001
 20
151.981
 30
0.0
 40
51.84000000000001
  1
KW-1100 R
100
AcDbText
  0
TEXT
  5
9F
330
6F
100
AcDbEntity
  8
D-0
 62
     5
100
AcDbText
 10
3353.56
 20
192.32
 30
0.0
 40
62.208
  1
アイオ産業株式会社
100
AcDbText
  0
TEXT
  5
A0
330
6F
100
AcDbEntity
  8
D-0
 62
     5
100
AcDbText
 10
3427.941
 20
124.513
 30
0.0
 40
31.104
  1
アイオシステムキッチン事業部
100
AcDbText
  0
ARC
  5
A1
330
6F
100
AcDbEntity
  8
3-0
  6
Continuous
 62
     7
100
AcDbCircle
 10
3255.659538175486
 20
200.204166274297
 30
0.0
 40
63.24278074506601
100
AcDbArc
 50
319.753
 51
220.247
  0
CIRCLE
  5
A2
330
6F
100
AcDbEntity
  8
3-0
  6
Continuous
 62
     7
100
AcDbCircle
 10
3255.659538175486
 20
200.204166274297
 30
0.0
 40
71.58304716886799
  0
CIRCLE
  5
A3
330
6F
100
AcDbEntity
  8
3-0
  6
Continuous
 62
     7
100
AcDbCircle
 10
3255.659538175486
 20
200.204166274297
 30
0.0
 40
72.000060490058
  0
CIRCLE
  5
A4
330
6F
100
AcDbEntity
  8
3-0
  6
Continuous
 62
     7
100
AcDbCircle
 10
3255.659538175486
 20
200.204166274297
 30
0.0
 40
72.417073811248
  0
CIRCLE
  5
A5
330
6F
100
AcDbEntity
  8
3-0
  6
Continuous
 62
     7
100
AcDbCircle
 10
3255.659538175486
 20
200.204166274297
 30
0.0
 40
72.834087132438
  0
CIRCLE
  5
A6
330
6F
100
AcDbEntity
  8
3-0
  6
Continuous
 62
     7
100
AcDbCircle
 10
3255.659538175486
 20
200.204166274297
 30
0.0
 40
73.251100453628
  0
CIRCLE
  5
A7
330
6F
100
AcDbEntity
  8
3-0
  6
Continuous
 62
     7
100
AcDbCircle
 10
3255.659538175486
 20
200.204166274297
 30
0.0
 40
73.459607114223
  0
CIRCLE
  5
A8
330
6F
100
AcDbEntity
  8
3-0
  6
Continuous
 62
     7
100
AcDbCircle
 10
3255.659538175486
 20
200.204166274297
 30
0.0
 40
73.04259379303299
  0
CIRCLE
  5
A9
330
6F
100
AcDbEntity
  8
3-0
  6
Continuous
 62
     7
100
AcDbCircle
 10
3255.659538175486
 20
200.204166274297
 30
0.0
 40
72.62558047184301
  0
CIRCLE
  5
AA
330
6F
100
AcDbEntity
  8
3-0
  6
Continuous
 62
     7
100
AcDbCircle
 10
3255.659538175486
 20
200.204166274297
 30
0.0
 40
72.20856715065299
  0
CIRCLE
  5
AB
330
6F
100
AcDbEntity
  8
3-0
  6
Continuous
 62
     7
100
AcDbCircle
 10
3255.659538175486
 20
200.204166274297
 30
0.0
 40
71.791553829463
  0
CIRCLE
  5
AC
330
6F
100
AcDbEntity
  8
3-0
  6
Continuous
 62
     7
100
AcDbCircle
 10
3255.659538175486
 20
200.204166274297
 30
0.0
 40
71.791553829463
  0
ARC
  5
AD
330
6F
100
AcDbEntity
  8
3-0
  6
Continuous
 62
     7
100
AcDbCircle
 10
3255.659538175486
 20
200.204166274297
 30
0.0
 40
63.45128740566099
100
AcDbArc
 50
319.753
 51
220.247
  0
CIRCLE
  5
AE
330
6F
100
AcDbEntity
  8
3-0
  6
Continuous
 62
     7
100
AcDbCircle
 10
3255.659538175486
 20
200.204166274297
 30
0.0
 40
71.374540508273
  0
ARC
  5
AF
330
6F
100
AcDbEntity
  8
3-0
  6
Continuous
 62
     7
100
AcDbCircle
 10
3255.659538175486
 20
200.204166274297
 30
0.0
 40
63.03427408447099
100
AcDbArc
 50
319.753
 51
220.247
  0
TEXT
  5
B0
330
6F
100
AcDbEntity
  8
3-0
 62
     7
100
AcDbText
 10
3216.455
 20
142.198
 30
0.0
 40
48.64
  1
A
100
AcDbText
  0
TEXT
  5
B1
330
6F
100
AcDbEntity
  8
3-0
 62
     7
100
AcDbText
 10
3258.946
 20
142.301
 30
0.0
 40
48.64
  1
I
100
AcDbText
  0
TEXT
  5
B2
330
6F
100
AcDbEntity
  8
3-0
 62
     7
100
AcDbText
 10
3269.344
 20
142.267
 30
0.0
 40
48.64
  1
O
100
AcDbText
  0
LINE
  5
B3
330
6F
100
AcDbEntity
  8
D-0
  6
Continuous
 62
     5
100
AcDbLine
 10
2754.942273000001
 20
2669.96157
 30
0.0
 11
3849.976665000001
 21
2669.96157
 31
0.0
  0
LINE
  5
B4
330
6F
100
AcDbEntity
  8
D-0
  6
Continuous
 62
     5
100
AcDbLine
 10
2754.942273000001
 20
2619.96157
 30
0.0
 11
3849.976665000001
 21
2619.96157
 31
0.0
  0
LINE
  5
B5
330
6F
100
AcDbEntity
  8
D-0
  6
Continuous
 62
     5
100
AcDbLine
 10
2754.942273000001
 20
2469.96157
 30
0.0
 11
3849.976665000001
 21
2469.96157
 31
0.0
  0
LINE
  5
B6
330
6F
100
AcDbEntity
  8
D-0
  6
Continuous
 62
     5
100
AcDbLine
 10
2754.942273000001
 20
2719.96157
 30
0.0
 11
3849.976665000001
 21
2719.96157
 31
0.0
  0
TEXT
  5
B7
330
6F
100
AcDbEntity
  8
D-0
 62
     5
100
AcDbText
 10
2794.533
 20
1960.609
 30
0.0
 40
25.92
  1
※　弊社製品はすべてF☆☆☆☆に対応しております。
100
AcDbText
  0
LINE
  5
B8
330
6F
100
AcDbEntity
  8
D-0
  6
Continuous
 62
     5
100
AcDbLine
 10
2754.942273000001
 20
2019.96157
 30
0.0
 11
3849.976665000001
 21
2019.96157
 31
0.0
  0
LINE
  5
B9
330
6F
100
AcDbEntity
  8
D-0
  6
Continuous
 62
     5
100
AcDbLine
 10
2754.942273000001
 20
2069.96157
 30
0.0
 11
3849.976665000001
 21
2069.96157
 31
0.0
  0
LINE
  5
BA
330
6F
100
AcDbEntity
  8
D-0
  6
Continuous
 62
     5
100
AcDbLine
 10
2754.942273000001
 20
2119.96157
 30
0.0
 11
3849.976665000001
 21
2119.96157
 31
0.0
  0
LINE
  5
BB
330
6F
100
AcDbEntity
  8
D-0
  6
Continuous
 62
     5
100
AcDbLine
 10
2754.942273000001
 20
2169.96157
 30
0.0
 11
3849.976665000001
 21
2169.96157
 31
0.0
  0
LINE
  5
BC
330
6F
100
AcDbEntity
  8
D-0
  6
Continuous
 62
     5
100
AcDbLine
 10
2754.942273000001
 20
2219.96157
 30
0.0
 11
3849.976665000001
 21
2219.96157
 31
0.0
  0
TEXT
  5
BD
330
6F
100
AcDbEntity
  8
D-0
 62
     5
100
AcDbText
 10
2794.533
 20
2082.407
 30
0.0
 40
25.92
  1
ホース
100
AcDbText
  0
LINE
  5
BE
330
6F
100
AcDbEntity
  8
D-0
  6
Continuous
 62
     5
100
AcDbLine
 10
2754.942273000001
 20
2719.96157
 30
0.0
 11
2754.942273000001
 21
2019.96157
 31
0.0
  0
TEXT
  5
BF
330
6F
100
AcDbEntity
  8
D-0
 62
     5
100
AcDbText
 10
2794.533
 20
2032.407
 30
0.0
 40
25.92
  1
包丁差し
100
AcDbText
  0
TEXT
  5
C0
330
6F
100
AcDbEntity
  8
D-0
 62
     5
100
AcDbText
 10
2794.533
 20
2182.407
 30
0.0
 40
25.92
  1
丁番
100
AcDbText
  0
TEXT
  5
C1
330
6F
100
AcDbEntity
  8
D-0
 62
     5
100
AcDbText
 10
2794.533
 20
2132.407
 30
0.0
 40
25.92
  1
排水金具
100
AcDbText
  0
TEXT
  5
C2
330
6F
100
AcDbEntity
  8
D-0
 62
     5
100
AcDbText
 10
2794.533
 20
2432.407
 30
0.0
 40
25.92
  1
扉
100
AcDbText
  0
TEXT
  5
C3
330
6F
100
AcDbEntity
  8
D-0
 62
     5
100
AcDbText
 10
2794.533
 20
2582.407
 30
0.0
 40
25.92
  1
木部本体
100
AcDbText
  0
TEXT
  5
C4
330
6F
100
AcDbEntity
  8
D-0
 62
     5
100
AcDbText
 10
2794.533
 20
2632.407000000001
 30
0.0
 40
25.92
  1
シンク
100
AcDbText
  0
TEXT
  5
C5
330
6F
100
AcDbEntity
  8
D-0
 62
     5
100
AcDbText
 10
2794.533
 20
2682.407
 30
0.0
 40
25.92
  1
天板
100
AcDbText
  0
TEXT
  5
C6
330
6F
100
AcDbEntity
  8
D-0
 62
     5
100
AcDbText
 10
3128.953
 20
2082.407
 30
0.0
 40
25.92
  1
塩化ビニール蛇腹30Φｘ80ｃｍ（回転板付）
100
AcDbText
  0
LINE
  5
C7
330
6F
100
AcDbEntity
  8
D-0
  6
Continuous
 62
     5
100
AcDbLine
 10
3849.976665000001
 20
2719.96157
 30
0.0
 11
3849.976665000001
 21
2019.96157
 31
0.0
  0
LINE
  5
C8
330
6F
100
AcDbEntity
  8
D-0
  6
Continuous
 62
     5
100
AcDbLine
 10
3098.825651
 20
2719.96157
 30
0.0
 11
3098.825651
 21
2019.96157
 31
0.0
  0
TEXT
  5
C9
330
6F
100
AcDbEntity
  8
D-0
 62
     5
100
AcDbText
 10
3128.953
 20
2132.407
 30
0.0
 40
25.92
  1
180Φ大型排水トラップ付（\U+FF76
100
AcDbText
  0
TEXT
  5
CA
330
6F
100
AcDbEntity
  8
D-0
 62
     5
100
AcDbText
 10
2967.292
 20
2332.407
 30
0.0
 40
25.92
  1
裏
100
AcDbText
  0
TEXT
  5
CB
330
6F
100
AcDbEntity
  8
D-0
 62
     5
100
AcDbText
 10
3128.953
 20
2332.407
 30
0.0
 40
25.92
  1
ウレタンコート化粧ボード（PB)
100
AcDbText
  0
LINE
  5
CC
330
6F
100
AcDbEntity
  8
D-0
  6
Continuous
 62
     5
100
AcDbLine
 10
2947.353225
 20
2619.96157
 30
0.0
 11
2947.353225
 21
2219.96157
 31
0.0
  0
TEXT
  5
CD
330
6F
100
AcDbEntity
  8
D-0
 62
     5
100
AcDbText
 10
3128.953
 20
2282.407
 30
0.0
 40
25.92
  1
木口テープ巻
100
AcDbText
  0
TEXT
  5
CE
330
6F
100
AcDbEntity
  8
D-0
 62
     5
100
AcDbText
 10
3128.953
 20
2182.407
 30
0.0
 40
25.92
  1
スライドヒンジ
100
AcDbText
  0
TEXT
  5
CF
330
6F
100
AcDbEntity
  8
D-0
 62
     5
100
AcDbText
 10
2967.292
 20
2282.407
 30
0.0
 40
25.92
  1
木口
100
AcDbText
  0
TEXT
  5
D0
330
6F
100
AcDbEntity
  8
D-0
 62
     5
100
AcDbText
 10
3128.953
 20
2532.407
 30
0.0
 40
25.92
  1
クリーンイーゴスMDF
100
AcDbText
  0
TEXT
  5
D1
330
6F
100
AcDbEntity
  8
D-0
 62
     5
100
AcDbText
 10
3128.953
 20
2482.407
 30
0.0
 40
25.92
  1
EBコート化粧板
100
AcDbText
  0
TEXT
  5
D2
330
6F
100
AcDbEntity
  8
D-0
 62
     5
100
AcDbText
 10
3128.953
 20
2432.407
 30
0.0
 40
25.92
  1
プレコート（PB)
100
AcDbText
  0
TEXT
  5
D3
330
6F
100
AcDbEntity
  8
D-0
 62
     5
100
AcDbText
 10
3128.953
 20
2582.407
 30
0.0
 40
25.92
  1
ウレタンコート化粧ボード（PB)
100
AcDbText
  0
TEXT
  5
D4
330
6F
100
AcDbEntity
  8
D-0
 62
     5
100
AcDbText
 10
2967.292
 20
2482.407
 30
0.0
 40
25.92
  1
地板
100
AcDbText
  0
TEXT
  5
D5
330
6F
100
AcDbEntity
  8
D-0
 62
     5
100
AcDbText
 10
2967.292
 20
2432.407
 30
0.0
 40
25.92
  1
表
100
AcDbText
  0
TEXT
  5
D6
330
6F
100
AcDbEntity
  8
D-0
 62
     5
100
AcDbText
 10
2967.292
 20
2582.407
 30
0.0
 40
25.92
  1
側板
100
AcDbText
  0
TEXT
  5
D7
330
6F
100
AcDbEntity
  8
D-0
 62
     5
100
AcDbText
 10
2967.292
 20
2532.407
 30
0.0
 40
25.92
  1
背板
100
AcDbText
  0
TEXT
  5
D8
330
6F
100
AcDbEntity
  8
D-0
 62
     5
100
AcDbText
 10
3128.953
 20
2682.407
 30
0.0
 40
25.92
  1
SUS-430 ステンレス0.5ｔ（エンボス仕上）
100
AcDbText
  0
TEXT
  5
D9
330
6F
100
AcDbEntity
  8
D-0
 62
     5
100
AcDbText
 10
3128.953
 20
2632.407000000001
 30
0.0
 40
25.92
  1
SUS-430 ステンレス0.4ｔ　静音シンク
100
AcDbText
  0
TEXT
  5
DA
330
6F
100
AcDbEntity
  8
D-0
 62
     5
100
AcDbText
 10
2969.315
 20
2233.261
 30
0.0
 40
25.92
  1
取っ手
100
AcDbText
  0
TEXT
  5
DB
330
6F
100
AcDbEntity
  8
D-0
 62
     5
100
AcDbText
 10
2795.52
 20
1895.604
 30
0.0
 40
25.92
  1
※　左シンクは本図の左右対称です。
100
AcDbText
  0
LINE
  5
DC
330
6F
100
AcDbEntity
  8
3-0
  6
DASHED2
 62
     7
100
AcDbLine
 10
2752.37984
 20
594.0520729999999
 30
0.0
 11
2767.37984
 21
594.0520729999999
 31
0.0
  0
LINE
  5
DD
330
6F
100
AcDbEntity
  8
3-0
  6
DASHED2
 62
     7
100
AcDbLine
 10
2767.37984
 20
684.4345479999999
 30
0.0
 11
3273.37984
 21
684.4345479999999
 31
0.0
  0
LINE
  5
DE
330
6F
100
AcDbEntity
  8
3-0
  6
DASHED2
 62
     7
100
AcDbLine
 10
2767.37984
 20
699.4345479999999
 30
0.0
 11
3273.37984
 21
699.4345479999999
 31
0.0
  0
LINE
  5
DF
330
6F
100
AcDbEntity
  8
3-0
  6
DASHED2
 62
     7
100
AcDbLine
 10
3282.379840215496
 20
1394.434547990838
 30
0.0
 11
3282.379840215496
 21
1389.434547990838
 31
0.0
  0
LINE
  5
E0
330
6F
100
AcDbEntity
  8
3-0
  6
DASHED2
 62
     7
100
AcDbLine
 10
3282.379840215496
 20
1389.434547990838
 30
0.0
 11
3263.379840215497
 21
1389.434547990836
 31
0.0
  0
ARC
  5
E1
330
6F
100
AcDbEntity
  8
3-0
  6
DASHED2
 62
     7
100
AcDbCircle
 10
3263.379840000001
 20
1384.434548
 30
0.0
 40
5.0
100
AcDbArc
 50
89.99999999999495
 51
179.999999999702
  0
LINE
  5
E2
330
6F
100
AcDbEntity
  8
3-0
  6
DASHED2
 62
     7
100
AcDbLine
 10
3258.379840215496
 20
1384.434547990836
 30
0.0
 11
3258.379840215496
 21
1266.434547990836
 31
0.0
  0
ARC
  5
E3
330
6F
100
AcDbEntity
  8
3-0
  6
DASHED2
 62
     7
100
AcDbCircle
 10
3228.37984
 20
1266.434548
 30
0.0
 40
30.0
100
AcDbArc
 50
270.000000000001
 51
359.9999999997089
  0
LINE
  5
E4
330
6F
100
AcDbEntity
  8
3-0
  6
DASHED2
 62
     7
100
AcDbLine
 10
3228.379840215497
 20
1236.434547990836
 30
0.0
 11
2891.379840215497
 21
1236.434547990838
 31
0.0
  0
ARC
  5
E5
330
6F
100
AcDbEntity
  8
3-0
  6
DASHED2
 62
     7
100
AcDbCircle
 10
2891.37984
 20
1266.434548
 30
0.0
 40
30.0
100
AcDbArc
 50
180.000000000292
 51
270.0
  0
LINE
  5
E6
330
6F
100
AcDbEntity
  8
3-0
  6
DASHED2
 62
     7
100
AcDbLine
 10
2861.379840215496
 20
1266.434547990838
 30
0.0
 11
2861.379840215496
 21
1384.434547990838
 31
0.0
  0
ARC
  5
E7
330
6F
100
AcDbEntity
  8
3-0
  6
DASHED2
 62
     7
100
AcDbCircle
 10
2856.37984
 20
1384.434548
 30
0.0
 40
5.0
100
AcDbArc
 50
0.0000000002920064
 51
90.0
  0
LINE
  5
E8
330
6F
100
AcDbEntity
  8
3-0
  6
DASHED2
 62
     7
100
AcDbLine
 10
2856.379840215496
 20
1389.434547990838
 30
0.0
 11
2795.241825752182
 21
1389.434547990838
 31
0.0
  0
LINE
  5
E9
330
6F
100
AcDbEntity
  8
3-0
  6
DASHED2
 62
     7
100
AcDbLine
 10
2795.241825752182
 20
1389.434547990838
 30
0.0
 11
2795.241825752182
 21
1394.434547990838
 31
0.0
  0
LINE
  5
EA
330
6F
100
AcDbEntity
  8
3-0
  6
Continuous
 62
     7
100
AcDbLine
 10
2777.37984
 20
1394.434548
 30
0.0
 11
3300.37984
 21
1394.434548
 31
0.0
  0
LINE
  5
EB
330
6F
100
AcDbEntity
  8
3-0
  6
Continuous
 62
     7
100
AcDbLine
 10
2752.37984
 20
1369.434548
 30
0.0
 11
3300.37984
 21
1369.434548
 31
0.0
  0
LINE
  5
EC
330
6F
100
AcDbEntity
  8
3-0
  6
Continuous
 62
     7
100
AcDbLine
 10
2752.37984
 20
594.0520729999999
 30
0.0
 11
3242.37984
 21
594.4345479999999
 31
0.0
  0
LINE
  5
ED
330
6F
100
AcDbEntity
  8
3-0
  6
DASHED2
 62
     7
100
AcDbLine
 10
2767.37984
 20
1369.434548
 30
0.0
 11
2767.37984
 21
594.4345479999999
 31
0.0
  0
LINE
  5
EE
330
6F
100
AcDbEntity
  8
B-0
  6
CENTER
 62
     6
100
AcDbLine
 10
3058.87984
 20
1394.434548
 30
0.0
 11
3058.87984
 21
564.6807899999999
 31
0.0
  0
LINE
  5
EF
330
6F
100
AcDbEntity
  8
3-0
  6
Continuous
 62
     7
100
AcDbLine
 10
2752.37984
 20
1369.434548
 30
0.0
 11
2752.37984
 21
594.4345479999999
 31
0.0
  0
LINE
  5
F0
330
6F
100
AcDbEntity
  8
3-0
  6
DASHED2
 62
     7
100
AcDbLine
 10
3073.87984
 20
1048.434548
 30
0.0
 11
3073.87984
 21
594.4345479999999
 31
0.0
  0
LINE
  5
F1
330
6F
100
AcDbEntity
  8
3-0
  6
DASHED2
 62
     7
100
AcDbLine
 10
3043.87984
 20
1048.434548
 30
0.0
 11
3043.87984
 21
594.4345479999999
 31
0.0
  0
LINE
  5
F2
330
6F
100
AcDbEntity
  8
3-0
  6
DASHED2
 62
     7
100
AcDbLine
 10
2752.37984
 20
594.4345479999999
 30
0.0
 11
2767.37984
 21
619.4345479999999
 31
0.0
  0
LINE
  5
F3
330
6F
100
AcDbEntity
  8
3-0
  6
DASHED2
 62
     7
100
AcDbLine
 10
2752.37984
 20
594.4345479999999
 30
0.0
 11
2767.37984
 21
594.4345479999999
 31
0.0
  0
LINE
  5
F4
330
6F
100
AcDbEntity
  8
3-0
  6
DASHED2
 62
     7
100
AcDbLine
 10
2752.37984
 20
619.4345479999999
 30
0.0
 11
2767.37984
 21
619.4345479999999
 31
0.0
  0
LINE
  5
F5
330
6F
100
AcDbEntity
  8
3-0
  6
DASHED2
 62
     7
100
AcDbLine
 10
2990.529840215499
 20
704.1063366643149
 30
0.0
 11
3038.6298402155
 21
704.1063366643149
 31
0.0
  0
LINE
  5
F6
330
6F
100
AcDbEntity
  8
3-0
  6
DASHED2
 62
     7
100
AcDbLine
 10
3038.6298402155
 20
704.1063366643149
 30
0.0
 11
3038.6298402155
 21
695.212353263986
 31
0.0
  0
LINE
  5
F7
330
6F
100
AcDbEntity
  8
3-0
  6
DASHED2
 62
     7
100
AcDbLine
 10
3038.6298402155
 20
695.212353263986
 30
0.0
 11
3079.129840215499
 21
695.212353263986
 31
0.0
  0
LINE
  5
F8
330
6F
100
AcDbEntity
  8
3-0
  6
DASHED2
 62
     7
100
AcDbLine
 10
3079.129840215499
 20
695.212353263986
 30
0.0
 11
3079.129840215499
 21
704.1063366643149
 31
0.0
  0
LINE
  5
F9
330
6F
100
AcDbEntity
  8
3-0
  6
DASHED2
 62
     7
100
AcDbLine
 10
3079.129840215499
 20
704.1063366643149
 30
0.0
 11
3127.2298402155
 21
704.1063366643149
 31
0.0
  0
LINE
  5
FA
330
6F
100
AcDbEntity
  8
3-0
  6
DASHED2
 62
     7
100
AcDbLine
 10
3113.87984
 20
699.4345479999999
 30
0.0
 11
3113.87984
 21
684.4345479999999
 31
0.0
  0
LINE
  5
FB
330
6F
100
AcDbEntity
  8
3-0
  6
DASHED2
 62
     7
100
AcDbLine
 10
3003.87984
 20
699.4345479999999
 30
0.0
 11
3003.87984
 21
684.4345479999999
 31
0.0
  0
LINE
  5
FC
330
6F
100
AcDbEntity
  8
B-0
  6
CENTER
 62
     6
100
AcDbLine
 10
2832.37984
 20
1564.533862
 30
0.0
 11
2832.37984
 21
994.4345479999999
 31
0.0
  0
LINE
  5
FD
330
6F
100
AcDbEntity
  8
3-0
  6
Continuous
 62
     7
100
AcDbLine
 10
2658.600386
 20
1131.387934
 30
0.0
 11
2752.37984
 21
994.4345479999999
 31
0.0
  0
LINE
  5
FE
330
6F
100
AcDbEntity
  8
B-0
  6
CENTER
 62
     6
100
AcDbLine
 10
2623.554217
 20
994.4345479999999
 30
0.0
 11
2832.37984
 21
994.4345479999999
 31
0.0
  0
LINE
  5
FF
330
6F
100
AcDbEntity
  8
3-0
  6
Continuous
 62
     7
100
AcDbLine
 10
2752.37984
 20
994.4345479999999
 30
0.0
 11
2742.013639
 21
1025.250441
 31
0.0
  0
TEXT
  5
100
330
6F
100
AcDbEntity
  8
D-0
 62
     5
100
AcDbText
 10
2520.746
 20
1192.709
 30
0.0
 40
25.92
  1
水栓接続
100
AcDbText
  0
LINE
  5
101
330
6F
100
AcDbEntity
  8
3-0
  6
Continuous
 62
     7
100
AcDbLine
 10
2513.043674
 20
1131.387934
 30
0.0
 11
2658.600386
 21
1131.387934
 31
0.0
  0
TEXT
  5
102
330
6F
100
AcDbEntity
  8
D-0
 62
     5
100
AcDbText
 10
2520.746
 20
1142.708999999999
 30
0.0
 40
25.92
  1
参考位置
100
AcDbText
  0
LINE
  5
103
330
6F
100
AcDbEntity
  8
3-0
  6
DASHED2
 62
     7
100
AcDbLine
 10
2859.8798402155
 20
1488.566171990836
 30
0.0
 11
2859.8798402155
 21
1494.829981990836
 31
0.0
  0
LINE
  5
104
330
6F
100
AcDbEntity
  8
3-0
  6
DASHED2
 62
     7
100
AcDbLine
 10
2804.8798402155
 20
1496.941145990836
 30
0.0
 11
2804.8798402155
 21
1488.566171990836
 31
0.0
  0
LINE
  5
105
330
6F
100
AcDbEntity
  8
3-0
  6
DASHED2
 62
     7
100
AcDbLine
 10
2859.8798402155
 20
1459.832957990836
 30
0.0
 11
3076.0323652155
 21
1568.080698990836
 31
0.0
  0
LINE
  5
106
330
6F
100
AcDbEntity
  8
3-0
  6
DASHED2
 62
     7
100
AcDbLine
 10
2859.8798402155
 20
1448.649067990836
 30
0.0
 11
3071.938636215499
 21
1554.846696990836
 31
0.0
  0
LINE
  5
107
330
6F
100
AcDbEntity
  8
3-0
  6
DASHED2
 62
     7
100
AcDbLine
 10
2859.8798402155
 20
1484.434547990836
 30
0.0
 11
2859.8798402155
 21
1394.434547990836
 31
0.0
  0
LINE
  5
108
330
6F
100
AcDbEntity
  8
3-0
  6
DASHED2
 62
     7
100
AcDbLine
 10
2804.8798402155
 20
1464.434547990836
 30
0.0
 11
2859.8798402155
 21
1464.434547990836
 31
0.0
  0
LINE
  5
109
330
6F
100
AcDbEntity
  8
3-0
  6
DASHED2
 62
     7
100
AcDbLine
 10
2804.8798402155
 20
1484.434547990836
 30
0.0
 11
2859.8798402155
 21
1484.434547990836
 31
0.0
  0
LINE
  5
10A
330
6F
100
AcDbEntity
  8
3-0
  6
DASHED2
 62
     7
100
AcDbLine
 10
2804.8798402155
 20
1484.434547990836
 30
0.0
 11
2804.8798402155
 21
1394.434547990836
 31
0.0
  0
LINE
  5
10B
330
6F
100
AcDbEntity
  8
3-0
  6
DASHED2
 62
     7
100
AcDbLine
 10
2804.8798402155
 20
1488.566171990836
 30
0.0
 11
2859.8798402155
 21
1488.566171990836
 31
0.0
  0
LINE
  5
10C
330
6F
100
AcDbEntity
  8
3-0
  6
DASHED2
 62
     7
100
AcDbLine
 10
2804.8798402155
 20
1394.434547990836
 30
0.0
 11
2859.8798402155
 21
1394.434547990836
 31
0.0
  0
ARC
  5
10D
330
6F
100
AcDbEntity
  8
3-0
  6
DASHED2
 62
     7
100
AcDbCircle
 10
2918.9323892155
 20
1407.828327990836
 30
0.0
 40
115.364508
100
AcDbArc
 50
80.09600000000004
 51
114.174
  0
LINE
  5
10E
330
6F
100
AcDbEntity
  8
3-0
  6
DASHED2
 62
     7
100
AcDbLine
 10
2882.4519322155
 20
1529.688547990836
 30
0.0
 11
2951.3406852155
 21
1529.688547990836
 31
0.0
  0
LINE
  5
10F
330
6F
100
AcDbEntity
  8
3-0
  6
DASHED2
 62
     7
100
AcDbLine
 10
2945.2665032155
 20
1520.355802990836
 30
0.0
 11
2938.774282215499
 21
1521.473692990836
 31
0.0
  0
ARC
  5
110
330
6F
100
AcDbEntity
  8
3-0
  6
DASHED2
 62
     7
100
AcDbCircle
 10
2946.963422215499
 20
1530.210773990836
 30
0.0
 40
10.0
100
AcDbArc
 50
260.23
 51
310.455
  0
ARC
  5
111
330
6F
100
AcDbEntity
  8
3-0
  6
DASHED2
 62
     7
100
AcDbCircle
 10
2951.3406852155
 20
1527.688547990836
 30
0.0
 40
2.0
100
AcDbArc
 50
70.295
 51
90.0
  0
LINE
  5
112
330
6F
100
AcDbEntity
  8
3-0
  6
DASHED2
 62
     7
100
AcDbLine
 10
2955.5322122155
 20
1528.311754990836
 30
0.0
 11
2952.015039215499
 21
1529.571429990836
 31
0.0
  0
LINE
  5
113
330
6F
100
AcDbEntity
  8
3-0
  6
DASHED2
 62
     7
100
AcDbLine
 10
2956.1555522155
 20
1524.907033990835
 30
0.0
 11
2953.451890215499
 21
1522.601582990836
 31
0.0
  0
ARC
  5
114
330
6F
100
AcDbEntity
  8
3-0
  6
DASHED2
 62
     7
100
AcDbCircle
 10
2954.857858215499
 20
1526.428872990836
 30
0.0
 40
2.0
100
AcDbArc
 50
310.455
 51
70.295
  0
LINE
  5
115
330
6F
100
AcDbEntity
  8
3-0
  6
DASHED2
 62
     7
100
AcDbLine
 10
3099.4675502155
 20
1551.434547990836
 30
0.0
 11
3085.2921302155
 21
1551.434547990836
 31
0.0
  0
LINE
  5
116
330
6F
100
AcDbEntity
  8
3-0
  6
DASHED2
 62
     7
100
AcDbLine
 10
3085.2921302155
 20
1556.434547990836
 30
0.0
 11
3085.2921302155
 21
1551.434547990836
 31
0.0
  0
LINE
  5
117
330
6F
100
AcDbEntity
  8
3-0
  6
DASHED2
 62
     7
100
AcDbLine
 10
3099.4675502155
 20
1556.434547990836
 30
0.0
 11
3099.4675502155
 21
1551.434547990836
 31
0.0
  0
LINE
  5
118
330
6F
100
AcDbEntity
  8
3-0
  6
DASHED2
 62
     7
100
AcDbLine
 10
3102.6120502155
 20
1564.668549990836
 30
0.0
 11
3102.6120502155
 21
1556.434547990836
 31
0.0
  0
ARC
  5
119
330
6F
100
AcDbEntity
  8
3-0
  6
DASHED2
 62
     7
100
AcDbCircle
 10
3097.6120502155
 20
1564.668549990836
 30
0.0
 40
5.0
100
AcDbArc
 50
0.0
 51
90.0
  0
LINE
  5
11A
330
6F
100
AcDbEntity
  8
3-0
  6
DASHED2
 62
     7
100
AcDbLine
 10
3102.6120502155
 20
1556.434547990836
 30
0.0
 11
3078.655351215499
 21
1556.434547990836
 31
0.0
  0
ARC
  5
11B
330
6F
100
AcDbEntity
  8
3-0
  6
DASHED2
 62
     7
100
AcDbCircle
 10
3078.655351215499
 20
1541.434547990836
 30
0.0
 40
15.0
100
AcDbArc
 50
90.0
 51
116.6009999999999
  0
LINE
  5
11C
330
6F
100
AcDbEntity
  8
3-0
  6
DASHED2
 62
     7
100
AcDbLine
 10
3097.6120502155
 20
1569.668549990836
 30
0.0
 11
3082.7490802155
 21
1569.668549990836
 31
0.0
  0
ARC
  5
11D
330
6F
100
AcDbEntity
  8
3-0
  6
DASHED2
 62
     7
100
AcDbCircle
 10
3082.7490802155
 20
1554.668549990836
 30
0.0
 40
15.0
100
AcDbArc
 50
90.0
 51
116.6009999999999
  0
ARC
  5
11E
330
6F
100
AcDbEntity
  8
3-0
  6
DASHED2
 62
     7
100
AcDbCircle
 10
2884.007378215499
 20
1411.840263990836
 30
0.0
 40
117.858548
100
AcDbArc
 50
90.75599999999999
 51
131.058
  0
ARC
  5
11F
330
6F
100
AcDbEntity
  8
3-0
  6
DASHED2
 62
     7
100
AcDbCircle
 10
2809.879840215499
 20
1496.941145990836
 30
0.0
 40
5.0
100
AcDbArc
 50
131.058
 51
180.0
  0
ARC
  5
120
330
6F
100
AcDbEntity
  8
3-0
  6
DASHED2
 62
     7
100
AcDbCircle
 10
2887.1281452155
 20
1490.138504990835
 30
0.0
 40
27.649233
100
AcDbArc
 50
123.943
 51
170.231
  0
LINE
  5
121
330
6F
100
AcDbEntity
  8
3-0
  6
Continuous
 62
     7
100
AcDbLine
 10
2777.37984
 20
1479.434548
 30
0.0
 11
2777.37984
 21
1394.434548
 31
0.0
  0
LINE
  5
122
330
6F
100
AcDbEntity
  8
3-0
  6
Continuous
 62
     7
100
AcDbLine
 10
2752.37984
 20
1484.434548
 30
0.0
 11
2752.37984
 21
1369.434548
 31
0.0
  0
LINE
  5
123
330
6F
100
AcDbEntity
  8
3-0
  6
DASHED2
 62
     7
100
AcDbLine
 10
2752.37984
 20
1344.434548
 30
0.0
 11
2767.37984
 21
1344.434548
 31
0.0
  0
LINE
  5
124
330
6F
100
AcDbEntity
  8
3-0
  6
DASHED2
 62
     7
100
AcDbLine
 10
2752.37984
 20
1344.434548
 30
0.0
 11
2767.37984
 21
1369.434548
 31
0.0
  0
ARC
  5
125
330
6F
100
AcDbEntity
  8
3-0
  6
Continuous
 62
     7
100
AcDbCircle
 10
2772.37984
 20
1479.434548
 30
0.0
 40
5.0
100
AcDbArc
 50
0.0
 51
90.0
  0
LINE
  5
126
330
6F
100
AcDbEntity
  8
3-0
  6
Continuous
 62
     7
100
AcDbLine
 10
2752.37984
 20
1484.434548
 30
0.0
 11
2772.37984
 21
1484.434548
 31
0.0
  0
LINE
  5
127
330
6F
100
AcDbEntity
  8
3-0
  6
Continuous
 62
     7
100
AcDbLine
 10
3242.37984
 20
684.4345479999999
 30
0.0
 11
3242.37984
 21
594.4345479999999
 31
0.0
  0
LINE
  5
128
330
6F
100
AcDbEntity
  8
3-0
  6
Continuous
 62
     7
100
AcDbLine
 10
3233.37984
 20
684.4345479999999
 30
0.0
 11
3233.37984
 21
594.4345479999999
 31
0.0
  0
LINE
  5
129
330
6F
100
AcDbEntity
  8
3-0
  6
Continuous
 62
     7
100
AcDbLine
 10
3243.37984
 20
684.4345479999999
 30
0.0
 11
3273.37984
 21
684.4345479999999
 31
0.0
  0
LINE
  5
12A
330
6F
100
AcDbEntity
  8
3-0
  6
Continuous
 62
     7
100
AcDbLine
 10
3278.77984
 20
684.4345479999999
 30
0.0
 11
3294.37984
 21
684.4345479999999
 31
0.0
  0
ARC
  5
12B
330
6F
100
AcDbEntity
  8
3-0
  6
Continuous
 62
     7
100
AcDbCircle
 10
3300.37984
 20
1392.434548
 30
0.0
 40
2.0
100
AcDbArc
 50
0.0
 51
90.0
  0
ARC
  5
12C
330
6F
100
AcDbEntity
  8
3-0
  6
Continuous
 62
     7
100
AcDbCircle
 10
3300.37984
 20
1371.434548
 30
0.0
 40
2.0
100
AcDbArc
 50
270.0
 51
0.0
  0
LINE
  5
12D
330
6F
100
AcDbEntity
  8
3-0
  6
Continuous
 62
     7
100
AcDbLine
 10
3280.37984
 20
1369.434548
 30
0.0
 11
3295.379840000001
 21
1369.434548
 31
0.0
  0
LINE
  5
12E
330
6F
100
AcDbEntity
  8
3-0
  6
Continuous
 62
     7
100
AcDbLine
 10
3302.37984
 20
1392.434548
 30
0.0
 11
3302.37984
 21
1371.434548
 31
0.0
  0
LINE
  5
12F
330
6F
100
AcDbEntity
  8
3-0
  6
DASHED2
 62
     7
100
AcDbLine
 10
3127.791041358731
 20
1142.434548394696
 30
0.0
 11
2989.968639072269
 21
1142.434548394696
 31
0.0
  0
LINE
  5
130
330
6F
100
AcDbEntity
  8
3-0
  6
DASHED2
 62
     7
100
AcDbLine
 10
3148.87984
 20
1231.434548
 30
0.0
 11
2968.87984
 21
1231.434548
 31
0.0
  0
LINE
  5
131
330
6F
100
AcDbEntity
  8
3-0
  6
DASHED2
 62
     7
100
AcDbLine
 10
3136.879840000001
 20
1214.233024
 30
0.0
 11
2980.87984
 21
1214.233024
 31
0.0
  0
LINE
  5
132
330
6F
100
AcDbEntity
  8
3-0
  6
DASHED2
 62
     7
100
AcDbLine
 10
3127.791041
 20
1209.233024
 30
0.0
 11
2989.968639000001
 21
1209.233024
 31
0.0
  0
LINE
  5
133
330
6F
100
AcDbEntity
  8
3-0
  6
DASHED2
 62
     7
100
AcDbLine
 10
3028.879840215501
 20
1079.334548394696
 30
0.0
 11
3028.8798402155
 21
1048.434547990837
 31
0.0
  0
LINE
  5
134
330
6F
100
AcDbEntity
  8
3-0
  6
DASHED2
 62
     7
100
AcDbLine
 10
3028.8798402155
 20
1048.434547990837
 30
0.0
 11
3088.879840215501
 21
1048.434547990837
 31
0.0
  0
LINE
  5
135
330
6F
100
AcDbEntity
  8
3-0
  6
DASHED2
 62
     7
100
AcDbLine
 10
3088.879840215501
 20
1048.434547990837
 30
0.0
 11
3088.879840215501
 21
1079.334548394696
 31
0.0
  0
LINE
  5
136
330
6F
100
AcDbEntity
  8
3-0
  6
DASHED2
 62
     7
100
AcDbLine
 10
3122.306183515273
 20
1142.434548394696
 30
0.0
 11
3122.306183515273
 21
1089.334548394696
 31
0.0
  0
ARC
  5
137
330
6F
100
AcDbEntity
  8
3-0
  6
DASHED2
 62
     7
100
AcDbCircle
 10
3112.306184
 20
1089.334548
 30
0.0
 40
10.0
100
AcDbArc
 50
270.0
 51
359.9999999997079
  0
LINE
  5
138
330
6F
100
AcDbEntity
  8
3-0
  6
DASHED2
 62
     7
100
AcDbLine
 10
3112.306183515273
 20
1079.334548394696
 30
0.0
 11
3005.453496915726
 21
1079.334548394696
 31
0.0
  0
ARC
  5
139
330
6F
100
AcDbEntity
  8
3-0
  6
DASHED2
 62
     7
100
AcDbCircle
 10
3005.453497
 20
1089.334548
 30
0.0
 40
10.0
100
AcDbArc
 50
180.000000000292
 51
270.0
  0
LINE
  5
13A
330
6F
100
AcDbEntity
  8
3-0
  6
DASHED2
 62
     7
100
AcDbLine
 10
2995.453496915726
 20
1089.334548394696
 30
0.0
 11
2995.453496915726
 21
1142.434548394696
 31
0.0
  0
LINE
  5
13B
330
6F
100
AcDbEntity
  8
3-0
  6
DASHED2
 62
     7
100
AcDbLine
 10
2980.87984
 20
1214.233024
 30
0.0
 11
2989.968639000001
 21
1209.233024
 31
0.0
  0
LINE
  5
13C
330
6F
100
AcDbEntity
  8
3-0
  6
DASHED2
 62
     7
100
AcDbLine
 10
2989.968639000001
 20
1209.233024
 30
0.0
 11
2989.968639000001
 21
1144.649314
 31
0.0
  0
LINE
  5
13D
330
6F
100
AcDbEntity
  8
3-0
  6
DASHED2
 62
     7
100
AcDbLine
 10
2968.87984
 20
1236.434548
 30
0.0
 11
2968.87984
 21
1231.434548
 31
0.0
  0
LINE
  5
13E
330
6F
100
AcDbEntity
  8
3-0
  6
DASHED2
 62
     7
100
AcDbLine
 10
2980.87984
 20
1231.434548
 30
0.0
 11
2980.87984
 21
1214.233024
 31
0.0
  0
LINE
  5
13F
330
6F
100
AcDbEntity
  8
3-0
  6
DASHED2
 62
     7
100
AcDbLine
 10
2971.127497
 20
1217.434548
 30
0.0
 11
2980.87984
 21
1217.434548
 31
0.0
  0
LINE
  5
140
330
6F
100
AcDbEntity
  8
3-0
  6
DASHED2
 62
     7
100
AcDbLine
 10
2971.127497
 20
1231.434548
 30
0.0
 11
2971.127497
 21
1217.434548
 31
0.0
  0
LINE
  5
141
330
6F
100
AcDbEntity
  8
3-0
  6
DASHED2
 62
     7
100
AcDbLine
 10
3136.879840000001
 20
1214.233024
 30
0.0
 11
3127.791041
 21
1209.233024
 31
0.0
  0
LINE
  5
142
330
6F
100
AcDbEntity
  8
3-0
  6
DASHED2
 62
     7
100
AcDbLine
 10
3127.791041
 20
1209.233024
 30
0.0
 11
3127.791041
 21
1144.649314
 31
0.0
  0
LINE
  5
143
330
6F
100
AcDbEntity
  8
3-0
  6
DASHED2
 62
     7
100
AcDbLine
 10
3148.87984
 20
1236.434548
 30
0.0
 11
3148.87984
 21
1231.434548
 31
0.0
  0
LINE
  5
144
330
6F
100
AcDbEntity
  8
3-0
  6
DASHED2
 62
     7
100
AcDbLine
 10
3136.879840000001
 20
1231.434548
 30
0.0
 11
3136.879840000001
 21
1214.233024
 31
0.0
  0
LINE
  5
145
330
6F
100
AcDbEntity
  8
3-0
  6
DASHED2
 62
     7
100
AcDbLine
 10
3146.632184
 20
1217.434548
 30
0.0
 11
3136.879840000001
 21
1217.434548
 31
0.0
  0
LINE
  5
146
330
6F
100
AcDbEntity
  8
3-0
  6
DASHED2
 62
     7
100
AcDbLine
 10
3146.632184
 20
1231.434548
 30
0.0
 11
3146.632184
 21
1217.434548
 31
0.0
  0
LINE
  5
147
330
6F
100
AcDbEntity
  8
A-0
  6
Continuous
 62
     4
100
AcDbLine
 10
2752.37984
 20
1504.434548
 30
0.0
 11
2752.37984
 21
1610.69704
 31
0.0
  0
LINE
  5
148
330
6F
100
AcDbEntity
  8
A-0
  6
Continuous
 62
     4
100
AcDbLine
 10
3302.37984
 20
1412.434548
 30
0.0
 11
3302.37984
 21
1610.69704
 31
0.0
  0
TEXT
  5
149
330
6F
100
AcDbEntity
  8
A-0
 62
     4
100
AcDbText
 10
2996.602000000001
 20
1611.317
 30
0.0
 40
36.288
  1
550
100
AcDbText
  0
LINE
  5
14A
330
6F
100
AcDbEntity
  8
A-0
  6
Continuous
 62
     4
100
AcDbLine
 10
3302.379840215497
 20
1610.697039887701
 30
0.0
 11
2752.379840215497
 21
1610.697039887701
 31
0.0
  0
CIRCLE
  5
14B
330
6F
100
AcDbEntity
  8
A-0
  6
Continuous
 62
     4
100
AcDbCircle
 10
3302.379840215497
 20
1610.697039887701
 30
0.0
 40
0.25
  0
CIRCLE
  5
14C
330
6F
100
AcDbEntity
  8
A-0
  6
Continuous
 62
     4
100
AcDbCircle
 10
3302.379840215497
 20
1610.697039887701
 30
0.0
 40
0.1875
  0
CIRCLE
  5
14D
330
6F
100
AcDbEntity
  8
A-0
  6
Continuous
 62
     4
100
AcDbCircle
 10
3302.379840215497
 20
1610.697039887701
 30
0.0
 40
0.125
  0
CIRCLE
  5
14E
330
6F
100
AcDbEntity
  8
A-0
  6
Continuous
 62
     4
100
AcDbCircle
 10
3302.379840215497
 20
1610.697039887701
 30
0.0
 40
0.0625
  0
CIRCLE
  5
14F
330
6F
100
AcDbEntity
  8
A-0
  6
Continuous
 62
     4
100
AcDbCircle
 10
2752.379840215497
 20
1610.697039887701
 30
0.0
 40
0.25
  0
CIRCLE
  5
150
330
6F
100
AcDbEntity
  8
A-0
  6
Continuous
 62
     4
100
AcDbCircle
 10
2752.379840215497
 20
1610.697039887701
 30
0.0
 40
0.1875
  0
CIRCLE
  5
151
330
6F
100
AcDbEntity
  8
A-0
  6
Continuous
 62
     4
100
AcDbCircle
 10
2752.379840215497
 20
1610.697039887701
 30
0.0
 40
0.125
  0
CIRCLE
  5
152
330
6F
100
AcDbEntity
  8
A-0
  6
Continuous
 62
     4
100
AcDbCircle
 10
2752.379840215497
 20
1610.697039887701
 30
0.0
 40
0.0625
  0
LINE
  5
153
330
6F
100
AcDbEntity
  8
A-0
  6
Continuous
 62
     4
100
AcDbLine
 10
3001.905856
 20
1236.434548
 30
0.0
 11
2997.478904
 21
1236.434548
 31
0.0
  0
LINE
  5
154
330
6F
100
AcDbEntity
  8
A-0
  6
Continuous
 62
     4
100
AcDbLine
 10
2878.87984
 20
1394.434548
 30
0.0
 11
2997.478904
 21
1394.434548
 31
0.0
  0
TEXT
  5
155
330
6F
100
AcDbEntity
  8
A-0
 62
     4
100
AcDbText
 10
2996.859
 20
1281.835
 30
0.0
 40
36.288
  1
158
 50
90.0
100
AcDbText
  0
LINE
  5
156
330
6F
100
AcDbEntity
  8
A-0
  6
Continuous
 62
     4
100
AcDbLine
 10
2997.478903943754
 20
1394.434547990836
 30
0.0
 11
2997.478903943754
 21
1236.434547990838
 31
0.0
  0
CIRCLE
  5
157
330
6F
100
AcDbEntity
  8
A-0
  6
Continuous
 62
     4
100
AcDbCircle
 10
2997.478903943754
 20
1394.434547990836
 30
0.0
 40
0.25
  0
CIRCLE
  5
158
330
6F
100
AcDbEntity
  8
A-0
  6
Continuous
 62
     4
100
AcDbCircle
 10
2997.478903943754
 20
1394.434547990836
 30
0.0
 40
0.1875
  0
CIRCLE
  5
159
330
6F
100
AcDbEntity
  8
A-0
  6
Continuous
 62
     4
100
AcDbCircle
 10
2997.478903943754
 20
1394.434547990836
 30
0.0
 40
0.125
  0
CIRCLE
  5
15A
330
6F
100
AcDbEntity
  8
A-0
  6
Continuous
 62
     4
100
AcDbCircle
 10
2997.478903943754
 20
1394.434547990836
 30
0.0
 40
0.0625
  0
CIRCLE
  5
15B
330
6F
100
AcDbEntity
  8
A-0
  6
Continuous
 62
     4
100
AcDbCircle
 10
2997.478903943754
 20
1236.434547990838
 30
0.0
 40
0.25
  0
CIRCLE
  5
15C
330
6F
100
AcDbEntity
  8
A-0
  6
Continuous
 62
     4
100
AcDbCircle
 10
2997.478903943754
 20
1236.434547990838
 30
0.0
 40
0.1875
  0
CIRCLE
  5
15D
330
6F
100
AcDbEntity
  8
A-0
  6
Continuous
 62
     4
100
AcDbCircle
 10
2997.478903943754
 20
1236.434547990838
 30
0.0
 40
0.125
  0
CIRCLE
  5
15E
330
6F
100
AcDbEntity
  8
A-0
  6
Continuous
 62
     4
100
AcDbCircle
 10
2997.478903943754
 20
1236.434547990838
 30
0.0
 40
0.0625
  0
LINE
  5
15F
330
6F
100
AcDbEntity
  8
A-0
  6
Continuous
 62
     4
100
AcDbLine
 10
2752.37984
 20
976.4345479999999
 30
0.0
 11
2752.37984
 21
811.7687499999998
 31
0.0
  0
LINE
  5
160
330
6F
100
AcDbEntity
  8
A-0
  6
Continuous
 62
     4
100
AcDbLine
 10
3058.87984
 20
802.1837239999999
 30
0.0
 11
3058.87984
 21
811.7687499999998
 31
0.0
  0
TEXT
  5
161
330
6F
100
AcDbEntity
  8
A-0
 62
     4
100
AcDbText
 10
2852.452
 20
812.3889999999999
 30
0.0
 40
36.288
  1
306.5
100
AcDbText
  0
LINE
  5
162
330
6F
100
AcDbEntity
  8
A-0
  6
Continuous
 62
     4
100
AcDbLine
 10
3058.879840215499
 20
811.7687498127789
 30
0.0
 11
2752.3798402155
 21
811.7687498127789
 31
0.0
  0
CIRCLE
  5
163
330
6F
100
AcDbEntity
  8
A-0
  6
Continuous
 62
     4
100
AcDbCircle
 10
3058.879840215499
 20
811.7687498127789
 30
0.0
 40
0.25
  0
CIRCLE
  5
164
330
6F
100
AcDbEntity
  8
A-0
  6
Continuous
 62
     4
100
AcDbCircle
 10
3058.879840215499
 20
811.7687498127789
 30
0.0
 40
0.1875
  0
CIRCLE
  5
165
330
6F
100
AcDbEntity
  8
A-0
  6
Continuous
 62
     4
100
AcDbCircle
 10
3058.879840215499
 20
811.7687498127789
 30
0.0
 40
0.125
  0
CIRCLE
  5
166
330
6F
100
AcDbEntity
  8
A-0
  6
Continuous
 62
     4
100
AcDbCircle
 10
3058.879840215499
 20
811.7687498127789
 30
0.0
 40
0.0625
  0
CIRCLE
  5
167
330
6F
100
AcDbEntity
  8
A-0
  6
Continuous
 62
     4
100
AcDbCircle
 10
2752.3798402155
 20
811.7687498127789
 30
0.0
 40
0.25
  0
CIRCLE
  5
168
330
6F
100
AcDbEntity
  8
A-0
  6
Continuous
 62
     4
100
AcDbCircle
 10
2752.3798402155
 20
811.7687498127789
 30
0.0
 40
0.1875
  0
CIRCLE
  5
169
330
6F
100
AcDbEntity
  8
A-0
  6
Continuous
 62
     4
100
AcDbCircle
 10
2752.3798402155
 20
811.7687498127789
 30
0.0
 40
0.125
  0
CIRCLE
  5
16A
330
6F
100
AcDbEntity
  8
A-0
  6
Continuous
 62
     4
100
AcDbCircle
 10
2752.3798402155
 20
811.7687498127789
 30
0.0
 40
0.0625
  0
LINE
  5
16B
330
6F
100
AcDbEntity
  8
A-0
  6
Continuous
 62
     4
100
AcDbLine
 10
2752.37984
 20
574.0520729999999
 30
0.0
 11
2752.37984
 21
444.4345479999999
 31
0.0
  0
LINE
  5
16C
330
6F
100
AcDbEntity
  8
A-0
  6
Continuous
 62
     4
100
AcDbLine
 10
3242.37984
 20
574.4345479999999
 30
0.0
 11
3242.37984
 21
444.4345479999999
 31
0.0
  0
TEXT
  5
16D
330
6F
100
AcDbEntity
  8
A-0
 62
     4
100
AcDbText
 10
2966.602
 20
445.0549999999999
 30
0.0
 40
36.288
  1
490
100
AcDbText
  0
LINE
  5
16E
330
6F
100
AcDbEntity
  8
A-0
  6
Continuous
 62
     4
100
AcDbLine
 10
3242.379840215499
 20
444.434547990836
 30
0.0
 11
2752.3798402155
 21
444.434547990836
 31
0.0
  0
CIRCLE
  5
16F
330
6F
100
AcDbEntity
  8
A-0
  6
Continuous
 62
     4
100
AcDbCircle
 10
3242.379840215499
 20
444.434547990836
 30
0.0
 40
0.25
  0
CIRCLE
  5
170
330
6F
100
AcDbEntity
  8
A-0
  6
Continuous
 62
     4
100
AcDbCircle
 10
3242.379840215499
 20
444.434547990836
 30
0.0
 40
0.1875
  0
CIRCLE
  5
171
330
6F
100
AcDbEntity
  8
A-0
  6
Continuous
 62
     4
100
AcDbCircle
 10
3242.379840215499
 20
444.434547990836
 30
0.0
 40
0.125
  0
CIRCLE
  5
172
330
6F
100
AcDbEntity
  8
A-0
  6
Continuous
 62
     4
100
AcDbCircle
 10
3242.379840215499
 20
444.434547990836
 30
0.0
 40
0.0625
  0
CIRCLE
  5
173
330
6F
100
AcDbEntity
  8
A-0
  6
Continuous
 62
     4
100
AcDbCircle
 10
2752.3798402155
 20
444.434547990836
 30
0.0
 40
0.25
  0
CIRCLE
  5
174
330
6F
100
AcDbEntity
  8
A-0
  6
Continuous
 62
     4
100
AcDbCircle
 10
2752.3798402155
 20
444.434547990836
 30
0.0
 40
0.1875
  0
CIRCLE
  5
175
330
6F
100
AcDbEntity
  8
A-0
  6
Continuous
 62
     4
100
AcDbCircle
 10
2752.3798402155
 20
444.434547990836
 30
0.0
 40
0.125
  0
CIRCLE
  5
176
330
6F
100
AcDbEntity
  8
A-0
  6
Continuous
 62
     4
100
AcDbCircle
 10
2752.3798402155
 20
444.434547990836
 30
0.0
 40
0.0625
  0
LINE
  5
177
330
6F
100
AcDbEntity
  8
A-0
  6
Continuous
 62
     4
100
AcDbLine
 10
2752.37984
 20
564.4345479999999
 30
0.0
 11
2752.37984
 21
344.434548
 31
0.0
  0
LINE
  5
178
330
6F
100
AcDbEntity
  8
A-0
  6
Continuous
 62
     4
100
AcDbLine
 10
3294.37984
 20
664.4345479999999
 30
0.0
 11
3294.37984
 21
344.434548
 31
0.0
  0
TEXT
  5
179
330
6F
100
AcDbEntity
  8
A-0
 62
     4
100
AcDbText
 10
2992.602000000001
 20
345.055
 30
0.0
 40
36.288
  1
542
100
AcDbText
  0
LINE
  5
17A
330
6F
100
AcDbEntity
  8
A-0
  6
Continuous
 62
     4
100
AcDbLine
 10
3294.3798402155
 20
344.434547990836
 30
0.0
 11
2752.3798402155
 21
344.434547990836
 31
0.0
  0
CIRCLE
  5
17B
330
6F
100
AcDbEntity
  8
A-0
  6
Continuous
 62
     4
100
AcDbCircle
 10
3294.3798402155
 20
344.434547990836
 30
0.0
 40
0.25
  0
CIRCLE
  5
17C
330
6F
100
AcDbEntity
  8
A-0
  6
Continuous
 62
     4
100
AcDbCircle
 10
3294.3798402155
 20
344.434547990836
 30
0.0
 40
0.1875
  0
CIRCLE
  5
17D
330
6F
100
AcDbEntity
  8
A-0
  6
Continuous
 62
     4
100
AcDbCircle
 10
3294.3798402155
 20
344.434547990836
 30
0.0
 40
0.125
  0
CIRCLE
  5
17E
330
6F
100
AcDbEntity
  8
A-0
  6
Continuous
 62
     4
100
AcDbCircle
 10
3294.3798402155
 20
344.434547990836
 30
0.0
 40
0.0625
  0
CIRCLE
  5
17F
330
6F
100
AcDbEntity
  8
A-0
  6
Continuous
 62
     4
100
AcDbCircle
 10
2752.3798402155
 20
344.434547990836
 30
0.0
 40
0.25
  0
CIRCLE
  5
180
330
6F
100
AcDbEntity
  8
A-0
  6
Continuous
 62
     4
100
AcDbCircle
 10
2752.3798402155
 20
344.434547990836
 30
0.0
 40
0.1875
  0
CIRCLE
  5
181
330
6F
100
AcDbEntity
  8
A-0
  6
Continuous
 62
     4
100
AcDbCircle
 10
2752.3798402155
 20
344.434547990836
 30
0.0
 40
0.125
  0
CIRCLE
  5
182
330
6F
100
AcDbEntity
  8
A-0
  6
Continuous
 62
     4
100
AcDbCircle
 10
2752.3798402155
 20
344.434547990836
 30
0.0
 40
0.0625
  0
LINE
  5
183
330
6F
100
AcDbEntity
  8
3-0
  6
Continuous
 62
     7
100
AcDbLine
 10
2918.745592
 20
497.946822
 30
0.0
 11
3043.87984
 21
684.4345479999999
 31
0.0
  0
LINE
  5
184
330
6F
100
AcDbEntity
  8
3-0
  6
Continuous
 62
     7
100
AcDbLine
 10
2513.535352
 20
497.946822
 30
0.0
 11
2918.745592
 21
497.946822
 31
0.0
  0
TEXT
  5
185
330
6F
100
AcDbEntity
  8
D-0
 62
     5
100
AcDbText
 10
2530.75
 20
505.638
 30
0.0
 40
25.92
  1
排水穴　φ110（工場加工）
100
AcDbText
  0
LINE
  5
186
330
6F
100
AcDbEntity
  8
3-0
  6
Continuous
 62
     7
100
AcDbLine
 10
3043.87984
 20
684.4345479999999
 30
0.0
 11
3020.184168
 21
676.618682
 31
0.0
  0
TEXT
  5
187
330
6F
100
AcDbEntity
  8
D-0
 62
     5
100
AcDbText
 10
2530.576
 20
462.251
 30
0.0
 40
25.92
  1
（回転板付）
100
AcDbText
  0
TEXT
  5
188
330
6F
100
AcDbEntity
  8
D-0
 62
     5
100
AcDbText
 10
3127.606
 20
2237.654
 30
0.0
 40
25.92
  1
アルミ製　ラインハンドル
100
AcDbText
  0
LINE
  5
189
330
6F
100
AcDbEntity
  8
3-0
  6
DASHED2
 62
     7
100
AcDbLine
 10
3063.053748
 20
699.4345479999999
 30
0.0
 11
3063.053748
 21
821.2664079999999
 31
0.0
  0
LINE
  5
18A
330
6F
100
AcDbEntity
  8
3-0
  6
Continuous
 62
     7
100
AcDbLine
 10
3273.37984
 20
1369.434548
 30
0.0
 11
3273.37984
 21
684.4345479999999
 31
0.0
  0
LINE
  5
18B
330
6F
100
AcDbEntity
  8
3-0
  6
DASHED2
 62
     7
100
AcDbLine
 10
3261.37984
 20
1369.434548
 30
0.0
 11
3261.37984
 21
1209.434548
 31
0.0
  0
LINE
  5
18C
330
6F
100
AcDbEntity
  8
3-0
  6
DASHED2
 62
     7
100
AcDbLine
 10
3261.37984
 20
1209.434548
 30
0.0
 11
3273.37984
 21
1209.434548
 31
0.0
  0
LINE
  5
18D
330
6F
100
AcDbEntity
  8
3-0
  6
Continuous
 62
     7
100
AcDbLine
 10
3294.37984
 20
684.4345479999999
 30
0.0
 11
3294.37984
 21
1336.434548
 31
0.0
  0
LINE
  5
18E
330
6F
100
AcDbEntity
  8
3-0
  6
Continuous
 62
     7
100
AcDbLine
 10
3294.37984
 20
1306.649645
 30
0.0
 11
3294.37984
 21
1316.649645
 31
0.0
  0
LINE
  5
18F
330
6F
100
AcDbEntity
  8
3-0
  6
Continuous
 62
     7
100
AcDbLine
 10
3294.37984
 20
1336.434548
 30
0.0
 11
3279.37984
 21
1336.434548
 31
0.0
  0
LINE
  5
190
330
6F
100
AcDbEntity
  8
3-0
  6
Continuous
 62
     7
100
AcDbLine
 10
3278.77984
 20
1336.434548
 30
0.0
 11
3294.37984
 21
1336.434548
 31
0.0
  0
LINE
  5
191
330
6F
100
AcDbEntity
  8
1-0
  6
Continuous
 62
     7
100
AcDbLine
 10
3278.77984
 20
1336.434548
 30
0.0
 11
3278.77984
 21
1321.434548
 31
0.0
  0
LINE
  5
192
330
6F
100
AcDbEntity
  8
1-0
  6
Continuous
 62
     7
100
AcDbLine
 10
3294.37984
 20
1336.434548
 30
0.0
 11
3294.37984
 21
1330.234548
 31
0.0
  0
LINE
  5
193
330
6F
100
AcDbEntity
  8
1-0
  6
Continuous
 62
     7
100
AcDbLine
 10
3278.77984
 20
1336.434548
 30
0.0
 11
3278.77984
 21
684.4345479999999
 31
0.0
  0
TEXT
  5
194
330
6F
100
AcDbEntity
  8
D-0
 62
     5
100
AcDbText
 10
3122.045
 20
2381.639
 30
0.0
 40
25.92
  1
(SW)は鏡面仕上げ
100
AcDbText
  0
TEXT
  5
195
330
6F
100
AcDbEntity
  8
D-0
 62
     5
100
AcDbText
 10
3128.849000000001
 20
2031.101
 30
0.0
 40
25.92
  1
ポリプロピレン製　4本収納
100
AcDbText
  0
LINE
  5
196
330
6F
100
AcDbEntity
  8
3-0
  6
DASHED2
 62
     7
100
AcDbLine
 10
3240.584308
 20
1049.434548
 30
0.0
 11
3276.77984
 21
1049.434548
 31
0.0
  0
ARC
  5
197
330
6F
100
AcDbEntity
  8
3-0
  6
DASHED2
 62
     7
100
AcDbCircle
 10
3240.584308
 20
1048.434548
 30
0.0
 40
1.0
100
AcDbArc
 50
90.0
 51
180.0
  0
LINE
  5
198
330
6F
100
AcDbEntity
  8
3-0
  6
DASHED2
 62
     7
100
AcDbLine
 10
3239.584308
 20
1030.434548
 30
0.0
 11
3239.584308
 21
1048.434548
 31
0.0
  0
LINE
  5
199
330
6F
100
AcDbEntity
  8
3-0
  6
DASHED2
 62
     7
100
AcDbLine
 10
3239.640402
 20
1029.434548
 30
0.0
 11
3239.584308
 21
1029.434548
 31
0.0
  0
LINE
  5
19A
330
6F
100
AcDbEntity
  8
3-0
  6
DASHED2
 62
     7
100
AcDbLine
 10
3239.640402
 20
1030.104336
 30
0.0
 11
3239.640402
 21
827.4345479999999
 31
0.0
  0
LINE
  5
19B
330
6F
100
AcDbEntity
  8
3-0
  6
DASHED2
 62
     7
100
AcDbLine
 10
3247.584308
 20
819.4345479999999
 30
0.0
 11
3278.77984
 21
819.4345479999999
 31
0.0
  0
ARC
  5
19C
330
6F
100
AcDbEntity
  8
3-0
  6
DASHED2
 62
     7
100
AcDbCircle
 10
3247.584308
 20
827.4345479999999
 30
0.0
 40
8.0
100
AcDbArc
 50
231.318
 51
270.0
  0
ARC
  5
19D
330
6F
100
AcDbEntity
  8
3-0
  6
DASHED2
 62
     7
100
AcDbCircle
 10
3247.640402
 20
827.4345479999999
 30
0.0
 40
8.0
100
AcDbArc
 50
180.0
 51
230.801
  0
LINE
  5
19E
330
6F
100
AcDbEntity
  8
3-0
  6
DASHED2
 62
     7
100
AcDbLine
 10
3257.5271
 20
1023.434548
 30
0.0
 11
3278.77984
 21
1023.434548
 31
0.0
  0
LINE
  5
19F
330
6F
100
AcDbEntity
  8
3-0
  6
DASHED2
 62
     7
100
AcDbLine
 10
3257.5271
 20
1005.434548
 30
0.0
 11
3278.77984
 21
1005.434548
 31
0.0
  0
LINE
  5
1A0
330
6F
100
AcDbEntity
  8
3-0
  6
DASHED2
 62
     7
100
AcDbLine
 10
3257.5271
 20
863.434548
 30
0.0
 11
3278.77984
 21
863.434548
 31
0.0
  0
LINE
  5
1A1
330
6F
100
AcDbEntity
  8
3-0
  6
DASHED2
 62
     7
100
AcDbLine
 10
3257.5271
 20
845.4345479999998
 30
0.0
 11
3278.77984
 21
845.4345479999998
 31
0.0
  0
LINE
  5
1A2
330
6F
100
AcDbEntity
  8
A-0
  6
Continuous
 62
     4
100
AcDbLine
 10
1723.574513
 20
2072.305662
 30
0.0
 11
1723.574513
 21
1942.305662
 31
0.0
  0
LINE
  5
1A3
330
6F
100
AcDbEntity
  8
A-0
  6
Continuous
 62
     4
100
AcDbLine
 10
1773.574513
 20
2072.305662
 30
0.0
 11
1773.574513
 21
1942.305662
 31
0.0
  0
TEXT
  5
1A4
330
6F
100
AcDbEntity
  8
A-0
 62
     4
100
AcDbText
 10
1780.123
 20
1875.426
 30
0.0
 40
36.288
  1
50
100
AcDbText
  0
LINE
  5
1A5
330
6F
100
AcDbEntity
  8
A-0
  6
Continuous
 62
     4
100
AcDbLine
 10
1773.574512603826
 20
1942.305661969911
 30
0.0
 11
1723.574512603823
 21
1942.305661969911
 31
0.0
  0
CIRCLE
  5
1A6
330
6F
100
AcDbEntity
  8
A-0
  6
Continuous
 62
     4
100
AcDbCircle
 10
1773.574512603826
 20
1942.305661969911
 30
0.0
 40
0.25
  0
CIRCLE
  5
1A7
330
6F
100
AcDbEntity
  8
A-0
  6
Continuous
 62
     4
100
AcDbCircle
 10
1773.574512603826
 20
1942.305661969911
 30
0.0
 40
0.1875
  0
CIRCLE
  5
1A8
330
6F
100
AcDbEntity
  8
A-0
  6
Continuous
 62
     4
100
AcDbCircle
 10
1773.574512603826
 20
1942.305661969911
 30
0.0
 40
0.125
  0
CIRCLE
  5
1A9
330
6F
100
AcDbEntity
  8
A-0
  6
Continuous
 62
     4
100
AcDbCircle
 10
1773.574512603826
 20
1942.305661969911
 30
0.0
 40
0.0625
  0
CIRCLE
  5
1AA
330
6F
100
AcDbEntity
  8
A-0
  6
Continuous
 62
     4
100
AcDbCircle
 10
1723.574512603823
 20
1942.305661969911
 30
0.0
 40
0.25
  0
CIRCLE
  5
1AB
330
6F
100
AcDbEntity
  8
A-0
  6
Continuous
 62
     4
100
AcDbCircle
 10
1723.574512603823
 20
1942.305661969911
 30
0.0
 40
0.1875
  0
CIRCLE
  5
1AC
330
6F
100
AcDbEntity
  8
A-0
  6
Continuous
 62
     4
100
AcDbCircle
 10
1723.574512603823
 20
1942.305661969911
 30
0.0
 40
0.125
  0
CIRCLE
  5
1AD
330
6F
100
AcDbEntity
  8
A-0
  6
Continuous
 62
     4
100
AcDbCircle
 10
1723.574512603823
 20
1942.305661969911
 30
0.0
 40
0.0625
  0
LINE
  5
1AE
330
6F
100
AcDbEntity
  8
A-0
  6
Continuous
 62
     4
100
AcDbLine
 10
1059.574513
 20
2072.305662
 30
0.0
 11
1059.574513
 21
1942.305662
 31
0.0
  0
LINE
  5
1AF
330
6F
100
AcDbEntity
  8
A-0
  6
Continuous
 62
     4
100
AcDbLine
 10
673.574513
 20
2072.305662
 30
0.0
 11
673.574513
 21
1942.305662
 31
0.0
  0
TEXT
  5
1B0
330
6F
100
AcDbEntity
  8
A-0
 62
     4
100
AcDbText
 10
835.7969999999999
 20
1942.926
 30
0.0
 40
36.288
  1
386
100
AcDbText
  0
LINE
  5
1B1
330
6F
100
AcDbEntity
  8
A-0
  6
Continuous
 62
     4
100
AcDbLine
 10
673.5745126038259
 20
1942.305661969909
 30
0.0
 11
1059.574512603823
 21
1942.305661969909
 31
0.0
  0
CIRCLE
  5
1B2
330
6F
100
AcDbEntity
  8
A-0
  6
Continuous
 62
     4
100
AcDbCircle
 10
673.5745126038259
 20
1942.305661969909
 30
0.0
 40
0.25
  0
CIRCLE
  5
1B3
330
6F
100
AcDbEntity
  8
A-0
  6
Continuous
 62
     4
100
AcDbCircle
 10
673.5745126038259
 20
1942.305661969909
 30
0.0
 40
0.1875
  0
CIRCLE
  5
1B4
330
6F
100
AcDbEntity
  8
A-0
  6
Continuous
 62
     4
100
AcDbCircle
 10
673.5745126038259
 20
1942.305661969909
 30
0.0
 40
0.125
  0
CIRCLE
  5
1B5
330
6F
100
AcDbEntity
  8
A-0
  6
Continuous
 62
     4
100
AcDbCircle
 10
673.5745126038259
 20
1942.305661969909
 30
0.0
 40
0.0625
  0
CIRCLE
  5
1B6
330
6F
100
AcDbEntity
  8
A-0
  6
Continuous
 62
     4
100
AcDbCircle
 10
1059.574512603823
 20
1942.305661969909
 30
0.0
 40
0.25
  0
CIRCLE
  5
1B7
330
6F
100
AcDbEntity
  8
A-0
  6
Continuous
 62
     4
100
AcDbCircle
 10
1059.574512603823
 20
1942.305661969909
 30
0.0
 40
0.1875
  0
CIRCLE
  5
1B8
330
6F
100
AcDbEntity
  8
A-0
  6
Continuous
 62
     4
100
AcDbCircle
 10
1059.574512603823
 20
1942.305661969909
 30
0.0
 40
0.125
  0
CIRCLE
  5
1B9
330
6F
100
AcDbEntity
  8
A-0
  6
Continuous
 62
     4
100
AcDbCircle
 10
1059.574512603823
 20
1942.305661969909
 30
0.0
 40
0.0625
  0
LINE
  5
1BA
330
6F
100
AcDbEntity
  8
A-0
  6
Continuous
 62
     4
100
AcDbLine
 10
1723.574513
 20
2072.305662
 30
0.0
 11
1723.574513
 21
1942.305662
 31
0.0
  0
LINE
  5
1BB
330
6F
100
AcDbEntity
  8
A-0
  6
Continuous
 62
     4
100
AcDbLine
 10
1059.574513
 20
2072.305662
 30
0.0
 11
1059.574513
 21
1942.305662
 31
0.0
  0
TEXT
  5
1BC
330
6F
100
AcDbEntity
  8
A-0
 62
     4
100
AcDbText
 10
1360.797
 20
1942.926
 30
0.0
 40
36.288
  1
664
100
AcDbText
  0
LINE
  5
1BD
330
6F
100
AcDbEntity
  8
A-0
  6
Continuous
 62
     4
100
AcDbLine
 10
1059.574512603823
 20
1942.305661969911
 30
0.0
 11
1723.574512603823
 21
1942.305661969911
 31
0.0
  0
CIRCLE
  5
1BE
330
6F
100
AcDbEntity
  8
A-0
  6
Continuous
 62
     4
100
AcDbCircle
 10
1059.574512603823
 20
1942.305661969911
 30
0.0
 40
0.25
  0
CIRCLE
  5
1BF
330
6F
100
AcDbEntity
  8
A-0
  6
Continuous
 62
     4
100
AcDbCircle
 10
1059.574512603823
 20
1942.305661969911
 30
0.0
 40
0.1875
  0
CIRCLE
  5
1C0
330
6F
100
AcDbEntity
  8
A-0
  6
Continuous
 62
     4
100
AcDbCircle
 10
1059.574512603823
 20
1942.305661969911
 30
0.0
 40
0.125
  0
CIRCLE
  5
1C1
330
6F
100
AcDbEntity
  8
A-0
  6
Continuous
 62
     4
100
AcDbCircle
 10
1059.574512603823
 20
1942.305661969911
 30
0.0
 40
0.0625
  0
CIRCLE
  5
1C2
330
6F
100
AcDbEntity
  8
A-0
  6
Continuous
 62
     4
100
AcDbCircle
 10
1723.574512603823
 20
1942.305661969911
 30
0.0
 40
0.25
  0
CIRCLE
  5
1C3
330
6F
100
AcDbEntity
  8
A-0
  6
Continuous
 62
     4
100
AcDbCircle
 10
1723.574512603823
 20
1942.305661969911
 30
0.0
 40
0.1875
  0
CIRCLE
  5
1C4
330
6F
100
AcDbEntity
  8
A-0
  6
Continuous
 62
     4
100
AcDbCircle
 10
1723.574512603823
 20
1942.305661969911
 30
0.0
 40
0.125
  0
CIRCLE
  5
1C5
330
6F
100
AcDbEntity
  8
A-0
  6
Continuous
 62
     4
100
AcDbCircle
 10
1723.574512603823
 20
1942.305661969911
 30
0.0
 40
0.0625
  0
LINE
  5
1C6
330
6F
100
AcDbEntity
  8
A-0
  6
Continuous
 62
     4
100
AcDbLine
 10
1773.574513
 20
1972.305662
 30
0.0
 11
1773.574513
 21
1842.305662
 31
0.0
  0
LINE
  5
1C7
330
6F
100
AcDbEntity
  8
A-0
  6
Continuous
 62
     4
100
AcDbLine
 10
673.574513
 20
1972.305662
 30
0.0
 11
673.574513
 21
1842.305662
 31
0.0
  0
TEXT
  5
1C8
330
6F
100
AcDbEntity
  8
A-0
 62
     4
100
AcDbText
 10
1181.597
 20
1842.926
 30
0.0
 40
36.288
  1
1100
100
AcDbText
  0
LINE
  5
1C9
330
6F
100
AcDbEntity
  8
A-0
  6
Continuous
 62
     4
100
AcDbLine
 10
673.574512603827
 20
1842.305661969911
 30
0.0
 11
1773.574512603826
 21
1842.305661969911
 31
0.0
  0
CIRCLE
  5
1CA
330
6F
100
AcDbEntity
  8
A-0
  6
Continuous
 62
     4
100
AcDbCircle
 10
673.574512603827
 20
1842.305661969911
 30
0.0
 40
0.25
  0
CIRCLE
  5
1CB
330
6F
100
AcDbEntity
  8
A-0
  6
Continuous
 62
     4
100
AcDbCircle
 10
673.574512603827
 20
1842.305661969911
 30
0.0
 40
0.1875
  0
CIRCLE
  5
1CC
330
6F
100
AcDbEntity
  8
A-0
  6
Continuous
 62
     4
100
AcDbCircle
 10
673.574512603827
 20
1842.305661969911
 30
0.0
 40
0.125
  0
CIRCLE
  5
1CD
330
6F
100
AcDbEntity
  8
A-0
  6
Continuous
 62
     4
100
AcDbCircle
 10
673.574512603827
 20
1842.305661969911
 30
0.0
 40
0.0625
  0
CIRCLE
  5
1CE
330
6F
100
AcDbEntity
  8
A-0
  6
Continuous
 62
     4
100
AcDbCircle
 10
1773.574512603826
 20
1842.305661969911
 30
0.0
 40
0.25
  0
CIRCLE
  5
1CF
330
6F
100
AcDbEntity
  8
A-0
  6
Continuous
 62
     4
100
AcDbCircle
 10
1773.574512603826
 20
1842.305661969911
 30
0.0
 40
0.1875
  0
CIRCLE
  5
1D0
330
6F
100
AcDbEntity
  8
A-0
  6
Continuous
 62
     4
100
AcDbCircle
 10
1773.574512603826
 20
1842.305661969911
 30
0.0
 40
0.125
  0
CIRCLE
  5
1D1
330
6F
100
AcDbEntity
  8
A-0
  6
Continuous
 62
     4
100
AcDbCircle
 10
1773.574512603826
 20
1842.305661969911
 30
0.0
 40
0.0625
  0
LINE
  5
1D2
330
6F
100
AcDbEntity
  8
A-0
  6
Continuous
 62
     4
100
AcDbLine
 10
1793.700867
 20
2092.305662000001
 30
0.0
 11
2021.074513
 21
2092.305662000001
 31
0.0
  0
LINE
  5
1D3
330
6F
100
AcDbEntity
  8
A-0
  6
Continuous
 62
     4
100
AcDbLine
 10
1796.489913
 20
2642.305662
 30
0.0
 11
2021.074513
 21
2642.305662
 31
0.0
  0
TEXT
  5
1D4
330
6F
100
AcDbEntity
  8
A-0
 62
     4
100
AcDbText
 10
2020.455
 20
2333.706
 30
0.0
 40
36.288
  1
550
 50
90.0
100
AcDbText
  0
LINE
  5
1D5
330
6F
100
AcDbEntity
  8
A-0
  6
Continuous
 62
     4
100
AcDbLine
 10
2021.074512603826
 20
2642.30566196992
 30
0.0
 11
2021.074512603826
 21
2092.30566196992
 31
0.0
  0
CIRCLE
  5
1D6
330
6F
100
AcDbEntity
  8
A-0
  6
Continuous
 62
     4
100
AcDbCircle
 10
2021.074512603826
 20
2642.30566196992
 30
0.0
 40
0.25
  0
CIRCLE
  5
1D7
330
6F
100
AcDbEntity
  8
A-0
  6
Continuous
 62
     4
100
AcDbCircle
 10
2021.074512603826
 20
2642.30566196992
 30
0.0
 40
0.1875
  0
CIRCLE
  5
1D8
330
6F
100
AcDbEntity
  8
A-0
  6
Continuous
 62
     4
100
AcDbCircle
 10
2021.074512603826
 20
2642.30566196992
 30
0.0
 40
0.125
  0
CIRCLE
  5
1D9
330
6F
100
AcDbEntity
  8
A-0
  6
Continuous
 62
     4
100
AcDbCircle
 10
2021.074512603826
 20
2642.30566196992
 30
0.0
 40
0.0625
  0
CIRCLE
  5
1DA
330
6F
100
AcDbEntity
  8
A-0
  6
Continuous
 62
     4
100
AcDbCircle
 10
2021.074512603826
 20
2092.30566196992
 30
0.0
 40
0.25
  0
CIRCLE
  5
1DB
330
6F
100
AcDbEntity
  8
A-0
  6
Continuous
 62
     4
100
AcDbCircle
 10
2021.074512603826
 20
2092.30566196992
 30
0.0
 40
0.1875
  0
CIRCLE
  5
1DC
330
6F
100
AcDbEntity
  8
A-0
  6
Continuous
 62
     4
100
AcDbCircle
 10
2021.074512603826
 20
2092.30566196992
 30
0.0
 40
0.125
  0
CIRCLE
  5
1DD
330
6F
100
AcDbEntity
  8
A-0
  6
Continuous
 62
     4
100
AcDbCircle
 10
2021.074512603826
 20
2092.30566196992
 30
0.0
 40
0.0625
  0
ARC
  5
1DE
330
6F
100
AcDbEntity
  8
3-0
  6
DASHED2
 62
     7
100
AcDbCircle
 10
1391.574513
 20
2569.305662
 30
0.0
 40
260.0
100
AcDbArc
 50
190.538
 51
349.462
  0
LINE
  5
1DF
330
6F
100
AcDbEntity
  8
3-0
  6
Continuous
 62
     7
100
AcDbLine
 10
1379.574513
 20
2518.748763
 30
0.0
 11
1379.574513
 21
2321.305662
 31
0.0
  0
LINE
  5
1E0
330
6F
100
AcDbEntity
  8
3-0
  6
Continuous
 62
     7
100
AcDbLine
 10
1403.574513
 20
2518.748763
 30
0.0
 11
1403.574513
 21
2321.305662
 31
0.0
  0
LINE
  5
1E1
330
6F
100
AcDbEntity
  8
A-0
  6
Continuous
 62
     4
100
AcDbLine
 10
1823.631473
 20
2642.305662
 30
0.0
 11
1921.074513
 21
2642.305662
 31
0.0
  0
LINE
  5
1E2
330
6F
100
AcDbEntity
  8
A-0
  6
Continuous
 62
     4
100
AcDbLine
 10
1828.939796
 20
2335.805662
 30
0.0
 11
1921.074513
 21
2335.805662
 31
0.0
  0
TEXT
  5
1E3
330
6F
100
AcDbEntity
  8
A-0
 62
     4
100
AcDbText
 10
1920.455
 20
2433.056
 30
0.0
 40
36.288
  1
306.5
 50
90.0
100
AcDbText
  0
LINE
  5
1E4
330
6F
100
AcDbEntity
  8
A-0
  6
Continuous
 62
     4
100
AcDbLine
 10
1921.074512603825
 20
2335.80566196992
 30
0.0
 11
1921.074512603826
 21
2642.30566196992
 31
0.0
  0
CIRCLE
  5
1E5
330
6F
100
AcDbEntity
  8
A-0
  6
Continuous
 62
     4
100
AcDbCircle
 10
1921.074512603825
 20
2335.80566196992
 30
0.0
 40
0.25
  0
CIRCLE
  5
1E6
330
6F
100
AcDbEntity
  8
A-0
  6
Continuous
 62
     4
100
AcDbCircle
 10
1921.074512603825
 20
2335.80566196992
 30
0.0
 40
0.1875
  0
CIRCLE
  5
1E7
330
6F
100
AcDbEntity
  8
A-0
  6
Continuous
 62
     4
100
AcDbCircle
 10
1921.074512603825
 20
2335.80566196992
 30
0.0
 40
0.125
  0
CIRCLE
  5
1E8
330
6F
100
AcDbEntity
  8
A-0
  6
Continuous
 62
     4
100
AcDbCircle
 10
1921.074512603825
 20
2335.80566196992
 30
0.0
 40
0.0625
  0
CIRCLE
  5
1E9
330
6F
100
AcDbEntity
  8
A-0
  6
Continuous
 62
     4
100
AcDbCircle
 10
1921.074512603826
 20
2642.30566196992
 30
0.0
 40
0.25
  0
CIRCLE
  5
1EA
330
6F
100
AcDbEntity
  8
A-0
  6
Continuous
 62
     4
100
AcDbCircle
 10
1921.074512603826
 20
2642.30566196992
 30
0.0
 40
0.1875
  0
CIRCLE
  5
1EB
330
6F
100
AcDbEntity
  8
A-0
  6
Continuous
 62
     4
100
AcDbCircle
 10
1921.074512603826
 20
2642.30566196992
 30
0.0
 40
0.125
  0
CIRCLE
  5
1EC
330
6F
100
AcDbEntity
  8
A-0
  6
Continuous
 62
     4
100
AcDbCircle
 10
1921.074512603826
 20
2642.30566196992
 30
0.0
 40
0.0625
  0
ARC
  5
1ED
330
6F
100
AcDbEntity
  8
3-0
  6
Continuous
 62
     7
100
AcDbCircle
 10
-276.424987
 20
2335.796103
 30
0.0
 40
2000.0
100
AcDbArc
 50
357.006004074687
 51
2.994544356891992
  0
ARC
  5
1EE
330
6F
100
AcDbEntity
  8
3-0
  6
Continuous
 62
     7
100
AcDbCircle
 10
1630.966911
 20
2435.57659
 30
0.0
 40
90.0
100
AcDbArc
 50
2.994270141394963
 51
85.82344730441596
  0
ARC
  5
1EF
330
6F
100
AcDbEntity
  8
3-0
  6
Continuous
 62
     7
100
AcDbCircle
 10
1391.574513
 20
-842.694338
 30
0.0
 40
3377.0
100
AcDbArc
 50
85.82344730441596
 51
94.17655269558499
  0
ARC
  5
1F0
330
6F
100
AcDbEntity
  8
3-0
  6
Continuous
 62
     7
100
AcDbCircle
 10
1152.182114
 20
2435.57659
 30
0.0
 40
90.0
100
AcDbArc
 50
94.17655269558403
 51
177.0057298586049
  0
ARC
  5
1F1
330
6F
100
AcDbEntity
  8
3-0
  6
Continuous
 62
     7
100
AcDbCircle
 10
3059.575013
 20
2335.796103
 30
0.0
 40
2000.0
100
AcDbArc
 50
177.0054556431081
 51
182.993995925313
  0
ARC
  5
1F2
330
6F
100
AcDbEntity
  8
3-0
  6
Continuous
 62
     7
100
AcDbCircle
 10
1152.182114
 20
2236.034734
 30
0.0
 40
90.0
100
AcDbArc
 50
182.994270141395
 51
265.823447304415
  0
ARC
  5
1F3
330
6F
100
AcDbEntity
  8
3-0
  6
Continuous
 62
     7
100
AcDbCircle
 10
1391.58136
 20
5514.306162
 30
0.0
 40
3377.0
100
AcDbArc
 50
265.823330824533
 51
274.176436215702
  0
ARC
  5
1F4
330
6F
100
AcDbEntity
  8
3-0
  6
Continuous
 62
     7
100
AcDbCircle
 10
1630.966911
 20
2236.034734
 30
0.0
 40
90.0
100
AcDbArc
 50
274.176552695584
 51
357.005729858605
  0
ARC
  5
1F5
330
6F
100
AcDbEntity
  8
3-0
  6
Continuous
 62
     7
100
AcDbCircle
 10
1728.542553
 20
2576.292424
 30
0.0
 40
25.031963
100
AcDbArc
 50
0.0303009264569898
 51
92.21630450197897
  0
LINE
  5
1F6
330
6F
100
AcDbEntity
  8
3-0
  6
Continuous
 62
     7
100
AcDbLine
 10
1727.574512603827
 20
2601.30566196992
 30
0.0
 11
718.574512603824
 21
2601.30566196992
 31
0.0
  0
ARC
  5
1F7
330
6F
100
AcDbEntity
  8
3-0
  6
Continuous
 62
     7
100
AcDbCircle
 10
718.574513
 20
2576.305662000001
 30
0.0
 40
25.0
100
AcDbArc
 50
90.00000000000095
 51
179.9999999997069
  0
LINE
  5
1F8
330
6F
100
AcDbEntity
  8
3-0
  6
Continuous
 62
     7
100
AcDbLine
 10
693.574512603824
 20
2576.30566196992
 30
0.0
 11
693.5745126038219
 21
2136.30566196992
 31
0.0
  0
ARC
  5
1F9
330
6F
100
AcDbEntity
  8
3-0
  6
Continuous
 62
     7
100
AcDbCircle
 10
718.66585
 20
2133.547928
 30
0.0
 40
25.242431
100
AcDbArc
 50
173.727920072354
 51
269.792679335755
  0
LINE
  5
1FA
330
6F
100
AcDbEntity
  8
3-0
  6
Continuous
 62
     7
100
AcDbLine
 10
718.5745126038219
 20
2108.30566196992
 30
0.0
 11
1727.574512603827
 21
2108.30566196992
 31
0.0
  0
ARC
  5
1FB
330
6F
100
AcDbEntity
  8
3-0
  6
Continuous
 62
     7
100
AcDbCircle
 10
1728.527392
 20
2133.356709
 30
0.0
 40
25.069163
100
AcDbArc
 50
267.821661583249
 51
357.597118331197
  0
LINE
  5
1FC
330
6F
100
AcDbEntity
  8
3-0
  6
Continuous
 62
     7
100
AcDbLine
 10
1753.574512603827
 20
2132.30566196992
 30
0.0
 11
1753.574512603827
 21
2576.30566196992
 31
0.0
  0
ARC
  5
1FD
330
6F
100
AcDbEntity
  8
3-0
  6
Continuous
 62
     7
100
AcDbCircle
 10
1728.535191
 20
2576.289375
 30
0.0
 40
20.039328
100
AcDbArc
 50
0.0465685368620505
 51
92.74779351801402
  0
LINE
  5
1FE
330
6F
100
AcDbEntity
  8
3-0
  6
Continuous
 62
     7
100
AcDbLine
 10
1727.574512603827
 20
2596.30566196992
 30
0.0
 11
718.574512603824
 21
2596.30566196992
 31
0.0
  0
ARC
  5
1FF
330
6F
100
AcDbEntity
  8
3-0
  6
Continuous
 62
     7
100
AcDbCircle
 10
718.574513
 20
2576.305662000001
 30
0.0
 40
20.0
100
AcDbArc
 50
90.0
 51
179.9999999997069
  0
LINE
  5
200
330
6F
100
AcDbEntity
  8
3-0
  6
Continuous
 62
     7
100
AcDbLine
 10
698.5745126038239
 20
2576.30566196992
 30
0.0
 11
698.5745126038219
 21
2136.30566196992
 31
0.0
  0
ARC
  5
201
330
6F
100
AcDbEntity
  8
3-0
  6
Continuous
 62
     7
100
AcDbCircle
 10
718.680257
 20
2133.593266
 30
0.0
 40
20.28788
100
AcDbArc
 50
172.316812688552
 51
269.701361114906
  0
LINE
  5
202
330
6F
100
AcDbEntity
  8
3-0
  6
Continuous
 62
     7
100
AcDbLine
 10
718.5745126038219
 20
2113.30566196992
 30
0.0
 11
1727.574512603827
 21
2113.30566196992
 31
0.0
  0
ARC
  5
203
330
6F
100
AcDbEntity
  8
3-0
  6
Continuous
 62
     7
100
AcDbCircle
 10
1728.515942
 20
2133.370398
 30
0.0
 40
20.086809
100
AcDbArc
 50
267.313674594287
 51
356.961514953216
  0
LINE
  5
204
330
6F
100
AcDbEntity
  8
3-0
  6
Continuous
 62
     7
100
AcDbLine
 10
1748.574512603827
 20
2132.30566196992
 30
0.0
 11
1748.574512603827
 21
2576.30566196992
 31
0.0
  0
LINE
  5
205
330
6F
100
AcDbEntity
  8
3-0
  6
Continuous
 62
     7
100
AcDbLine
 10
673.574513
 20
2642.305662
 30
0.0
 11
673.574513
 21
2092.305662000001
 31
0.0
  0
LINE
  5
206
330
6F
100
AcDbEntity
  8
3-0
  6
Continuous
 62
     7
100
AcDbLine
 10
1773.574513
 20
2092.305662000001
 30
0.0
 11
1773.574513
 21
2642.305662
 31
0.0
  0
LINE
  5
207
330
6F
100
AcDbEntity
  8
B-0
  6
CENTER
 62
     6
100
AcDbLine
 10
1573.574513
 20
2275.805662
 30
0.0
 11
1573.574513
 21
2793.305662
 31
0.0
  0
LINE
  5
208
330
6F
100
AcDbEntity
  8
3-0
  6
Continuous
 62
     7
100
AcDbLine
 10
673.574513
 20
2092.305662000001
 30
0.0
 11
1773.574513
 21
2092.305662000001
 31
0.0
  0
LINE
  5
209
330
6F
100
AcDbEntity
  8
3-0
  6
Continuous
 62
     7
100
AcDbLine
 10
1276.164681
 20
2203.908116
 30
0.0
 11
1497.423429
 21
2203.908116
 31
0.0
  0
TEXT
  5
20A
330
6F
100
AcDbEntity
  8
D-0
 62
     5
100
AcDbText
 10
1310.651
 20
2215.229
 30
0.0
 40
25.92
  1
床板排水芯
100
AcDbText
  0
ARC
  5
20B
330
6F
100
AcDbEntity
  8
3-0
  6
Continuous
 62
     7
100
AcDbCircle
 10
775.6259149999999
 20
2268.802255
 30
0.0
 40
5.0
100
AcDbArc
 50
90.00000000000095
 51
179.9999999997081
  0
LINE
  5
20C
330
6F
100
AcDbEntity
  8
3-0
  6
Continuous
 62
     7
100
AcDbLine
 10
770.625915105747
 20
2268.802255017707
 30
0.0
 11
770.625915105747
 21
2223.802255017707
 31
0.0
  0
ARC
  5
20D
330
6F
100
AcDbEntity
  8
3-0
  6
Continuous
 62
     7
100
AcDbCircle
 10
775.6259149999999
 20
2223.802255
 30
0.0
 40
5.0
100
AcDbArc
 50
180.000000000292
 51
269.999999999999
  0
LINE
  5
20E
330
6F
100
AcDbEntity
  8
3-0
  6
Continuous
 62
     7
100
AcDbLine
 10
775.625915105747
 20
2218.802255017707
 30
0.0
 11
990.625915105747
 21
2218.802255017707
 31
0.0
  0
ARC
  5
20F
330
6F
100
AcDbEntity
  8
3-0
  6
Continuous
 62
     7
100
AcDbCircle
 10
990.625915
 20
2223.802255
 30
0.0
 40
5.0
100
AcDbArc
 50
269.999999999991
 51
359.999999999694
  0
LINE
  5
210
330
6F
100
AcDbEntity
  8
3-0
  6
Continuous
 62
     7
100
AcDbLine
 10
995.6259151057469
 20
2223.802255017705
 30
0.0
 11
995.6259151057491
 21
2268.802255017707
 31
0.0
  0
ARC
  5
211
330
6F
100
AcDbEntity
  8
3-0
  6
Continuous
 62
     7
100
AcDbCircle
 10
990.625915
 20
2268.802255
 30
0.0
 40
5.0
100
AcDbArc
 50
0.0000000002909673
 51
90.0
  0
LINE
  5
212
330
6F
100
AcDbEntity
  8
3-0
  6
Continuous
 62
     7
100
AcDbLine
 10
990.625915105749
 20
2273.802255017707
 30
0.0
 11
775.625915105747
 21
2273.802255017707
 31
0.0
  0
ARC
  5
213
330
6F
100
AcDbEntity
  8
3-0
  6
Continuous
 62
     7
100
AcDbCircle
 10
775.6259149999999
 20
2196.802255
 30
0.0
 40
5.0
100
AcDbArc
 50
90.000000000006
 51
179.999999999714
  0
LINE
  5
214
330
6F
100
AcDbEntity
  8
3-0
  6
Continuous
 62
     7
100
AcDbLine
 10
770.625915105747
 20
2196.802255017706
 30
0.0
 11
770.625915105747
 21
2151.802255017706
 31
0.0
  0
ARC
  5
215
330
6F
100
AcDbEntity
  8
3-0
  6
Continuous
 62
     7
100
AcDbCircle
 10
775.6259149999999
 20
2151.802255
 30
0.0
 40
5.0
100
AcDbArc
 50
180.000000000297
 51
270.000000000005
  0
LINE
  5
216
330
6F
100
AcDbEntity
  8
3-0
  6
Continuous
 62
     7
100
AcDbLine
 10
775.625915105747
 20
2146.802255017707
 30
0.0
 11
990.625915105747
 21
2146.802255017707
 31
0.0
  0
ARC
  5
217
330
6F
100
AcDbEntity
  8
3-0
  6
Continuous
 62
     7
100
AcDbCircle
 10
990.625915
 20
2151.802255
 30
0.0
 40
5.0
100
AcDbArc
 50
269.999999999991
 51
359.999999999694
  0
LINE
  5
218
330
6F
100
AcDbEntity
  8
3-0
  6
Continuous
 62
     7
100
AcDbLine
 10
995.6259151057469
 20
2151.802255017705
 30
0.0
 11
995.6259151057491
 21
2196.802255017706
 31
0.0
  0
ARC
  5
219
330
6F
100
AcDbEntity
  8
3-0
  6
Continuous
 62
     7
100
AcDbCircle
 10
990.625915
 20
2196.802255
 30
0.0
 40
5.0
100
AcDbArc
 50
0.0000000002860112
 51
89.99999999999495
  0
LINE
  5
21A
330
6F
100
AcDbEntity
  8
3-0
  6
Continuous
 62
     7
100
AcDbLine
 10
990.625915105749
 20
2201.802255017707
 30
0.0
 11
775.625915105747
 21
2201.802255017707
 31
0.0
  0
ARC
  5
21B
330
6F
100
AcDbEntity
  8
3-0
  6
Continuous
 62
     7
100
AcDbCircle
 10
775.6259149999999
 20
2340.802255
 30
0.0
 40
5.0
100
AcDbArc
 50
90.00000000000095
 51
179.9999999997081
  0
LINE
  5
21C
330
6F
100
AcDbEntity
  8
3-0
  6
Continuous
 62
     7
100
AcDbLine
 10
770.625915105747
 20
2340.802255017707
 30
0.0
 11
770.625915105747
 21
2295.802255017707
 31
0.0
  0
ARC
  5
21D
330
6F
100
AcDbEntity
  8
3-0
  6
Continuous
 62
     7
100
AcDbCircle
 10
775.6259149999999
 20
2295.802255
 30
0.0
 40
5.0
100
AcDbArc
 50
180.000000000292
 51
269.999999999999
  0
LINE
  5
21E
330
6F
100
AcDbEntity
  8
3-0
  6
Continuous
 62
     7
100
AcDbLine
 10
775.625915105747
 20
2290.802255017707
 30
0.0
 11
990.625915105747
 21
2290.802255017707
 31
0.0
  0
ARC
  5
21F
330
6F
100
AcDbEntity
  8
3-0
  6
Continuous
 62
     7
100
AcDbCircle
 10
990.625915
 20
2295.802255
 30
0.0
 40
5.0
100
AcDbArc
 50
269.999999999991
 51
359.999999999694
  0
LINE
  5
220
330
6F
100
AcDbEntity
  8
3-0
  6
Continuous
 62
     7
100
AcDbLine
 10
995.6259151057469
 20
2295.802255017705
 30
0.0
 11
995.6259151057491
 21
2340.802255017707
 31
0.0
  0
ARC
  5
221
330
6F
100
AcDbEntity
  8
3-0
  6
Continuous
 62
     7
100
AcDbCircle
 10
990.625915
 20
2340.802255
 30
0.0
 40
5.0
100
AcDbArc
 50
0.0000000002909673
 51
90.0
  0
LINE
  5
222
330
6F
100
AcDbEntity
  8
3-0
  6
Continuous
 62
     7
100
AcDbLine
 10
990.625915105749
 20
2345.802255017707
 30
0.0
 11
775.625915105747
 21
2345.802255017707
 31
0.0
  0
ARC
  5
223
330
6F
100
AcDbEntity
  8
3-0
  6
Continuous
 62
     7
100
AcDbCircle
 10
775.6259149999999
 20
2412.802255
 30
0.0
 40
5.0
100
AcDbArc
 50
89.99999999999495
 51
179.9999999997029
  0
LINE
  5
224
330
6F
100
AcDbEntity
  8
3-0
  6
Continuous
 62
     7
100
AcDbLine
 10
770.625915105747
 20
2412.802255017707
 30
0.0
 11
770.625915105747
 21
2367.802255017707
 31
0.0
  0
ARC
  5
225
330
6F
100
AcDbEntity
  8
3-0
  6
Continuous
 62
     7
100
AcDbCircle
 10
775.6259149999999
 20
2367.802255
 30
0.0
 40
5.0
100
AcDbArc
 50
180.000000000287
 51
269.999999999994
  0
LINE
  5
226
330
6F
100
AcDbEntity
  8
3-0
  6
Continuous
 62
     7
100
AcDbLine
 10
775.625915105747
 20
2362.802255017706
 30
0.0
 11
990.625915105747
 21
2362.802255017706
 31
0.0
  0
ARC
  5
227
330
6F
100
AcDbEntity
  8
3-0
  6
Continuous
 62
     7
100
AcDbCircle
 10
990.625915
 20
2367.802255
 30
0.0
 40
5.0
100
AcDbArc
 50
269.999999999996
 51
359.999999999699
  0
LINE
  5
228
330
6F
100
AcDbEntity
  8
3-0
  6
Continuous
 62
     7
100
AcDbLine
 10
995.6259151057469
 20
2367.802255017705
 30
0.0
 11
995.6259151057491
 21
2412.802255017707
 31
0.0
  0
ARC
  5
229
330
6F
100
AcDbEntity
  8
3-0
  6
Continuous
 62
     7
100
AcDbCircle
 10
990.625915
 20
2412.802255
 30
0.0
 40
5.0
100
AcDbArc
 50
0.0000000002960032
 51
90.000000000006
  0
LINE
  5
22A
330
6F
100
AcDbEntity
  8
3-0
  6
Continuous
 62
     7
100
AcDbLine
 10
990.625915105749
 20
2417.802255017706
 30
0.0
 11
775.625915105747
 21
2417.802255017706
 31
0.0
  0
ARC
  5
22B
330
6F
100
AcDbEntity
  8
3-0
  6
Continuous
 62
     7
100
AcDbCircle
 10
775.6259149999999
 20
2484.802255
 30
0.0
 40
5.0
100
AcDbArc
 50
90.00000000000095
 51
179.9999999997081
  0
LINE
  5
22C
330
6F
100
AcDbEntity
  8
3-0
  6
Continuous
 62
     7
100
AcDbLine
 10
770.625915105747
 20
2484.802255017707
 30
0.0
 11
770.625915105747
 21
2439.802255017707
 31
0.0
  0
ARC
  5
22D
330
6F
100
AcDbEntity
  8
3-0
  6
Continuous
 62
     7
100
AcDbCircle
 10
775.6259149999999
 20
2439.802255
 30
0.0
 40
5.0
100
AcDbArc
 50
180.000000000292
 51
269.999999999999
  0
LINE
  5
22E
330
6F
100
AcDbEntity
  8
3-0
  6
Continuous
 62
     7
100
AcDbLine
 10
775.625915105747
 20
2434.802255017707
 30
0.0
 11
990.625915105747
 21
2434.802255017707
 31
0.0
  0
ARC
  5
22F
330
6F
100
AcDbEntity
  8
3-0
  6
Continuous
 62
     7
100
AcDbCircle
 10
990.625915
 20
2439.802255
 30
0.0
 40
5.0
100
AcDbArc
 50
269.999999999991
 51
359.999999999694
  0
LINE
  5
230
330
6F
100
AcDbEntity
  8
3-0
  6
Continuous
 62
     7
100
AcDbLine
 10
995.6259151057469
 20
2439.802255017705
 30
0.0
 11
995.6259151057491
 21
2484.802255017707
 31
0.0
  0
ARC
  5
231
330
6F
100
AcDbEntity
  8
3-0
  6
Continuous
 62
     7
100
AcDbCircle
 10
990.625915
 20
2484.802255
 30
0.0
 40
5.0
100
AcDbArc
 50
0.0000000002909673
 51
90.0
  0
LINE
  5
232
330
6F
100
AcDbEntity
  8
3-0
  6
Continuous
 62
     7
100
AcDbLine
 10
990.625915105749
 20
2489.802255017707
 30
0.0
 11
775.625915105747
 21
2489.802255017707
 31
0.0
  0
LINE
  5
233
330
6F
100
AcDbEntity
  8
3-0
  6
Continuous
 62
     7
100
AcDbLine
 10
1497.423429138298
 20
2203.90811635621
 30
0.0
 11
1573.574512603825
 21
2335.80566196992
 31
0.0
  0
LINE
  5
234
330
6F
100
AcDbEntity
  8
3-0
  6
Continuous
 62
     7
100
AcDbLine
 10
1573.574512603825
 20
2335.80566196992
 30
0.0
 11
1547.786541391382
 21
2316.005209013767
 31
0.0
  0
CIRCLE
  5
235
330
6F
100
AcDbEntity
  8
3-0
  6
Continuous
 62
     7
100
AcDbCircle
 10
1573.574513
 20
2335.805662
 30
0.0
 40
90.0
  0
CIRCLE
  5
236
330
6F
100
AcDbEntity
  8
3-0
  6
Continuous
 62
     7
100
AcDbCircle
 10
1573.574513
 20
2335.805662
 30
0.0
 40
80.0
  0
LINE
  5
237
330
6F
100
AcDbEntity
  8
B-0
  6
CENTER
 62
     6
100
AcDbLine
 10
1525.477343
 20
2335.805662
 30
0.0
 11
1928.168387
 21
2335.805662
 31
0.0
  0
ARC
  5
238
330
6F
100
AcDbEntity
  8
3-0
  6
Continuous
 62
     7
100
AcDbCircle
 10
1391.574513
 20
2321.305662
 30
0.0
 40
12.0
100
AcDbArc
 50
180.0
 51
0.0
  0
ARC
  5
239
330
6F
100
AcDbEntity
  8
3-0
  6
Continuous
 62
     7
100
AcDbCircle
 10
1391.574513
 20
2455.637353
 30
0.0
 40
12.0
100
AcDbArc
 50
180.0
 51
0.0
  0
LINE
  5
23A
330
6F
100
AcDbEntity
  8
A-0
  6
Continuous
 62
     4
100
AcDbLine
 10
673.574513
 20
2662.305662
 30
0.0
 11
673.574513
 21
2792.305662
 31
0.0
  0
LINE
  5
23B
330
6F
100
AcDbEntity
  8
A-0
  6
Continuous
 62
     4
100
AcDbLine
 10
1391.574513
 20
2727.709003
 30
0.0
 11
1391.574513
 21
2792.305662
 31
0.0
  0
TEXT
  5
23C
330
6F
100
AcDbEntity
  8
A-0
 62
     4
100
AcDbText
 10
1001.797
 20
2792.926
 30
0.0
 40
36.288
  1
718
100
AcDbText
  0
LINE
  5
23D
330
6F
100
AcDbEntity
  8
A-0
  6
Continuous
 62
     4
100
AcDbLine
 10
1391.574512603829
 20
2792.305661969929
 30
0.0
 11
673.5745126038259
 21
2792.305661969929
 31
0.0
  0
CIRCLE
  5
23E
330
6F
100
AcDbEntity
  8
A-0
  6
Continuous
 62
     4
100
AcDbCircle
 10
1391.574512603829
 20
2792.305661969929
 30
0.0
 40
0.25
  0
CIRCLE
  5
23F
330
6F
100
AcDbEntity
  8
A-0
  6
Continuous
 62
     4
100
AcDbCircle
 10
1391.574512603829
 20
2792.305661969929
 30
0.0
 40
0.1875
  0
CIRCLE
  5
240
330
6F
100
AcDbEntity
  8
A-0
  6
Continuous
 62
     4
100
AcDbCircle
 10
1391.574512603829
 20
2792.305661969929
 30
0.0
 40
0.125
  0
CIRCLE
  5
241
330
6F
100
AcDbEntity
  8
A-0
  6
Continuous
 62
     4
100
AcDbCircle
 10
1391.574512603829
 20
2792.305661969929
 30
0.0
 40
0.0625
  0
CIRCLE
  5
242
330
6F
100
AcDbEntity
  8
A-0
  6
Continuous
 62
     4
100
AcDbCircle
 10
673.5745126038259
 20
2792.305661969929
 30
0.0
 40
0.25
  0
CIRCLE
  5
243
330
6F
100
AcDbEntity
  8
A-0
  6
Continuous
 62
     4
100
AcDbCircle
 10
673.5745126038259
 20
2792.305661969929
 30
0.0
 40
0.1875
  0
CIRCLE
  5
244
330
6F
100
AcDbEntity
  8
A-0
  6
Continuous
 62
     4
100
AcDbCircle
 10
673.5745126038259
 20
2792.305661969929
 30
0.0
 40
0.125
  0
CIRCLE
  5
245
330
6F
100
AcDbEntity
  8
A-0
  6
Continuous
 62
     4
100
AcDbCircle
 10
673.5745126038259
 20
2792.305661969929
 30
0.0
 40
0.0625
  0
LINE
  5
246
330
6F
100
AcDbEntity
  8
B-0
  6
CENTER
 62
     6
100
AcDbLine
 10
1325.702574
 20
2569.305662
 30
0.0
 11
1521.479183
 21
2569.305662
 31
0.0
  0
LINE
  5
247
330
6F
100
AcDbEntity
  8
3-0
  6
Continuous
 62
     7
100
AcDbLine
 10
1272.208427
 20
2701.259048
 30
0.0
 11
1391.574513
 21
2569.305662
 31
0.0
  0
LINE
  5
248
330
6F
100
AcDbEntity
  8
3-0
  6
Continuous
 62
     7
100
AcDbLine
 10
1773.574513
 20
2642.305662
 30
0.0
 11
673.574513
 21
2642.305662
 31
0.0
  0
LINE
  5
249
330
6F
100
AcDbEntity
  8
3-0
  6
Continuous
 62
     7
100
AcDbLine
 10
1773.574513
 20
2617.305662000001
 30
0.0
 11
673.574513
 21
2617.305662000001
 31
0.0
  0
TEXT
  5
24A
330
6F
100
AcDbEntity
  8
D-0
 62
     5
100
AcDbText
 10
1003.374
 20
2712.58
 30
0.0
 40
25.92
  1
水栓取付参考位置
100
AcDbText
  0
ARC
  5
24B
330
6F
100
AcDbEntity
  8
3-0
  6
Continuous
 62
     7
100
AcDbCircle
 10
775.6259149999999
 20
2556.802255
 30
0.0
 40
5.0
100
AcDbArc
 50
90.00000000000095
 51
179.9999999997081
  0
LINE
  5
24C
330
6F
100
AcDbEntity
  8
3-0
  6
Continuous
 62
     7
100
AcDbLine
 10
770.625915105747
 20
2556.802255017707
 30
0.0
 11
770.625915105747
 21
2511.802255017707
 31
0.0
  0
ARC
  5
24D
330
6F
100
AcDbEntity
  8
3-0
  6
Continuous
 62
     7
100
AcDbCircle
 10
775.6259149999999
 20
2511.802255
 30
0.0
 40
5.0
100
AcDbArc
 50
180.000000000292
 51
269.999999999999
  0
LINE
  5
24E
330
6F
100
AcDbEntity
  8
3-0
  6
Continuous
 62
     7
100
AcDbLine
 10
775.625915105747
 20
2506.802255017707
 30
0.0
 11
990.625915105747
 21
2506.802255017707
 31
0.0
  0
ARC
  5
24F
330
6F
100
AcDbEntity
  8
3-0
  6
Continuous
 62
     7
100
AcDbCircle
 10
990.625915
 20
2511.802255
 30
0.0
 40
5.0
100
AcDbArc
 50
269.999999999991
 51
359.999999999694
  0
LINE
  5
250
330
6F
100
AcDbEntity
  8
3-0
  6
Continuous
 62
     7
100
AcDbLine
 10
995.6259151057469
 20
2511.802255017705
 30
0.0
 11
995.6259151057491
 21
2556.802255017707
 31
0.0
  0
ARC
  5
251
330
6F
100
AcDbEntity
  8
3-0
  6
Continuous
 62
     7
100
AcDbCircle
 10
990.625915
 20
2556.802255
 30
0.0
 40
5.0
100
AcDbArc
 50
0.0000000002909673
 51
90.0
  0
LINE
  5
252
330
6F
100
AcDbEntity
  8
3-0
  6
Continuous
 62
     7
100
AcDbLine
 10
990.625915105749
 20
2561.802255017707
 30
0.0
 11
775.625915105747
 21
2561.802255017707
 31
0.0
  0
LINE
  5
253
330
6F
100
AcDbEntity
  8
3-0
  6
Continuous
 62
     7
100
AcDbLine
 10
998.718159
 20
2701.259048
 30
0.0
 11
1272.208427
 21
2701.259048
 31
0.0
  0
LINE
  5
254
330
6F
100
AcDbEntity
  8
A-0
  6
Continuous
 62
     4
100
AcDbLine
 10
1773.574513
 20
2662.305662
 30
0.0
 11
1773.574513
 21
2792.305662
 31
0.0
  0
LINE
  5
255
330
6F
100
AcDbEntity
  8
A-0
  6
Continuous
 62
     4
100
AcDbLine
 10
1573.574513
 20
2729.344086
 30
0.0
 11
1573.574513
 21
2792.305662
 31
0.0
  0
TEXT
  5
256
330
6F
100
AcDbEntity
  8
A-0
 62
     4
100
AcDbText
 10
1642.797
 20
2792.926
 30
0.0
 40
36.288
  1
200
100
AcDbText
  0
LINE
  5
257
330
6F
100
AcDbEntity
  8
A-0
  6
Continuous
 62
     4
100
AcDbLine
 10
1573.574512603825
 20
2792.305661969929
 30
0.0
 11
1773.574512603826
 21
2792.305661969929
 31
0.0
  0
CIRCLE
  5
258
330
6F
100
AcDbEntity
  8
A-0
  6
Continuous
 62
     4
100
AcDbCircle
 10
1573.574512603825
 20
2792.305661969929
 30
0.0
 40
0.25
  0
CIRCLE
  5
259
330
6F
100
AcDbEntity
  8
A-0
  6
Continuous
 62
     4
100
AcDbCircle
 10
1573.574512603825
 20
2792.305661969929
 30
0.0
 40
0.1875
  0
CIRCLE
  5
25A
330
6F
100
AcDbEntity
  8
A-0
  6
Continuous
 62
     4
100
AcDbCircle
 10
1573.574512603825
 20
2792.305661969929
 30
0.0
 40
0.125
  0
CIRCLE
  5
25B
330
6F
100
AcDbEntity
  8
A-0
  6
Continuous
 62
     4
100
AcDbCircle
 10
1573.574512603825
 20
2792.305661969929
 30
0.0
 40
0.0625
  0
CIRCLE
  5
25C
330
6F
100
AcDbEntity
  8
A-0
  6
Continuous
 62
     4
100
AcDbCircle
 10
1773.574512603826
 20
2792.305661969929
 30
0.0
 40
0.25
  0
CIRCLE
  5
25D
330
6F
100
AcDbEntity
  8
A-0
  6
Continuous
 62
     4
100
AcDbCircle
 10
1773.574512603826
 20
2792.305661969929
 30
0.0
 40
0.1875
  0
CIRCLE
  5
25E
330
6F
100
AcDbEntity
  8
A-0
  6
Continuous
 62
     4
100
AcDbCircle
 10
1773.574512603826
 20
2792.305661969929
 30
0.0
 40
0.125
  0
CIRCLE
  5
25F
330
6F
100
AcDbEntity
  8
A-0
  6
Continuous
 62
     4
100
AcDbCircle
 10
1773.574512603826
 20
2792.305661969929
 30
0.0
 40
0.0625
  0
LINE
  5
260
330
6F
100
AcDbEntity
  8
B-0
  6
CENTER
 62
     6
100
AcDbLine
 10
1391.574513
 20
2516.40302
 30
0.0
 11
1391.574513
 21
2799.305662
 31
0.0
  0
LINE
  5
261
330
6F
100
AcDbEntity
  8
A-0
  6
Continuous
 62
     4
100
AcDbLine
 10
1411.574513
 20
2642.305662
 30
0.0
 11
1521.479183
 21
2642.305662
 31
0.0
  0
LINE
  5
262
330
6F
100
AcDbEntity
  8
A-0
  6
Continuous
 62
     4
100
AcDbLine
 10
1479.633292
 20
2569.305662
 30
0.0
 11
1521.479183
 21
2569.305662
 31
0.0
  0
LINE
  5
263
330
6F
100
AcDbEntity
  8
A-0
  6
Continuous
 62
     4
100
AcDbLine
 10
1521.479183
 20
2632.305662
 30
0.0
 11
1521.479183
 21
2579.305662
 31
0.0
  0
LINE
  5
264
330
6F
100
AcDbEntity
  8
A-0
  6
Continuous
 62
     4
100
AcDbLine
 10
1521.479183
 20
2605.805662
 30
0.0
 11
1451.379503
 21
2676.840947
 31
0.0
  0
LINE
  5
265
330
6F
100
AcDbEntity
  8
A-0
  6
Continuous
 62
     4
100
AcDbLine
 10
1451.379503
 20
2676.840947
 30
0.0
 11
1451.379503
 21
2766.663282
 31
0.0
  0
TEXT
  5
266
330
6F
100
AcDbEntity
  8
A-0
 62
     4
100
AcDbText
 10
1447.828
 20
2676.952
 30
0.0
 40
36.288
  1
(73)
 50
90.0
100
AcDbText
  0
CIRCLE
  5
267
330
6F
100
AcDbEntity
  8
A-0
  6
Continuous
 62
     4
100
AcDbCircle
 10
1521.479182627945
 20
2642.30566196992
 30
0.0
 40
0.25
  0
CIRCLE
  5
268
330
6F
100
AcDbEntity
  8
A-0
  6
Continuous
 62
     4
100
AcDbCircle
 10
1521.479182627945
 20
2642.30566196992
 30
0.0
 40
0.1875
  0
CIRCLE
  5
269
330
6F
100
AcDbEntity
  8
A-0
  6
Continuous
 62
     4
100
AcDbCircle
 10
1521.479182627945
 20
2642.30566196992
 30
0.0
 40
0.125
  0
CIRCLE
  5
26A
330
6F
100
AcDbEntity
  8
A-0
  6
Continuous
 62
     4
100
AcDbCircle
 10
1521.479182627945
 20
2642.30566196992
 30
0.0
 40
0.0625
  0
ARC
  5
26B
330
6F
100
AcDbEntity
  8
A-0
 62
     4
100
AcDbCircle
 10
1521.474182627945
 20
2642.30566196992
 30
0.0
 40
2.5
100
AcDbArc
 50
90.11459140653
 51
270.114591405945
  0
LINE
  5
26C
330
6F
100
AcDbEntity
  8
A-0
 62
     4
100
AcDbLine
 10
1521.47918262797
 20
2637.30566196992
 30
0.0
 11
1521.479182627996
 21
2632.30566196992
 31
0.0
  0
CIRCLE
  5
26D
330
6F
100
AcDbEntity
  8
A-0
  6
Continuous
 62
     4
100
AcDbCircle
 10
1521.479182627945
 20
2569.305661969924
 30
0.0
 40
0.25
  0
CIRCLE
  5
26E
330
6F
100
AcDbEntity
  8
A-0
  6
Continuous
 62
     4
100
AcDbCircle
 10
1521.479182627945
 20
2569.305661969924
 30
0.0
 40
0.1875
  0
CIRCLE
  5
26F
330
6F
100
AcDbEntity
  8
A-0
  6
Continuous
 62
     4
100
AcDbCircle
 10
1521.479182627945
 20
2569.305661969924
 30
0.0
 40
0.125
  0
CIRCLE
  5
270
330
6F
100
AcDbEntity
  8
A-0
  6
Continuous
 62
     4
100
AcDbCircle
 10
1521.479182627945
 20
2569.305661969924
 30
0.0
 40
0.0625
  0
ARC
  5
271
330
6F
100
AcDbEntity
  8
A-0
 62
     4
100
AcDbCircle
 10
1521.484182627945
 20
2569.305661969924
 30
0.0
 40
2.5
100
AcDbArc
 50
270.1145914065301
 51
90.11459140594496
  0
LINE
  5
272
330
6F
100
AcDbEntity
  8
A-0
 62
     4
100
AcDbLine
 10
1521.479182627868
 20
2574.305661969924
 30
0.0
 11
1521.479182627792
 21
2579.305661969924
 31
0.0
  0
ARC
  5
273
330
6F
100
AcDbEntity
  8
3-0
  6
Continuous
 62
     7
100
AcDbCircle
 10
1391.574513
 20
2569.305662
 30
0.0
 40
30.0
100
AcDbArc
 50
320.805
 51
219.195
  0
LINE
  5
274
330
6F
100
AcDbEntity
  8
3-0
  6
Continuous
 62
     7
100
AcDbLine
 10
1391.574513
 20
2569.305662
 30
0.0
 11
1381.208311
 21
2600.121555
 31
0.0
  0
ARC
  5
275
330
6F
100
AcDbEntity
  8
3-0
  6
Continuous
 62
     7
100
AcDbCircle
 10
1329.574513
 20
2516.748763
 30
0.0
 40
50.0
100
AcDbArc
 50
0.0
 51
39.195
  0
ARC
  5
276
330
6F
100
AcDbEntity
  8
3-0
  6
Continuous
 62
     7
100
AcDbCircle
 10
1453.574513
 20
2516.748763
 30
0.0
 40
50.0
100
AcDbArc
 50
140.805
 51
180.0
  0
LINE
  5
277
330
6F
100
AcDbEntity
  8
B-0
  6
CENTER
 62
     6
100
AcDbLine
 10
1492.574513
 20
1143.132857
 30
0.0
 11
1492.574513
 21
994.0520729999999
 31
0.0
  0
LINE
  5
278
330
6F
100
AcDbEntity
  8
B-0
  6
CENTER
 62
     6
100
AcDbLine
 10
1292.574513
 20
1143.132857
 30
0.0
 11
1292.574513
 21
994.0520729999999
 31
0.0
  0
LINE
  5
279
330
6F
100
AcDbEntity
  8
A-0
  6
Continuous
 62
     4
100
AcDbLine
 10
1392.574513
 20
1147.770813
 30
0.0
 11
1392.574513
 21
1143.132857
 31
0.0
  0
LINE
  5
27A
330
6F
100
AcDbEntity
  8
A-0
  6
Continuous
 62
     4
100
AcDbLine
 10
1292.574513
 20
1110.524701
 30
0.0
 11
1292.574513
 21
1143.132857
 31
0.0
  0
TEXT
  5
27B
330
6F
100
AcDbEntity
  8
A-0
 62
     4
100
AcDbText
 10
1311.797
 20
1143.753
 30
0.0
 40
36.288
  1
100
100
AcDbText
  0
LINE
  5
27C
330
6F
100
AcDbEntity
  8
A-0
  6
Continuous
 62
     4
100
AcDbLine
 10
1292.574512603823
 20
1143.132856826734
 30
0.0
 11
1392.574512603824
 21
1143.132856826734
 31
0.0
  0
CIRCLE
  5
27D
330
6F
100
AcDbEntity
  8
A-0
  6
Continuous
 62
     4
100
AcDbCircle
 10
1292.574512603823
 20
1143.132856826734
 30
0.0
 40
0.25
  0
CIRCLE
  5
27E
330
6F
100
AcDbEntity
  8
A-0
  6
Continuous
 62
     4
100
AcDbCircle
 10
1292.574512603823
 20
1143.132856826734
 30
0.0
 40
0.1875
  0
CIRCLE
  5
27F
330
6F
100
AcDbEntity
  8
A-0
  6
Continuous
 62
     4
100
AcDbCircle
 10
1292.574512603823
 20
1143.132856826734
 30
0.0
 40
0.125
  0
CIRCLE
  5
280
330
6F
100
AcDbEntity
  8
A-0
  6
Continuous
 62
     4
100
AcDbCircle
 10
1292.574512603823
 20
1143.132856826734
 30
0.0
 40
0.0625
  0
CIRCLE
  5
281
330
6F
100
AcDbEntity
  8
A-0
  6
Continuous
 62
     4
100
AcDbCircle
 10
1392.574512603824
 20
1143.132856826734
 30
0.0
 40
0.25
  0
CIRCLE
  5
282
330
6F
100
AcDbEntity
  8
A-0
  6
Continuous
 62
     4
100
AcDbCircle
 10
1392.574512603824
 20
1143.132856826734
 30
0.0
 40
0.1875
  0
CIRCLE
  5
283
330
6F
100
AcDbEntity
  8
A-0
  6
Continuous
 62
     4
100
AcDbCircle
 10
1392.574512603824
 20
1143.132856826734
 30
0.0
 40
0.125
  0
CIRCLE
  5
284
330
6F
100
AcDbEntity
  8
A-0
  6
Continuous
 62
     4
100
AcDbCircle
 10
1392.574512603824
 20
1143.132856826734
 30
0.0
 40
0.0625
  0
LINE
  5
285
330
6F
100
AcDbEntity
  8
A-0
  6
Continuous
 62
     4
100
AcDbLine
 10
1392.574513
 20
1147.770813
 30
0.0
 11
1392.574513
 21
1143.132857
 31
0.0
  0
LINE
  5
286
330
6F
100
AcDbEntity
  8
A-0
  6
Continuous
 62
     4
100
AcDbLine
 10
1492.574513
 20
1110.524701
 30
0.0
 11
1492.574513
 21
1143.132857
 31
0.0
  0
TEXT
  5
287
330
6F
100
AcDbEntity
  8
A-0
 62
     4
100
AcDbText
 10
1411.797
 20
1143.753
 30
0.0
 40
36.288
  1
100
100
AcDbText
  0
LINE
  5
288
330
6F
100
AcDbEntity
  8
A-0
  6
Continuous
 62
     4
100
AcDbLine
 10
1492.574512603823
 20
1143.132856826734
 30
0.0
 11
1392.574512603824
 21
1143.132856826734
 31
0.0
  0
CIRCLE
  5
289
330
6F
100
AcDbEntity
  8
A-0
  6
Continuous
 62
     4
100
AcDbCircle
 10
1492.574512603823
 20
1143.132856826734
 30
0.0
 40
0.25
  0
CIRCLE
  5
28A
330
6F
100
AcDbEntity
  8
A-0
  6
Continuous
 62
     4
100
AcDbCircle
 10
1492.574512603823
 20
1143.132856826734
 30
0.0
 40
0.1875
  0
CIRCLE
  5
28B
330
6F
100
AcDbEntity
  8
A-0
  6
Continuous
 62
     4
100
AcDbCircle
 10
1492.574512603823
 20
1143.132856826734
 30
0.0
 40
0.125
  0
CIRCLE
  5
28C
330
6F
100
AcDbEntity
  8
A-0
  6
Continuous
 62
     4
100
AcDbCircle
 10
1492.574512603823
 20
1143.132856826734
 30
0.0
 40
0.0625
  0
CIRCLE
  5
28D
330
6F
100
AcDbEntity
  8
A-0
  6
Continuous
 62
     4
100
AcDbCircle
 10
1392.574512603824
 20
1143.132856826734
 30
0.0
 40
0.25
  0
CIRCLE
  5
28E
330
6F
100
AcDbEntity
  8
A-0
  6
Continuous
 62
     4
100
AcDbCircle
 10
1392.574512603824
 20
1143.132856826734
 30
0.0
 40
0.1875
  0
CIRCLE
  5
28F
330
6F
100
AcDbEntity
  8
A-0
  6
Continuous
 62
     4
100
AcDbCircle
 10
1392.574512603824
 20
1143.132856826734
 30
0.0
 40
0.125
  0
CIRCLE
  5
290
330
6F
100
AcDbEntity
  8
A-0
  6
Continuous
 62
     4
100
AcDbCircle
 10
1392.574512603824
 20
1143.132856826734
 30
0.0
 40
0.0625
  0
LINE
  5
291
330
6F
100
AcDbEntity
  8
B-0
  6
CENTER
 62
     6
100
AcDbLine
 10
1574.574513
 20
1296.369099
 30
0.0
 11
1573.574513
 21
568.212922
 31
0.0
  0
LINE
  5
292
330
6F
100
AcDbEntity
  8
3-0
  6
Continuous
 62
     7
100
AcDbLine
 10
1771.074513
 20
1369.052073
 30
0.0
 11
1771.074513
 21
594.0520729999999
 31
0.0
  0
LINE
  5
293
330
6F
100
AcDbEntity
  8
A-0
  6
Continuous
 62
     4
100
AcDbLine
 10
1609.830068
 20
1048.052073
 30
0.0
 11
1675.009247
 21
1048.052073
 31
0.0
  0
LINE
  5
294
330
6F
100
AcDbEntity
  8
A-0
  6
Continuous
 62
     4
100
AcDbLine
 10
1698.564195
 20
594.0520729999999
 30
0.0
 11
1675.009247
 21
594.0520729999999
 31
0.0
  0
TEXT
  5
295
330
6F
100
AcDbEntity
  8
A-0
 62
     4
100
AcDbText
 10
1674.389
 20
787.452
 30
0.0
 40
36.288
  1
454
 50
90.0
100
AcDbText
  0
LINE
  5
296
330
6F
100
AcDbEntity
  8
A-0
  6
Continuous
 62
     4
100
AcDbLine
 10
1675.00924716993
 20
594.0520726866159
 30
0.0
 11
1675.00924716993
 21
1048.052072686616
 31
0.0
  0
CIRCLE
  5
297
330
6F
100
AcDbEntity
  8
A-0
  6
Continuous
 62
     4
100
AcDbCircle
 10
1675.00924716993
 20
594.0520726866159
 30
0.0
 40
0.25
  0
CIRCLE
  5
298
330
6F
100
AcDbEntity
  8
A-0
  6
Continuous
 62
     4
100
AcDbCircle
 10
1675.00924716993
 20
594.0520726866159
 30
0.0
 40
0.1875
  0
CIRCLE
  5
299
330
6F
100
AcDbEntity
  8
A-0
  6
Continuous
 62
     4
100
AcDbCircle
 10
1675.00924716993
 20
594.0520726866159
 30
0.0
 40
0.125
  0
CIRCLE
  5
29A
330
6F
100
AcDbEntity
  8
A-0
  6
Continuous
 62
     4
100
AcDbCircle
 10
1675.00924716993
 20
594.0520726866159
 30
0.0
 40
0.0625
  0
CIRCLE
  5
29B
330
6F
100
AcDbEntity
  8
A-0
  6
Continuous
 62
     4
100
AcDbCircle
 10
1675.00924716993
 20
1048.052072686616
 30
0.0
 40
0.25
  0
CIRCLE
  5
29C
330
6F
100
AcDbEntity
  8
A-0
  6
Continuous
 62
     4
100
AcDbCircle
 10
1675.00924716993
 20
1048.052072686616
 30
0.0
 40
0.1875
  0
CIRCLE
  5
29D
330
6F
100
AcDbEntity
  8
A-0
  6
Continuous
 62
     4
100
AcDbCircle
 10
1675.00924716993
 20
1048.052072686616
 30
0.0
 40
0.125
  0
CIRCLE
  5
29E
330
6F
100
AcDbEntity
  8
A-0
  6
Continuous
 62
     4
100
AcDbCircle
 10
1675.00924716993
 20
1048.052072686616
 30
0.0
 40
0.0625
  0
LINE
  5
29F
330
6F
100
AcDbEntity
  8
3-0
  6
DASHED2
 62
     7
100
AcDbLine
 10
1589.830068
 20
1048.052073
 30
0.0
 11
1588.574513
 21
594.0520729999999
 31
0.0
  0
LINE
  5
2A0
330
6F
100
AcDbEntity
  8
3-0
  6
DASHED2
 62
     7
100
AcDbLine
 10
1559.830068
 20
1048.052073
 30
0.0
 11
1558.574513
 21
594.0520729999999
 31
0.0
  0
LINE
  5
2A1
330
6F
100
AcDbEntity
  8
A-0
  6
Continuous
 62
     4
100
AcDbLine
 10
1472.574513
 20
994.0520729999999
 30
0.0
 11
1445.038143
 21
994.0520729999999
 31
0.0
  0
LINE
  5
2A2
330
6F
100
AcDbEntity
  8
A-0
  6
Continuous
 62
     4
100
AcDbLine
 10
1538.574513
 20
594.0520729999999
 30
0.0
 11
1445.038143
 21
594.0520729999999
 31
0.0
  0
TEXT
  5
2A3
330
6F
100
AcDbEntity
  8
A-0
 62
     4
100
AcDbText
 10
1441.487
 20
738.052
 30
0.0
 40
36.288
  1
(400)
 50
90.0
100
AcDbText
  0
LINE
  5
2A4
330
6F
100
AcDbEntity
  8
A-0
  6
Continuous
 62
     4
100
AcDbLine
 10
1445.038142793244
 20
594.0520726866159
 30
0.0
 11
1445.038142793244
 21
994.052072686612
 31
0.0
  0
CIRCLE
  5
2A5
330
6F
100
AcDbEntity
  8
A-0
  6
Continuous
 62
     4
100
AcDbCircle
 10
1445.038142793244
 20
594.0520726866159
 30
0.0
 40
0.25
  0
CIRCLE
  5
2A6
330
6F
100
AcDbEntity
  8
A-0
  6
Continuous
 62
     4
100
AcDbCircle
 10
1445.038142793244
 20
594.0520726866159
 30
0.0
 40
0.1875
  0
CIRCLE
  5
2A7
330
6F
100
AcDbEntity
  8
A-0
  6
Continuous
 62
     4
100
AcDbCircle
 10
1445.038142793244
 20
594.0520726866159
 30
0.0
 40
0.125
  0
CIRCLE
  5
2A8
330
6F
100
AcDbEntity
  8
A-0
  6
Continuous
 62
     4
100
AcDbCircle
 10
1445.038142793244
 20
594.0520726866159
 30
0.0
 40
0.0625
  0
CIRCLE
  5
2A9
330
6F
100
AcDbEntity
  8
A-0
  6
Continuous
 62
     4
100
AcDbCircle
 10
1445.038142793244
 20
994.052072686612
 30
0.0
 40
0.25
  0
CIRCLE
  5
2AA
330
6F
100
AcDbEntity
  8
A-0
  6
Continuous
 62
     4
100
AcDbCircle
 10
1445.038142793244
 20
994.052072686612
 30
0.0
 40
0.1875
  0
CIRCLE
  5
2AB
330
6F
100
AcDbEntity
  8
A-0
  6
Continuous
 62
     4
100
AcDbCircle
 10
1445.038142793244
 20
994.052072686612
 30
0.0
 40
0.125
  0
CIRCLE
  5
2AC
330
6F
100
AcDbEntity
  8
A-0
  6
Continuous
 62
     4
100
AcDbCircle
 10
1445.038142793244
 20
994.052072686612
 30
0.0
 40
0.0625
  0
LINE
  5
2AD
330
6F
100
AcDbEntity
  8
3-0
  6
Continuous
 62
     7
100
AcDbLine
 10
1771.074513
 20
594.0520729999999
 30
0.0
 11
676.074513
 21
594.0520729999999
 31
0.0
  0
LINE
  5
2AE
330
6F
100
AcDbEntity
  8
3-0
  6
DASHED2
 62
     7
100
AcDbLine
 10
987.0745130000001
 20
699.052073
 30
0.0
 11
987.0745130000001
 21
820.8839329999999
 31
0.0
  0
LINE
  5
2AF
330
6F
100
AcDbEntity
  8
3-0
  6
DASHED2
 62
     7
100
AcDbLine
 10
969.574513
 20
699.052073
 30
0.0
 11
969.574513
 21
820.8839329999999
 31
0.0
  0
LINE
  5
2B0
330
6F
100
AcDbEntity
  8
3-0
  6
DASHED2
 62
     7
100
AcDbLine
 10
691.074513
 20
699.052073
 30
0.0
 11
691.074513
 21
820.8839329999999
 31
0.0
  0
CIRCLE
  5
2B1
330
6F
100
AcDbEntity
  8
3-0
  6
Continuous
 62
     7
100
AcDbCircle
 10
1292.574513
 20
994.0520729999999
 30
0.0
 40
20.0
  0
LINE
  5
2B2
330
6F
100
AcDbEntity
  8
B-0
  6
CENTER
 62
     6
100
AcDbLine
 10
1439.890416
 20
994.0520729999999
 30
0.0
 11
1492.574513
 21
994.0520729999999
 31
0.0
  0
LINE
  5
2B3
330
6F
100
AcDbEntity
  8
3-0
  6
DASHED2
 62
     7
100
AcDbLine
 10
1756.074513
 20
699.052073
 30
0.0
 11
1756.074513
 21
820.8839329999999
 31
0.0
  0
CIRCLE
  5
2B4
330
6F
100
AcDbEntity
  8
3-0
  6
Continuous
 62
     7
100
AcDbCircle
 10
1492.574513
 20
994.0520729999999
 30
0.0
 40
20.0
  0
LINE
  5
2B5
330
6F
100
AcDbEntity
  8
3-0
  6
Continuous
 62
     7
100
AcDbLine
 10
1471.361309
 20
972.838869
 30
0.0
 11
1478.432377
 21
979.909937
 31
0.0
  0
LINE
  5
2B6
330
6F
100
AcDbEntity
  8
3-0
  6
Continuous
 62
     7
100
AcDbLine
 10
1513.787716
 20
972.838869
 30
0.0
 11
1506.716648
 21
979.909937
 31
0.0
  0
LINE
  5
2B7
330
6F
100
AcDbEntity
  8
3-0
  6
Continuous
 62
     7
100
AcDbLine
 10
1471.361309
 20
1015.265276
 30
0.0
 11
1478.432377
 21
1008.194208
 31
0.0
  0
LINE
  5
2B8
330
6F
100
AcDbEntity
  8
3-0
  6
Continuous
 62
     7
100
AcDbLine
 10
1513.787716
 20
1015.265276
 30
0.0
 11
1506.716648
 21
1008.194208
 31
0.0
  0
LINE
  5
2B9
330
6F
100
AcDbEntity
  8
3-0
  6
Continuous
 62
     7
100
AcDbLine
 10
1077.940598
 20
1601.005459
 30
0.0
 11
958.5745130000001
 21
1484.052073
 31
0.0
  0
LINE
  5
2BA
330
6F
100
AcDbEntity
  8
3-0
  6
DASHED2
 62
     7
100
AcDbLine
 10
941.074513
 20
1507.792204
 30
0.0
 11
941.074513
 21
1585.175118
 31
0.0
  0
LINE
  5
2BB
330
6F
100
AcDbEntity
  8
3-0
  6
DASHED2
 62
     7
100
AcDbLine
 10
976.074513
 20
1507.792204
 30
0.0
 11
976.074513
 21
1585.175118
 31
0.0
  0
LINE
  5
2BC
330
6F
100
AcDbEntity
  8
B-0
  6
CENTER
 62
     6
100
AcDbLine
 10
958.5745130000001
 20
1604.858569
 30
0.0
 11
958.5745130000001
 21
1441.338847
 31
0.0
  0
LINE
  5
2BD
330
6F
100
AcDbEntity
  8
3-0
  6
DASHED2
 62
     7
100
AcDbLine
 10
1420.074512603824
 20
1488.183696686616
 30
0.0
 11
1420.074512603824
 21
1494.447506686616
 31
0.0
  0
LINE
  5
2BE
330
6F
100
AcDbEntity
  8
3-0
  6
DASHED2
 62
     7
100
AcDbLine
 10
1365.074512603824
 20
1496.558670686616
 30
0.0
 11
1365.074512603824
 21
1488.183696686616
 31
0.0
  0
LINE
  5
2BF
330
6F
100
AcDbEntity
  8
3-0
  6
DASHED2
 62
     7
100
AcDbLine
 10
1420.074512603824
 20
1459.450482686616
 30
0.0
 11
1636.227037603824
 21
1567.698223686616
 31
0.0
  0
LINE
  5
2C0
330
6F
100
AcDbEntity
  8
3-0
  6
DASHED2
 62
     7
100
AcDbLine
 10
1420.074512603824
 20
1448.266592686616
 30
0.0
 11
1632.133308603824
 21
1554.464221686616
 31
0.0
  0
LINE
  5
2C1
330
6F
100
AcDbEntity
  8
3-0
  6
DASHED2
 62
     7
100
AcDbLine
 10
1420.074512603824
 20
1484.052072686616
 30
0.0
 11
1420.074512603824
 21
1394.052072686616
 31
0.0
  0
LINE
  5
2C2
330
6F
100
AcDbEntity
  8
3-0
  6
DASHED2
 62
     7
100
AcDbLine
 10
1365.074512603824
 20
1464.052072686616
 30
0.0
 11
1420.074512603824
 21
1464.052072686616
 31
0.0
  0
LINE
  5
2C3
330
6F
100
AcDbEntity
  8
3-0
  6
DASHED2
 62
     7
100
AcDbLine
 10
1365.074512603824
 20
1484.052072686616
 30
0.0
 11
1420.074512603824
 21
1484.052072686616
 31
0.0
  0
LINE
  5
2C4
330
6F
100
AcDbEntity
  8
3-0
  6
DASHED2
 62
     7
100
AcDbLine
 10
1365.074512603824
 20
1484.052072686616
 30
0.0
 11
1365.074512603824
 21
1394.052072686616
 31
0.0
  0
LINE
  5
2C5
330
6F
100
AcDbEntity
  8
3-0
  6
DASHED2
 62
     7
100
AcDbLine
 10
1365.074512603824
 20
1488.183696686616
 30
0.0
 11
1420.074512603824
 21
1488.183696686616
 31
0.0
  0
LINE
  5
2C6
330
6F
100
AcDbEntity
  8
3-0
  6
DASHED2
 62
     7
100
AcDbLine
 10
1365.074512603824
 20
1394.052072686616
 30
0.0
 11
1420.074512603824
 21
1394.052072686616
 31
0.0
  0
ARC
  5
2C7
330
6F
100
AcDbEntity
  8
3-0
  6
DASHED2
 62
     7
100
AcDbCircle
 10
1479.127061603824
 20
1407.445852686616
 30
0.0
 40
115.364508
100
AcDbArc
 50
80.09600000000004
 51
114.174
  0
LINE
  5
2C8
330
6F
100
AcDbEntity
  8
3-0
  6
DASHED2
 62
     7
100
AcDbLine
 10
1442.646604603823
 20
1529.306072686616
 30
0.0
 11
1511.535357603824
 21
1529.306072686616
 31
0.0
  0
LINE
  5
2C9
330
6F
100
AcDbEntity
  8
3-0
  6
DASHED2
 62
     7
100
AcDbLine
 10
1505.461175603824
 20
1519.973327686616
 30
0.0
 11
1498.968954603824
 21
1521.091217686616
 31
0.0
  0
ARC
  5
2CA
330
6F
100
AcDbEntity
  8
3-0
  6
DASHED2
 62
     7
100
AcDbCircle
 10
1507.158094603824
 20
1529.828298686616
 30
0.0
 40
10.0
100
AcDbArc
 50
260.23
 51
310.455
  0
ARC
  5
2CB
330
6F
100
AcDbEntity
  8
3-0
  6
DASHED2
 62
     7
100
AcDbCircle
 10
1511.535357603824
 20
1527.306072686616
 30
0.0
 40
2.0
100
AcDbArc
 50
70.295
 51
90.0
  0
LINE
  5
2CC
330
6F
100
AcDbEntity
  8
3-0
  6
DASHED2
 62
     7
100
AcDbLine
 10
1515.726884603824
 20
1527.929279686616
 30
0.0
 11
1512.209711603824
 21
1529.188954686616
 31
0.0
  0
LINE
  5
2CD
330
6F
100
AcDbEntity
  8
3-0
  6
DASHED2
 62
     7
100
AcDbLine
 10
1516.350224603824
 20
1524.524558686616
 30
0.0
 11
1513.646562603824
 21
1522.219107686616
 31
0.0
  0
ARC
  5
2CE
330
6F
100
AcDbEntity
  8
3-0
  6
DASHED2
 62
     7
100
AcDbCircle
 10
1515.052530603824
 20
1526.046397686616
 30
0.0
 40
2.0
100
AcDbArc
 50
310.455
 51
70.295
  0
LINE
  5
2CF
330
6F
100
AcDbEntity
  8
3-0
  6
DASHED2
 62
     7
100
AcDbLine
 10
1659.662222603824
 20
1551.052072686616
 30
0.0
 11
1645.486802603824
 21
1551.052072686616
 31
0.0
  0
LINE
  5
2D0
330
6F
100
AcDbEntity
  8
3-0
  6
DASHED2
 62
     7
100
AcDbLine
 10
1645.486802603824
 20
1556.052072686616
 30
0.0
 11
1645.486802603824
 21
1551.052072686616
 31
0.0
  0
LINE
  5
2D1
330
6F
100
AcDbEntity
  8
3-0
  6
DASHED2
 62
     7
100
AcDbLine
 10
1659.662222603824
 20
1556.052072686616
 30
0.0
 11
1659.662222603824
 21
1551.052072686616
 31
0.0
  0
LINE
  5
2D2
330
6F
100
AcDbEntity
  8
3-0
  6
DASHED2
 62
     7
100
AcDbLine
 10
1662.806722603823
 20
1564.286074686616
 30
0.0
 11
1662.806722603823
 21
1556.052072686616
 31
0.0
  0
ARC
  5
2D3
330
6F
100
AcDbEntity
  8
3-0
  6
DASHED2
 62
     7
100
AcDbCircle
 10
1657.806722603824
 20
1564.286074686616
 30
0.0
 40
5.0
100
AcDbArc
 50
0.0
 51
90.0
  0
LINE
  5
2D4
330
6F
100
AcDbEntity
  8
3-0
  6
DASHED2
 62
     7
100
AcDbLine
 10
1662.806722603823
 20
1556.052072686616
 30
0.0
 11
1638.850023603824
 21
1556.052072686616
 31
0.0
  0
ARC
  5
2D5
330
6F
100
AcDbEntity
  8
3-0
  6
DASHED2
 62
     7
100
AcDbCircle
 10
1638.850023603824
 20
1541.052072686616
 30
0.0
 40
15.0
100
AcDbArc
 50
90.0
 51
116.6009999999999
  0
LINE
  5
2D6
330
6F
100
AcDbEntity
  8
3-0
  6
DASHED2
 62
     7
100
AcDbLine
 10
1657.806722603824
 20
1569.286074686616
 30
0.0
 11
1642.943752603824
 21
1569.286074686616
 31
0.0
  0
ARC
  5
2D7
330
6F
100
AcDbEntity
  8
3-0
  6
DASHED2
 62
     7
100
AcDbCircle
 10
1642.943752603824
 20
1554.286074686616
 30
0.0
 40
15.0
100
AcDbArc
 50
90.0
 51
116.6009999999999
  0
ARC
  5
2D8
330
6F
100
AcDbEntity
  8
3-0
  6
DASHED2
 62
     7
100
AcDbCircle
 10
1444.202050603824
 20
1411.457788686616
 30
0.0
 40
117.858548
100
AcDbArc
 50
90.75599999999999
 51
131.058
  0
ARC
  5
2D9
330
6F
100
AcDbEntity
  8
3-0
  6
DASHED2
 62
     7
100
AcDbCircle
 10
1370.074512603824
 20
1496.558670686616
 30
0.0
 40
5.0
100
AcDbArc
 50
131.058
 51
180.0
  0
ARC
  5
2DA
330
6F
100
AcDbEntity
  8
3-0
  6
DASHED2
 62
     7
100
AcDbCircle
 10
1447.322817603823
 20
1489.756029686616
 30
0.0
 40
27.649233
100
AcDbArc
 50
123.943
 51
170.231
  0
LINE
  5
2DB
330
6F
100
AcDbEntity
  8
3-0
  6
Continuous
 62
     7
100
AcDbLine
 10
1773.574513
 20
1484.052073
 30
0.0
 11
673.574513
 21
1484.052073
 31
0.0
  0
LINE
  5
2DC
330
6F
100
AcDbEntity
  8
3-0
  6
DASHED2
 62
     7
100
AcDbLine
 10
701.0745126038271
 20
1394.052072686616
 30
0.0
 11
701.0745126038271
 21
1389.052072686616
 31
0.0
  0
LINE
  5
2DD
330
6F
100
AcDbEntity
  8
3-0
  6
DASHED2
 62
     7
100
AcDbLine
 10
701.0745126038271
 20
1389.052072686616
 30
0.0
 11
1055.574512603824
 21
1389.052072686616
 31
0.0
  0
ARC
  5
2DE
330
6F
100
AcDbEntity
  8
3-0
  6
DASHED2
 62
     7
100
AcDbCircle
 10
1055.574513
 20
1384.052073
 30
0.0
 40
5.0
100
AcDbArc
 50
0.0000000002870504
 51
89.99999999999495
  0
LINE
  5
2DF
330
6F
100
AcDbEntity
  8
3-0
  6
DASHED2
 62
     7
100
AcDbLine
 10
1060.574512603823
 20
1384.052072686616
 30
0.0
 11
1060.574512603822
 21
1256.052072686616
 31
0.0
  0
ARC
  5
2E0
330
6F
100
AcDbEntity
  8
3-0
  6
DASHED2
 62
     7
100
AcDbCircle
 10
1080.574513
 20
1256.052073
 30
0.0
 40
20.0
100
AcDbArc
 50
180.0000000002909
 51
269.999999999998
  0
LINE
  5
2E1
330
6F
100
AcDbEntity
  8
3-0
  6
DASHED2
 62
     7
100
AcDbLine
 10
1080.574512603821
 20
1236.052072686616
 30
0.0
 11
1704.574512603827
 21
1236.052072686616
 31
0.0
  0
ARC
  5
2E2
330
6F
100
AcDbEntity
  8
3-0
  6
DASHED2
 62
     7
100
AcDbCircle
 10
1704.574513
 20
1256.052073
 30
0.0
 40
20.0
100
AcDbArc
 50
270.0000000000009
 51
359.999999999712
  0
LINE
  5
2E3
330
6F
100
AcDbEntity
  8
3-0
  6
DASHED2
 62
     7
100
AcDbLine
 10
1724.574512603827
 20
1256.052072686618
 30
0.0
 11
1724.574512603818
 21
1384.052072686616
 31
0.0
  0
ARC
  5
2E4
330
6F
100
AcDbEntity
  8
3-0
  6
DASHED2
 62
     7
100
AcDbCircle
 10
1729.574513
 20
1384.052073
 30
0.0
 40
5.0
100
AcDbArc
 50
89.99999999999905
 51
179.9999999997089
  0
LINE
  5
2E5
330
6F
100
AcDbEntity
  8
3-0
  6
DASHED2
 62
     7
100
AcDbLine
 10
1729.574512603818
 20
1389.052072686616
 30
0.0
 11
1753.574512603825
 21
1389.052072686616
 31
0.0
  0
LINE
  5
2E6
330
6F
100
AcDbEntity
  8
3-0
  6
DASHED2
 62
     7
100
AcDbLine
 10
1753.574512603825
 20
1389.052072686616
 30
0.0
 11
1753.574512603827
 21
1394.052072686616
 31
0.0
  0
LINE
  5
2E7
330
6F
100
AcDbEntity
  8
3-0
  6
Continuous
 62
     7
100
AcDbLine
 10
1773.574513
 20
1394.052073
 30
0.0
 11
673.574513
 21
1394.052073
 31
0.0
  0
LINE
  5
2E8
330
6F
100
AcDbEntity
  8
3-0
  6
Continuous
 62
     7
100
AcDbLine
 10
1773.574513
 20
1369.052073
 30
0.0
 11
673.574513
 21
1369.052073
 31
0.0
  0
LINE
  5
2E9
330
6F
100
AcDbEntity
  8
3-0
  6
Continuous
 62
     7
100
AcDbLine
 10
958.5745130000001
 20
1484.052073
 30
0.0
 11
968.940714
 21
1514.867966
 31
0.0
  0
LINE
  5
2EA
330
6F
100
AcDbEntity
  8
3-0
  6
Continuous
 62
     7
100
AcDbLine
 10
1773.574513
 20
1369.052073
 30
0.0
 11
1773.574513
 21
1484.052073
 31
0.0
  0
LINE
  5
2EB
330
6F
100
AcDbEntity
  8
3-0
  6
Continuous
 62
     7
100
AcDbLine
 10
1435.794722
 20
1601.005459
 30
0.0
 11
1077.940598
 21
1601.005459
 31
0.0
  0
LINE
  5
2EC
330
6F
100
AcDbEntity
  8
3-0
  6
DASHED2
 62
     7
100
AcDbLine
 10
976.074513
 20
1585.175118
 30
0.0
 11
941.074513
 21
1585.175118
 31
0.0
  0
LINE
  5
2ED
330
6F
100
AcDbEntity
  8
3-0
  6
DASHED2
 62
     7
100
AcDbLine
 10
1511.065105869836
 20
1142.052073090475
 30
0.0
 11
1511.065105869836
 21
1088.952073090475
 31
0.0
  0
ARC
  5
2EE
330
6F
100
AcDbEntity
  8
3-0
  6
DASHED2
 62
     7
100
AcDbCircle
 10
1521.065106
 20
1088.952073
 30
0.0
 40
10.0
100
AcDbArc
 50
180.0000000002949
 51
270.000000000003
  0
LINE
  5
2EF
330
6F
100
AcDbEntity
  8
3-0
  6
DASHED2
 62
     7
100
AcDbLine
 10
1521.065105869837
 20
1078.952073090475
 30
0.0
 11
1627.917792469385
 21
1078.952073090475
 31
0.0
  0
ARC
  5
2F0
330
6F
100
AcDbEntity
  8
3-0
  6
DASHED2
 62
     7
100
AcDbCircle
 10
1627.917792
 20
1088.952073
 30
0.0
 40
10.0
100
AcDbArc
 50
270.0
 51
359.999999999708
  0
LINE
  5
2F1
330
6F
100
AcDbEntity
  8
3-0
  6
DASHED2
 62
     7
100
AcDbLine
 10
1637.917792469385
 20
1088.952073090475
 30
0.0
 11
1637.917792469385
 21
1142.052073090475
 31
0.0
  0
LINE
  5
2F2
330
6F
100
AcDbEntity
  8
3-0
  6
DASHED2
 62
     7
100
AcDbLine
 10
1604.491449169609
 20
1078.952073090475
 30
0.0
 11
1604.491449169611
 21
1048.052072686616
 31
0.0
  0
LINE
  5
2F3
330
6F
100
AcDbEntity
  8
3-0
  6
DASHED2
 62
     7
100
AcDbLine
 10
1604.491449169611
 20
1048.052072686616
 30
0.0
 11
1544.491449169609
 21
1048.052072686616
 31
0.0
  0
LINE
  5
2F4
330
6F
100
AcDbEntity
  8
3-0
  6
DASHED2
 62
     7
100
AcDbLine
 10
1544.491449169609
 20
1048.052072686616
 30
0.0
 11
1544.491449169609
 21
1078.952073090475
 31
0.0
  0
LINE
  5
2F5
330
6F
100
AcDbEntity
  8
3-0
  6
DASHED2
 62
     7
100
AcDbLine
 10
1505.580248
 20
1208.850549
 30
0.0
 11
1643.40265
 21
1208.850549
 31
0.0
  0
LINE
  5
2F6
330
6F
100
AcDbEntity
  8
3-0
  6
DASHED2
 62
     7
100
AcDbLine
 10
1496.491449
 20
1213.850549
 30
0.0
 11
1652.491449
 21
1213.850549
 31
0.0
  0
LINE
  5
2F7
330
6F
100
AcDbEntity
  8
3-0
  6
DASHED2
 62
     7
100
AcDbLine
 10
1484.491449
 20
1231.052073
 30
0.0
 11
1664.491449
 21
1231.052073
 31
0.0
  0
LINE
  5
2F8
330
6F
100
AcDbEntity
  8
3-0
  6
DASHED2
 62
     7
100
AcDbLine
 10
1505.580248026379
 20
1142.052073090475
 30
0.0
 11
1643.402650312841
 21
1142.052073090475
 31
0.0
  0
LINE
  5
2F9
330
6F
100
AcDbEntity
  8
3-0
  6
DASHED2
 62
     7
100
AcDbLine
 10
1652.491449
 20
1213.850549
 30
0.0
 11
1643.40265
 21
1208.850549
 31
0.0
  0
LINE
  5
2FA
330
6F
100
AcDbEntity
  8
3-0
  6
DASHED2
 62
     7
100
AcDbLine
 10
1643.40265
 20
1208.850549
 30
0.0
 11
1643.40265
 21
1144.266839
 31
0.0
  0
LINE
  5
2FB
330
6F
100
AcDbEntity
  8
3-0
  6
DASHED2
 62
     7
100
AcDbLine
 10
1662.243793
 20
1231.052073
 30
0.0
 11
1662.243793
 21
1217.052073
 31
0.0
  0
LINE
  5
2FC
330
6F
100
AcDbEntity
  8
3-0
  6
DASHED2
 62
     7
100
AcDbLine
 10
1662.243793
 20
1217.052073
 30
0.0
 11
1652.491449
 21
1217.052073
 31
0.0
  0
LINE
  5
2FD
330
6F
100
AcDbEntity
  8
3-0
  6
DASHED2
 62
     7
100
AcDbLine
 10
1652.491449
 20
1231.052073
 30
0.0
 11
1652.491449
 21
1213.850549
 31
0.0
  0
LINE
  5
2FE
330
6F
100
AcDbEntity
  8
3-0
  6
DASHED2
 62
     7
100
AcDbLine
 10
1664.491449
 20
1236.052073
 30
0.0
 11
1664.491449
 21
1231.052073
 31
0.0
  0
LINE
  5
2FF
330
6F
100
AcDbEntity
  8
3-0
  6
DASHED2
 62
     7
100
AcDbLine
 10
1496.491449
 20
1213.850549
 30
0.0
 11
1505.580248
 21
1208.850549
 31
0.0
  0
LINE
  5
300
330
6F
100
AcDbEntity
  8
3-0
  6
DASHED2
 62
     7
100
AcDbLine
 10
1505.580248
 20
1208.850549
 30
0.0
 11
1505.580248
 21
1144.266839
 31
0.0
  0
LINE
  5
301
330
6F
100
AcDbEntity
  8
3-0
  6
DASHED2
 62
     7
100
AcDbLine
 10
1486.739106
 20
1231.052073
 30
0.0
 11
1486.739106
 21
1217.052073
 31
0.0
  0
LINE
  5
302
330
6F
100
AcDbEntity
  8
3-0
  6
DASHED2
 62
     7
100
AcDbLine
 10
1486.739106
 20
1217.052073
 30
0.0
 11
1496.491449
 21
1217.052073
 31
0.0
  0
LINE
  5
303
330
6F
100
AcDbEntity
  8
3-0
  6
DASHED2
 62
     7
100
AcDbLine
 10
1496.491449
 20
1231.052073
 30
0.0
 11
1496.491449
 21
1213.850549
 31
0.0
  0
LINE
  5
304
330
6F
100
AcDbEntity
  8
3-0
  6
DASHED2
 62
     7
100
AcDbLine
 10
1484.491449
 20
1236.052073
 30
0.0
 11
1484.491449
 21
1231.052073
 31
0.0
  0
TEXT
  5
305
330
6F
100
AcDbEntity
  8
D-0
 62
     5
100
AcDbText
 10
1083.665
 20
1615.842
 30
0.0
 40
25.92
  1
背面桟木位置(配管注意）
100
AcDbText
  0
LINE
  5
306
330
6F
100
AcDbEntity
  8
A-0
  6
Continuous
 62
     4
100
AcDbLine
 10
673.574513
 20
1504.052073
 30
0.0
 11
673.574513
 21
1605.927073
 31
0.0
  0
LINE
  5
307
330
6F
100
AcDbEntity
  8
A-0
  6
Continuous
 62
     4
100
AcDbLine
 10
958.5745130000001
 20
1605.175118
 30
0.0
 11
958.5745130000001
 21
1605.927073
 31
0.0
  0
TEXT
  5
308
330
6F
100
AcDbEntity
  8
A-0
 62
     4
100
AcDbText
 10
785.297
 20
1606.547
 30
0.0
 40
36.288
  1
285
100
AcDbText
  0
LINE
  5
309
330
6F
100
AcDbEntity
  8
A-0
  6
Continuous
 62
     4
100
AcDbLine
 10
958.5745126038251
 20
1605.927072686625
 30
0.0
 11
673.5745126038259
 21
1605.927072686625
 31
0.0
  0
CIRCLE
  5
30A
330
6F
100
AcDbEntity
  8
A-0
  6
Continuous
 62
     4
100
AcDbCircle
 10
958.5745126038251
 20
1605.927072686625
 30
0.0
 40
0.25
  0
CIRCLE
  5
30B
330
6F
100
AcDbEntity
  8
A-0
  6
Continuous
 62
     4
100
AcDbCircle
 10
958.5745126038251
 20
1605.927072686625
 30
0.0
 40
0.1875
  0
CIRCLE
  5
30C
330
6F
100
AcDbEntity
  8
A-0
  6
Continuous
 62
     4
100
AcDbCircle
 10
958.5745126038251
 20
1605.927072686625
 30
0.0
 40
0.125
  0
CIRCLE
  5
30D
330
6F
100
AcDbEntity
  8
A-0
  6
Continuous
 62
     4
100
AcDbCircle
 10
958.5745126038251
 20
1605.927072686625
 30
0.0
 40
0.0625
  0
CIRCLE
  5
30E
330
6F
100
AcDbEntity
  8
A-0
  6
Continuous
 62
     4
100
AcDbCircle
 10
673.5745126038259
 20
1605.927072686625
 30
0.0
 40
0.25
  0
CIRCLE
  5
30F
330
6F
100
AcDbEntity
  8
A-0
  6
Continuous
 62
     4
100
AcDbCircle
 10
673.5745126038259
 20
1605.927072686625
 30
0.0
 40
0.1875
  0
CIRCLE
  5
310
330
6F
100
AcDbEntity
  8
A-0
  6
Continuous
 62
     4
100
AcDbCircle
 10
673.5745126038259
 20
1605.927072686625
 30
0.0
 40
0.125
  0
CIRCLE
  5
311
330
6F
100
AcDbEntity
  8
A-0
  6
Continuous
 62
     4
100
AcDbCircle
 10
673.5745126038259
 20
1605.927072686625
 30
0.0
 40
0.0625
  0
LINE
  5
312
330
6F
100
AcDbEntity
  8
A-0
  6
Continuous
 62
     4
100
AcDbLine
 10
673.574513
 20
1504.052073
 30
0.0
 11
673.574513
 21
1705.927073
 31
0.0
  0
LINE
  5
313
330
6F
100
AcDbEntity
  8
A-0
  6
Continuous
 62
     4
100
AcDbLine
 10
1773.574513
 20
1504.052073
 30
0.0
 11
1773.574513
 21
1705.927073
 31
0.0
  0
TEXT
  5
314
330
6F
100
AcDbEntity
  8
A-0
 62
     4
100
AcDbText
 10
1181.597
 20
1706.547
 30
0.0
 40
36.288
  1
1100
100
AcDbText
  0
LINE
  5
315
330
6F
100
AcDbEntity
  8
A-0
  6
Continuous
 62
     4
100
AcDbLine
 10
1773.574512603826
 20
1705.927072686625
 30
0.0
 11
673.5745126038259
 21
1705.927072686625
 31
0.0
  0
CIRCLE
  5
316
330
6F
100
AcDbEntity
  8
A-0
  6
Continuous
 62
     4
100
AcDbCircle
 10
1773.574512603826
 20
1705.927072686625
 30
0.0
 40
0.25
  0
CIRCLE
  5
317
330
6F
100
AcDbEntity
  8
A-0
  6
Continuous
 62
     4
100
AcDbCircle
 10
1773.574512603826
 20
1705.927072686625
 30
0.0
 40
0.1875
  0
CIRCLE
  5
318
330
6F
100
AcDbEntity
  8
A-0
  6
Continuous
 62
     4
100
AcDbCircle
 10
1773.574512603826
 20
1705.927072686625
 30
0.0
 40
0.125
  0
CIRCLE
  5
319
330
6F
100
AcDbEntity
  8
A-0
  6
Continuous
 62
     4
100
AcDbCircle
 10
1773.574512603826
 20
1705.927072686625
 30
0.0
 40
0.0625
  0
CIRCLE
  5
31A
330
6F
100
AcDbEntity
  8
A-0
  6
Continuous
 62
     4
100
AcDbCircle
 10
673.5745126038259
 20
1705.927072686625
 30
0.0
 40
0.25
  0
CIRCLE
  5
31B
330
6F
100
AcDbEntity
  8
A-0
  6
Continuous
 62
     4
100
AcDbCircle
 10
673.5745126038259
 20
1705.927072686625
 30
0.0
 40
0.1875
  0
CIRCLE
  5
31C
330
6F
100
AcDbEntity
  8
A-0
  6
Continuous
 62
     4
100
AcDbCircle
 10
673.5745126038259
 20
1705.927072686625
 30
0.0
 40
0.125
  0
CIRCLE
  5
31D
330
6F
100
AcDbEntity
  8
A-0
  6
Continuous
 62
     4
100
AcDbCircle
 10
673.5745126038259
 20
1705.927072686625
 30
0.0
 40
0.0625
  0
LINE
  5
31E
330
6F
100
AcDbEntity
  8
A-0
  6
Continuous
 62
     4
100
AcDbLine
 10
1791.074513
 20
594.0520729999999
 30
0.0
 11
1921.074513
 21
594.0520729999999
 31
0.0
  0
LINE
  5
31F
330
6F
100
AcDbEntity
  8
A-0
  6
Continuous
 62
     4
100
AcDbLine
 10
1791.074513
 20
684.0520729999999
 30
0.0
 11
1921.074513
 21
684.0520729999999
 31
0.0
  0
TEXT
  5
320
330
6F
100
AcDbEntity
  8
A-0
 62
     4
100
AcDbText
 10
1920.455
 20
616.6519999999999
 30
0.0
 40
36.288
  1
90
 50
90.0
100
AcDbText
  0
LINE
  5
321
330
6F
100
AcDbEntity
  8
A-0
  6
Continuous
 62
     4
100
AcDbLine
 10
1921.074512603825
 20
684.0520726866159
 30
0.0
 11
1921.074512603825
 21
594.0520726866159
 31
0.0
  0
CIRCLE
  5
322
330
6F
100
AcDbEntity
  8
A-0
  6
Continuous
 62
     4
100
AcDbCircle
 10
1921.074512603825
 20
684.0520726866159
 30
0.0
 40
0.25
  0
CIRCLE
  5
323
330
6F
100
AcDbEntity
  8
A-0
  6
Continuous
 62
     4
100
AcDbCircle
 10
1921.074512603825
 20
684.0520726866159
 30
0.0
 40
0.1875
  0
CIRCLE
  5
324
330
6F
100
AcDbEntity
  8
A-0
  6
Continuous
 62
     4
100
AcDbCircle
 10
1921.074512603825
 20
684.0520726866159
 30
0.0
 40
0.125
  0
CIRCLE
  5
325
330
6F
100
AcDbEntity
  8
A-0
  6
Continuous
 62
     4
100
AcDbCircle
 10
1921.074512603825
 20
684.0520726866159
 30
0.0
 40
0.0625
  0
CIRCLE
  5
326
330
6F
100
AcDbEntity
  8
A-0
  6
Continuous
 62
     4
100
AcDbCircle
 10
1921.074512603825
 20
594.0520726866159
 30
0.0
 40
0.25
  0
CIRCLE
  5
327
330
6F
100
AcDbEntity
  8
A-0
  6
Continuous
 62
     4
100
AcDbCircle
 10
1921.074512603825
 20
594.0520726866159
 30
0.0
 40
0.1875
  0
CIRCLE
  5
328
330
6F
100
AcDbEntity
  8
A-0
  6
Continuous
 62
     4
100
AcDbCircle
 10
1921.074512603825
 20
594.0520726866159
 30
0.0
 40
0.125
  0
CIRCLE
  5
329
330
6F
100
AcDbEntity
  8
A-0
  6
Continuous
 62
     4
100
AcDbCircle
 10
1921.074512603825
 20
594.0520726866159
 30
0.0
 40
0.0625
  0
LINE
  5
32A
330
6F
100
AcDbEntity
  8
A-0
  6
Continuous
 62
     4
100
AcDbLine
 10
1791.074513
 20
684.0520729999999
 30
0.0
 11
1921.074513
 21
684.0520729999999
 31
0.0
  0
LINE
  5
32B
330
6F
100
AcDbEntity
  8
A-0
  6
Continuous
 62
     4
100
AcDbLine
 10
1786.574513
 20
1359.052073
 30
0.0
 11
1921.074513
 21
1359.052073
 31
0.0
  0
TEXT
  5
32C
330
6F
100
AcDbEntity
  8
A-0
 62
     4
100
AcDbText
 10
1920.455
 20
987.9519999999999
 30
0.0
 40
36.288
  1
675
 50
90.0
100
AcDbText
  0
LINE
  5
32D
330
6F
100
AcDbEntity
  8
A-0
  6
Continuous
 62
     4
100
AcDbLine
 10
1921.074512603825
 20
1359.052072686616
 30
0.0
 11
1921.074512603825
 21
684.0520726866159
 31
0.0
  0
CIRCLE
  5
32E
330
6F
100
AcDbEntity
  8
A-0
  6
Continuous
 62
     4
100
AcDbCircle
 10
1921.074512603825
 20
1359.052072686616
 30
0.0
 40
0.25
  0
CIRCLE
  5
32F
330
6F
100
AcDbEntity
  8
A-0
  6
Continuous
 62
     4
100
AcDbCircle
 10
1921.074512603825
 20
1359.052072686616
 30
0.0
 40
0.1875
  0
CIRCLE
  5
330
330
6F
100
AcDbEntity
  8
A-0
  6
Continuous
 62
     4
100
AcDbCircle
 10
1921.074512603825
 20
1359.052072686616
 30
0.0
 40
0.125
  0
CIRCLE
  5
331
330
6F
100
AcDbEntity
  8
A-0
  6
Continuous
 62
     4
100
AcDbCircle
 10
1921.074512603825
 20
1359.052072686616
 30
0.0
 40
0.0625
  0
CIRCLE
  5
332
330
6F
100
AcDbEntity
  8
A-0
  6
Continuous
 62
     4
100
AcDbCircle
 10
1921.074512603825
 20
684.0520726866159
 30
0.0
 40
0.25
  0
CIRCLE
  5
333
330
6F
100
AcDbEntity
  8
A-0
  6
Continuous
 62
     4
100
AcDbCircle
 10
1921.074512603825
 20
684.0520726866159
 30
0.0
 40
0.1875
  0
CIRCLE
  5
334
330
6F
100
AcDbEntity
  8
A-0
  6
Continuous
 62
     4
100
AcDbCircle
 10
1921.074512603825
 20
684.0520726866159
 30
0.0
 40
0.125
  0
CIRCLE
  5
335
330
6F
100
AcDbEntity
  8
A-0
  6
Continuous
 62
     4
100
AcDbCircle
 10
1921.074512603825
 20
684.0520726866159
 30
0.0
 40
0.0625
  0
LINE
  5
336
330
6F
100
AcDbEntity
  8
A-0
  6
Continuous
 62
     4
100
AcDbLine
 10
1786.574513
 20
1359.052073
 30
0.0
 11
1921.074513
 21
1359.052073
 31
0.0
  0
LINE
  5
337
330
6F
100
AcDbEntity
  8
A-0
  6
Continuous
 62
     4
100
AcDbLine
 10
1793.574513
 20
1369.052073
 30
0.0
 11
1921.074513
 21
1369.052073
 31
0.0
  0
LINE
  5
338
330
6F
100
AcDbEntity
  8
A-0
  6
Continuous
 62
     4
100
AcDbLine
 10
1921.074513
 20
1349.052073
 30
0.0
 11
1921.074513
 21
1339.052073
 31
0.0
  0
LINE
  5
339
330
6F
100
AcDbEntity
  8
A-0
  6
Continuous
 62
     4
100
AcDbLine
 10
1921.074513
 20
1379.052073
 30
0.0
 11
1921.074513
 21
1389.052073
 31
0.0
  0
LINE
  5
33A
330
6F
100
AcDbEntity
  8
A-0
  6
Continuous
 62
     4
100
AcDbLine
 10
1921.074513
 20
1364.052073
 30
0.0
 11
1982.279659
 21
1337.048983
 31
0.0
  0
LINE
  5
33B
330
6F
100
AcDbEntity
  8
A-0
  6
Continuous
 62
     4
100
AcDbLine
 10
1982.279659
 20
1337.048983
 30
0.0
 11
1982.279659
 21
1277.785024
 31
0.0
  0
TEXT
  5
33C
330
6F
100
AcDbEntity
  8
A-0
 62
     4
100
AcDbText
 10
1981.66
 20
1285.017
 30
0.0
 40
36.288
  1
10
 50
90.0
100
AcDbText
  0
LINE
  5
33D
330
6F
100
AcDbEntity
  8
A-0
  6
Continuous
 62
     4
100
AcDbLine
 10
1921.074513
 20
1359.052073
 30
0.0
 11
1921.074513
 21
1369.052073
 31
0.0
  0
LINE
  5
33E
330
6F
100
AcDbEntity
  8
A-0
  6
Continuous
 62
     4
100
AcDbLine
 10
1921.074513
 20
1359.052073
 30
0.0
 11
1921.074513
 21
1369.052073
 31
0.0
  0
CIRCLE
  5
33F
330
6F
100
AcDbEntity
  8
A-0
  6
Continuous
 62
     4
100
AcDbCircle
 10
1921.074512603825
 20
1359.052072686616
 30
0.0
 40
0.25
  0
CIRCLE
  5
340
330
6F
100
AcDbEntity
  8
A-0
  6
Continuous
 62
     4
100
AcDbCircle
 10
1921.074512603825
 20
1359.052072686616
 30
0.0
 40
0.1875
  0
CIRCLE
  5
341
330
6F
100
AcDbEntity
  8
A-0
  6
Continuous
 62
     4
100
AcDbCircle
 10
1921.074512603825
 20
1359.052072686616
 30
0.0
 40
0.125
  0
CIRCLE
  5
342
330
6F
100
AcDbEntity
  8
A-0
  6
Continuous
 62
     4
100
AcDbCircle
 10
1921.074512603825
 20
1359.052072686616
 30
0.0
 40
0.0625
  0
ARC
  5
343
330
6F
100
AcDbEntity
  8
A-0
 62
     4
100
AcDbCircle
 10
1921.069512603825
 20
1359.052072686616
 30
0.0
 40
2.5
100
AcDbArc
 50
90.11459140653
 51
270.114591405945
  0
LINE
  5
344
330
6F
100
AcDbEntity
  8
A-0
 62
     4
100
AcDbLine
 10
1921.074512603851
 20
1354.052072686616
 30
0.0
 11
1921.074512603876
 21
1349.052072686616
 31
0.0
  0
CIRCLE
  5
345
330
6F
100
AcDbEntity
  8
A-0
  6
Continuous
 62
     4
100
AcDbCircle
 10
1921.074512603825
 20
1369.052072686616
 30
0.0
 40
0.25
  0
CIRCLE
  5
346
330
6F
100
AcDbEntity
  8
A-0
  6
Continuous
 62
     4
100
AcDbCircle
 10
1921.074512603825
 20
1369.052072686616
 30
0.0
 40
0.1875
  0
CIRCLE
  5
347
330
6F
100
AcDbEntity
  8
A-0
  6
Continuous
 62
     4
100
AcDbCircle
 10
1921.074512603825
 20
1369.052072686616
 30
0.0
 40
0.125
  0
CIRCLE
  5
348
330
6F
100
AcDbEntity
  8
A-0
  6
Continuous
 62
     4
100
AcDbCircle
 10
1921.074512603825
 20
1369.052072686616
 30
0.0
 40
0.0625
  0
ARC
  5
349
330
6F
100
AcDbEntity
  8
A-0
 62
     4
100
AcDbCircle
 10
1921.079512603825
 20
1369.052072686616
 30
0.0
 40
2.5
100
AcDbArc
 50
270.1145914065301
 51
90.11459140594496
  0
LINE
  5
34A
330
6F
100
AcDbEntity
  8
A-0
 62
     4
100
AcDbLine
 10
1921.074512603748
 20
1374.052072686616
 30
0.0
 11
1921.074512603672
 21
1379.052072686616
 31
0.0
  0
LINE
  5
34B
330
6F
100
AcDbEntity
  8
A-0
  6
Continuous
 62
     4
100
AcDbLine
 10
1793.574513
 20
1369.052073
 30
0.0
 11
1921.074513
 21
1369.052073
 31
0.0
  0
LINE
  5
34C
330
6F
100
AcDbEntity
  8
A-0
  6
Continuous
 62
     4
100
AcDbLine
 10
1793.574513
 20
1394.052073
 30
0.0
 11
1921.074513
 21
1394.052073
 31
0.0
  0
LINE
  5
34D
330
6F
100
AcDbEntity
  8
A-0
  6
Continuous
 62
     4
100
AcDbLine
 10
1921.074513
 20
1359.052073
 30
0.0
 11
1921.074513
 21
1349.052073
 31
0.0
  0
LINE
  5
34E
330
6F
100
AcDbEntity
  8
A-0
  6
Continuous
 62
     4
100
AcDbLine
 10
1921.074513
 20
1404.052073
 30
0.0
 11
1921.074513
 21
1414.052073
 31
0.0
  0
LINE
  5
34F
330
6F
100
AcDbEntity
  8
A-0
  6
Continuous
 62
     4
100
AcDbLine
 10
1921.074513
 20
1381.552073
 30
0.0
 11
1881.824543
 21
1409.281692
 31
0.0
  0
LINE
  5
350
330
6F
100
AcDbEntity
  8
A-0
  6
Continuous
 62
     4
100
AcDbLine
 10
1881.824543
 20
1409.281692
 30
0.0
 11
1881.824543
 21
1469.966972
 31
0.0
  0
TEXT
  5
351
330
6F
100
AcDbEntity
  8
A-0
 62
     4
100
AcDbText
 10
1881.205
 20
1417.224
 30
0.0
 40
36.288
  1
25
 50
90.0
100
AcDbText
  0
LINE
  5
352
330
6F
100
AcDbEntity
  8
A-0
  6
Continuous
 62
     4
100
AcDbLine
 10
1921.074513
 20
1369.052073
 30
0.0
 11
1921.074513
 21
1394.052073
 31
0.0
  0
LINE
  5
353
330
6F
100
AcDbEntity
  8
A-0
  6
Continuous
 62
     4
100
AcDbLine
 10
1921.074513
 20
1369.052073
 30
0.0
 11
1921.074513
 21
1394.052073
 31
0.0
  0
CIRCLE
  5
354
330
6F
100
AcDbEntity
  8
A-0
  6
Continuous
 62
     4
100
AcDbCircle
 10
1921.074512603825
 20
1369.052072686616
 30
0.0
 40
0.25
  0
CIRCLE
  5
355
330
6F
100
AcDbEntity
  8
A-0
  6
Continuous
 62
     4
100
AcDbCircle
 10
1921.074512603825
 20
1369.052072686616
 30
0.0
 40
0.1875
  0
CIRCLE
  5
356
330
6F
100
AcDbEntity
  8
A-0
  6
Continuous
 62
     4
100
AcDbCircle
 10
1921.074512603825
 20
1369.052072686616
 30
0.0
 40
0.125
  0
CIRCLE
  5
357
330
6F
100
AcDbEntity
  8
A-0
  6
Continuous
 62
     4
100
AcDbCircle
 10
1921.074512603825
 20
1369.052072686616
 30
0.0
 40
0.0625
  0
ARC
  5
358
330
6F
100
AcDbEntity
  8
A-0
 62
     4
100
AcDbCircle
 10
1921.069512603825
 20
1369.052072686616
 30
0.0
 40
2.5
100
AcDbArc
 50
90.11459140653
 51
270.114591405945
  0
LINE
  5
359
330
6F
100
AcDbEntity
  8
A-0
 62
     4
100
AcDbLine
 10
1921.074512603851
 20
1364.052072686616
 30
0.0
 11
1921.074512603876
 21
1359.052072686616
 31
0.0
  0
CIRCLE
  5
35A
330
6F
100
AcDbEntity
  8
A-0
  6
Continuous
 62
     4
100
AcDbCircle
 10
1921.074512603825
 20
1394.052072686616
 30
0.0
 40
0.25
  0
CIRCLE
  5
35B
330
6F
100
AcDbEntity
  8
A-0
  6
Continuous
 62
     4
100
AcDbCircle
 10
1921.074512603825
 20
1394.052072686616
 30
0.0
 40
0.1875
  0
CIRCLE
  5
35C
330
6F
100
AcDbEntity
  8
A-0
  6
Continuous
 62
     4
100
AcDbCircle
 10
1921.074512603825
 20
1394.052072686616
 30
0.0
 40
0.125
  0
CIRCLE
  5
35D
330
6F
100
AcDbEntity
  8
A-0
  6
Continuous
 62
     4
100
AcDbCircle
 10
1921.074512603825
 20
1394.052072686616
 30
0.0
 40
0.0625
  0
ARC
  5
35E
330
6F
100
AcDbEntity
  8
A-0
 62
     4
100
AcDbCircle
 10
1921.079512603825
 20
1394.052072686616
 30
0.0
 40
2.5
100
AcDbArc
 50
270.1145914065301
 51
90.11459140594496
  0
LINE
  5
35F
330
6F
100
AcDbEntity
  8
A-0
 62
     4
100
AcDbLine
 10
1921.074512603748
 20
1399.052072686616
 30
0.0
 11
1921.074512603672
 21
1404.052072686616
 31
0.0
  0
LINE
  5
360
330
6F
100
AcDbEntity
  8
A-0
  6
Continuous
 62
     4
100
AcDbLine
 10
1773.574513
 20
1349.052073
 30
0.0
 11
1773.574513
 21
1300.87683
 31
0.0
  0
LINE
  5
361
330
6F
100
AcDbEntity
  8
A-0
  6
Continuous
 62
     4
100
AcDbLine
 10
1771.074513
 20
1349.052073
 30
0.0
 11
1771.074513
 21
1300.87683
 31
0.0
  0
LINE
  5
362
330
6F
100
AcDbEntity
  8
A-0
  6
Continuous
 62
     4
100
AcDbLine
 10
1783.574513
 20
1300.87683
 30
0.0
 11
1793.574513
 21
1300.87683
 31
0.0
  0
LINE
  5
363
330
6F
100
AcDbEntity
  8
A-0
  6
Continuous
 62
     4
100
AcDbLine
 10
1761.074513
 20
1300.87683
 30
0.0
 11
1751.074513
 21
1300.87683
 31
0.0
  0
LINE
  5
364
330
6F
100
AcDbEntity
  8
A-0
  6
Continuous
 62
     4
100
AcDbLine
 10
1772.324513
 20
1300.87683
 30
0.0
 11
1790.128469
 21
1234.733536
 31
0.0
  0
LINE
  5
365
330
6F
100
AcDbEntity
  8
A-0
  6
Continuous
 62
     4
100
AcDbLine
 10
1790.128469
 20
1234.733536
 30
0.0
 11
1873.554865
 21
1234.733536
 31
0.0
  0
TEXT
  5
366
330
6F
100
AcDbEntity
  8
A-0
 62
     4
100
AcDbText
 10
1801.064
 20
1235.354
 30
0.0
 40
36.288
  1
2.5
100
AcDbText
  0
LINE
  5
367
330
6F
100
AcDbEntity
  8
A-0
  6
Continuous
 62
     4
100
AcDbLine
 10
1773.574513
 20
1300.87683
 30
0.0
 11
1771.074513
 21
1300.87683
 31
0.0
  0
LINE
  5
368
330
6F
100
AcDbEntity
  8
A-0
  6
Continuous
 62
     4
100
AcDbLine
 10
1773.574513
 20
1300.87683
 30
0.0
 11
1771.074513
 21
1300.87683
 31
0.0
  0
CIRCLE
  5
369
330
6F
100
AcDbEntity
  8
A-0
  6
Continuous
 62
     4
100
AcDbCircle
 10
1773.574512603826
 20
1300.876830418624
 30
0.0
 40
0.25
  0
CIRCLE
  5
36A
330
6F
100
AcDbEntity
  8
A-0
  6
Continuous
 62
     4
100
AcDbCircle
 10
1773.574512603826
 20
1300.876830418624
 30
0.0
 40
0.1875
  0
CIRCLE
  5
36B
330
6F
100
AcDbEntity
  8
A-0
  6
Continuous
 62
     4
100
AcDbCircle
 10
1773.574512603826
 20
1300.876830418624
 30
0.0
 40
0.125
  0
CIRCLE
  5
36C
330
6F
100
AcDbEntity
  8
A-0
  6
Continuous
 62
     4
100
AcDbCircle
 10
1773.574512603826
 20
1300.876830418624
 30
0.0
 40
0.0625
  0
ARC
  5
36D
330
6F
100
AcDbEntity
  8
A-0
 62
     4
100
AcDbCircle
 10
1773.574512603826
 20
1300.871830418624
 30
0.0
 40
2.5
100
AcDbArc
 50
180.1145914065301
 51
0.1145914059449637
  0
LINE
  5
36E
330
6F
100
AcDbEntity
  8
A-0
 62
     4
100
AcDbLine
 10
1778.574512603826
 20
1300.876830418675
 30
0.0
 11
1783.574512603826
 21
1300.876830418726
 31
0.0
  0
CIRCLE
  5
36F
330
6F
100
AcDbEntity
  8
A-0
  6
Continuous
 62
     4
100
AcDbCircle
 10
1771.074512603825
 20
1300.876830418624
 30
0.0
 40
0.25
  0
CIRCLE
  5
370
330
6F
100
AcDbEntity
  8
A-0
  6
Continuous
 62
     4
100
AcDbCircle
 10
1771.074512603825
 20
1300.876830418624
 30
0.0
 40
0.1875
  0
CIRCLE
  5
371
330
6F
100
AcDbEntity
  8
A-0
  6
Continuous
 62
     4
100
AcDbCircle
 10
1771.074512603825
 20
1300.876830418624
 30
0.0
 40
0.125
  0
CIRCLE
  5
372
330
6F
100
AcDbEntity
  8
A-0
  6
Continuous
 62
     4
100
AcDbCircle
 10
1771.074512603825
 20
1300.876830418624
 30
0.0
 40
0.0625
  0
ARC
  5
373
330
6F
100
AcDbEntity
  8
A-0
 62
     4
100
AcDbCircle
 10
1771.074512603825
 20
1300.881830418624
 30
0.0
 40
2.5
100
AcDbArc
 50
0.1145914065300158
 51
180.114591405945
  0
LINE
  5
374
330
6F
100
AcDbEntity
  8
A-0
 62
     4
100
AcDbLine
 10
1766.074512603825
 20
1300.876830418624
 30
0.0
 11
1761.074512603825
 21
1300.876830418624
 31
0.0
  0
LINE
  5
375
330
6F
100
AcDbEntity
  8
A-0
  6
Continuous
 62
     4
100
AcDbLine
 10
1791.074513
 20
594.0520729999999
 30
0.0
 11
2021.074513
 21
594.0520729999999
 31
0.0
  0
LINE
  5
376
330
6F
100
AcDbEntity
  8
A-0
  6
Continuous
 62
     4
100
AcDbLine
 10
1793.574513
 20
1394.052073
 30
0.0
 11
2021.074513
 21
1394.052073
 31
0.0
  0
TEXT
  5
377
330
6F
100
AcDbEntity
  8
A-0
 62
     4
100
AcDbText
 10
2020.455
 20
960.452
 30
0.0
 40
36.288
  1
800
 50
90.0
100
AcDbText
  0
LINE
  5
378
330
6F
100
AcDbEntity
  8
A-0
  6
Continuous
 62
     4
100
AcDbLine
 10
2021.074512603826
 20
1394.052072686616
 30
0.0
 11
2021.074512603826
 21
594.0520726866159
 31
0.0
  0
CIRCLE
  5
379
330
6F
100
AcDbEntity
  8
A-0
  6
Continuous
 62
     4
100
AcDbCircle
 10
2021.074512603826
 20
1394.052072686616
 30
0.0
 40
0.25
  0
CIRCLE
  5
37A
330
6F
100
AcDbEntity
  8
A-0
  6
Continuous
 62
     4
100
AcDbCircle
 10
2021.074512603826
 20
1394.052072686616
 30
0.0
 40
0.1875
  0
CIRCLE
  5
37B
330
6F
100
AcDbEntity
  8
A-0
  6
Continuous
 62
     4
100
AcDbCircle
 10
2021.074512603826
 20
1394.052072686616
 30
0.0
 40
0.125
  0
CIRCLE
  5
37C
330
6F
100
AcDbEntity
  8
A-0
  6
Continuous
 62
     4
100
AcDbCircle
 10
2021.074512603826
 20
1394.052072686616
 30
0.0
 40
0.0625
  0
CIRCLE
  5
37D
330
6F
100
AcDbEntity
  8
A-0
  6
Continuous
 62
     4
100
AcDbCircle
 10
2021.074512603826
 20
594.0520726866159
 30
0.0
 40
0.25
  0
CIRCLE
  5
37E
330
6F
100
AcDbEntity
  8
A-0
  6
Continuous
 62
     4
100
AcDbCircle
 10
2021.074512603826
 20
594.0520726866159
 30
0.0
 40
0.1875
  0
CIRCLE
  5
37F
330
6F
100
AcDbEntity
  8
A-0
  6
Continuous
 62
     4
100
AcDbCircle
 10
2021.074512603826
 20
594.0520726866159
 30
0.0
 40
0.125
  0
CIRCLE
  5
380
330
6F
100
AcDbEntity
  8
A-0
  6
Continuous
 62
     4
100
AcDbCircle
 10
2021.074512603826
 20
594.0520726866159
 30
0.0
 40
0.0625
  0
LINE
  5
381
330
6F
100
AcDbEntity
  8
A-0
  6
Continuous
 62
     4
100
AcDbLine
 10
1793.574513
 20
1394.052073
 30
0.0
 11
2021.074513
 21
1394.052073
 31
0.0
  0
LINE
  5
382
330
6F
100
AcDbEntity
  8
A-0
  6
Continuous
 62
     4
100
AcDbLine
 10
1793.574513
 20
1484.052073
 30
0.0
 11
2021.074513
 21
1484.052073
 31
0.0
  0
TEXT
  5
383
330
6F
100
AcDbEntity
  8
A-0
 62
     4
100
AcDbText
 10
2020.455
 20
1416.652
 30
0.0
 40
36.288
  1
90
 50
90.0
100
AcDbText
  0
LINE
  5
384
330
6F
100
AcDbEntity
  8
A-0
  6
Continuous
 62
     4
100
AcDbLine
 10
2021.074512603826
 20
1484.052072686616
 30
0.0
 11
2021.074512603826
 21
1394.052072686616
 31
0.0
  0
CIRCLE
  5
385
330
6F
100
AcDbEntity
  8
A-0
  6
Continuous
 62
     4
100
AcDbCircle
 10
2021.074512603826
 20
1484.052072686616
 30
0.0
 40
0.25
  0
CIRCLE
  5
386
330
6F
100
AcDbEntity
  8
A-0
  6
Continuous
 62
     4
100
AcDbCircle
 10
2021.074512603826
 20
1484.052072686616
 30
0.0
 40
0.1875
  0
CIRCLE
  5
387
330
6F
100
AcDbEntity
  8
A-0
  6
Continuous
 62
     4
100
AcDbCircle
 10
2021.074512603826
 20
1484.052072686616
 30
0.0
 40
0.125
  0
CIRCLE
  5
388
330
6F
100
AcDbEntity
  8
A-0
  6
Continuous
 62
     4
100
AcDbCircle
 10
2021.074512603826
 20
1484.052072686616
 30
0.0
 40
0.0625
  0
CIRCLE
  5
389
330
6F
100
AcDbEntity
  8
A-0
  6
Continuous
 62
     4
100
AcDbCircle
 10
2021.074512603826
 20
1394.052072686616
 30
0.0
 40
0.25
  0
CIRCLE
  5
38A
330
6F
100
AcDbEntity
  8
A-0
  6
Continuous
 62
     4
100
AcDbCircle
 10
2021.074512603826
 20
1394.052072686616
 30
0.0
 40
0.1875
  0
CIRCLE
  5
38B
330
6F
100
AcDbEntity
  8
A-0
  6
Continuous
 62
     4
100
AcDbCircle
 10
2021.074512603826
 20
1394.052072686616
 30
0.0
 40
0.125
  0
CIRCLE
  5
38C
330
6F
100
AcDbEntity
  8
A-0
  6
Continuous
 62
     4
100
AcDbCircle
 10
2021.074512603826
 20
1394.052072686616
 30
0.0
 40
0.0625
  0
LINE
  5
38D
330
6F
100
AcDbEntity
  8
3-0
  6
DASHED2
 62
     7
100
AcDbLine
 10
1756.074513
 20
699.052073
 30
0.0
 11
691.074513
 21
699.052073
 31
0.0
  0
LINE
  5
38E
330
6F
100
AcDbEntity
  8
A-0
  6
Continuous
 62
     4
100
AcDbLine
 10
1771.074513
 20
574.0520729999999
 30
0.0
 11
1771.074513
 21
444.052073
 31
0.0
  0
LINE
  5
38F
330
6F
100
AcDbEntity
  8
A-0
  6
Continuous
 62
     4
100
AcDbLine
 10
1765.574513
 20
574.0520729999999
 30
0.0
 11
1765.574513
 21
444.052073
 31
0.0
  0
TEXT
  5
390
330
6F
100
AcDbEntity
  8
A-0
 62
     4
100
AcDbText
 10
1799.599
 20
377.172
 30
0.0
 40
36.288
  1
5.5
100
AcDbText
  0
LINE
  5
391
330
6F
100
AcDbEntity
  8
A-0
  6
Continuous
 62
     4
100
AcDbLine
 10
1765.574512603824
 20
444.052072686616
 30
0.0
 11
1771.074512603825
 21
444.052072686616
 31
0.0
  0
CIRCLE
  5
392
330
6F
100
AcDbEntity
  8
A-0
  6
Continuous
 62
     4
100
AcDbCircle
 10
1765.574512603824
 20
444.052072686616
 30
0.0
 40
0.25
  0
CIRCLE
  5
393
330
6F
100
AcDbEntity
  8
A-0
  6
Continuous
 62
     4
100
AcDbCircle
 10
1765.574512603824
 20
444.052072686616
 30
0.0
 40
0.1875
  0
CIRCLE
  5
394
330
6F
100
AcDbEntity
  8
A-0
  6
Continuous
 62
     4
100
AcDbCircle
 10
1765.574512603824
 20
444.052072686616
 30
0.0
 40
0.125
  0
CIRCLE
  5
395
330
6F
100
AcDbEntity
  8
A-0
  6
Continuous
 62
     4
100
AcDbCircle
 10
1765.574512603824
 20
444.052072686616
 30
0.0
 40
0.0625
  0
CIRCLE
  5
396
330
6F
100
AcDbEntity
  8
A-0
  6
Continuous
 62
     4
100
AcDbCircle
 10
1771.074512603825
 20
444.052072686616
 30
0.0
 40
0.25
  0
CIRCLE
  5
397
330
6F
100
AcDbEntity
  8
A-0
  6
Continuous
 62
     4
100
AcDbCircle
 10
1771.074512603825
 20
444.052072686616
 30
0.0
 40
0.1875
  0
CIRCLE
  5
398
330
6F
100
AcDbEntity
  8
A-0
  6
Continuous
 62
     4
100
AcDbCircle
 10
1771.074512603825
 20
444.052072686616
 30
0.0
 40
0.125
  0
CIRCLE
  5
399
330
6F
100
AcDbEntity
  8
A-0
  6
Continuous
 62
     4
100
AcDbCircle
 10
1771.074512603825
 20
444.052072686616
 30
0.0
 40
0.0625
  0
LINE
  5
39A
330
6F
100
AcDbEntity
  8
A-0
  6
Continuous
 62
     4
100
AcDbLine
 10
1765.574513
 20
574.0520729999999
 30
0.0
 11
1765.574513
 21
444.052073
 31
0.0
  0
LINE
  5
39B
330
6F
100
AcDbEntity
  8
A-0
  6
Continuous
 62
     4
100
AcDbLine
 10
1373.574513
 20
574.0520729999999
 30
0.0
 11
1373.574513
 21
444.052073
 31
0.0
  0
TEXT
  5
39C
330
6F
100
AcDbEntity
  8
A-0
 62
     4
100
AcDbText
 10
1538.797
 20
444.672
 30
0.0
 40
36.288
  1
392
100
AcDbText
  0
LINE
  5
39D
330
6F
100
AcDbEntity
  8
A-0
  6
Continuous
 62
     4
100
AcDbLine
 10
1373.574512603824
 20
444.052072686616
 30
0.0
 11
1765.574512603824
 21
444.052072686616
 31
0.0
  0
CIRCLE
  5
39E
330
6F
100
AcDbEntity
  8
A-0
  6
Continuous
 62
     4
100
AcDbCircle
 10
1373.574512603824
 20
444.052072686616
 30
0.0
 40
0.25
  0
CIRCLE
  5
39F
330
6F
100
AcDbEntity
  8
A-0
  6
Continuous
 62
     4
100
AcDbCircle
 10
1373.574512603824
 20
444.052072686616
 30
0.0
 40
0.1875
  0
CIRCLE
  5
3A0
330
6F
100
AcDbEntity
  8
A-0
  6
Continuous
 62
     4
100
AcDbCircle
 10
1373.574512603824
 20
444.052072686616
 30
0.0
 40
0.125
  0
CIRCLE
  5
3A1
330
6F
100
AcDbEntity
  8
A-0
  6
Continuous
 62
     4
100
AcDbCircle
 10
1373.574512603824
 20
444.052072686616
 30
0.0
 40
0.0625
  0
CIRCLE
  5
3A2
330
6F
100
AcDbEntity
  8
A-0
  6
Continuous
 62
     4
100
AcDbCircle
 10
1765.574512603824
 20
444.052072686616
 30
0.0
 40
0.25
  0
CIRCLE
  5
3A3
330
6F
100
AcDbEntity
  8
A-0
  6
Continuous
 62
     4
100
AcDbCircle
 10
1765.574512603824
 20
444.052072686616
 30
0.0
 40
0.1875
  0
CIRCLE
  5
3A4
330
6F
100
AcDbEntity
  8
A-0
  6
Continuous
 62
     4
100
AcDbCircle
 10
1765.574512603824
 20
444.052072686616
 30
0.0
 40
0.125
  0
CIRCLE
  5
3A5
330
6F
100
AcDbEntity
  8
A-0
  6
Continuous
 62
     4
100
AcDbCircle
 10
1765.574512603824
 20
444.052072686616
 30
0.0
 40
0.0625
  0
LINE
  5
3A6
330
6F
100
AcDbEntity
  8
A-0
  6
Continuous
 62
     4
100
AcDbLine
 10
1373.574513
 20
574.0520729999999
 30
0.0
 11
1373.574513
 21
444.052073
 31
0.0
  0
LINE
  5
3A7
330
6F
100
AcDbEntity
  8
A-0
  6
Continuous
 62
     4
100
AcDbLine
 10
1372.574513
 20
574.0520729999999
 30
0.0
 11
1372.574513
 21
444.052073
 31
0.0
  0
TEXT
  5
3A8
330
6F
100
AcDbEntity
  8
A-0
 62
     4
100
AcDbText
 10
1399.655
 20
377.172
 30
0.0
 40
36.288
  1
1
100
AcDbText
  0
LINE
  5
3A9
330
6F
100
AcDbEntity
  8
A-0
  6
Continuous
 62
     4
100
AcDbLine
 10
1372.574512603825
 20
444.052072686616
 30
0.0
 11
1373.574512603824
 21
444.052072686616
 31
0.0
  0
CIRCLE
  5
3AA
330
6F
100
AcDbEntity
  8
A-0
  6
Continuous
 62
     4
100
AcDbCircle
 10
1372.574512603825
 20
444.052072686616
 30
0.0
 40
0.25
  0
CIRCLE
  5
3AB
330
6F
100
AcDbEntity
  8
A-0
  6
Continuous
 62
     4
100
AcDbCircle
 10
1372.574512603825
 20
444.052072686616
 30
0.0
 40
0.1875
  0
CIRCLE
  5
3AC
330
6F
100
AcDbEntity
  8
A-0
  6
Continuous
 62
     4
100
AcDbCircle
 10
1372.574512603825
 20
444.052072686616
 30
0.0
 40
0.125
  0
CIRCLE
  5
3AD
330
6F
100
AcDbEntity
  8
A-0
  6
Continuous
 62
     4
100
AcDbCircle
 10
1372.574512603825
 20
444.052072686616
 30
0.0
 40
0.0625
  0
CIRCLE
  5
3AE
330
6F
100
AcDbEntity
  8
A-0
  6
Continuous
 62
     4
100
AcDbCircle
 10
1373.574512603824
 20
444.052072686616
 30
0.0
 40
0.25
  0
CIRCLE
  5
3AF
330
6F
100
AcDbEntity
  8
A-0
  6
Continuous
 62
     4
100
AcDbCircle
 10
1373.574512603824
 20
444.052072686616
 30
0.0
 40
0.1875
  0
CIRCLE
  5
3B0
330
6F
100
AcDbEntity
  8
A-0
  6
Continuous
 62
     4
100
AcDbCircle
 10
1373.574512603824
 20
444.052072686616
 30
0.0
 40
0.125
  0
CIRCLE
  5
3B1
330
6F
100
AcDbEntity
  8
A-0
  6
Continuous
 62
     4
100
AcDbCircle
 10
1373.574512603824
 20
444.052072686616
 30
0.0
 40
0.0625
  0
LINE
  5
3B2
330
6F
100
AcDbEntity
  8
A-0
  6
Continuous
 62
     4
100
AcDbLine
 10
1372.574513
 20
574.0520729999999
 30
0.0
 11
1372.574513
 21
444.052073
 31
0.0
  0
LINE
  5
3B3
330
6F
100
AcDbEntity
  8
A-0
  6
Continuous
 62
     4
100
AcDbLine
 10
980.574513
 20
574.0520729999999
 30
0.0
 11
980.574513
 21
444.052073
 31
0.0
  0
TEXT
  5
3B4
330
6F
100
AcDbEntity
  8
A-0
 62
     4
100
AcDbText
 10
1145.797
 20
444.672
 30
0.0
 40
36.288
  1
392
100
AcDbText
  0
LINE
  5
3B5
330
6F
100
AcDbEntity
  8
A-0
  6
Continuous
 62
     4
100
AcDbLine
 10
980.5745126038271
 20
444.052072686616
 30
0.0
 11
1372.574512603825
 21
444.052072686616
 31
0.0
  0
CIRCLE
  5
3B6
330
6F
100
AcDbEntity
  8
A-0
  6
Continuous
 62
     4
100
AcDbCircle
 10
980.5745126038271
 20
444.052072686616
 30
0.0
 40
0.25
  0
CIRCLE
  5
3B7
330
6F
100
AcDbEntity
  8
A-0
  6
Continuous
 62
     4
100
AcDbCircle
 10
980.5745126038271
 20
444.052072686616
 30
0.0
 40
0.1875
  0
CIRCLE
  5
3B8
330
6F
100
AcDbEntity
  8
A-0
  6
Continuous
 62
     4
100
AcDbCircle
 10
980.5745126038271
 20
444.052072686616
 30
0.0
 40
0.125
  0
CIRCLE
  5
3B9
330
6F
100
AcDbEntity
  8
A-0
  6
Continuous
 62
     4
100
AcDbCircle
 10
980.5745126038271
 20
444.052072686616
 30
0.0
 40
0.0625
  0
CIRCLE
  5
3BA
330
6F
100
AcDbEntity
  8
A-0
  6
Continuous
 62
     4
100
AcDbCircle
 10
1372.574512603825
 20
444.052072686616
 30
0.0
 40
0.25
  0
CIRCLE
  5
3BB
330
6F
100
AcDbEntity
  8
A-0
  6
Continuous
 62
     4
100
AcDbCircle
 10
1372.574512603825
 20
444.052072686616
 30
0.0
 40
0.1875
  0
CIRCLE
  5
3BC
330
6F
100
AcDbEntity
  8
A-0
  6
Continuous
 62
     4
100
AcDbCircle
 10
1372.574512603825
 20
444.052072686616
 30
0.0
 40
0.125
  0
CIRCLE
  5
3BD
330
6F
100
AcDbEntity
  8
A-0
  6
Continuous
 62
     4
100
AcDbCircle
 10
1372.574512603825
 20
444.052072686616
 30
0.0
 40
0.0625
  0
LINE
  5
3BE
330
6F
100
AcDbEntity
  8
A-0
  6
Continuous
 62
     4
100
AcDbLine
 10
980.574513
 20
574.0520729999999
 30
0.0
 11
980.574513
 21
444.052073
 31
0.0
  0
LINE
  5
3BF
330
6F
100
AcDbEntity
  8
A-0
  6
Continuous
 62
     4
100
AcDbLine
 10
975.5745130000001
 20
574.0520729999999
 30
0.0
 11
975.5745130000001
 21
444.052073
 31
0.0
  0
TEXT
  5
3C0
330
6F
100
AcDbEntity
  8
A-0
 62
     4
100
AcDbText
 10
1009.008
 20
377.172
 30
0.0
 40
36.288
  1
5
100
AcDbText
  0
LINE
  5
3C1
330
6F
100
AcDbEntity
  8
A-0
  6
Continuous
 62
     4
100
AcDbLine
 10
975.5745126038251
 20
444.052072686616
 30
0.0
 11
980.5745126038271
 21
444.052072686616
 31
0.0
  0
CIRCLE
  5
3C2
330
6F
100
AcDbEntity
  8
A-0
  6
Continuous
 62
     4
100
AcDbCircle
 10
975.5745126038251
 20
444.052072686616
 30
0.0
 40
0.25
  0
CIRCLE
  5
3C3
330
6F
100
AcDbEntity
  8
A-0
  6
Continuous
 62
     4
100
AcDbCircle
 10
975.5745126038251
 20
444.052072686616
 30
0.0
 40
0.1875
  0
CIRCLE
  5
3C4
330
6F
100
AcDbEntity
  8
A-0
  6
Continuous
 62
     4
100
AcDbCircle
 10
975.5745126038251
 20
444.052072686616
 30
0.0
 40
0.125
  0
CIRCLE
  5
3C5
330
6F
100
AcDbEntity
  8
A-0
  6
Continuous
 62
     4
100
AcDbCircle
 10
975.5745126038251
 20
444.052072686616
 30
0.0
 40
0.0625
  0
CIRCLE
  5
3C6
330
6F
100
AcDbEntity
  8
A-0
  6
Continuous
 62
     4
100
AcDbCircle
 10
980.5745126038271
 20
444.052072686616
 30
0.0
 40
0.25
  0
CIRCLE
  5
3C7
330
6F
100
AcDbEntity
  8
A-0
  6
Continuous
 62
     4
100
AcDbCircle
 10
980.5745126038271
 20
444.052072686616
 30
0.0
 40
0.1875
  0
CIRCLE
  5
3C8
330
6F
100
AcDbEntity
  8
A-0
  6
Continuous
 62
     4
100
AcDbCircle
 10
980.5745126038271
 20
444.052072686616
 30
0.0
 40
0.125
  0
CIRCLE
  5
3C9
330
6F
100
AcDbEntity
  8
A-0
  6
Continuous
 62
     4
100
AcDbCircle
 10
980.5745126038271
 20
444.052072686616
 30
0.0
 40
0.0625
  0
LINE
  5
3CA
330
6F
100
AcDbEntity
  8
A-0
  6
Continuous
 62
     4
100
AcDbLine
 10
975.5745130000001
 20
574.0520729999999
 30
0.0
 11
975.5745130000001
 21
444.052073
 31
0.0
  0
LINE
  5
3CB
330
6F
100
AcDbEntity
  8
A-0
  6
Continuous
 62
     4
100
AcDbLine
 10
681.574513
 20
574.0520729999999
 30
0.0
 11
681.574513
 21
444.052073
 31
0.0
  0
TEXT
  5
3CC
330
6F
100
AcDbEntity
  8
A-0
 62
     4
100
AcDbText
 10
797.797
 20
444.672
 30
0.0
 40
36.288
  1
294
100
AcDbText
  0
LINE
  5
3CD
330
6F
100
AcDbEntity
  8
A-0
  6
Continuous
 62
     4
100
AcDbLine
 10
681.574512603829
 20
444.052072686616
 30
0.0
 11
975.5745126038251
 21
444.052072686616
 31
0.0
  0
CIRCLE
  5
3CE
330
6F
100
AcDbEntity
  8
A-0
  6
Continuous
 62
     4
100
AcDbCircle
 10
681.574512603829
 20
444.052072686616
 30
0.0
 40
0.25
  0
CIRCLE
  5
3CF
330
6F
100
AcDbEntity
  8
A-0
  6
Continuous
 62
     4
100
AcDbCircle
 10
681.574512603829
 20
444.052072686616
 30
0.0
 40
0.1875
  0
CIRCLE
  5
3D0
330
6F
100
AcDbEntity
  8
A-0
  6
Continuous
 62
     4
100
AcDbCircle
 10
681.574512603829
 20
444.052072686616
 30
0.0
 40
0.125
  0
CIRCLE
  5
3D1
330
6F
100
AcDbEntity
  8
A-0
  6
Continuous
 62
     4
100
AcDbCircle
 10
681.574512603829
 20
444.052072686616
 30
0.0
 40
0.0625
  0
CIRCLE
  5
3D2
330
6F
100
AcDbEntity
  8
A-0
  6
Continuous
 62
     4
100
AcDbCircle
 10
975.5745126038251
 20
444.052072686616
 30
0.0
 40
0.25
  0
CIRCLE
  5
3D3
330
6F
100
AcDbEntity
  8
A-0
  6
Continuous
 62
     4
100
AcDbCircle
 10
975.5745126038251
 20
444.052072686616
 30
0.0
 40
0.1875
  0
CIRCLE
  5
3D4
330
6F
100
AcDbEntity
  8
A-0
  6
Continuous
 62
     4
100
AcDbCircle
 10
975.5745126038251
 20
444.052072686616
 30
0.0
 40
0.125
  0
CIRCLE
  5
3D5
330
6F
100
AcDbEntity
  8
A-0
  6
Continuous
 62
     4
100
AcDbCircle
 10
975.5745126038251
 20
444.052072686616
 30
0.0
 40
0.0625
  0
LINE
  5
3D6
330
6F
100
AcDbEntity
  8
3-0
  6
Continuous
 62
     7
100
AcDbLine
 10
676.074513
 20
1369.052073
 30
0.0
 11
676.074513
 21
594.0520729999999
 31
0.0
  0
LINE
  5
3D7
330
6F
100
AcDbEntity
  8
A-0
  6
Continuous
 62
     4
100
AcDbLine
 10
681.574513
 20
574.0520729999999
 30
0.0
 11
681.574513
 21
444.052073
 31
0.0
  0
LINE
  5
3D8
330
6F
100
AcDbEntity
  8
A-0
  6
Continuous
 62
     4
100
AcDbLine
 10
676.074513
 20
574.0520729999999
 30
0.0
 11
676.074513
 21
444.052073
 31
0.0
  0
LINE
  5
3D9
330
6F
100
AcDbEntity
  8
A-0
  6
Continuous
 62
     4
100
AcDbLine
 10
691.574513
 20
444.052073
 30
0.0
 11
701.5745129999999
 21
444.052073
 31
0.0
  0
LINE
  5
3DA
330
6F
100
AcDbEntity
  8
A-0
  6
Continuous
 62
     4
100
AcDbLine
 10
666.074513
 20
444.052073
 30
0.0
 11
656.074513
 21
444.052073
 31
0.0
  0
LINE
  5
3DB
330
6F
100
AcDbEntity
  8
A-0
  6
Continuous
 62
     4
100
AcDbLine
 10
678.8245129999999
 20
444.052073
 30
0.0
 11
707.861338
 21
381.118688
 31
0.0
  0
LINE
  5
3DC
330
6F
100
AcDbEntity
  8
A-0
  6
Continuous
 62
     4
100
AcDbLine
 10
707.861338
 20
381.118688
 30
0.0
 11
791.465399
 21
381.118688
 31
0.0
  0
TEXT
  5
3DD
330
6F
100
AcDbEntity
  8
A-0
 62
     4
100
AcDbText
 10
718.886
 20
381.7390000000001
 30
0.0
 40
36.288
  1
5.5
100
AcDbText
  0
LINE
  5
3DE
330
6F
100
AcDbEntity
  8
A-0
  6
Continuous
 62
     4
100
AcDbLine
 10
681.574513
 20
444.052073
 30
0.0
 11
676.074513
 21
444.052073
 31
0.0
  0
LINE
  5
3DF
330
6F
100
AcDbEntity
  8
A-0
  6
Continuous
 62
     4
100
AcDbLine
 10
681.574513
 20
444.052073
 30
0.0
 11
676.074513
 21
444.052073
 31
0.0
  0
CIRCLE
  5
3E0
330
6F
100
AcDbEntity
  8
A-0
  6
Continuous
 62
     4
100
AcDbCircle
 10
681.574512603829
 20
444.052072686616
 30
0.0
 40
0.25
  0
CIRCLE
  5
3E1
330
6F
100
AcDbEntity
  8
A-0
  6
Continuous
 62
     4
100
AcDbCircle
 10
681.574512603829
 20
444.052072686616
 30
0.0
 40
0.1875
  0
CIRCLE
  5
3E2
330
6F
100
AcDbEntity
  8
A-0
  6
Continuous
 62
     4
100
AcDbCircle
 10
681.574512603829
 20
444.052072686616
 30
0.0
 40
0.125
  0
CIRCLE
  5
3E3
330
6F
100
AcDbEntity
  8
A-0
  6
Continuous
 62
     4
100
AcDbCircle
 10
681.574512603829
 20
444.052072686616
 30
0.0
 40
0.0625
  0
ARC
  5
3E4
330
6F
100
AcDbEntity
  8
A-0
 62
     4
100
AcDbCircle
 10
681.574512603829
 20
444.0470726866159
 30
0.0
 40
2.5
100
AcDbArc
 50
180.1145914065301
 51
0.1145914059449637
  0
LINE
  5
3E5
330
6F
100
AcDbEntity
  8
A-0
 62
     4
100
AcDbLine
 10
686.574512603829
 20
444.052072686667
 30
0.0
 11
691.574512603829
 21
444.052072686718
 31
0.0
  0
CIRCLE
  5
3E6
330
6F
100
AcDbEntity
  8
A-0
  6
Continuous
 62
     4
100
AcDbCircle
 10
676.0745126038259
 20
444.052072686616
 30
0.0
 40
0.25
  0
CIRCLE
  5
3E7
330
6F
100
AcDbEntity
  8
A-0
  6
Continuous
 62
     4
100
AcDbCircle
 10
676.0745126038259
 20
444.052072686616
 30
0.0
 40
0.1875
  0
CIRCLE
  5
3E8
330
6F
100
AcDbEntity
  8
A-0
  6
Continuous
 62
     4
100
AcDbCircle
 10
676.0745126038259
 20
444.052072686616
 30
0.0
 40
0.125
  0
CIRCLE
  5
3E9
330
6F
100
AcDbEntity
  8
A-0
  6
Continuous
 62
     4
100
AcDbCircle
 10
676.0745126038259
 20
444.052072686616
 30
0.0
 40
0.0625
  0
ARC
  5
3EA
330
6F
100
AcDbEntity
  8
A-0
 62
     4
100
AcDbCircle
 10
676.0745126038259
 20
444.057072686616
 30
0.0
 40
2.5
100
AcDbArc
 50
0.1145914065300158
 51
180.114591405945
  0
LINE
  5
3EB
330
6F
100
AcDbEntity
  8
A-0
 62
     4
100
AcDbLine
 10
671.074512603826
 20
444.052072686616
 30
0.0
 11
666.0745126038259
 21
444.052072686616
 31
0.0
  0
LINE
  5
3EC
330
6F
100
AcDbEntity
  8
1-0
  6
Continuous
 62
     7
100
AcDbLine
 10
673.574513
 20
1484.052073
 30
0.0
 11
673.574513
 21
1369.052073
 31
0.0
  0
LINE
  5
3ED
330
6F
100
AcDbEntity
  8
A-0
  6
Continuous
 62
     4
100
AcDbLine
 10
676.074513
 20
1349.052073
 30
0.0
 11
676.074513
 21
1308.635859
 31
0.0
  0
LINE
  5
3EE
330
6F
100
AcDbEntity
  8
A-0
  6
Continuous
 62
     4
100
AcDbLine
 10
673.574513
 20
1349.052073
 30
0.0
 11
673.574513
 21
1308.635859
 31
0.0
  0
TEXT
  5
3EF
330
6F
100
AcDbEntity
  8
A-0
 62
     4
100
AcDbText
 10
706.01
 20
1241.756
 30
0.0
 40
36.288
  1
2.5
100
AcDbText
  0
LINE
  5
3F0
330
6F
100
AcDbEntity
  8
A-0
  6
Continuous
 62
     4
100
AcDbLine
 10
673.5745126038259
 20
1308.63585915394
 30
0.0
 11
676.0745126038259
 21
1308.63585915394
 31
0.0
  0
CIRCLE
  5
3F1
330
6F
100
AcDbEntity
  8
A-0
  6
Continuous
 62
     4
100
AcDbCircle
 10
673.5745126038259
 20
1308.63585915394
 30
0.0
 40
0.25
  0
CIRCLE
  5
3F2
330
6F
100
AcDbEntity
  8
A-0
  6
Continuous
 62
     4
100
AcDbCircle
 10
673.5745126038259
 20
1308.63585915394
 30
0.0
 40
0.1875
  0
CIRCLE
  5
3F3
330
6F
100
AcDbEntity
  8
A-0
  6
Continuous
 62
     4
100
AcDbCircle
 10
673.5745126038259
 20
1308.63585915394
 30
0.0
 40
0.125
  0
CIRCLE
  5
3F4
330
6F
100
AcDbEntity
  8
A-0
  6
Continuous
 62
     4
100
AcDbCircle
 10
673.5745126038259
 20
1308.63585915394
 30
0.0
 40
0.0625
  0
CIRCLE
  5
3F5
330
6F
100
AcDbEntity
  8
A-0
  6
Continuous
 62
     4
100
AcDbCircle
 10
676.0745126038259
 20
1308.63585915394
 30
0.0
 40
0.25
  0
CIRCLE
  5
3F6
330
6F
100
AcDbEntity
  8
A-0
  6
Continuous
 62
     4
100
AcDbCircle
 10
676.0745126038259
 20
1308.63585915394
 30
0.0
 40
0.1875
  0
CIRCLE
  5
3F7
330
6F
100
AcDbEntity
  8
A-0
  6
Continuous
 62
     4
100
AcDbCircle
 10
676.0745126038259
 20
1308.63585915394
 30
0.0
 40
0.125
  0
CIRCLE
  5
3F8
330
6F
100
AcDbEntity
  8
A-0
  6
Continuous
 62
     4
100
AcDbCircle
 10
676.0745126038259
 20
1308.63585915394
 30
0.0
 40
0.0625
  0
LINE
  5
3F9
330
6F
100
AcDbEntity
  8
A-0
  6
Continuous
 62
     4
100
AcDbLine
 10
1771.074513
 20
574.0520729999999
 30
0.0
 11
1771.074513
 21
344.052073
 31
0.0
  0
LINE
  5
3FA
330
6F
100
AcDbEntity
  8
A-0
  6
Continuous
 62
     4
100
AcDbLine
 10
676.074513
 20
574.0520729999999
 30
0.0
 11
676.074513
 21
344.052073
 31
0.0
  0
TEXT
  5
3FB
330
6F
100
AcDbEntity
  8
A-0
 62
     4
100
AcDbText
 10
1181.597
 20
344.672
 30
0.0
 40
36.288
  1
1095
100
AcDbText
  0
LINE
  5
3FC
330
6F
100
AcDbEntity
  8
A-0
  6
Continuous
 62
     4
100
AcDbLine
 10
676.0745126038259
 20
344.052072686616
 30
0.0
 11
1771.074512603825
 21
344.052072686616
 31
0.0
  0
CIRCLE
  5
3FD
330
6F
100
AcDbEntity
  8
A-0
  6
Continuous
 62
     4
100
AcDbCircle
 10
676.0745126038259
 20
344.052072686616
 30
0.0
 40
0.25
  0
CIRCLE
  5
3FE
330
6F
100
AcDbEntity
  8
A-0
  6
Continuous
 62
     4
100
AcDbCircle
 10
676.0745126038259
 20
344.052072686616
 30
0.0
 40
0.1875
  0
CIRCLE
  5
3FF
330
6F
100
AcDbEntity
  8
A-0
  6
Continuous
 62
     4
100
AcDbCircle
 10
676.0745126038259
 20
344.052072686616
 30
0.0
 40
0.125
  0
CIRCLE
  5
400
330
6F
100
AcDbEntity
  8
A-0
  6
Continuous
 62
     4
100
AcDbCircle
 10
676.0745126038259
 20
344.052072686616
 30
0.0
 40
0.0625
  0
CIRCLE
  5
401
330
6F
100
AcDbEntity
  8
A-0
  6
Continuous
 62
     4
100
AcDbCircle
 10
1771.074512603825
 20
344.052072686616
 30
0.0
 40
0.25
  0
CIRCLE
  5
402
330
6F
100
AcDbEntity
  8
A-0
  6
Continuous
 62
     4
100
AcDbCircle
 10
1771.074512603825
 20
344.052072686616
 30
0.0
 40
0.1875
  0
CIRCLE
  5
403
330
6F
100
AcDbEntity
  8
A-0
  6
Continuous
 62
     4
100
AcDbCircle
 10
1771.074512603825
 20
344.052072686616
 30
0.0
 40
0.125
  0
CIRCLE
  5
404
330
6F
100
AcDbEntity
  8
A-0
  6
Continuous
 62
     4
100
AcDbCircle
 10
1771.074512603825
 20
344.052072686616
 30
0.0
 40
0.0625
  0
LINE
  5
405
330
6F
100
AcDbEntity
  8
A-0
  6
Continuous
 62
     4
100
AcDbLine
 10
653.574513
 20
2092.305662000001
 30
0.0
 11
523.8855479999999
 21
2092.305662000001
 31
0.0
  0
LINE
  5
406
330
6F
100
AcDbEntity
  8
A-0
  6
Continuous
 62
     4
100
AcDbLine
 10
653.574513
 20
2137.305662000001
 30
0.0
 11
523.8855479999999
 21
2137.305662000001
 31
0.0
  0
TEXT
  5
407
330
6F
100
AcDbEntity
  8
A-0
 62
     4
100
AcDbText
 10
490.7659999999999
 20
2132.854
 30
0.0
 40
36.288
  1
45
 50
90.0
100
AcDbText
  0
LINE
  5
408
330
6F
100
AcDbEntity
  8
A-0
  6
Continuous
 62
     4
100
AcDbLine
 10
523.885547579657
 20
2137.30566196992
 30
0.0
 11
523.885547579657
 21
2092.30566196992
 31
0.0
  0
CIRCLE
  5
409
330
6F
100
AcDbEntity
  8
A-0
  6
Continuous
 62
     4
100
AcDbCircle
 10
523.885547579657
 20
2137.30566196992
 30
0.0
 40
0.25
  0
CIRCLE
  5
40A
330
6F
100
AcDbEntity
  8
A-0
  6
Continuous
 62
     4
100
AcDbCircle
 10
523.885547579657
 20
2137.30566196992
 30
0.0
 40
0.1875
  0
CIRCLE
  5
40B
330
6F
100
AcDbEntity
  8
A-0
  6
Continuous
 62
     4
100
AcDbCircle
 10
523.885547579657
 20
2137.30566196992
 30
0.0
 40
0.125
  0
CIRCLE
  5
40C
330
6F
100
AcDbEntity
  8
A-0
  6
Continuous
 62
     4
100
AcDbCircle
 10
523.885547579657
 20
2137.30566196992
 30
0.0
 40
0.0625
  0
CIRCLE
  5
40D
330
6F
100
AcDbEntity
  8
A-0
  6
Continuous
 62
     4
100
AcDbCircle
 10
523.885547579657
 20
2092.30566196992
 30
0.0
 40
0.25
  0
CIRCLE
  5
40E
330
6F
100
AcDbEntity
  8
A-0
  6
Continuous
 62
     4
100
AcDbCircle
 10
523.885547579657
 20
2092.30566196992
 30
0.0
 40
0.1875
  0
CIRCLE
  5
40F
330
6F
100
AcDbEntity
  8
A-0
  6
Continuous
 62
     4
100
AcDbCircle
 10
523.885547579657
 20
2092.30566196992
 30
0.0
 40
0.125
  0
CIRCLE
  5
410
330
6F
100
AcDbEntity
  8
A-0
  6
Continuous
 62
     4
100
AcDbCircle
 10
523.885547579657
 20
2092.30566196992
 30
0.0
 40
0.0625
  0
LINE
  5
411
330
6F
100
AcDbEntity
  8
A-0
  6
Continuous
 62
     4
100
AcDbLine
 10
653.574513
 20
2534.305662
 30
0.0
 11
523.8855479999999
 21
2534.305662
 31
0.0
  0
LINE
  5
412
330
6F
100
AcDbEntity
  8
A-0
  6
Continuous
 62
     4
100
AcDbLine
 10
653.574513
 20
2617.305662000001
 30
0.0
 11
523.8855479999999
 21
2617.305662000001
 31
0.0
  0
TEXT
  5
413
330
6F
100
AcDbEntity
  8
A-0
 62
     4
100
AcDbText
 10
523.266
 20
2553.406
 30
0.0
 40
36.288
  1
83
 50
90.0
100
AcDbText
  0
LINE
  5
414
330
6F
100
AcDbEntity
  8
A-0
  6
Continuous
 62
     4
100
AcDbLine
 10
523.885547579657
 20
2617.30566196992
 30
0.0
 11
523.885547579657
 21
2534.30566196992
 31
0.0
  0
CIRCLE
  5
415
330
6F
100
AcDbEntity
  8
A-0
  6
Continuous
 62
     4
100
AcDbCircle
 10
523.885547579657
 20
2617.30566196992
 30
0.0
 40
0.25
  0
CIRCLE
  5
416
330
6F
100
AcDbEntity
  8
A-0
  6
Continuous
 62
     4
100
AcDbCircle
 10
523.885547579657
 20
2617.30566196992
 30
0.0
 40
0.1875
  0
CIRCLE
  5
417
330
6F
100
AcDbEntity
  8
A-0
  6
Continuous
 62
     4
100
AcDbCircle
 10
523.885547579657
 20
2617.30566196992
 30
0.0
 40
0.125
  0
CIRCLE
  5
418
330
6F
100
AcDbEntity
  8
A-0
  6
Continuous
 62
     4
100
AcDbCircle
 10
523.885547579657
 20
2617.30566196992
 30
0.0
 40
0.0625
  0
CIRCLE
  5
419
330
6F
100
AcDbEntity
  8
A-0
  6
Continuous
 62
     4
100
AcDbCircle
 10
523.885547579657
 20
2534.30566196992
 30
0.0
 40
0.25
  0
CIRCLE
  5
41A
330
6F
100
AcDbEntity
  8
A-0
  6
Continuous
 62
     4
100
AcDbCircle
 10
523.885547579657
 20
2534.30566196992
 30
0.0
 40
0.1875
  0
CIRCLE
  5
41B
330
6F
100
AcDbEntity
  8
A-0
  6
Continuous
 62
     4
100
AcDbCircle
 10
523.885547579657
 20
2534.30566196992
 30
0.0
 40
0.125
  0
CIRCLE
  5
41C
330
6F
100
AcDbEntity
  8
A-0
  6
Continuous
 62
     4
100
AcDbCircle
 10
523.885547579657
 20
2534.30566196992
 30
0.0
 40
0.0625
  0
LINE
  5
41D
330
6F
100
AcDbEntity
  8
A-0
  6
Continuous
 62
     4
100
AcDbLine
 10
653.574513
 20
2617.305662000001
 30
0.0
 11
523.8855479999999
 21
2617.305662000001
 31
0.0
  0
LINE
  5
41E
330
6F
100
AcDbEntity
  8
A-0
  6
Continuous
 62
     4
100
AcDbLine
 10
653.574513
 20
2642.305662
 30
0.0
 11
523.8855479999999
 21
2642.305662
 31
0.0
  0
TEXT
  5
41F
330
6F
100
AcDbEntity
  8
A-0
 62
     4
100
AcDbText
 10
490.7659999999999
 20
2647.498000000001
 30
0.0
 40
36.288
  1
25
 50
90.0
100
AcDbText
  0
LINE
  5
420
330
6F
100
AcDbEntity
  8
A-0
  6
Continuous
 62
     4
100
AcDbLine
 10
523.885547579657
 20
2642.30566196992
 30
0.0
 11
523.885547579657
 21
2617.30566196992
 31
0.0
  0
CIRCLE
  5
421
330
6F
100
AcDbEntity
  8
A-0
  6
Continuous
 62
     4
100
AcDbCircle
 10
523.885547579657
 20
2642.30566196992
 30
0.0
 40
0.25
  0
CIRCLE
  5
422
330
6F
100
AcDbEntity
  8
A-0
  6
Continuous
 62
     4
100
AcDbCircle
 10
523.885547579657
 20
2642.30566196992
 30
0.0
 40
0.1875
  0
CIRCLE
  5
423
330
6F
100
AcDbEntity
  8
A-0
  6
Continuous
 62
     4
100
AcDbCircle
 10
523.885547579657
 20
2642.30566196992
 30
0.0
 40
0.125
  0
CIRCLE
  5
424
330
6F
100
AcDbEntity
  8
A-0
  6
Continuous
 62
     4
100
AcDbCircle
 10
523.885547579657
 20
2642.30566196992
 30
0.0
 40
0.0625
  0
CIRCLE
  5
425
330
6F
100
AcDbEntity
  8
A-0
  6
Continuous
 62
     4
100
AcDbCircle
 10
523.885547579657
 20
2617.30566196992
 30
0.0
 40
0.25
  0
CIRCLE
  5
426
330
6F
100
AcDbEntity
  8
A-0
  6
Continuous
 62
     4
100
AcDbCircle
 10
523.885547579657
 20
2617.30566196992
 30
0.0
 40
0.1875
  0
CIRCLE
  5
427
330
6F
100
AcDbEntity
  8
A-0
  6
Continuous
 62
     4
100
AcDbCircle
 10
523.885547579657
 20
2617.30566196992
 30
0.0
 40
0.125
  0
CIRCLE
  5
428
330
6F
100
AcDbEntity
  8
A-0
  6
Continuous
 62
     4
100
AcDbCircle
 10
523.885547579657
 20
2617.30566196992
 30
0.0
 40
0.0625
  0
LINE
  5
429
330
6F
100
AcDbEntity
  8
A-0
  6
Continuous
 62
     4
100
AcDbLine
 10
653.574513
 20
2137.305662000001
 30
0.0
 11
523.8513199999999
 21
2137.305662000001
 31
0.0
  0
LINE
  5
42A
330
6F
100
AcDbEntity
  8
A-0
  6
Continuous
 62
     4
100
AcDbLine
 10
653.574513
 20
2534.305662
 30
0.0
 11
523.8513199999999
 21
2534.305662
 31
0.0
  0
TEXT
  5
42B
330
6F
100
AcDbEntity
  8
A-0
 62
     4
100
AcDbText
 10
523.231
 20
2302.206
 30
0.0
 40
36.288
  1
397
 50
90.0
100
AcDbText
  0
LINE
  5
42C
330
6F
100
AcDbEntity
  8
A-0
  6
Continuous
 62
     4
100
AcDbLine
 10
523.851320473041
 20
2534.30566196992
 30
0.0
 11
523.851320473041
 21
2137.30566196992
 31
0.0
  0
CIRCLE
  5
42D
330
6F
100
AcDbEntity
  8
A-0
  6
Continuous
 62
     4
100
AcDbCircle
 10
523.851320473041
 20
2534.30566196992
 30
0.0
 40
0.25
  0
CIRCLE
  5
42E
330
6F
100
AcDbEntity
  8
A-0
  6
Continuous
 62
     4
100
AcDbCircle
 10
523.851320473041
 20
2534.30566196992
 30
0.0
 40
0.1875
  0
CIRCLE
  5
42F
330
6F
100
AcDbEntity
  8
A-0
  6
Continuous
 62
     4
100
AcDbCircle
 10
523.851320473041
 20
2534.30566196992
 30
0.0
 40
0.125
  0
CIRCLE
  5
430
330
6F
100
AcDbEntity
  8
A-0
  6
Continuous
 62
     4
100
AcDbCircle
 10
523.851320473041
 20
2534.30566196992
 30
0.0
 40
0.0625
  0
CIRCLE
  5
431
330
6F
100
AcDbEntity
  8
A-0
  6
Continuous
 62
     4
100
AcDbCircle
 10
523.851320473041
 20
2137.30566196992
 30
0.0
 40
0.25
  0
CIRCLE
  5
432
330
6F
100
AcDbEntity
  8
A-0
  6
Continuous
 62
     4
100
AcDbCircle
 10
523.851320473041
 20
2137.30566196992
 30
0.0
 40
0.1875
  0
CIRCLE
  5
433
330
6F
100
AcDbEntity
  8
A-0
  6
Continuous
 62
     4
100
AcDbCircle
 10
523.851320473041
 20
2137.30566196992
 30
0.0
 40
0.125
  0
CIRCLE
  5
434
330
6F
100
AcDbEntity
  8
A-0
  6
Continuous
 62
     4
100
AcDbCircle
 10
523.851320473041
 20
2137.30566196992
 30
0.0
 40
0.0625
  0
LINE
  5
435
330
6F
100
AcDbEntity
  8
C-0
  6
DASHED2
 62
     3
100
AcDbLine
 10
673.574513
 20
2533.305662
 30
0.0
 11
673.574513
 21
2534.305662
 31
0.0
  0
LINE
  5
436
330
6F
100
AcDbEntity
  8
B-0
  6
CENTER
 62
     6
100
AcDbLine
 10
1392.574513
 20
1545.10412
 30
0.0
 11
1392.08946
 21
996.933034
 31
0.0
  0
LINE
  5
437
330
6F
100
AcDbEntity
  8
1-0
  6
Continuous
 62
     7
100
AcDbLine
 10
1771.074513
 20
684.0520729999999
 30
0.0
 11
676.074513
 21
684.0520729999999
 31
0.0
  0
LINE
  5
438
330
6F
100
AcDbEntity
  8
3-0
  6
Continuous
 62
     7
100
AcDbLine
 10
1372.574512603825
 20
684.0520726866159
 30
0.0
 11
980.5745126038271
 21
684.0520726866159
 31
0.0
  0
LINE
  5
439
330
6F
100
AcDbEntity
  8
3-0
  6
Continuous
 62
     7
100
AcDbLine
 10
980.5745126038271
 20
684.0520726866159
 30
0.0
 11
980.5745126038258
 21
1359.052072686616
 31
0.0
  0
LINE
  5
43A
330
6F
100
AcDbEntity
  8
3-0
  6
Continuous
 62
     7
100
AcDbLine
 10
980.5745126038258
 20
1359.052072686616
 30
0.0
 11
1372.574512603827
 21
1359.052072686616
 31
0.0
  0
LINE
  5
43B
330
6F
100
AcDbEntity
  8
3-0
  6
Continuous
 62
     7
100
AcDbLine
 10
1372.574512603827
 20
1359.052072686616
 30
0.0
 11
1372.574512603825
 21
684.0520726866159
 31
0.0
  0
LINE
  5
43C
330
6F
100
AcDbEntity
  8
3-0
  6
CENTER
 62
     8
100
AcDbLine
 10
1372.574512603827
 20
1359.052072686616
 30
0.0
 11
980.5745126038258
 21
1021.552072686616
 31
0.0
  0
LINE
  5
43D
330
6F
100
AcDbEntity
  8
3-0
  6
CENTER
 62
     8
100
AcDbLine
 10
980.5745126038258
 20
1021.552072686616
 30
0.0
 11
1372.574512603825
 21
684.0520726866159
 31
0.0
  0
LINE
  5
43E
330
6F
100
AcDbEntity
  8
3-0
  6
Continuous
 62
     7
100
AcDbLine
 10
1373.574512603825
 20
684.0520726866159
 30
0.0
 11
1765.574512603824
 21
684.0520726866159
 31
0.0
  0
LINE
  5
43F
330
6F
100
AcDbEntity
  8
3-0
  6
Continuous
 62
     7
100
AcDbLine
 10
1765.574512603824
 20
684.0520726866159
 30
0.0
 11
1765.574512603825
 21
1359.052072686616
 31
0.0
  0
LINE
  5
440
330
6F
100
AcDbEntity
  8
3-0
  6
Continuous
 62
     7
100
AcDbLine
 10
1765.574512603825
 20
1359.052072686616
 30
0.0
 11
1373.574512603824
 21
1359.052072686616
 31
0.0
  0
LINE
  5
441
330
6F
100
AcDbEntity
  8
3-0
  6
Continuous
 62
     7
100
AcDbLine
 10
1373.574512603824
 20
1359.052072686616
 30
0.0
 11
1373.574512603825
 21
684.0520726866159
 31
0.0
  0
LINE
  5
442
330
6F
100
AcDbEntity
  8
3-0
  6
CENTER
 62
     8
100
AcDbLine
 10
1373.574512603824
 20
1359.052072686616
 30
0.0
 11
1765.574512603825
 21
1021.552072686616
 31
0.0
  0
LINE
  5
443
330
6F
100
AcDbEntity
  8
3-0
  6
CENTER
 62
     8
100
AcDbLine
 10
1765.574512603825
 20
1021.552072686616
 30
0.0
 11
1373.574512603825
 21
684.0520726866159
 31
0.0
  0
LINE
  5
444
330
6F
100
AcDbEntity
  8
3-0
  6
Continuous
 62
     7
100
AcDbLine
 10
975.574512603827
 20
684.0520726866159
 30
0.0
 11
681.574512603829
 21
684.0520726866159
 31
0.0
  0
LINE
  5
445
330
6F
100
AcDbEntity
  8
3-0
  6
Continuous
 62
     7
100
AcDbLine
 10
681.574512603829
 20
684.0520726866159
 30
0.0
 11
681.574512603827
 21
1189.052072686616
 31
0.0
  0
LINE
  5
446
330
6F
100
AcDbEntity
  8
3-0
  6
Continuous
 62
     7
100
AcDbLine
 10
681.574512603827
 20
1189.052072686616
 30
0.0
 11
975.574512603829
 21
1189.052072686616
 31
0.0
  0
LINE
  5
447
330
6F
100
AcDbEntity
  8
3-0
  6
Continuous
 62
     7
100
AcDbLine
 10
975.574512603829
 20
1189.052072686616
 30
0.0
 11
975.574512603827
 21
684.0520726866159
 31
0.0
  0
LINE
  5
448
330
6F
100
AcDbEntity
  8
3-0
  6
CENTER
 62
     8
100
AcDbLine
 10
975.574512603829
 20
1189.052072686616
 30
0.0
 11
681.5745126038279
 21
936.552072686616
 31
0.0
  0
LINE
  5
449
330
6F
100
AcDbEntity
  8
3-0
  6
CENTER
 62
     8
100
AcDbLine
 10
681.5745126038279
 20
936.552072686616
 30
0.0
 11
975.574512603827
 21
684.0520726866159
 31
0.0
  0
LINE
  5
44A
330
6F
100
AcDbEntity
  8
3-0
  6
Continuous
 62
     7
100
AcDbLine
 10
975.574512603829
 20
1194.052072686616
 30
0.0
 11
681.574512603829
 21
1194.052072686616
 31
0.0
  0
LINE
  5
44B
330
6F
100
AcDbEntity
  8
3-0
  6
Continuous
 62
     7
100
AcDbLine
 10
681.574512603829
 20
1194.052072686616
 30
0.0
 11
681.574512603829
 21
1359.052072686616
 31
0.0
  0
LINE
  5
44C
330
6F
100
AcDbEntity
  8
3-0
  6
Continuous
 62
     7
100
AcDbLine
 10
681.574512603829
 20
1359.052072686616
 30
0.0
 11
975.574512603829
 21
1359.052072686616
 31
0.0
  0
LINE
  5
44D
330
6F
100
AcDbEntity
  8
3-0
  6
Continuous
 62
     7
100
AcDbLine
 10
975.574512603829
 20
1359.052072686616
 30
0.0
 11
975.574512603829
 21
1194.052072686616
 31
0.0
  0
LINE
  5
44E
330
6F
100
AcDbEntity
  8
3-0
  6
CENTER
 62
     8
100
AcDbLine
 10
975.5745130000001
 20
1359.052073
 30
0.0
 11
681.574513
 21
1194.052073
 31
0.0
  0
LINE
  5
44F
330
6F
100
AcDbEntity
  8
3-0
  6
DASHED2
 62
     7
100
AcDbLine
 10
960.5745126038289
 20
1209.052072686616
 30
0.0
 11
696.574512603829
 21
1209.052072686616
 31
0.0
  0
LINE
  5
450
330
6F
100
AcDbEntity
  8
3-0
  6
DASHED2
 62
     7
100
AcDbLine
 10
696.574512603829
 20
1209.052072686616
 30
0.0
 11
696.574512603829
 21
1279.052072686616
 31
0.0
  0
LINE
  5
451
330
6F
100
AcDbEntity
  8
3-0
  6
DASHED2
 62
     7
100
AcDbLine
 10
696.574512603829
 20
1279.052072686616
 30
0.0
 11
960.5745126038289
 21
1279.052072686616
 31
0.0
  0
LINE
  5
452
330
6F
100
AcDbEntity
  8
3-0
  6
DASHED2
 62
     7
100
AcDbLine
 10
960.5745126038289
 20
1279.052072686616
 30
0.0
 11
960.5745126038289
 21
1209.052072686616
 31
0.0
  0
LINE
  5
453
330
6F
100
AcDbEntity
  8
4-0
  6
Continuous
 62
     7
100
AcDbLine
 10
1765.574513
 20
1352.052073
 30
0.0
 11
1373.574513
 21
1352.052073
 31
0.0
  0
LINE
  5
454
330
6F
100
AcDbEntity
  8
4-0
  6
Continuous
 62
     7
100
AcDbLine
 10
1765.574513
 20
1332.352073
 30
0.0
 11
1373.574513
 21
1332.352073
 31
0.0
  0
LINE
  5
455
330
6F
100
AcDbEntity
  8
4-0
  6
Continuous
 62
     7
100
AcDbLine
 10
1372.574513
 20
1352.052073
 30
0.0
 11
980.574513
 21
1352.052073
 31
0.0
  0
LINE
  5
456
330
6F
100
AcDbEntity
  8
4-0
  6
Continuous
 62
     7
100
AcDbLine
 10
1372.574513
 20
1332.352073
 30
0.0
 11
980.574513
 21
1332.352073
 31
0.0
  0
LINE
  5
457
330
6F
100
AcDbEntity
  8
4-0
  6
Continuous
 62
     7
100
AcDbLine
 10
975.5745130000001
 20
1352.052073
 30
0.0
 11
681.574513
 21
1352.052073
 31
0.0
  0
LINE
  5
458
330
6F
100
AcDbEntity
  8
4-0
  6
Continuous
 62
     7
100
AcDbLine
 10
975.5745130000001
 20
1332.352073
 30
0.0
 11
681.574513
 21
1332.352073
 31
0.0
  0
LINE
  5
459
330
6F
100
AcDbEntity
  8
4-0
  6
Continuous
 62
     7
100
AcDbLine
 10
975.5745130000001
 20
1182.052073
 30
0.0
 11
681.574513
 21
1182.052073
 31
0.0
  0
LINE
  5
45A
330
6F
100
AcDbEntity
  8
4-0
  6
Continuous
 62
     7
100
AcDbLine
 10
975.5745130000001
 20
1162.352073
 30
0.0
 11
681.574513
 21
1162.352073
 31
0.0
  0
TEXT
  5
45B
330
6F
100
AcDbEntity
  8
D-0
 62
     5
100
AcDbText
 10
1186.182
 20
908.0269999999998
 30
0.0
 40
25.92
  1
包丁差
100
AcDbText
  0
LINE
  5
45C
330
6F
100
AcDbEntity
  8
1-0
  6
Continuous
 62
     7
100
AcDbLine
 10
1306.716648
 20
1008.194208
 30
0.0
 11
1313.787716
 21
1015.265276
 31
0.0
  0
LINE
  5
45D
330
6F
100
AcDbEntity
  8
1-0
  6
Continuous
 62
     7
100
AcDbLine
 10
1278.432377
 20
1008.194208
 30
0.0
 11
1271.361309
 21
1015.265276
 31
0.0
  0
LINE
  5
45E
330
6F
100
AcDbEntity
  8
1-0
  6
Continuous
 62
     7
100
AcDbLine
 10
1306.716648
 20
979.909937
 30
0.0
 11
1313.787716
 21
972.838869
 31
0.0
  0
LINE
  5
45F
330
6F
100
AcDbEntity
  8
1-0
  6
Continuous
 62
     7
100
AcDbLine
 10
1278.432377
 20
979.909937
 30
0.0
 11
1271.361309
 21
972.838869
 31
0.0
  0
LINE
  5
460
330
6F
100
AcDbEntity
  8
1-0
  6
Continuous
 62
     4
100
AcDbLine
 10
1367.574513
 20
1052.052073
 30
0.0
 11
1176.392338
 21
1052.052073
 31
0.0
  0
LINE
  5
461
330
6F
100
AcDbEntity
  8
1-0
  6
Continuous
 62
     4
100
AcDbLine
 10
1258.513095
 20
684.0520729999999
 30
0.0
 11
1176.392338
 21
684.0520729999999
 31
0.0
  0
TEXT
  5
462
330
6F
100
AcDbEntity
  8
1-0
 62
     4
100
AcDbText
 10
1175.772
 20
834.4519999999999
 30
0.0
 40
36.288
  1
368
 50
90.0
100
AcDbText
  0
LINE
  5
463
330
6F
100
AcDbEntity
  8
1-0
  6
Continuous
 62
     4
100
AcDbLine
 10
1176.392337799525
 20
684.0520726866159
 30
0.0
 11
1176.392337799525
 21
1052.052072686616
 31
0.0
  0
CIRCLE
  5
464
330
6F
100
AcDbEntity
  8
1-0
  6
Continuous
 62
     4
100
AcDbCircle
 10
1176.392337799525
 20
684.0520726866159
 30
0.0
 40
0.25
  0
CIRCLE
  5
465
330
6F
100
AcDbEntity
  8
1-0
  6
Continuous
 62
     4
100
AcDbCircle
 10
1176.392337799525
 20
684.0520726866159
 30
0.0
 40
0.1875
  0
CIRCLE
  5
466
330
6F
100
AcDbEntity
  8
1-0
  6
Continuous
 62
     4
100
AcDbCircle
 10
1176.392337799525
 20
684.0520726866159
 30
0.0
 40
0.125
  0
CIRCLE
  5
467
330
6F
100
AcDbEntity
  8
1-0
  6
Continuous
 62
     4
100
AcDbCircle
 10
1176.392337799525
 20
684.0520726866159
 30
0.0
 40
0.0625
  0
CIRCLE
  5
468
330
6F
100
AcDbEntity
  8
1-0
  6
Continuous
 62
     4
100
AcDbCircle
 10
1176.392337799525
 20
1052.052072686616
 30
0.0
 40
0.25
  0
CIRCLE
  5
469
330
6F
100
AcDbEntity
  8
1-0
  6
Continuous
 62
     4
100
AcDbCircle
 10
1176.392337799525
 20
1052.052072686616
 30
0.0
 40
0.1875
  0
CIRCLE
  5
46A
330
6F
100
AcDbEntity
  8
1-0
  6
Continuous
 62
     4
100
AcDbCircle
 10
1176.392337799525
 20
1052.052072686616
 30
0.0
 40
0.125
  0
CIRCLE
  5
46B
330
6F
100
AcDbEntity
  8
1-0
  6
Continuous
 62
     4
100
AcDbCircle
 10
1176.392337799525
 20
1052.052072686616
 30
0.0
 40
0.0625
  0
LINE
  5
46C
330
6F
100
AcDbEntity
  8
5-0
  6
DASHED2
 62
     7
100
AcDbLine
 10
1109.574513
 20
819.0520729999999
 30
0.0
 11
1353.574513
 21
819.0520729999999
 31
0.0
  0
LINE
  5
46D
330
6F
100
AcDbEntity
  8
5-0
  6
DASHED2
 62
     7
100
AcDbLine
 10
1101.574513
 20
827.0520729999999
 30
0.0
 11
1101.574513
 21
1049.052073
 31
0.0
  0
LINE
  5
46E
330
6F
100
AcDbEntity
  8
5-0
  6
DASHED2
 62
     7
100
AcDbLine
 10
1361.574513
 20
1049.052073
 30
0.0
 11
1361.574513
 21
827.0520729999999
 31
0.0
  0
ARC
  5
46F
330
6F
100
AcDbEntity
  8
5-0
  6
DOT
 62
     7
100
AcDbCircle
 10
1109.574513
 20
827.0520729999999
 30
0.0
 40
8.0
100
AcDbArc
 50
180.0
 51
270.0
  0
ARC
  5
470
330
6F
100
AcDbEntity
  8
5-0
  6
DOT
 62
     7
100
AcDbCircle
 10
1353.574513
 20
827.0520729999999
 30
0.0
 40
8.0
100
AcDbArc
 50
270.0
 51
0.0
  0
ARC
  5
471
330
6F
100
AcDbEntity
  8
5-0
  6
DASHED2
 62
     7
100
AcDbCircle
 10
1360.574513
 20
1048.052073
 30
0.0
 40
1.0
100
AcDbArc
 50
0.0
 51
90.0
  0
ARC
  5
472
330
6F
100
AcDbEntity
  8
5-0
  6
DASHED2
 62
     7
100
AcDbCircle
 10
1356.574513
 20
854.0520729999999
 30
0.0
 40
7.0
100
AcDbArc
 50
90.0
 51
270.0
  0
LINE
  5
473
330
6F
100
AcDbEntity
  8
5-0
  6
DASHED2
 62
     7
100
AcDbLine
 10
1356.574513
 20
861.0520729999999
 30
0.0
 11
1361.574513
 21
861.0520729999999
 31
0.0
  0
LINE
  5
474
330
6F
100
AcDbEntity
  8
5-0
  6
DASHED2
 62
     7
100
AcDbLine
 10
1356.574513
 20
847.052073
 30
0.0
 11
1361.574513
 21
847.052073
 31
0.0
  0
CIRCLE
  5
475
330
6F
100
AcDbEntity
  8
5-0
  6
DASHED2
 62
     7
100
AcDbCircle
 10
1356.574513
 20
854.0520729999999
 30
0.0
 40
2.0
  0
ARC
  5
476
330
6F
100
AcDbEntity
  8
5-0
  6
DASHED2
 62
     7
100
AcDbCircle
 10
1356.574513
 20
1014.052073
 30
0.0
 40
7.0
100
AcDbArc
 50
90.0
 51
270.0
  0
LINE
  5
477
330
6F
100
AcDbEntity
  8
5-0
  6
DASHED2
 62
     7
100
AcDbLine
 10
1356.574513
 20
1021.052073
 30
0.0
 11
1361.574513
 21
1021.052073
 31
0.0
  0
LINE
  5
478
330
6F
100
AcDbEntity
  8
5-0
  6
DASHED2
 62
     7
100
AcDbLine
 10
1356.574513
 20
1007.052073
 30
0.0
 11
1361.574513
 21
1007.052073
 31
0.0
  0
CIRCLE
  5
479
330
6F
100
AcDbEntity
  8
5-0
  6
DASHED2
 62
     7
100
AcDbCircle
 10
1356.574513
 20
1014.052073
 30
0.0
 40
2.0
  0
ARC
  5
47A
330
6F
100
AcDbEntity
  8
5-0
  6
DASHED2
 62
     7
100
AcDbCircle
 10
1106.574513
 20
854.0520729999999
 30
0.0
 40
7.0
100
AcDbArc
 50
270.0
 51
90.0
  0
LINE
  5
47B
330
6F
100
AcDbEntity
  8
5-0
  6
DASHED2
 62
     7
100
AcDbLine
 10
1106.574513
 20
861.0520729999999
 30
0.0
 11
1101.574513
 21
861.0520729999999
 31
0.0
  0
LINE
  5
47C
330
6F
100
AcDbEntity
  8
5-0
  6
DASHED2
 62
     7
100
AcDbLine
 10
1106.574513
 20
847.052073
 30
0.0
 11
1101.574513
 21
847.052073
 31
0.0
  0
CIRCLE
  5
47D
330
6F
100
AcDbEntity
  8
5-0
  6
DASHED2
 62
     7
100
AcDbCircle
 10
1106.574513
 20
854.0520729999999
 30
0.0
 40
2.0
  0
ARC
  5
47E
330
6F
100
AcDbEntity
  8
5-0
  6
DASHED2
 62
     7
100
AcDbCircle
 10
1106.574513
 20
1014.052073
 30
0.0
 40
7.0
100
AcDbArc
 50
270.0
 51
90.0
  0
LINE
  5
47F
330
6F
100
AcDbEntity
  8
5-0
  6
DASHED2
 62
     7
100
AcDbLine
 10
1106.574513
 20
1021.052073
 30
0.0
 11
1101.574513
 21
1021.052073
 31
0.0
  0
LINE
  5
480
330
6F
100
AcDbEntity
  8
5-0
  6
DASHED2
 62
     7
100
AcDbLine
 10
1106.574513
 20
1007.052073
 30
0.0
 11
1101.574513
 21
1007.052073
 31
0.0
  0
CIRCLE
  5
481
330
6F
100
AcDbEntity
  8
5-0
  6
DASHED2
 62
     7
100
AcDbCircle
 10
1106.574513
 20
1014.052073
 30
0.0
 40
2.0
  0
LINE
  5
482
330
6F
100
AcDbEntity
  8
5-0
  6
DASHED2
 62
     7
100
AcDbLine
 10
1104.574513
 20
1052.052073
 30
0.0
 11
1358.574513
 21
1052.052073
 31
0.0
  0
ARC
  5
483
330
6F
100
AcDbEntity
  8
5-0
  6
DASHED2
 62
     7
100
AcDbCircle
 10
1104.574513
 20
1049.052073
 30
0.0
 40
3.0
100
AcDbArc
 50
90.0
 51
180.0
  0
ARC
  5
484
330
6F
100
AcDbEntity
  8
5-0
  6
DASHED2
 62
     7
100
AcDbCircle
 10
1358.574513
 20
1049.052073
 30
0.0
 40
3.0
100
AcDbArc
 50
0.0
 51
90.0
  0
CIRCLE
  5
485
330
6F
100
AcDbEntity
  8
3-0
  6
Continuous
 62
     7
100
AcDbCircle
 10
1292.574513
 20
994.0520729999999
 30
0.0
 40
20.0
  0
LINE
  5
486
330
6F
100
AcDbEntity
  8
3-0
  6
Continuous
 62
     7
100
AcDbLine
 10
1313.787716
 20
972.838869
 30
0.0
 11
1306.716648
 21
979.909937
 31
0.0
  0
LINE
  5
487
330
6F
100
AcDbEntity
  8
3-0
  6
Continuous
 62
     7
100
AcDbLine
 10
1313.787716
 20
1015.265276
 30
0.0
 11
1306.716648
 21
1008.194208
 31
0.0
  0
TEXT
  5
488
330
6F
100
AcDbEntity
  8
D-0
 62
     5
100
AcDbText
 10
3977.866
 20
48.607
 30
0.0
 40
31.104
  1
2022.1
100
AcDbText
  0
LINE
  5
489
330
6F
100
AcDbEntity
  8
4-0
  6
Continuous
 62
     7
100
AcDbLine
 10
3293.50984
 20
1364.434548
 30
0.0
 11
3279.37984
 21
1364.434548
 31
0.0
  0
LINE
  5
48A
330
6F
100
AcDbEntity
  8
4-0
  6
Continuous
 62
     7
100
AcDbLine
 10
3277.629127
 20
1364.434548
 30
0.0
 11
3294.556197
 21
1364.434548
 31
0.0
  0
LINE
  5
48B
330
6F
100
AcDbEntity
  8
4-0
  6
Continuous
 62
     7
100
AcDbLine
 10
3284.230114
 20
1362.434548
 30
0.0
 11
3290.850616
 21
1362.434548
 31
0.0
  0
LINE
  5
48C
330
6F
100
AcDbEntity
  8
4-0
  6
Continuous
 62
     7
100
AcDbLine
 10
3277.662732
 20
1318.834548
 30
0.0
 11
3278.77984
 21
1318.834548
 31
0.0
  0
LINE
  5
48D
330
6F
100
AcDbEntity
  8
4-0
  6
Continuous
 62
     7
100
AcDbLine
 10
3276.77984
 20
1363.629814
 30
0.0
 11
3276.77984
 21
1319.608881
 31
0.0
  0
ARC
  5
48E
330
6F
100
AcDbEntity
  8
4-0
  6
Continuous
 62
     7
100
AcDbCircle
 10
3277.680722
 20
1319.745562
 30
0.0
 40
0.9111909999999999
100
AcDbArc
 50
188.627
 51
268.869
  0
ARC
  5
48F
330
6F
100
AcDbEntity
  8
4-0
  6
Continuous
 62
     7
100
AcDbCircle
 10
3277.660853
 20
1363.550545
 30
0.0
 40
0.884572
100
AcDbArc
 50
87.94499999999999
 51
174.859
  0
LINE
  5
490
330
6F
100
AcDbEntity
  8
4-0
  6
Continuous
 62
     7
100
AcDbLine
 10
3294.755836
 20
1364.254225
 30
0.0
 11
3295.515369
 21
1357.952875
 31
0.0
  0
LINE
  5
491
330
6F
100
AcDbEntity
  8
4-0
  6
Continuous
 62
     7
100
AcDbLine
 10
3291.354282
 20
1362.074981
 30
0.0
 11
3291.883921
 21
1357.783368
 31
0.0
  0
ARC
  5
492
330
6F
100
AcDbEntity
  8
4-0
  6
Continuous
 62
     7
100
AcDbCircle
 10
3292.57865
 20
1357.869107
 30
0.0
 40
0.7
100
AcDbArc
 50
187.035
 51
270.0
  0
ARC
  5
493
330
6F
100
AcDbEntity
  8
4-0
  6
Continuous
 62
     7
100
AcDbCircle
 10
3290.840625
 20
1361.888013
 30
0.0
 40
0.546626
100
AcDbArc
 50
20.001
 51
88.953
  0
ARC
  5
494
330
6F
100
AcDbEntity
  8
4-0
  6
Continuous
 62
     7
100
AcDbCircle
 10
3284.923132
 20
1357.045785
 30
0.0
 40
5.433143
100
AcDbArc
 50
97.32800000000001
 51
175.897
  0
LINE
  5
495
330
6F
100
AcDbEntity
  8
4-0
  6
Continuous
 62
     7
100
AcDbLine
 10
3279.503916
 20
1357.434548
 30
0.0
 11
3279.502262
 21
1343.115039
 31
0.0
  0
ARC
  5
496
330
6F
100
AcDbEntity
  8
4-0
  6
Continuous
 62
     7
100
AcDbCircle
 10
3294.495398
 20
1364.166562
 30
0.0
 40
0.274796
100
AcDbArc
 50
18.603
 51
77.217
  0
LINE
  5
497
330
6F
100
AcDbEntity
  8
4-0
  6
Continuous
 62
     7
100
AcDbLine
 10
3292.57865
 20
1357.169107
 30
0.0
 11
3294.820399000001
 21
1357.169107
 31
0.0
  0
ARC
  5
498
330
6F
100
AcDbEntity
  8
4-0
  6
Continuous
 62
     7
100
AcDbCircle
 10
3294.820399000001
 20
1357.869107
 30
0.0
 40
0.7
100
AcDbArc
 50
270.0
 51
6.873000000000001
  0
ARC
  5
499
330
6F
100
AcDbEntity
  8
4-0
  6
Continuous
 62
     7
100
AcDbCircle
 10
3285.163063000001
 20
1343.75311
 30
0.0
 40
5.7
100
AcDbArc
 50
186.431
 51
256.176
  0
ARC
  5
49A
330
6F
100
AcDbEntity
  8
4-0
  6
Continuous
 62
     7
100
AcDbCircle
 10
3283.79652
 20
1336.221772
 30
0.0
 40
1.999706999999999
100
AcDbArc
 50
6.107999999999998
 51
89.846
  0
TEXT
  5
49B
330
6F
100
AcDbEntity
  8
D-0
 62
     2
100
AcDbText
 10
3066.998
 20
450.4869999999999
 30
0.0
 40
25.92
  1
※
100
AcDbText
  0
TEXT
  5
49C
330
6F
100
AcDbEntity
  8
D-0
 62
     2
100
AcDbText
 10
3549.777000000001
 20
336.518
 30
0.0
 40
25.92
  1
※巾木奥行(D)(M)(A)はD496
100
AcDbText
  0
ENDSEC
  0
SECTION
  2
OBJECTS
  0
DICTIONARY
  5
C
330
0
100
AcDbDictionary
281
     1
  3
ACAD_CIP_PREVIOUS_PRODUCT_INFO
350
49E
  3
ACAD_COLOR
350
62
  3
ACAD_DETAILVIEWSTYLE
350
69
  3
ACAD_GROUP
350
D
  3
ACAD_LAYOUT
350
61
  3
ACAD_MATERIAL
350
10
  3
ACAD_MLEADERSTYLE
350
65
  3
ACAD_MLINESTYLE
350
5E
  3
ACAD_PLOTSETTINGS
350
60
  3
ACAD_PLOTSTYLENAME
350
E
  3
ACAD_SCALELIST
350
42
  3
ACAD_SECTIONVIEWSTYLE
350
67
  3
ACAD_TABLESTYLE
350
63
  3
ACAD_VISUALSTYLE
350
29
  3
ACDB_RECOMPOSE_DATA
350
4C8
  3
AcDbVariableDictionary
350
4BB
  3
DWGPROPS
350
4C9
  0
DICTIONARY
  5
49F
330
54
100
AcDbDictionary
280
     1
281
     1
  3
ADSK_XREC_LAYER_RECONCILED
360
4A0
  0
DICTIONARY
  5
4A1
330
7F
100
AcDbDictionary
280
     1
281
     1
  3
ADSK_XREC_LAYER_RECONCILED
360
4A2
  0
DICTIONARY
  5
4A3
330
80
100
AcDbDictionary
280
     1
281
     1
  3
ADSK_XREC_LAYER_RECONCILED
360
4A4
  0
DICTIONARY
  5
4A5
330
81
100
AcDbDictionary
280
     1
281
     1
  3
ADSK_XREC_LAYER_RECONCILED
360
4A6
  0
DICTIONARY
  5
4A7
330
82
100
AcDbDictionary
280
     1
281
     1
  3
ADSK_XREC_LAYER_RECONCILED
360
4A8
  0
DICTIONARY
  5
4A9
330
83
100
AcDbDictionary
280
     1
281
     1
  3
ADSK_XREC_LAYER_RECONCILED
360
4AA
  0
DICTIONARY
  5
4AB
330
84
100
AcDbDictionary
280
     1
281
     1
  3
ADSK_XREC_LAYER_RECONCILED
360
4AC
  0
DICTIONARY
  5
4AD
330
85
100
AcDbDictionary
280
     1
281
     1
  3
ADSK_XREC_LAYER_RECONCILED
360
4AE
  0
DICTIONARY
  5
4AF
330
86
100
AcDbDictionary
280
     1
281
     1
  3
ADSK_XREC_LAYER_RECONCILED
360
4B0
  0
DICTIONARY
  5
4B1
330
87
100
AcDbDictionary
280
     1
281
     1
  3
ADSK_XREC_LAYER_RECONCILED
360
4B2
  0
DICTIONARY
  5
4B3
330
88
100
AcDbDictionary
280
     1
281
     1
  3
ADSK_XREC_LAYER_RECONCILED
360
4B4
  0
DICTIONARY
  5
4B5
330
89
100
AcDbDictionary
280
     1
281
     1
  3
ADSK_XREC_LAYER_RECONCILED
360
4B6
  0
DICTIONARY
  5
4B7
330
8A
100
AcDbDictionary
280
     1
281
     1
  3
ADSK_XREC_LAYER_RECONCILED
360
4B8
  0
DICTIONARY
  5
4B9
330
90
100
AcDbDictionary
280
     1
281
     1
  3
ADSK_XREC_LAYER_RECONCILED
360
4BA
  0
XRECORD
  5
49E
102
{ACAD_REACTORS
330
C
102
}
330
C
100
AcDbXrecord
280
     1
300
ACDLT
300
2020
300

  0
DICTIONARY
  5
62
102
{ACAD_REACTORS
330
C
102
}
330
C
100
AcDbDictionary
281
     1
  0
DICTIONARY
  5
69
102
{ACAD_REACTORS
330
C
102
}
330
C
100
AcDbDictionary
281
     1
  3
Imperial24
350
6A
  0
DICTIONARY
  5
D
102
{ACAD_REACTORS
330
C
102
}
330
C
100
AcDbDictionary
281
     1
  0
DICTIONARY
  5
61
102
{ACAD_REACTORS
330
C
102
}
330
C
100
AcDbDictionary
281
     1
  3
Model
350
72
  3
レイアウト1
350
6E
  0
DICTIONARY
  5
10
102
{ACAD_REACTORS
330
C
102
}
330
C
100
AcDbDictionary
281
     1
  3
ByBlock
350
19
  3
ByLayer
350
11
  3
Global
350
21
  0
DICTIONARY
  5
65
102
{ACAD_REACTORS
330
C
102
}
330
C
100
AcDbDictionary
281
     1
  3
Standard
350
66
  0
DICTIONARY
  5
5E
102
{ACAD_REACTORS
330
C
102
}
330
C
100
AcDbDictionary
281
     1
  3
Standard
350
5F
  0
DICTIONARY
  5
60
102
{ACAD_REACTORS
330
C
102
}
330
C
100
AcDbDictionary
281
     1
  0
ACDBDICTIONARYWDFLT
  5
E
102
{ACAD_REACTORS
330
C
102
}
330
C
100
AcDbDictionary
281
     1
  3
Normal
350
F
100
AcDbDictionaryWithDefault
340
F
  0
DICTIONARY
  5
42
102
{ACAD_REACTORS
330
C
102
}
330
C
100
AcDbDictionary
281
     1
  3
A0
350
43
  3
A1
350
44
  3
A2
350
45
  3
A3
350
46
  3
A4
350
47
  3
A5
350
48
  3
A6
350
49
  3
A7
350
4A
  3
A8
350
4B
  3
A9
350
4C
  3
B0
350
4D
  3
B1
350
4E
  3
B2
350
4F
  3
B3
350
50
  3
B4
350
51
  3
B5
350
52
  3
B6
350
53
  0
DICTIONARY
  5
67
102
{ACAD_REACTORS
330
C
102
}
330
C
100
AcDbDictionary
281
     1
  3
Imperial24
350
68
  0
DICTIONARY
  5
63
102
{ACAD_REACTORS
330
C
102
}
330
C
100
AcDbDictionary
281
     1
  3
Standard
350
64
  0
DICTIONARY
  5
29
102
{ACAD_REACTORS
330
C
102
}
330
C
100
AcDbDictionary
281
     1
  3
2dWireframe
350
2F
  3
Basic
350
2E
  3
Brighten
350
35
  3
ColorChange
350
39
  3
Conceptual
350
32
  3
Dim
350
34
  3
EdgeColorOff
350
41
  3
Facepattern
350
38
  3
Flat
350
2A
  3
FlatWithEdges
350
2B
  3
Gouraud
350
2C
  3
GouraudWithEdges
350
2D
  3
Hidden
350
31
  3
JitterOff
350
3F
  3
Linepattern
350
37
  3
OverhangOff
350
40
  3
Realistic
350
33
  3
Shaded
350
3E
  3
Shaded with edges
350
3D
  3
Shades of Gray
350
3A
  3
Sketchy
350
3B
  3
Thicken
350
36
  3
Wireframe
350
30
  3
X-Ray
350
3C
  0
XRECORD
  5
4C8
102
{ACAD_REACTORS
330
C
102
}
330
C
100
AcDbXrecord
280
     1
 90
        1
330
64
  0
DICTIONARY
  5
4BB
102
{ACAD_REACTORS
330
C
102
}
330
C
100
AcDbDictionary
281
     1
  3
CANNOSCALE
350
4C0
  3
CMLEADERSTYLE
350
4BD
  3
CTABLESTYLE
350
4BC
  3
CVIEWDETAILSTYLE
350
4BE
  3
CVIEWSECTIONSTYLE
350
4BF
  3
DIMASSOC
350
4C3
  3
INDEXCTL
350
4C2
  3
SORTENTS
350
4C1
  3
XCLIPFRAME
350
4C4
  0
XRECORD
  5
4C9
102
{ACAD_REACTORS
330
C
102
}
330
C
100
AcDbXrecord
280
     1
  1
DWGPROPS COOKIE
  2

  3

  4

  6

  7

  8
suzuki
  9

300
=
301
=
302
=
303
=
304
=
305
=
306
=
307
=
308
=
309
=
 40
0.0003009259259259
 41
2459620.659722222
 42
2459620.660023148
  1

 90
        0
  0
XRECORD
  5
4A0
102
{ACAD_REACTORS
330
49F
102
}
330
49F
100
AcDbXrecord
280
     1
290
     1
  0
XRECORD
  5
4A2
102
{ACAD_REACTORS
330
4A1
102
}
330
4A1
100
AcDbXrecord
280
     1
290
     1
  0
XRECORD
  5
4A4
102
{ACAD_REACTORS
330
4A3
102
}
330
4A3
100
AcDbXrecord
280
     1
290
     1
  0
XRECORD
  5
4A6
102
{ACAD_REACTORS
330
4A5
102
}
330
4A5
100
AcDbXrecord
280
     1
290
     1
  0
XRECORD
  5
4A8
102
{ACAD_REACTORS
330
4A7
102
}
330
4A7
100
AcDbXrecord
280
     1
290
     1
  0
XRECORD
  5
4AA
102
{ACAD_REACTORS
330
4A9
102
}
330
4A9
100
AcDbXrecord
280
     1
290
     1
  0
XRECORD
  5
4AC
102
{ACAD_REACTORS
330
4AB
102
}
330
4AB
100
AcDbXrecord
280
     1
290
     1
  0
XRECORD
  5
4AE
102
{ACAD_REACTORS
330
4AD
102
}
330
4AD
100
AcDbXrecord
280
     1
290
     1
  0
XRECORD
  5
4B0
102
{ACAD_REACTORS
330
4AF
102
}
330
4AF
100
AcDbXrecord
280
     1
290
     1
  0
XRECORD
  5
4B2
102
{ACAD_REACTORS
330
4B1
102
}
330
4B1
100
AcDbXrecord
280
     1
290
     1
  0
XRECORD
  5
4B4
102
{ACAD_REACTORS
330
4B3
102
}
330
4B3
100
AcDbXrecord
280
     1
290
     1
  0
XRECORD
  5
4B6
102
{ACAD_REACTORS
330
4B5
102
}
330
4B5
100
AcDbXrecord
280
     1
290
     1
  0
XRECORD
  5
4B8
102
{ACAD_REACTORS
330
4B7
102
}
330
4B7
100
AcDbXrecord
280
     1
290
     1
  0
XRECORD
  5
4BA
102
{ACAD_REACTORS
330
4B9
102
}
330
4B9
100
AcDbXrecord
280
     1
290
     1
  0
ACDBDETAILVIEWSTYLE
  5
6A
102
{ACAD_XDICTIONARY
360
501
102
}
102
{ACAD_REACTORS
330
69
102
}
330
69
100
AcDbModelDocViewStyle
 70
     0
  3
Imperial24
290
     0
100
AcDbDetailViewStyle
 70
     0
 71
     0
 90
        3
 71
     1
340
55
 40
0.24
340
0
 40
0.24
300

 40
0.36
280
     3
 71
     2
340
5C
 90
       25
 71
     3
340
55
 40
0.24
 90
        1
 40
0.75
 90
        1
300
%<\AcVar ViewType \f "%tc1">% %<\AcVar ViewDetailId>%\PSCALE %<\AcVar ViewScale \f "%sn">%
 71
     4
340
5C
 90
       25
340
5C
 90
       25
280
     0
  0
LAYOUT
  5
72
102
{ACAD_XDICTIONARY
360
505
102
}
102
{ACAD_REACTORS
330
61
102
}
330
61
100
AcDbPlotSettings
  1

  2
DocuCentre-V 4070
  4

  6

 40
0.0
 41
0.0
 42
0.0
 43
0.0
 44
0.0
 45
0.0
 46
0.0
 47
0.0
 48
0.0
 49
0.0
140
0.0
141
0.0
142
1.0
143
1.0
 70
  1712
 72
     0
 73
     0
 74
     0
  7

 75
     0
147
1.0
148
0.0
149
0.0
100
AcDbLayout
  1
Model
 70
     1
 71
     0
 10
0.0
 20
0.0
 11
12.0
 21
9.0
 12
0.0
 22
0.0
 32
0.0
 14
0.0
 24
0.0
 34
0.0
 15
0.0
 25
0.0
 35
0.0
146
0.0
 13
0.0
 23
0.0
 33
0.0
 16
1.0
 26
0.0
 36
0.0
 17
0.0
 27
1.0
 37
0.0
 76
     0
330
6F
331
8F
  0
LAYOUT
  5
6E
102
{ACAD_XDICTIONARY
360
503
102
}
102
{ACAD_REACTORS
330
61
102
}
330
61
100
AcDbPlotSettings
  1

  2
DocuCentre-V 4070
  4

  6

 40
0.0
 41
0.0
 42
0.0
 43
0.0
 44
0.0
 45
0.0
 46
0.0
 47
0.0
 48
0.0
 49
0.0
140
0.0
141
0.0
142
1.0
143
1.0
 70
   688
 72
     0
 73
     0
 74
     5
  7

 75
    16
147
1.0
148
0.0
149
0.0
100
AcDbLayout
  1
レイアウト1
 70
     1
 71
     1
 10
0.0
 20
0.0
 11
12.0
 21
9.0
 12
0.0
 22
0.0
 32
0.0
 14
1.000000000000000E+20
 24
1.000000000000000E+20
 34
1.000000000000000E+20
 15
-1.000000000000000E+20
 25
-1.000000000000000E+20
 35
-1.000000000000000E+20
146
0.0
 13
0.0
 23
0.0
 33
0.0
 16
1.0
 26
0.0
 36
0.0
 17
0.0
 27
1.0
 37
0.0
 76
     0
330
6B
  0
MATERIAL
  5
19
102
{ACAD_XDICTIONARY
360
1A
102
}
102
{ACAD_REACTORS
330
10
102
}
330
10
100
AcDbMaterial
  1
ByBlock
 72
     0
 43
0.0208333333333333
 43
0.0
 43
0.0
 43
0.0
 43
0.0
 43
0.0208333333333333
 43
0.0
 43
0.0
 43
0.0
 43
0.0
 43
1.0
 43
0.0
 43
0.0
 43
0.0
 43
0.0
 43
1.0
 77
     0
 47
0.0208333333333333
 47
0.0
 47
0.0
 47
0.0
 47
0.0
 47
0.0208333333333333
 47
0.0
 47
0.0
 47
0.0
 47
0.0
 47
1.0
 47
0.0
 47
0.0
 47
0.0
 47
0.0
 47
1.0
171
     0
 49
0.0208333333333333
 49
0.0
 49
0.0
 49
0.0
 49
0.0
 49
0.0208333333333333
 49
0.0
 49
0.0
 49
0.0
 49
0.0
 49
1.0
 49
0.0
 49
0.0
 49
0.0
 49
0.0
 49
1.0
175
     0
142
0.0208333333333333
142
0.0
142
0.0
142
0.0
142
0.0
142
0.0208333333333333
142
0.0
142
0.0
142
0.0
142
0.0
142
1.0
142
0.0
142
0.0
142
0.0
142
0.0
142
1.0
179
     0
144
0.0208333333333333
144
0.0
144
0.0
144
0.0
144
0.0
144
0.0208333333333333
144
0.0
144
0.0
144
0.0
144
0.0
144
1.0
144
0.0
144
0.0
144
0.0
144
0.0
144
1.0
147
0.0208333333333333
147
0.0
147
0.0
147
0.0
147
0.0
147
0.0208333333333333
147
0.0
147
0.0
147
0.0
147
0.0
147
1.0
147
0.0
147
0.0
147
0.0
147
0.0
147
1.0
  0
MATERIAL
  5
11
102
{ACAD_XDICTIONARY
360
12
102
}
102
{ACAD_REACTORS
330
10
102
}
330
10
100
AcDbMaterial
  1
ByLayer
 72
     0
 43
0.0208333333333333
 43
0.0
 43
0.0
 43
0.0
 43
0.0
 43
0.0208333333333333
 43
0.0
 43
0.0
 43
0.0
 43
0.0
 43
1.0
 43
0.0
 43
0.0
 43
0.0
 43
0.0
 43
1.0
 77
     0
 47
0.0208333333333333
 47
0.0
 47
0.0
 47
0.0
 47
0.0
 47
0.0208333333333333
 47
0.0
 47
0.0
 47
0.0
 47
0.0
 47
1.0
 47
0.0
 47
0.0
 47
0.0
 47
0.0
 47
1.0
171
     0
 49
0.0208333333333333
 49
0.0
 49
0.0
 49
0.0
 49
0.0
 49
0.0208333333333333
 49
0.0
 49
0.0
 49
0.0
 49
0.0
 49
1.0
 49
0.0
 49
0.0
 49
0.0
 49
0.0
 49
1.0
175
     0
142
0.0208333333333333
142
0.0
142
0.0
142
0.0
142
0.0
142
0.0208333333333333
142
0.0
142
0.0
142
0.0
142
0.0
142
1.0
142
0.0
142
0.0
142
0.0
142
0.0
142
1.0
179
     0
144
0.0208333333333333
144
0.0
144
0.0
144
0.0
144
0.0
144
0.0208333333333333
144
0.0
144
0.0
144
0.0
144
0.0
144
1.0
144
0.0
144
0.0
144
0.0
144
0.0
144
1.0
147
0.0208333333333333
147
0.0
147
0.0
147
0.0
147
0.0
147
0.0208333333333333
147
0.0
147
0.0
147
0.0
147
0.0
147
1.0
147
0.0
147
0.0
147
0.0
147
0.0
147
1.0
  0
MATERIAL
  5
21
102
{ACAD_XDICTIONARY
360
22
102
}
102
{ACAD_REACTORS
330
10
102
}
330
10
100
AcDbMaterial
  1
Global
 72
     0
 43
0.0208333333333333
 43
0.0
 43
0.0
 43
0.0
 43
0.0
 43
0.0208333333333333
 43
0.0
 43
0.0
 43
0.0
 43
0.0
 43
1.0
 43
0.0
 43
0.0
 43
0.0
 43
0.0
 43
1.0
 77
     0
 47
0.0208333333333333
 47
0.0
 47
0.0
 47
0.0
 47
0.0
 47
0.0208333333333333
 47
0.0
 47
0.0
 47
0.0
 47
0.0
 47
1.0
 47
0.0
 47
0.0
 47
0.0
 47
0.0
 47
1.0
171
     0
 49
0.0208333333333333
 49
0.0
 49
0.0
 49
0.0
 49
0.0
 49
0.0208333333333333
 49
0.0
 49
0.0
 49
0.0
 49
0.0
 49
1.0
 49
0.0
 49
0.0
 49
0.0
 49
0.0
 49
1.0
175
     0
142
0.0208333333333333
142
0.0
142
0.0
142
0.0
142
0.0
142
0.0208333333333333
142
0.0
142
0.0
142
0.0
142
0.0
142
1.0
142
0.0
142
0.0
142
0.0
142
0.0
142
1.0
179
     0
144
0.0208333333333333
144
0.0
144
0.0
144
0.0
144
0.0
144
0.0208333333333333
144
0.0
144
0.0
144
0.0
144
0.0
144
1.0
144
0.0
144
0.0
144
0.0
144
0.0
144
1.0
147
0.0208333333333333
147
0.0
147
0.0
147
0.0
147
0.0
147
0.0208333333333333
147
0.0
147
0.0
147
0.0
147
0.0
147
1.0
147
0.0
147
0.0
147
0.0
147
0.0
147
1.0
  0
MLEADERSTYLE
  5
66
102
{ACAD_REACTORS
330
65
102
}
330
65
100
AcDbMLeaderStyle
170
     2
171
     1
172
     0
 90
        2
 40
0.0
 41
0.0
173
     1
 91
-1056964608
340
5A
 92
       -2
290
     1
 42
0.09
291
     1
 43
0.36
  3
Standard
 44
0.18
300

342
55
174
     1
178
     6
175
     1
176
     0
 93
-1056964608
 45
0.18
292
     0
297
     0
 46
0.18
 94
-1056964608
 47
1.0
 49
1.0
140
1.0
293
     1
141
0.0
294
     1
177
     0
142
1.0
295
     0
296
     0
143
0.125
1001
ACAD_MLEADERVER
1070
     2
  0
MLINESTYLE
  5
5F
102
{ACAD_REACTORS
330
5E
102
}
330
5E
100
AcDbMlineStyle
  2
STANDARD
 70
     0
  3

 62
   256
 51
90.0
 52
90.0
 71
     2
 49
0.5
 62
   256
  6
BYLAYER
 49
-0.5
 62
   256
  6
BYLAYER
  0
ACDBPLACEHOLDER
  5
F
102
{ACAD_REACTORS
330
E
102
}
330
E
  0
SCALE
  5
43
102
{ACAD_REACTORS
330
42
102
}
330
42
100
AcDbScale
 70
     0
300
1:1
140
1.0
141
1.0
290
     1
  0
SCALE
  5
44
102
{ACAD_REACTORS
330
42
102
}
330
42
100
AcDbScale
 70
     0
300
1/128" = 1'-0"
140
0.0078125
141
12.0
290
     0
  0
SCALE
  5
45
102
{ACAD_REACTORS
330
42
102
}
330
42
100
AcDbScale
 70
     0
300
1/64" = 1'-0"
140
0.015625
141
12.0
290
     0
  0
SCALE
  5
46
102
{ACAD_REACTORS
330
42
102
}
330
42
100
AcDbScale
 70
     0
300
1/32" = 1'-0"
140
0.03125
141
12.0
290
     0
  0
SCALE
  5
47
102
{ACAD_REACTORS
330
42
102
}
330
42
100
AcDbScale
 70
     0
300
1/16" = 1'-0"
140
0.0625
141
12.0
290
     0
  0
SCALE
  5
48
102
{ACAD_REACTORS
330
42
102
}
330
42
100
AcDbScale
 70
     0
300
3/32" = 1'-0"
140
0.09375
141
12.0
290
     0
  0
SCALE
  5
49
102
{ACAD_REACTORS
330
42
102
}
330
42
100
AcDbScale
 70
     0
300
1/8" = 1'-0"
140
0.125
141
12.0
290
     0
  0
SCALE
  5
4A
102
{ACAD_REACTORS
330
42
102
}
330
42
100
AcDbScale
 70
     0
300
3/16" = 1'-0"
140
0.1875
141
12.0
290
     0
  0
SCALE
  5
4B
102
{ACAD_REACTORS
330
42
102
}
330
42
100
AcDbScale
 70
     0
300
1/4" = 1'-0"
140
0.25
141
12.0
290
     0
  0
SCALE
  5
4C
102
{ACAD_REACTORS
330
42
102
}
330
42
100
AcDbScale
 70
     0
300
3/8" = 1'-0"
140
0.375
141
12.0
290
     0
  0
SCALE
  5
4D
102
{ACAD_REACTORS
330
42
102
}
330
42
100
AcDbScale
 70
     0
300
1/2" = 1'-0"
140
0.5
141
12.0
290
     0
  0
SCALE
  5
4E
102
{ACAD_REACTORS
330
42
102
}
330
42
100
AcDbScale
 70
     0
300
3/4" = 1'-0"
140
0.75
141
12.0
290
     0
  0
SCALE
  5
4F
102
{ACAD_REACTORS
330
42
102
}
330
42
100
AcDbScale
 70
     0
300
1" = 1'-0"
140
1.0
141
12.0
290
     0
  0
SCALE
  5
50
102
{ACAD_REACTORS
330
42
102
}
330
42
100
AcDbScale
 70
     0
300
1-1/2" = 1'-0"
140
1.5
141
12.0
290
     0
  0
SCALE
  5
51
102
{ACAD_REACTORS
330
42
102
}
330
42
100
AcDbScale
 70
     0
300
3" = 1'-0"
140
3.0
141
12.0
290
     0
  0
SCALE
  5
52
102
{ACAD_REACTORS
330
42
102
}
330
42
100
AcDbScale
 70
     0
300
6" = 1'-0"
140
6.0
141
12.0
290
     0
  0
SCALE
  5
53
102
{ACAD_REACTORS
330
42
102
}
330
42
100
AcDbScale
 70
     0
300
1'-0" = 1'-0"
140
12.0
141
12.0
290
     0
  0
ACDBSECTIONVIEWSTYLE
  5
68
102
{ACAD_XDICTIONARY
360
4FF
102
}
102
{ACAD_REACTORS
330
67
102
}
330
67
100
AcDbModelDocViewStyle
 70
     0
  3
Imperial24
290
     0
100
AcDbSectionViewStyle
 70
     0
 71
     0
 90
       78
 71
     1
340
55
 40
0.24
340
0
340
0
 40
0.24
300
I, O, Q, S, X, Z
 40
0.48
 90
        3
 40
0.18
 90
        1
 71
     2
340
5C
 90
       25
340
5C
 90
       50
 40
0.24
 40
0.0
 40
0.24
 71
     3
340
55
 40
0.24
 90
        1
 40
0.75
 90
        1
300
%<\AcVar ViewType \f "%tc1">% %<\AcVar ViewSectionStartId>%-%<\AcVar ViewSectionEndId>%\PSCALE %<\AcVar ViewScale \f "%sn">%
 71
     4
300
ANSI31
 40
1.0
 90
        0
290
     0
290
     0
 90
        6
 40
0.0
 40
1.570796326794896
 40
0.2617993877991494
 40
1.308996938995747
 40
-0.2617993877991494
 40
1.832595714594046
  0
TABLESTYLE
  5
64
102
{ACAD_XDICTIONARY
360
4C6
102
}
102
{ACAD_REACTORS
330
63
102
}
330
63
100
AcDbTableStyle
  3
Standard
 70
     0
 71
     0
 40
0.06
 41
0.06
280
     0
281
     0
  7
STANDARD
140
0.18
170
     2
 62
     0
 63
     7
283
     0
274
    -2
284
     1
 64
     0
275
    -2
285
     1
 65
     0
276
    -2
286
     1
 66
     0
277
    -2
287
     1
 67
     0
278
    -2
288
     1
 68
     0
279
    -2
289
     1
 69
     0
  7
STANDARD
140
0.25
170
     5
 62
     0
 63
     7
283
     0
274
    -2
284
     1
 64
     0
275
    -2
285
     1
 65
     0
276
    -2
286
     1
 66
     0
277
    -2
287
     1
 67
     0
278
    -2
288
     1
 68
     0
279
    -2
289
     1
 69
     0
  7
STANDARD
140
0.18
170
     5
 62
     0
 63
     7
283
     0
274
    -2
284
     1
 64
     0
275
    -2
285
     1
 65
     0
276
    -2
286
     1
 66
     0
277
    -2
287
     1
 67
     0
278
    -2
288
     1
 68
     0
279
    -2
289
     1
 69
     0
  0
VISUALSTYLE
  5
2F
102
{ACAD_XDICTIONARY
360
4D7
102
}
102
{ACAD_REACTORS
330
29
102
}
330
29
100
AcDbVisualStyle
  2
2dWireframe
 70
     4
 71
     0
 72
     2
 73
     0
 90
        0
 40
-0.6
 41
-30.0
 62
     5
 63
     7
 74
     1
 91
        4
 64
     7
 65
   257
 75
     1
175
     1
 42
1.0
 92
        0
 66
   257
 43
1.0
 76
     1
 77
     6
 78
     2
 67
     7
 79
     5
170
     0
171
     0
290
     0
174
     0
 93
        1
 44
0.0
173
     0
291
     0
 45
0.0
1001
ACAD
1000
AcDbSavedByObjectVersion
1070
     0
  0
VISUALSTYLE
  5
2E
102
{ACAD_XDICTIONARY
360
4D5
102
}
102
{ACAD_REACTORS
330
29
102
}
330
29
100
AcDbVisualStyle
  2
Basic
 70
     7
 71
     1
 72
     0
 73
     1
 90
        0
 40
-0.6
 41
-30.0
 62
     5
 63
     7
 74
     0
 91
        4
 64
     7
 65
   257
 75
     1
175
     1
 42
1.0
 92
        8
 66
     7
 43
1.0
 76
     1
 77
     6
 78
     2
 67
     7
 79
     5
170
     0
171
     0
290
     0
174
     0
 93
        1
 44
0.0
173
     0
291
     1
 45
0.0
1001
ACAD
1000
AcDbSavedByObjectVersion
1070
     0
  0
VISUALSTYLE
  5
35
102
{ACAD_XDICTIONARY
360
4E3
102
}
102
{ACAD_REACTORS
330
29
102
}
330
29
100
AcDbVisualStyle
  2
Brighten
 70
    12
 71
     2
 72
     2
 73
     0
 90
        0
 40
-0.6
 41
-30.0
 62
     5
 63
     7
 74
     1
 91
        4
 64
     7
 65
   257
 75
     1
175
     1
 42
1.0
 92
        8
 66
     7
 43
1.0
 76
     1
 77
     6
 78
     2
 67
     7
 79
     5
170
     0
171
     0
290
     0
174
     0
 93
        1
 44
50.0
173
     0
291
     1
 45
0.0
1001
ACAD
1000
AcDbSavedByObjectVersion
1070
     0
  0
VISUALSTYLE
  5
39
102
{ACAD_XDICTIONARY
360
4EB
102
}
102
{ACAD_REACTORS
330
29
102
}
330
29
100
AcDbVisualStyle
  2
ColorChange
 70
    16
 71
     2
 72
     2
 73
     3
 90
        0
 40
-0.6
 41
-30.0
 62
     5
 63
     8
 74
     1
 91
        4
 64
     7
 65
   257
 75
     1
175
     1
 42
1.0
 92
        8
 66
     8
 43
1.0
 76
     1
 77
     6
 78
     2
 67
     7
 79
     5
170
     0
171
     0
290
     0
174
     0
 93
        1
 44
0.0
173
     0
291
     1
 45
0.0
1001
ACAD
1000
AcDbSavedByObjectVersion
1070
     0
  0
VISUALSTYLE
  5
32
102
{ACAD_XDICTIONARY
360
4DD
102
}
102
{ACAD_REACTORS
330
29
102
}
330
29
100
AcDbVisualStyle
  2
Conceptual
 70
     9
 71
     3
 72
     2
 73
     0
 90
        0
 40
-0.6
 41
-30.0
 62
     5
 63
     7
 74
     2
 91
        2
 64
     7
 65
   257
 75
     1
175
     1
 42
179.0
 92
        8
 66
     7
 43
1.0
 76
     1
 77
     6
 78
     2
 67
     7
 79
     3
170
     0
171
     0
290
     0
174
     0
 93
        1
 44
0.0
173
     0
291
     0
 45
0.0
1001
ACAD
1000
AcDbSavedByObjectVersion
1070
     0
  0
VISUALSTYLE
  5
34
102
{ACAD_XDICTIONARY
360
4E1
102
}
102
{ACAD_REACTORS
330
29
102
}
330
29
100
AcDbVisualStyle
  2
Dim
 70
    11
 71
     2
 72
     2
 73
     0
 90
        0
 40
-0.6
 41
-30.0
 62
     5
 63
     7
 74
     1
 91
        4
 64
     7
 65
   257
 75
     1
175
     1
 42
1.0
 92
        8
 66
     7
 43
1.0
 76
     1
 77
     6
 78
     2
 67
     7
 79
     5
170
     0
171
     0
290
     0
174
     0
 93
        1
 44
-50.0
173
     0
291
     1
 45
0.0
1001
ACAD
1000
AcDbSavedByObjectVersion
1070
     0
  0
VISUALSTYLE
  5
41
102
{ACAD_XDICTIONARY
360
4FB
102
}
102
{ACAD_REACTORS
330
29
102
}
330
29
100
AcDbVisualStyle
  2
EdgeColorOff
 70
    22
 71
     2
 72
     2
 73
     0
 90
        0
 40
-0.6
 41
-30.0
 62
     5
 63
     7
 74
     1
 91
        4
 64
     7
 65
   257
 75
     1
175
     1
 42
1.0
 92
        8
 66
     7
 43
1.0
 76
     1
 77
     6
 78
     2
 67
     7
 79
     5
170
     0
171
     0
290
     0
174
     0
 93
        1
 44
0.0
173
     0
291
     1
 45
0.0
1001
ACAD
1000
AcDbSavedByObjectVersion
1070
     0
  0
VISUALSTYLE
  5
38
102
{ACAD_XDICTIONARY
360
4E9
102
}
102
{ACAD_REACTORS
330
29
102
}
330
29
100
AcDbVisualStyle
  2
Facepattern
 70
    15
 71
     2
 72
     2
 73
     0
 90
        0
 40
-0.6
 41
-30.0
 62
     5
 63
     7
 74
     1
 91
        4
 64
     7
 65
   257
 75
     1
175
     1
 42
1.0
 92
        8
 66
     7
 43
1.0
 76
     1
 77
     6
 78
     2
 67
     7
 79
     5
170
     0
171
     0
290
     0
174
     0
 93
        1
 44
0.0
173
     0
291
     1
 45
0.0
1001
ACAD
1000
AcDbSavedByObjectVersion
1070
     0
  0
VISUALSTYLE
  5
2A
102
{ACAD_XDICTIONARY
360
4CD
102
}
102
{ACAD_REACTORS
330
29
102
}
330
29
100
AcDbVisualStyle
  2
Flat
 70
     0
 71
     2
 72
     1
 73
     1
 90
        2
 40
-0.6
 41
30.0
 62
     5
 63
     7
 74
     0
 91
        0
 64
     7
 65
   257
 75
     1
175
     1
 42
1.0
 92
        8
 66
     7
 43
1.0
 76
     1
 77
     6
 78
     2
 67
     7
 79
     5
170
     0
171
     0
290
     0
174
     0
 93
       13
 44
0.0
173
     0
291
     1
 45
0.0
1001
ACAD
1000
AcDbSavedByObjectVersion
1070
     0
  0
VISUALSTYLE
  5
2B
102
{ACAD_XDICTIONARY
360
4CF
102
}
102
{ACAD_REACTORS
330
29
102
}
330
29
100
AcDbVisualStyle
  2
FlatWithEdges
 70
     1
 71
     2
 72
     1
 73
     1
 90
        2
 40
-0.6
 41
30.0
 62
     5
 63
     7
 74
     1
 91
        0
 64
     7
 65
   257
 75
     1
175
     1
 42
1.0
 92
        0
 66
   257
 43
1.0
 76
     1
 77
     6
 78
     2
 67
     7
 79
     5
170
     0
171
     0
290
     0
174
     0
 93
       13
 44
0.0
173
     0
291
     1
 45
0.0
1001
ACAD
1000
AcDbSavedByObjectVersion
1070
     0
  0
VISUALSTYLE
  5
2C
102
{ACAD_XDICTIONARY
360
4D1
102
}
102
{ACAD_REACTORS
330
29
102
}
330
29
100
AcDbVisualStyle
  2
Gouraud
 70
     2
 71
     2
 72
     2
 73
     1
 90
        2
 40
-0.6
 41
30.0
 62
     5
 63
     7
 74
     0
 91
        0
 64
     7
 65
   257
 75
     1
175
     1
 42
1.0
 92
        0
 66
     7
 43
1.0
 76
     1
 77
     6
 78
     2
 67
     7
 79
     5
170
     0
171
     0
290
     0
174
     0
 93
       13
 44
0.0
173
     0
291
     1
 45
0.0
1001
ACAD
1000
AcDbSavedByObjectVersion
1070
     0
  0
VISUALSTYLE
  5
2D
102
{ACAD_XDICTIONARY
360
4D3
102
}
102
{ACAD_REACTORS
330
29
102
}
330
29
100
AcDbVisualStyle
  2
GouraudWithEdges
 70
     3
 71
     2
 72
     2
 73
     1
 90
        2
 40
-0.6
 41
30.0
 62
     5
 63
     7
 74
     1
 91
        0
 64
     7
 65
   257
 75
     1
175
     1
 42
1.0
 92
        0
 66
   257
 43
1.0
 76
     1
 77
     6
 78
     2
 67
     7
 79
     5
170
     0
171
     0
290
     0
174
     0
 93
       13
 44
0.0
173
     0
291
     1
 45
0.0
1001
ACAD
1000
AcDbSavedByObjectVersion
1070
     0
  0
VISUALSTYLE
  5
31
102
{ACAD_XDICTIONARY
360
4DB
102
}
102
{ACAD_REACTORS
330
29
102
}
330
29
100
AcDbVisualStyle
  2
Hidden
 70
     6
 71
     1
 72
     2
 73
     2
 90
        0
 40
-0.6
 41
-30.0
 62
     5
 63
     7
 74
     2
 91
        2
 64
     7
 65
   257
 75
     2
175
     1
 42
40.0
 92
        0
 66
   257
 43
1.0
 76
     1
 77
     6
 78
     2
 67
     7
 79
     3
170
     0
171
     0
290
     0
174
     0
 93
        1
 44
0.0
173
     0
291
     0
 45
0.0
1001
ACAD
1000
AcDbSavedByObjectVersion
1070
     0
  0
VISUALSTYLE
  5
3F
102
{ACAD_XDICTIONARY
360
4F7
102
}
102
{ACAD_REACTORS
330
29
102
}
330
29
100
AcDbVisualStyle
  2
JitterOff
 70
    20
 71
     2
 72
     2
 73
     0
 90
        0
 40
-0.6
 41
-30.0
 62
     5
 63
     7
 74
     1
 91
        4
 64
     7
 65
   257
 75
     1
175
     1
 42
1.0
 92
       10
 66
     7
 43
1.0
 76
     1
 77
     6
 78
     2
 67
     7
 79
     5
170
     0
171
     0
290
     0
174
     0
 93
        1
 44
0.0
173
     0
291
     1
 45
0.0
1001
ACAD
1000
AcDbSavedByObjectVersion
1070
     0
  0
VISUALSTYLE
  5
37
102
{ACAD_XDICTIONARY
360
4E7
102
}
102
{ACAD_REACTORS
330
29
102
}
330
29
100
AcDbVisualStyle
  2
Linepattern
 70
    14
 71
     2
 72
     2
 73
     0
 90
        0
 40
-0.6
 41
-30.0
 62
     5
 63
     7
 74
     1
 91
        4
 64
     7
 65
   257
 75
     7
175
     7
 42
1.0
 92
        8
 66
     7
 43
1.0
 76
     1
 77
     6
 78
     2
 67
     7
 79
     5
170
     0
171
     0
290
     0
174
     0
 93
        1
 44
0.0
173
     0
291
     1
 45
0.0
1001
ACAD
1000
AcDbSavedByObjectVersion
1070
     0
  0
VISUALSTYLE
  5
40
102
{ACAD_XDICTIONARY
360
4F9
102
}
102
{ACAD_REACTORS
330
29
102
}
330
29
100
AcDbVisualStyle
  2
OverhangOff
 70
    21
 71
     2
 72
     2
 73
     0
 90
        0
 40
-0.6
 41
-30.0
 62
     5
 63
     7
 74
     1
 91
        4
 64
     7
 65
   257
 75
     1
175
     1
 42
1.0
 92
        9
 66
     7
 43
1.0
 76
     1
 77
     6
 78
     2
 67
     7
 79
     5
170
     0
171
     0
290
     0
174
     0
 93
        1
 44
0.0
173
     0
291
     1
 45
0.0
1001
ACAD
1000
AcDbSavedByObjectVersion
1070
     0
  0
VISUALSTYLE
  5
33
102
{ACAD_XDICTIONARY
360
4DF
102
}
102
{ACAD_REACTORS
330
29
102
}
330
29
100
AcDbVisualStyle
  2
Realistic
 70
     8
 71
     2
 72
     3
 73
     0
 90
        2
 40
-0.6
 41
30.0
 62
     5
 63
     7
 74
     0
 91
        0
 64
     7
 65
   257
 75
     1
175
     1
 42
1.0
 92
        8
 66
   257
 43
1.0
 76
     1
 77
     6
 78
     2
 67
     7
 79
     3
170
     0
171
     0
290
     0
174
     0
 93
       13
 44
0.0
173
     0
291
     0
 45
0.0
1001
ACAD
1000
AcDbSavedByObjectVersion
1070
     0
  0
VISUALSTYLE
  5
3E
102
{ACAD_XDICTIONARY
360
4F5
102
}
102
{ACAD_REACTORS
330
29
102
}
330
29
100
AcDbVisualStyle
  2
Shaded
 70
    27
 71
     2
 72
     2
 73
     1
 90
        2
 40
-0.6
 41
30.0
 62
     5
 63
     7
 74
     0
 91
        4
 64
     7
 65
   257
 75
     1
175
     1
 42
1.0
 92
        8
 66
   257
 43
1.0
 76
     1
 77
     6
 78
     2
 67
     8
 79
     3
170
     0
171
     0
290
     0
174
     0
 93
        5
 44
0.0
173
     0
291
     0
 45
0.0
1001
ACAD
1000
AcDbSavedByObjectVersion
1070
     0
  0
VISUALSTYLE
  5
3D
102
{ACAD_XDICTIONARY
360
4F3
102
}
102
{ACAD_REACTORS
330
29
102
}
330
29
100
AcDbVisualStyle
  2
Shaded with edges
 70
    26
 71
     2
 72
     2
 73
     1
 90
        2
 40
-0.6
 41
30.0
 62
     5
 63
     7
 74
     1
 91
        2
 64
     7
 65
   257
 75
     2
175
     1
 42
1.0
 92
        8
 66
   257
 43
1.0
 76
     1
 77
     6
 78
     2
 67
     7
 79
     3
170
     0
171
     0
290
     0
174
     0
 93
        5
 44
0.0
173
     0
291
     0
 45
0.0
1001
ACAD
1000
AcDbSavedByObjectVersion
1070
     0
  0
VISUALSTYLE
  5
3A
102
{ACAD_XDICTIONARY
360
4ED
102
}
102
{ACAD_REACTORS
330
29
102
}
330
29
100
AcDbVisualStyle
  2
Shades of Gray
 70
    23
 71
     2
 72
     2
 73
     3
 90
        0
 40
-0.6
 41
-30.0
 62
     5
 63
     7
 74
     2
 91
        2
 64
     7
 65
     7
 75
     1
175
     1
 42
40.0
 92
        8
 66
     7
 43
1.0
 76
     1
 77
     6
 78
     2
 67
     7
 79
     3
170
     0
171
     0
290
     0
174
     0
 93
        1
 44
0.0
173
     0
291
     0
 45
0.0
1001
ACAD
1000
AcDbSavedByObjectVersion
1070
     0
  0
VISUALSTYLE
  5
3B
102
{ACAD_XDICTIONARY
360
4EF
102
}
102
{ACAD_REACTORS
330
29
102
}
330
29
100
AcDbVisualStyle
  2
Sketchy
 70
    24
 71
     1
 72
     2
 73
     2
 90
        0
 40
-0.6
 41
-30.0
 62
     5
 63
     7
 74
     2
 91
        2
 64
     7
 65
     7
 75
     1
175
     1
 42
40.0
 92
       11
 66
     7
 43
1.0
 76
     1
 77
     6
 78
     2
 67
     7
 79
     6
170
     0
171
     0
290
     0
174
     0
 93
        1
 44
0.0
173
     0
291
     0
 45
0.0
1001
ACAD
1000
AcDbSavedByObjectVersion
1070
     0
  0
VISUALSTYLE
  5
36
102
{ACAD_XDICTIONARY
360
4E5
102
}
102
{ACAD_REACTORS
330
29
102
}
330
29
100
AcDbVisualStyle
  2
Thicken
 70
    13
 71
     2
 72
     2
 73
     0
 90
        0
 40
-0.6
 41
-30.0
 62
     5
 63
     7
 74
     1
 91
        4
 64
     7
 65
   257
 75
     1
175
     1
 42
1.0
 92
       12
 66
     7
 43
1.0
 76
     1
 77
     6
 78
     2
 67
     7
 79
     5
170
     0
171
     0
290
     0
174
     0
 93
        1
 44
0.0
173
     0
291
     1
 45
0.0
1001
ACAD
1000
AcDbSavedByObjectVersion
1070
     0
  0
VISUALSTYLE
  5
30
102
{ACAD_XDICTIONARY
360
4D9
102
}
102
{ACAD_REACTORS
330
29
102
}
330
29
100
AcDbVisualStyle
  2
Wireframe
 70
     5
 71
     0
 72
     2
 73
     0
 90
        0
 40
-0.6
 41
-30.0
 62
     5
 63
     7
 74
     1
 91
        4
 64
     7
 65
   257
 75
     1
175
     1
 42
1.0
 92
        0
 66
   257
 43
1.0
 76
     1
 77
     6
 78
     2
 67
     7
 79
     3
170
     0
171
     0
290
     0
174
     0
 93
        1
 44
0.0
173
     0
291
     0
 45
0.0
1001
ACAD
1000
AcDbSavedByObjectVersion
1070
     0
  0
VISUALSTYLE
  5
3C
102
{ACAD_XDICTIONARY
360
4F1
102
}
102
{ACAD_REACTORS
330
29
102
}
330
29
100
AcDbVisualStyle
  2
X-Ray
 70
    25
 71
     2
 72
     2
 73
     1
 90
        1
 40
0.5
 41
-30.0
 62
     5
 63
     7
 74
     1
 91
        0
 64
     7
 65
   257
 75
     1
175
     1
 42
1.0
 92
        8
 66
     7
 43
1.0
 76
     1
 77
     6
 78
     2
 67
     7
 79
     3
170
     0
171
     0
290
     0
174
     0
 93
       13
 44
0.0
173
     0
291
     0
 45
0.0
1001
ACAD
1000
AcDbSavedByObjectVersion
1070
     0
  0
DICTIONARYVAR
  5
4C0
102
{ACAD_REACTORS
330
4BB
102
}
330
4BB
100
DictionaryVariables
280
     0
  1
1:1
  0
DICTIONARYVAR
  5
4BD
102
{ACAD_REACTORS
330
4BB
102
}
330
4BB
100
DictionaryVariables
280
     0
  1
STANDARD
  0
DICTIONARYVAR
  5
4BC
102
{ACAD_REACTORS
330
4BB
102
}
330
4BB
100
DictionaryVariables
280
     0
  1
STANDARD
  0
DICTIONARYVAR
  5
4BE
102
{ACAD_REACTORS
330
4BB
102
}
330
4BB
100
DictionaryVariables
280
     0
  1
Imperial24
  0
DICTIONARYVAR
  5
4BF
102
{ACAD_REACTORS
330
4BB
102
}
330
4BB
100
DictionaryVariables
280
     0
  1
Imperial24
  0
DICTIONARYVAR
  5
4C3
102
{ACAD_REACTORS
330
4BB
102
}
330
4BB
100
DictionaryVariables
280
     0
  1
1
  0
DICTIONARYVAR
  5
4C2
102
{ACAD_REACTORS
330
4BB
102
}
330
4BB
100
DictionaryVariables
280
     0
  1
0
  0
DICTIONARYVAR
  5
4C1
102
{ACAD_REACTORS
330
4BB
102
}
330
4BB
100
DictionaryVariables
280
     0
  1
127
  0
DICTIONARYVAR
  5
4C4
102
{ACAD_REACTORS
330
4BB
102
}
330
4BB
100
DictionaryVariables
280
     0
  1
2
  0
DICTIONARY
  5
501
330
6A
100
AcDbDictionary
280
     1
281
     1
  3
ACAD_XREC_ROUNDTRIP
360
502
  0
DICTIONARY
  5
505
330
72
100
AcDbDictionary
280
     1
281
     1
  3
ACAD_XREC_ROUNDTRIP
360
506
  0
DICTIONARY
  5
503
330
6E
100
AcDbDictionary
280
     1
281
     1
  3
ACAD_XREC_ROUNDTRIP
360
504
  0
DICTIONARY
  5
1A
330
19
100
AcDbDictionary
280
     1
281
     1
  3
ACAD_XREC_ROUNDTRIP
360
4CB
  3
BUMPTILE
360
1C
  3
DIFFUSETILE
360
1B
  3
OPACITYTILE
360
1F
  3
REFLECTIONTILE
360
1E
  3
REFRACTIONTILE
360
20
  3
SPECULARTILE
360
1D
  0
DICTIONARY
  5
12
330
11
100
AcDbDictionary
280
     1
281
     1
  3
ACAD_XREC_ROUNDTRIP
360
4CA
  3
BUMPTILE
360
14
  3
DIFFUSETILE
360
13
  3
OPACITYTILE
360
17
  3
REFLECTIONTILE
360
16
  3
REFRACTIONTILE
360
18
  3
SPECULARTILE
360
15
  0
DICTIONARY
  5
22
330
21
100
AcDbDictionary
280
     1
281
     1
  3
ACAD_XREC_ROUNDTRIP
360
4CC
  3
BUMPTILE
360
24
  3
DIFFUSETILE
360
23
  3
OPACITYTILE
360
27
  3
REFLECTIONTILE
360
26
  3
REFRACTIONTILE
360
28
  3
SPECULARTILE
360
25
  0
DICTIONARY
  5
4FF
330
68
100
AcDbDictionary
280
     1
281
     1
  3
ACAD_XREC_ROUNDTRIP
360
500
  0
DICTIONARY
  5
4C6
330
64
100
AcDbDictionary
280
     1
281
     1
  3
ACAD_ROUNDTRIP_2008_TABLESTYLE_CELLSTYLEMAP
360
4C7
  3
ACAD_XREC_ROUNDTRIP
360
4FD
  0
DICTIONARY
  5
4D7
330
2F
100
AcDbDictionary
280
     1
281
     1
  3
ACAD_XREC_ROUNDTRIP
360
4D8
  0
DICTIONARY
  5
4D5
330
2E
100
AcDbDictionary
280
     1
281
     1
  3
ACAD_XREC_ROUNDTRIP
360
4D6
  0
DICTIONARY
  5
4E3
330
35
100
AcDbDictionary
280
     1
281
     1
  3
ACAD_XREC_ROUNDTRIP
360
4E4
  0
DICTIONARY
  5
4EB
330
39
100
AcDbDictionary
280
     1
281
     1
  3
ACAD_XREC_ROUNDTRIP
360
4EC
  0
DICTIONARY
  5
4DD
330
32
100
AcDbDictionary
280
     1
281
     1
  3
ACAD_XREC_ROUNDTRIP
360
4DE
  0
DICTIONARY
  5
4E1
330
34
100
AcDbDictionary
280
     1
281
     1
  3
ACAD_XREC_ROUNDTRIP
360
4E2
  0
DICTIONARY
  5
4FB
330
41
100
AcDbDictionary
280
     1
281
     1
  3
ACAD_XREC_ROUNDTRIP
360
4FC
  0
DICTIONARY
  5
4E9
330
38
100
AcDbDictionary
280
     1
281
     1
  3
ACAD_XREC_ROUNDTRIP
360
4EA
  0
DICTIONARY
  5
4CD
330
2A
100
AcDbDictionary
280
     1
281
     1
  3
ACAD_XREC_ROUNDTRIP
360
4CE
  0
DICTIONARY
  5
4CF
330
2B
100
AcDbDictionary
280
     1
281
     1
  3
ACAD_XREC_ROUNDTRIP
360
4D0
  0
DICTIONARY
  5
4D1
330
2C
100
AcDbDictionary
280
     1
281
     1
  3
ACAD_XREC_ROUNDTRIP
360
4D2
  0
DICTIONARY
  5
4D3
330
2D
100
AcDbDictionary
280
     1
281
     1
  3
ACAD_XREC_ROUNDTRIP
360
4D4
  0
DICTIONARY
  5
4DB
330
31
100
AcDbDictionary
280
     1
281
     1
  3
ACAD_XREC_ROUNDTRIP
360
4DC
  0
DICTIONARY
  5
4F7
330
3F
100
AcDbDictionary
280
     1
281
     1
  3
ACAD_XREC_ROUNDTRIP
360
4F8
  0
DICTIONARY
  5
4E7
330
37
100
AcDbDictionary
280
     1
281
     1
  3
ACAD_XREC_ROUNDTRIP
360
4E8
  0
DICTIONARY
  5
4F9
330
40
100
AcDbDictionary
280
     1
281
     1
  3
ACAD_XREC_ROUNDTRIP
360
4FA
  0
DICTIONARY
  5
4DF
330
33
100
AcDbDictionary
280
     1
281
     1
  3
ACAD_XREC_ROUNDTRIP
360
4E0
  0
DICTIONARY
  5
4F5
330
3E
100
AcDbDictionary
280
     1
281
     1
  3
ACAD_XREC_ROUNDTRIP
360
4F6
  0
DICTIONARY
  5
4F3
330
3D
100
AcDbDictionary
280
     1
281
     1
  3
ACAD_XREC_ROUNDTRIP
360
4F4
  0
DICTIONARY
  5
4ED
330
3A
100
AcDbDictionary
280
     1
281
     1
  3
ACAD_XREC_ROUNDTRIP
360
4EE
  0
DICTIONARY
  5
4EF
330
3B
100
AcDbDictionary
280
     1
281
     1
  3
ACAD_XREC_ROUNDTRIP
360
4F0
  0
DICTIONARY
  5
4E5
330
36
100
AcDbDictionary
280
     1
281
     1
  3
ACAD_XREC_ROUNDTRIP
360
4E6
  0
DICTIONARY
  5
4D9
330
30
100
AcDbDictionary
280
     1
281
     1
  3
ACAD_XREC_ROUNDTRIP
360
4DA
  0
DICTIONARY
  5
4F1
330
3C
100
AcDbDictionary
280
     1
281
     1
  3
ACAD_XREC_ROUNDTRIP
360
4F2
  0
XRECORD
  5
502
102
{ACAD_REACTORS
330
501
102
}
330
501
100
AcDbXrecord
280
     1
102
DISPLAYNAME
  1
Imperial24
102
FLAGS
 90
        0
  0
XRECORD
  5
506
102
{ACAD_REACTORS
330
505
102
}
330
505
100
AcDbXrecord
280
     1
102
SHADEPLOT
 70
     0
102
SHADEPLOTRESLEVEL
 70
     2
102
SHADEPLOTCUSTOMDPI
 70
   300
  0
XRECORD
  5
504
102
{ACAD_REACTORS
330
503
102
}
330
503
100
AcDbXrecord
280
     1
102
SHADEPLOT
 70
     0
102
SHADEPLOTRESLEVEL
 70
     2
102
SHADEPLOTCUSTOMDPI
 70
   300
  0
XRECORD
  5
4CB
102
{ACAD_REACTORS
330
1A
102
}
330
1A
100
AcDbXrecord
280
     1
102
MATERIAL
148
0.0
149
0.0
149
0.0
 93
        0
 94
      127
282
     0
 72
     0
 77
     0
171
     0
175
     0
179
     0
273
     0
  0
XRECORD
  5
1C
102
{ACAD_REACTORS
330
1A
102
}
330
1A
100
AcDbXrecord
280
     1
270
     1
271
     1
  0
XRECORD
  5
1B
102
{ACAD_REACTORS
330
1A
102
}
330
1A
100
AcDbXrecord
280
     1
270
     1
271
     1
  0
XRECORD
  5
1F
102
{ACAD_REACTORS
330
1A
102
}
330
1A
100
AcDbXrecord
280
     1
270
     1
271
     1
  0
XRECORD
  5
1E
102
{ACAD_REACTORS
330
1A
102
}
330
1A
100
AcDbXrecord
280
     1
270
     1
271
     1
  0
XRECORD
  5
20
102
{ACAD_REACTORS
330
1A
102
}
330
1A
100
AcDbXrecord
280
     1
270
     1
271
     1
  0
XRECORD
  5
1D
102
{ACAD_REACTORS
330
1A
102
}
330
1A
100
AcDbXrecord
280
     1
270
     1
271
     1
  0
XRECORD
  5
4CA
102
{ACAD_REACTORS
330
12
102
}
330
12
100
AcDbXrecord
280
     1
102
MATERIAL
148
0.0
149
0.0
149
0.0
 93
        0
 94
      127
282
     0
 72
     0
 77
     0
171
     0
175
     0
179
     0
273
     0
  0
XRECORD
  5
14
102
{ACAD_REACTORS
330
12
102
}
330
12
100
AcDbXrecord
280
     1
270
     1
271
     1
  0
XRECORD
  5
13
102
{ACAD_REACTORS
330
12
102
}
330
12
100
AcDbXrecord
280
     1
270
     1
271
     1
  0
XRECORD
  5
17
102
{ACAD_REACTORS
330
12
102
}
330
12
100
AcDbXrecord
280
     1
270
     1
271
     1
  0
XRECORD
  5
16
102
{ACAD_REACTORS
330
12
102
}
330
12
100
AcDbXrecord
280
     1
270
     1
271
     1
  0
XRECORD
  5
18
102
{ACAD_REACTORS
330
12
102
}
330
12
100
AcDbXrecord
280
     1
270
     1
271
     1
  0
XRECORD
  5
15
102
{ACAD_REACTORS
330
12
102
}
330
12
100
AcDbXrecord
280
     1
270
     1
271
     1
  0
XRECORD
  5
4CC
102
{ACAD_REACTORS
330
22
102
}
330
22
100
AcDbXrecord
280
     1
102
MATERIAL
148
0.0
149
0.0
149
0.0
 93
        0
 94
      127
282
     0
 72
     0
 77
     0
171
     0
175
     0
179
     0
273
     0
  0
XRECORD
  5
24
102
{ACAD_REACTORS
330
22
102
}
330
22
100
AcDbXrecord
280
     1
270
     1
271
     1
  0
XRECORD
  5
23
102
{ACAD_REACTORS
330
22
102
}
330
22
100
AcDbXrecord
280
     1
270
     1
271
     1
  0
XRECORD
  5
27
102
{ACAD_REACTORS
330
22
102
}
330
22
100
AcDbXrecord
280
     1
270
     1
271
     1
  0
XRECORD
  5
26
102
{ACAD_REACTORS
330
22
102
}
330
22
100
AcDbXrecord
280
     1
270
     1
271
     1
  0
XRECORD
  5
28
102
{ACAD_REACTORS
330
22
102
}
330
22
100
AcDbXrecord
280
     1
270
     1
271
     1
  0
XRECORD
  5
25
102
{ACAD_REACTORS
330
22
102
}
330
22
100
AcDbXrecord
280
     1
270
     1
271
     1
  0
XRECORD
  5
500
102
{ACAD_REACTORS
330
4FF
102
}
330
4FF
100
AcDbXrecord
280
     1
102
DISPLAYNAME
  1
Imperial24
102
FLAGS
 90
        0
  0
CELLSTYLEMAP
  5
4C7
102
{ACAD_REACTORS
330
4C6
102
}
330
4C6
100
AcDbCellStyleMap
 90
        3
300
CELLSTYLE
  1
TABLEFORMAT_BEGIN
 90
        5
170
     1
 91
        0
 92
    32768
 62
   257
 93
        1
300
CONTENTFORMAT
  1
CONTENTFORMAT_BEGIN
 90
        0
 91
        0
 92
      512
 93
        0
300

 40
0.0
140
1.0
 94
        5
 62
     0
340
55
144
0.25
309
CONTENTFORMAT_END
171
     0
 94
        0
309
TABLEFORMAT_END
  1
CELLSTYLE_BEGIN
 90
        1
 91
        1
300
_TITLE
309
CELLSTYLE_END
300
CELLSTYLE
  1
TABLEFORMAT_BEGIN
 90
        5
170
     1
 91
        0
 92
        0
 62
   257
 93
        1
300
CONTENTFORMAT
  1
CONTENTFORMAT_BEGIN
 90
        0
 91
        0
 92
      512
 93
        0
300

 40
0.0
140
1.0
 94
        5
 62
     0
340
55
144
0.18
309
CONTENTFORMAT_END
171
     0
 94
        0
309
TABLEFORMAT_END
  1
CELLSTYLE_BEGIN
 90
        2
 91
        1
300
_HEADER
309
CELLSTYLE_END
300
CELLSTYLE
  1
TABLEFORMAT_BEGIN
 90
        5
170
     1
 91
        0
 92
        0
 62
   257
 93
        1
300
CONTENTFORMAT
  1
CONTENTFORMAT_BEGIN
 90
        0
 91
        0
 92
      512
 93
        0
300

 40
0.0
140
1.0
 94
        2
 62
     0
340
55
144
0.18
309
CONTENTFORMAT_END
171
     0
 94
        0
309
TABLEFORMAT_END
  1
CELLSTYLE_BEGIN
 90
        3
 91
        2
300
_DATA
309
CELLSTYLE_END
  0
XRECORD
  5
4FD
102
{ACAD_REACTORS
330
4C6
102
}
330
4C6
100
AcDbXrecord
280
     1
102
ACAD_ROUNDTRIP_PRE2007_TABLESTYLE
 90
      512
 91
        0
  1

 92
      512
 93
        0
  2

 94
      512
 95
        0
  3

  0
XRECORD
  5
4D8
102
{ACAD_REACTORS
330
4D7
102
}
330
4D7
100
AcDbXrecord
280
     1
102
RTVSPost2010Prop28
280
     1
102
RTVSPost2010PropOp28
 70
     1
102
RTVSPost2010Prop29
280
     1
102
RTVSPost2010PropOp29
 70
     1
102
RTVSPost2010Prop30
280
     0
102
RTVSPost2010PropOp30
 70
     1
102
RTVSPost2010Prop31
280
     0
102
RTVSPost2010PropOp31
 70
     1
102
RTVSPost2010Prop32
280
     0
102
RTVSPost2010PropOp32
 70
     1
102
RTVSPost2010Prop33
280
     0
102
RTVSPost2010PropOp33
 70
     1
102
RTVSPost2010Prop34
280
     0
102
RTVSPost2010PropOp34
 70
     1
102
RTVSPost2010Prop35
280
     0
102
RTVSPost2010PropOp35
 70
     1
102
RTVSPost2010Prop36
280
     0
102
RTVSPost2010PropOp36
 70
     1
102
RTVSPost2010Prop37
 90
       50
102
RTVSPost2010PropOp37
 70
     1
102
RTVSPost2010Prop38
140
0.0
102
RTVSPost2010PropOp38
 70
     1
102
RTVSPost2010Prop39
140
1.0
102
RTVSPost2010PropOp39
 70
     1
102
RTVSPost2010Prop40
 90
        0
102
RTVSPost2010PropOp40
 70
     1
102
RTVSPost2010Prop41ColorIndex
 90
       18
102
RTVSPost2010Prop41ColorRGB
 90
        0
102
RTVSPost2010PropOp41
 70
     1
102
RTVSPost2010Prop42
 90
       50
102
RTVSPost2010PropOp42
 70
     1
102
RTVSPost2010Prop43
 90
        3
102
RTVSPost2010PropOp43
 70
     1
102
RTVSPost2010Prop44ColorIndex
 90
        5
102
RTVSPost2010Prop44ColorRGB
 90
      255
102
RTVSPost2010PropOp44
 70
     1
102
RTVSPost2010Prop45
280
     0
102
RTVSPost2010PropOp45
 70
     1
102
RTVSPost2010Prop46
 90
       50
102
RTVSPost2010PropOp46
 70
     1
102
RTVSPost2010Prop47
 90
       50
102
RTVSPost2010PropOp47
 70
     1
102
RTVSPost2010Prop48
 90
       50
102
RTVSPost2010PropOp48
 70
     1
102
RTVSPost2010Prop49
280
     0
102
RTVSPost2010PropOp49
 70
     1
102
RTVSPost2010Prop50
 90
       50
102
RTVSPost2010PropOp50
 70
     1
102
RTVSPost2010Prop51ColorIndex
 90
      256
102
RTVSPost2010Prop51ColorRGB
 90
-16777216
102
RTVSPost2010PropOp51
 70
     0
102
RTVSPost2010Prop52
140
1.0
102
RTVSPost2010PropOp52
 70
     0
102
RTVSPost2010Prop53
 90
        2
102
RTVSPost2010PropOp53
 70
     1
102
RTVSPost2010Prop54
  1
strokes_ogs.tif
102
RTVSPost2010PropOp54
 70
     1
102
RTVSPost2010Prop55
280
     0
102
RTVSPost2010PropOp55
 70
     1
102
RTVSPost2010Prop56
140
1.0
102
RTVSPost2010PropOp56
 70
     1
102
RTVSPost2010Prop57
140
1.0
102
RTVSPost2010PropOp57
 70
     1
102
RTVSPropertyOp0
 70
     1
102
RTVSPropertyOp1
 70
     1
102
RTVSPropertyOp2
 70
     1
102
RTVSPropertyOp3
 70
     1
102
RTVSPropertyOp4
 70
     1
102
RTVSPropertyOp5
 70
     1
102
RTVSPropertyOp6
 70
     1
102
RTVSPropertyOp7
 70
     1
102
RTVSPropertyOp8
 70
     1
102
RTVSPropertyOp9
 70
     1
102
RTVSPropertyOp10
 70
     1
102
RTVSPropertyOp11
 70
     1
102
RTVSPropertyOp12
 70
     1
102
RTVSPropertyOp13
 70
     1
102
RTVSPropertyOp14
 70
     1
102
RTVSPropertyOp15
 70
     1
102
RTVSPropertyOp16
 70
     1
102
RTVSPropertyOp17
 70
     1
102
RTVSPropertyOp18
 70
     1
102
RTVSPropertyOp19
 70
     1
102
RTVSPropertyOp20
 70
     1
102
RTVSPropertyOp21
 70
     1
102
RTVSPropertyOp22
 70
     1
102
RTVSPropertyOp23
 70
     1
102
RTVSPropertyOp24
 70
     1
102
RTVSPropertyOp25
 70
     1
102
RTVSPropertyOp26
 70
     1
102
RTVSPropertyOp27
 70
     1
102
RTVSPropertyOp28
 70
     1
102
RTVSPropertyOp29
 70
     1
102
RTVSPropertyOp30
 70
     1
102
RTVSPropertyOp31
 70
     1
102
RTVSPropertyOp32
 70
     1
102
RTVSPropertyOp33
 70
     1
102
RTVSPropertyOp34
 70
     1
102
RTVSPropertyOp35
 70
     1
102
RTVSPropertyOp36
 70
     1
102
RTVSPropertyOp37
 70
     1
102
RTVSPropertyOp38
 70
     1
102
RTVSPropertyOp39
 70
     1
102
RTVSPropertyOp40
 70
     1
102
RTVSPropertyOp41
 70
     1
102
RTVSPropertyOp42
 70
     1
102
RTVSPropertyOp43
 70
     1
102
RTVSPropertyOp44
 70
     1
102
RTVSPropertyOp45
 70
     1
102
RTVSPropertyOp46
 70
     1
102
RTVSPropertyOp47
 70
     1
102
RTVSPropertyOp48
 70
     1
102
RTVSPropertyOp49
 70
     1
102
RTVSPropertyOp50
 70
     1
102
RTVSPropertyOp51
 70
     0
102
RTVSPropertyOp52
 70
     0
102
RTVSPropertyOp53
 70
     1
102
RTVSPropertyOp54
 70
     1
102
RTVSPropertyOp55
 70
     1
102
RTVSPropertyOp56
 70
     1
102
RTVSPropertyOp57
 70
     1
102
RTVSPropertyOp58
 70
     1
102
RTVSPropertyOp59
 70
     1
102
RTVSPropertyOp60
 70
     1
102
RTVSPropertyOp61
 70
     1
102
RTVSPropertyOp62
 70
     1
  0
XRECORD
  5
4D6
102
{ACAD_REACTORS
330
4D5
102
}
330
4D5
100
AcDbXrecord
280
     1
102
RTVSPost2010Prop28
280
     0
102
RTVSPost2010PropOp28
 70
     1
102
RTVSPost2010Prop29
280
     1
102
RTVSPost2010PropOp29
 70
     1
102
RTVSPost2010Prop30
280
     1
102
RTVSPost2010PropOp30
 70
     1
102
RTVSPost2010Prop31
280
     0
102
RTVSPost2010PropOp31
 70
     1
102
RTVSPost2010Prop32
280
     0
102
RTVSPost2010PropOp32
 70
     1
102
RTVSPost2010Prop33
280
     0
102
RTVSPost2010PropOp33
 70
     1
102
RTVSPost2010Prop34
280
     0
102
RTVSPost2010PropOp34
 70
     1
102
RTVSPost2010Prop35
280
     0
102
RTVSPost2010PropOp35
 70
     1
102
RTVSPost2010Prop36
280
     0
102
RTVSPost2010PropOp36
 70
     1
102
RTVSPost2010Prop37
 90
       50
102
RTVSPost2010PropOp37
 70
     1
102
RTVSPost2010Prop38
140
0.0
102
RTVSPost2010PropOp38
 70
     1
102
RTVSPost2010Prop39
140
1.0
102
RTVSPost2010PropOp39
 70
     1
102
RTVSPost2010Prop40
 90
        0
102
RTVSPost2010PropOp40
 70
     1
102
RTVSPost2010Prop41ColorIndex
 90
       18
102
RTVSPost2010Prop41ColorRGB
 90
        0
102
RTVSPost2010PropOp41
 70
     1
102
RTVSPost2010Prop42
 90
       50
102
RTVSPost2010PropOp42
 70
     1
102
RTVSPost2010Prop43
 90
        3
102
RTVSPost2010PropOp43
 70
     1
102
RTVSPost2010Prop44ColorIndex
 90
        5
102
RTVSPost2010Prop44ColorRGB
 90
      255
102
RTVSPost2010PropOp44
 70
     1
102
RTVSPost2010Prop45
280
     0
102
RTVSPost2010PropOp45
 70
     1
102
RTVSPost2010Prop46
 90
       50
102
RTVSPost2010PropOp46
 70
     1
102
RTVSPost2010Prop47
 90
       50
102
RTVSPost2010PropOp47
 70
     1
102
RTVSPost2010Prop48
 90
       50
102
RTVSPost2010PropOp48
 70
     1
102
RTVSPost2010Prop49
280
     0
102
RTVSPost2010PropOp49
 70
     1
102
RTVSPost2010Prop50
 90
       50
102
RTVSPost2010PropOp50
 70
     1
102
RTVSPost2010Prop51ColorIndex
 90
      256
102
RTVSPost2010Prop51ColorRGB
 90
-16777216
102
RTVSPost2010PropOp51
 70
     0
102
RTVSPost2010Prop52
140
1.0
102
RTVSPost2010PropOp52
 70
     0
102
RTVSPost2010Prop53
 90
        2
102
RTVSPost2010PropOp53
 70
     1
102
RTVSPost2010Prop54
  1
strokes_ogs.tif
102
RTVSPost2010PropOp54
 70
     1
102
RTVSPost2010Prop55
280
     0
102
RTVSPost2010PropOp55
 70
     1
102
RTVSPost2010Prop56
140
1.0
102
RTVSPost2010PropOp56
 70
     1
102
RTVSPost2010Prop57
140
1.0
102
RTVSPost2010PropOp57
 70
     1
102
RTVSPropertyOp0
 70
     1
102
RTVSPropertyOp1
 70
     1
102
RTVSPropertyOp2
 70
     1
102
RTVSPropertyOp3
 70
     1
102
RTVSPropertyOp4
 70
     1
102
RTVSPropertyOp5
 70
     1
102
RTVSPropertyOp6
 70
     1
102
RTVSPropertyOp7
 70
     1
102
RTVSPropertyOp8
 70
     1
102
RTVSPropertyOp9
 70
     1
102
RTVSPropertyOp10
 70
     1
102
RTVSPropertyOp11
 70
     1
102
RTVSPropertyOp12
 70
     1
102
RTVSPropertyOp13
 70
     1
102
RTVSPropertyOp14
 70
     1
102
RTVSPropertyOp15
 70
     1
102
RTVSPropertyOp16
 70
     1
102
RTVSPropertyOp17
 70
     1
102
RTVSPropertyOp18
 70
     1
102
RTVSPropertyOp19
 70
     1
102
RTVSPropertyOp20
 70
     1
102
RTVSPropertyOp21
 70
     1
102
RTVSPropertyOp22
 70
     1
102
RTVSPropertyOp23
 70
     1
102
RTVSPropertyOp24
 70
     1
102
RTVSPropertyOp25
 70
     1
102
RTVSPropertyOp26
 70
     1
102
RTVSPropertyOp27
 70
     1
102
RTVSPropertyOp28
 70
     1
102
RTVSPropertyOp29
 70
     1
102
RTVSPropertyOp30
 70
     1
102
RTVSPropertyOp31
 70
     1
102
RTVSPropertyOp32
 70
     1
102
RTVSPropertyOp33
 70
     1
102
RTVSPropertyOp34
 70
     1
102
RTVSPropertyOp35
 70
     1
102
RTVSPropertyOp36
 70
     1
102
RTVSPropertyOp37
 70
     1
102
RTVSPropertyOp38
 70
     1
102
RTVSPropertyOp39
 70
     1
102
RTVSPropertyOp40
 70
     1
102
RTVSPropertyOp41
 70
     1
102
RTVSPropertyOp42
 70
     1
102
RTVSPropertyOp43
 70
     1
102
RTVSPropertyOp44
 70
     1
102
RTVSPropertyOp45
 70
     1
102
RTVSPropertyOp46
 70
     1
102
RTVSPropertyOp47
 70
     1
102
RTVSPropertyOp48
 70
     1
102
RTVSPropertyOp49
 70
     1
102
RTVSPropertyOp50
 70
     1
102
RTVSPropertyOp51
 70
     0
102
RTVSPropertyOp52
 70
     0
102
RTVSPropertyOp53
 70
     1
102
RTVSPropertyOp54
 70
     1
102
RTVSPropertyOp55
 70
     1
102
RTVSPropertyOp56
 70
     1
102
RTVSPropertyOp57
 70
     1
102
RTVSPropertyOp58
 70
     1
102
RTVSPropertyOp59
 70
     1
102
RTVSPropertyOp60
 70
     1
102
RTVSPropertyOp61
 70
     1
102
RTVSPropertyOp62
 70
     1
  0
XRECORD
  5
4E4
102
{ACAD_REACTORS
330
4E3
102
}
330
4E3
100
AcDbXrecord
280
     1
102
RTVSPost2010Prop28
280
     0
102
RTVSPost2010PropOp28
 70
     1
102
RTVSPost2010Prop29
280
     1
102
RTVSPost2010PropOp29
 70
     1
102
RTVSPost2010Prop30
280
     1
102
RTVSPost2010PropOp30
 70
     1
102
RTVSPost2010Prop31
280
     0
102
RTVSPost2010PropOp31
 70
     1
102
RTVSPost2010Prop32
280
     0
102
RTVSPost2010PropOp32
 70
     1
102
RTVSPost2010Prop33
280
     0
102
RTVSPost2010PropOp33
 70
     1
102
RTVSPost2010Prop34
280
     0
102
RTVSPost2010PropOp34
 70
     1
102
RTVSPost2010Prop35
280
     0
102
RTVSPost2010PropOp35
 70
     1
102
RTVSPost2010Prop36
280
     0
102
RTVSPost2010PropOp36
 70
     1
102
RTVSPost2010Prop37
 90
       50
102
RTVSPost2010PropOp37
 70
     1
102
RTVSPost2010Prop38
140
0.0
102
RTVSPost2010PropOp38
 70
     1
102
RTVSPost2010Prop39
140
1.0
102
RTVSPost2010PropOp39
 70
     1
102
RTVSPost2010Prop40
 90
        0
102
RTVSPost2010PropOp40
 70
     1
102
RTVSPost2010Prop41ColorIndex
 90
       18
102
RTVSPost2010Prop41ColorRGB
 90
        0
102
RTVSPost2010PropOp41
 70
     1
102
RTVSPost2010Prop42
 90
       50
102
RTVSPost2010PropOp42
 70
     1
102
RTVSPost2010Prop43
 90
        3
102
RTVSPost2010PropOp43
 70
     1
102
RTVSPost2010Prop44ColorIndex
 90
        5
102
RTVSPost2010Prop44ColorRGB
 90
      255
102
RTVSPost2010PropOp44
 70
     1
102
RTVSPost2010Prop45
280
     0
102
RTVSPost2010PropOp45
 70
     1
102
RTVSPost2010Prop46
 90
       50
102
RTVSPost2010PropOp46
 70
     1
102
RTVSPost2010Prop47
 90
       50
102
RTVSPost2010PropOp47
 70
     1
102
RTVSPost2010Prop48
 90
       50
102
RTVSPost2010PropOp48
 70
     1
102
RTVSPost2010Prop49
280
     0
102
RTVSPost2010PropOp49
 70
     1
102
RTVSPost2010Prop50
 90
       50
102
RTVSPost2010PropOp50
 70
     1
102
RTVSPost2010Prop51ColorIndex
 90
      256
102
RTVSPost2010Prop51ColorRGB
 90
-16777216
102
RTVSPost2010PropOp51
 70
     0
102
RTVSPost2010Prop52
140
1.0
102
RTVSPost2010PropOp52
 70
     0
102
RTVSPost2010Prop53
 90
        2
102
RTVSPost2010PropOp53
 70
     1
102
RTVSPost2010Prop54
  1
strokes_ogs.tif
102
RTVSPost2010PropOp54
 70
     1
102
RTVSPost2010Prop55
280
     0
102
RTVSPost2010PropOp55
 70
     1
102
RTVSPost2010Prop56
140
1.0
102
RTVSPost2010PropOp56
 70
     1
102
RTVSPost2010Prop57
140
1.0
102
RTVSPost2010PropOp57
 70
     1
102
RTVSPropertyOp0
 70
     1
102
RTVSPropertyOp1
 70
     1
102
RTVSPropertyOp2
 70
     1
102
RTVSPropertyOp3
 70
     1
102
RTVSPropertyOp4
 70
     1
102
RTVSPropertyOp5
 70
     1
102
RTVSPropertyOp6
 70
     1
102
RTVSPropertyOp7
 70
     1
102
RTVSPropertyOp8
 70
     1
102
RTVSPropertyOp9
 70
     1
102
RTVSPropertyOp10
 70
     1
102
RTVSPropertyOp11
 70
     1
102
RTVSPropertyOp12
 70
     1
102
RTVSPropertyOp13
 70
     1
102
RTVSPropertyOp14
 70
     1
102
RTVSPropertyOp15
 70
     1
102
RTVSPropertyOp16
 70
     1
102
RTVSPropertyOp17
 70
     1
102
RTVSPropertyOp18
 70
     1
102
RTVSPropertyOp19
 70
     1
102
RTVSPropertyOp20
 70
     1
102
RTVSPropertyOp21
 70
     1
102
RTVSPropertyOp22
 70
     1
102
RTVSPropertyOp23
 70
     1
102
RTVSPropertyOp24
 70
     1
102
RTVSPropertyOp25
 70
     1
102
RTVSPropertyOp26
 70
     1
102
RTVSPropertyOp27
 70
     1
102
RTVSPropertyOp28
 70
     1
102
RTVSPropertyOp29
 70
     1
102
RTVSPropertyOp30
 70
     1
102
RTVSPropertyOp31
 70
     1
102
RTVSPropertyOp32
 70
     1
102
RTVSPropertyOp33
 70
     1
102
RTVSPropertyOp34
 70
     1
102
RTVSPropertyOp35
 70
     1
102
RTVSPropertyOp36
 70
     1
102
RTVSPropertyOp37
 70
     1
102
RTVSPropertyOp38
 70
     1
102
RTVSPropertyOp39
 70
     1
102
RTVSPropertyOp40
 70
     1
102
RTVSPropertyOp41
 70
     1
102
RTVSPropertyOp42
 70
     1
102
RTVSPropertyOp43
 70
     1
102
RTVSPropertyOp44
 70
     1
102
RTVSPropertyOp45
 70
     1
102
RTVSPropertyOp46
 70
     1
102
RTVSPropertyOp47
 70
     1
102
RTVSPropertyOp48
 70
     1
102
RTVSPropertyOp49
 70
     1
102
RTVSPropertyOp50
 70
     1
102
RTVSPropertyOp51
 70
     0
102
RTVSPropertyOp52
 70
     0
102
RTVSPropertyOp53
 70
     1
102
RTVSPropertyOp54
 70
     1
102
RTVSPropertyOp55
 70
     1
102
RTVSPropertyOp56
 70
     1
102
RTVSPropertyOp57
 70
     1
102
RTVSPropertyOp58
 70
     1
102
RTVSPropertyOp59
 70
     1
102
RTVSPropertyOp60
 70
     1
102
RTVSPropertyOp61
 70
     1
102
RTVSPropertyOp62
 70
     1
  0
XRECORD
  5
4EC
102
{ACAD_REACTORS
330
4EB
102
}
330
4EB
100
AcDbXrecord
280
     1
102
RTVSPost2010Prop28
280
     0
102
RTVSPost2010PropOp28
 70
     1
102
RTVSPost2010Prop29
280
     1
102
RTVSPost2010PropOp29
 70
     1
102
RTVSPost2010Prop30
280
     1
102
RTVSPost2010PropOp30
 70
     1
102
RTVSPost2010Prop31
280
     0
102
RTVSPost2010PropOp31
 70
     1
102
RTVSPost2010Prop32
280
     0
102
RTVSPost2010PropOp32
 70
     1
102
RTVSPost2010Prop33
280
     0
102
RTVSPost2010PropOp33
 70
     1
102
RTVSPost2010Prop34
280
     0
102
RTVSPost2010PropOp34
 70
     1
102
RTVSPost2010Prop35
280
     0
102
RTVSPost2010PropOp35
 70
     1
102
RTVSPost2010Prop36
280
     0
102
RTVSPost2010PropOp36
 70
     1
102
RTVSPost2010Prop37
 90
       50
102
RTVSPost2010PropOp37
 70
     1
102
RTVSPost2010Prop38
140
0.0
102
RTVSPost2010PropOp38
 70
     1
102
RTVSPost2010Prop39
140
1.0
102
RTVSPost2010PropOp39
 70
     1
102
RTVSPost2010Prop40
 90
        0
102
RTVSPost2010PropOp40
 70
     1
102
RTVSPost2010Prop41ColorIndex
 90
       18
102
RTVSPost2010Prop41ColorRGB
 90
        0
102
RTVSPost2010PropOp41
 70
     1
102
RTVSPost2010Prop42
 90
       50
102
RTVSPost2010PropOp42
 70
     1
102
RTVSPost2010Prop43
 90
        3
102
RTVSPost2010PropOp43
 70
     1
102
RTVSPost2010Prop44ColorIndex
 90
        5
102
RTVSPost2010Prop44ColorRGB
 90
      255
102
RTVSPost2010PropOp44
 70
     1
102
RTVSPost2010Prop45
280
     0
102
RTVSPost2010PropOp45
 70
     1
102
RTVSPost2010Prop46
 90
       50
102
RTVSPost2010PropOp46
 70
     1
102
RTVSPost2010Prop47
 90
       50
102
RTVSPost2010PropOp47
 70
     1
102
RTVSPost2010Prop48
 90
       50
102
RTVSPost2010PropOp48
 70
     1
102
RTVSPost2010Prop49
280
     0
102
RTVSPost2010PropOp49
 70
     1
102
RTVSPost2010Prop50
 90
       50
102
RTVSPost2010PropOp50
 70
     1
102
RTVSPost2010Prop51ColorIndex
 90
      256
102
RTVSPost2010Prop51ColorRGB
 90
-16777216
102
RTVSPost2010PropOp51
 70
     0
102
RTVSPost2010Prop52
140
1.0
102
RTVSPost2010PropOp52
 70
     0
102
RTVSPost2010Prop53
 90
        2
102
RTVSPost2010PropOp53
 70
     1
102
RTVSPost2010Prop54
  1
strokes_ogs.tif
102
RTVSPost2010PropOp54
 70
     1
102
RTVSPost2010Prop55
280
     0
102
RTVSPost2010PropOp55
 70
     1
102
RTVSPost2010Prop56
140
1.0
102
RTVSPost2010PropOp56
 70
     1
102
RTVSPost2010Prop57
140
1.0
102
RTVSPost2010PropOp57
 70
     1
102
RTVSPropertyOp0
 70
     1
102
RTVSPropertyOp1
 70
     1
102
RTVSPropertyOp2
 70
     1
102
RTVSPropertyOp3
 70
     1
102
RTVSPropertyOp4
 70
     1
102
RTVSPropertyOp5
 70
     1
102
RTVSPropertyOp6
 70
     1
102
RTVSPropertyOp7
 70
     1
102
RTVSPropertyOp8
 70
     1
102
RTVSPropertyOp9
 70
     1
102
RTVSPropertyOp10
 70
     1
102
RTVSPropertyOp11
 70
     1
102
RTVSPropertyOp12
 70
     1
102
RTVSPropertyOp13
 70
     1
102
RTVSPropertyOp14
 70
     1
102
RTVSPropertyOp15
 70
     1
102
RTVSPropertyOp16
 70
     1
102
RTVSPropertyOp17
 70
     1
102
RTVSPropertyOp18
 70
     1
102
RTVSPropertyOp19
 70
     1
102
RTVSPropertyOp20
 70
     1
102
RTVSPropertyOp21
 70
     1
102
RTVSPropertyOp22
 70
     1
102
RTVSPropertyOp23
 70
     1
102
RTVSPropertyOp24
 70
     1
102
RTVSPropertyOp25
 70
     1
102
RTVSPropertyOp26
 70
     1
102
RTVSPropertyOp27
 70
     1
102
RTVSPropertyOp28
 70
     1
102
RTVSPropertyOp29
 70
     1
102
RTVSPropertyOp30
 70
     1
102
RTVSPropertyOp31
 70
     1
102
RTVSPropertyOp32
 70
     1
102
RTVSPropertyOp33
 70
     1
102
RTVSPropertyOp34
 70
     1
102
RTVSPropertyOp35
 70
     1
102
RTVSPropertyOp36
 70
     1
102
RTVSPropertyOp37
 70
     1
102
RTVSPropertyOp38
 70
     1
102
RTVSPropertyOp39
 70
     1
102
RTVSPropertyOp40
 70
     1
102
RTVSPropertyOp41
 70
     1
102
RTVSPropertyOp42
 70
     1
102
RTVSPropertyOp43
 70
     1
102
RTVSPropertyOp44
 70
     1
102
RTVSPropertyOp45
 70
     1
102
RTVSPropertyOp46
 70
     1
102
RTVSPropertyOp47
 70
     1
102
RTVSPropertyOp48
 70
     1
102
RTVSPropertyOp49
 70
     1
102
RTVSPropertyOp50
 70
     1
102
RTVSPropertyOp51
 70
     0
102
RTVSPropertyOp52
 70
     0
102
RTVSPropertyOp53
 70
     1
102
RTVSPropertyOp54
 70
     1
102
RTVSPropertyOp55
 70
     1
102
RTVSPropertyOp56
 70
     1
102
RTVSPropertyOp57
 70
     1
102
RTVSPropertyOp58
 70
     1
102
RTVSPropertyOp59
 70
     1
102
RTVSPropertyOp60
 70
     1
102
RTVSPropertyOp61
 70
     1
102
RTVSPropertyOp62
 70
     1
  0
XRECORD
  5
4DE
102
{ACAD_REACTORS
330
4DD
102
}
330
4DD
100
AcDbXrecord
280
     1
102
RTVSPost2010Prop28
280
     0
102
RTVSPost2010PropOp28
 70
     1
102
RTVSPost2010Prop29
280
     1
102
RTVSPost2010PropOp29
 70
     1
102
RTVSPost2010Prop30
280
     1
102
RTVSPost2010PropOp30
 70
     1
102
RTVSPost2010Prop31
280
     0
102
RTVSPost2010PropOp31
 70
     1
102
RTVSPost2010Prop32
280
     0
102
RTVSPost2010PropOp32
 70
     1
102
RTVSPost2010Prop33
280
     0
102
RTVSPost2010PropOp33
 70
     1
102
RTVSPost2010Prop34
280
     0
102
RTVSPost2010PropOp34
 70
     1
102
RTVSPost2010Prop35
280
     0
102
RTVSPost2010PropOp35
 70
     1
102
RTVSPost2010Prop36
280
     0
102
RTVSPost2010PropOp36
 70
     1
102
RTVSPost2010Prop37
 90
       50
102
RTVSPost2010PropOp37
 70
     1
102
RTVSPost2010Prop38
140
0.0
102
RTVSPost2010PropOp38
 70
     1
102
RTVSPost2010Prop39
140
1.0
102
RTVSPost2010PropOp39
 70
     1
102
RTVSPost2010Prop40
 90
        0
102
RTVSPost2010PropOp40
 70
     1
102
RTVSPost2010Prop41ColorIndex
 90
       18
102
RTVSPost2010Prop41ColorRGB
 90
        0
102
RTVSPost2010PropOp41
 70
     1
102
RTVSPost2010Prop42
 90
       50
102
RTVSPost2010PropOp42
 70
     1
102
RTVSPost2010Prop43
 90
        3
102
RTVSPost2010PropOp43
 70
     1
102
RTVSPost2010Prop44ColorIndex
 90
        5
102
RTVSPost2010Prop44ColorRGB
 90
      255
102
RTVSPost2010PropOp44
 70
     1
102
RTVSPost2010Prop45
280
     0
102
RTVSPost2010PropOp45
 70
     1
102
RTVSPost2010Prop46
 90
       50
102
RTVSPost2010PropOp46
 70
     1
102
RTVSPost2010Prop47
 90
       50
102
RTVSPost2010PropOp47
 70
     1
102
RTVSPost2010Prop48
 90
       50
102
RTVSPost2010PropOp48
 70
     1
102
RTVSPost2010Prop49
280
     0
102
RTVSPost2010PropOp49
 70
     1
102
RTVSPost2010Prop50
 90
       50
102
RTVSPost2010PropOp50
 70
     1
102
RTVSPost2010Prop51ColorIndex
 90
      256
102
RTVSPost2010Prop51ColorRGB
 90
-16777216
102
RTVSPost2010PropOp51
 70
     0
102
RTVSPost2010Prop52
140
1.0
102
RTVSPost2010PropOp52
 70
     0
102
RTVSPost2010Prop53
 90
        2
102
RTVSPost2010PropOp53
 70
     1
102
RTVSPost2010Prop54
  1
strokes_ogs.tif
102
RTVSPost2010PropOp54
 70
     1
102
RTVSPost2010Prop55
280
     0
102
RTVSPost2010PropOp55
 70
     1
102
RTVSPost2010Prop56
140
1.0
102
RTVSPost2010PropOp56
 70
     1
102
RTVSPost2010Prop57
140
1.0
102
RTVSPost2010PropOp57
 70
     1
102
RTVSPropertyOp0
 70
     1
102
RTVSPropertyOp1
 70
     1
102
RTVSPropertyOp2
 70
     1
102
RTVSPropertyOp3
 70
     1
102
RTVSPropertyOp4
 70
     1
102
RTVSPropertyOp5
 70
     1
102
RTVSPropertyOp6
 70
     1
102
RTVSPropertyOp7
 70
     1
102
RTVSPropertyOp8
 70
     1
102
RTVSPropertyOp9
 70
     1
102
RTVSPropertyOp10
 70
     1
102
RTVSPropertyOp11
 70
     1
102
RTVSPropertyOp12
 70
     1
102
RTVSPropertyOp13
 70
     1
102
RTVSPropertyOp14
 70
     1
102
RTVSPropertyOp15
 70
     1
102
RTVSPropertyOp16
 70
     1
102
RTVSPropertyOp17
 70
     1
102
RTVSPropertyOp18
 70
     1
102
RTVSPropertyOp19
 70
     1
102
RTVSPropertyOp20
 70
     1
102
RTVSPropertyOp21
 70
     1
102
RTVSPropertyOp22
 70
     1
102
RTVSPropertyOp23
 70
     1
102
RTVSPropertyOp24
 70
     1
102
RTVSPropertyOp25
 70
     1
102
RTVSPropertyOp26
 70
     1
102
RTVSPropertyOp27
 70
     1
102
RTVSPropertyOp28
 70
     1
102
RTVSPropertyOp29
 70
     1
102
RTVSPropertyOp30
 70
     1
102
RTVSPropertyOp31
 70
     1
102
RTVSPropertyOp32
 70
     1
102
RTVSPropertyOp33
 70
     1
102
RTVSPropertyOp34
 70
     1
102
RTVSPropertyOp35
 70
     1
102
RTVSPropertyOp36
 70
     1
102
RTVSPropertyOp37
 70
     1
102
RTVSPropertyOp38
 70
     1
102
RTVSPropertyOp39
 70
     1
102
RTVSPropertyOp40
 70
     1
102
RTVSPropertyOp41
 70
     1
102
RTVSPropertyOp42
 70
     1
102
RTVSPropertyOp43
 70
     1
102
RTVSPropertyOp44
 70
     1
102
RTVSPropertyOp45
 70
     1
102
RTVSPropertyOp46
 70
     1
102
RTVSPropertyOp47
 70
     1
102
RTVSPropertyOp48
 70
     1
102
RTVSPropertyOp49
 70
     1
102
RTVSPropertyOp50
 70
     1
102
RTVSPropertyOp51
 70
     0
102
RTVSPropertyOp52
 70
     0
102
RTVSPropertyOp53
 70
     1
102
RTVSPropertyOp54
 70
     1
102
RTVSPropertyOp55
 70
     1
102
RTVSPropertyOp56
 70
     1
102
RTVSPropertyOp57
 70
     1
102
RTVSPropertyOp58
 70
     1
102
RTVSPropertyOp59
 70
     1
102
RTVSPropertyOp60
 70
     1
102
RTVSPropertyOp61
 70
     1
102
RTVSPropertyOp62
 70
     1
  0
XRECORD
  5
4E2
102
{ACAD_REACTORS
330
4E1
102
}
330
4E1
100
AcDbXrecord
280
     1
102
RTVSPost2010Prop28
280
     0
102
RTVSPost2010PropOp28
 70
     1
102
RTVSPost2010Prop29
280
     1
102
RTVSPost2010PropOp29
 70
     1
102
RTVSPost2010Prop30
280
     1
102
RTVSPost2010PropOp30
 70
     1
102
RTVSPost2010Prop31
280
     0
102
RTVSPost2010PropOp31
 70
     1
102
RTVSPost2010Prop32
280
     0
102
RTVSPost2010PropOp32
 70
     1
102
RTVSPost2010Prop33
280
     0
102
RTVSPost2010PropOp33
 70
     1
102
RTVSPost2010Prop34
280
     0
102
RTVSPost2010PropOp34
 70
     1
102
RTVSPost2010Prop35
280
     0
102
RTVSPost2010PropOp35
 70
     1
102
RTVSPost2010Prop36
280
     0
102
RTVSPost2010PropOp36
 70
     1
102
RTVSPost2010Prop37
 90
       50
102
RTVSPost2010PropOp37
 70
     1
102
RTVSPost2010Prop38
140
0.0
102
RTVSPost2010PropOp38
 70
     1
102
RTVSPost2010Prop39
140
1.0
102
RTVSPost2010PropOp39
 70
     1
102
RTVSPost2010Prop40
 90
        0
102
RTVSPost2010PropOp40
 70
     1
102
RTVSPost2010Prop41ColorIndex
 90
       18
102
RTVSPost2010Prop41ColorRGB
 90
        0
102
RTVSPost2010PropOp41
 70
     1
102
RTVSPost2010Prop42
 90
       50
102
RTVSPost2010PropOp42
 70
     1
102
RTVSPost2010Prop43
 90
        3
102
RTVSPost2010PropOp43
 70
     1
102
RTVSPost2010Prop44ColorIndex
 90
        5
102
RTVSPost2010Prop44ColorRGB
 90
      255
102
RTVSPost2010PropOp44
 70
     1
102
RTVSPost2010Prop45
280
     0
102
RTVSPost2010PropOp45
 70
     1
102
RTVSPost2010Prop46
 90
       50
102
RTVSPost2010PropOp46
 70
     1
102
RTVSPost2010Prop47
 90
       50
102
RTVSPost2010PropOp47
 70
     1
102
RTVSPost2010Prop48
 90
       50
102
RTVSPost2010PropOp48
 70
     1
102
RTVSPost2010Prop49
280
     0
102
RTVSPost2010PropOp49
 70
     1
102
RTVSPost2010Prop50
 90
       50
102
RTVSPost2010PropOp50
 70
     1
102
RTVSPost2010Prop51ColorIndex
 90
      256
102
RTVSPost2010Prop51ColorRGB
 90
-16777216
102
RTVSPost2010PropOp51
 70
     0
102
RTVSPost2010Prop52
140
1.0
102
RTVSPost2010PropOp52
 70
     0
102
RTVSPost2010Prop53
 90
        2
102
RTVSPost2010PropOp53
 70
     1
102
RTVSPost2010Prop54
  1
strokes_ogs.tif
102
RTVSPost2010PropOp54
 70
     1
102
RTVSPost2010Prop55
280
     0
102
RTVSPost2010PropOp55
 70
     1
102
RTVSPost2010Prop56
140
1.0
102
RTVSPost2010PropOp56
 70
     1
102
RTVSPost2010Prop57
140
1.0
102
RTVSPost2010PropOp57
 70
     1
102
RTVSPropertyOp0
 70
     1
102
RTVSPropertyOp1
 70
     1
102
RTVSPropertyOp2
 70
     1
102
RTVSPropertyOp3
 70
     1
102
RTVSPropertyOp4
 70
     1
102
RTVSPropertyOp5
 70
     1
102
RTVSPropertyOp6
 70
     1
102
RTVSPropertyOp7
 70
     1
102
RTVSPropertyOp8
 70
     1
102
RTVSPropertyOp9
 70
     1
102
RTVSPropertyOp10
 70
     1
102
RTVSPropertyOp11
 70
     1
102
RTVSPropertyOp12
 70
     1
102
RTVSPropertyOp13
 70
     1
102
RTVSPropertyOp14
 70
     1
102
RTVSPropertyOp15
 70
     1
102
RTVSPropertyOp16
 70
     1
102
RTVSPropertyOp17
 70
     1
102
RTVSPropertyOp18
 70
     1
102
RTVSPropertyOp19
 70
     1
102
RTVSPropertyOp20
 70
     1
102
RTVSPropertyOp21
 70
     1
102
RTVSPropertyOp22
 70
     1
102
RTVSPropertyOp23
 70
     1
102
RTVSPropertyOp24
 70
     1
102
RTVSPropertyOp25
 70
     1
102
RTVSPropertyOp26
 70
     1
102
RTVSPropertyOp27
 70
     1
102
RTVSPropertyOp28
 70
     1
102
RTVSPropertyOp29
 70
     1
102
RTVSPropertyOp30
 70
     1
102
RTVSPropertyOp31
 70
     1
102
RTVSPropertyOp32
 70
     1
102
RTVSPropertyOp33
 70
     1
102
RTVSPropertyOp34
 70
     1
102
RTVSPropertyOp35
 70
     1
102
RTVSPropertyOp36
 70
     1
102
RTVSPropertyOp37
 70
     1
102
RTVSPropertyOp38
 70
     1
102
RTVSPropertyOp39
 70
     1
102
RTVSPropertyOp40
 70
     1
102
RTVSPropertyOp41
 70
     1
102
RTVSPropertyOp42
 70
     1
102
RTVSPropertyOp43
 70
     1
102
RTVSPropertyOp44
 70
     1
102
RTVSPropertyOp45
 70
     1
102
RTVSPropertyOp46
 70
     1
102
RTVSPropertyOp47
 70
     1
102
RTVSPropertyOp48
 70
     1
102
RTVSPropertyOp49
 70
     1
102
RTVSPropertyOp50
 70
     1
102
RTVSPropertyOp51
 70
     0
102
RTVSPropertyOp52
 70
     0
102
RTVSPropertyOp53
 70
     1
102
RTVSPropertyOp54
 70
     1
102
RTVSPropertyOp55
 70
     1
102
RTVSPropertyOp56
 70
     1
102
RTVSPropertyOp57
 70
     1
102
RTVSPropertyOp58
 70
     1
102
RTVSPropertyOp59
 70
     1
102
RTVSPropertyOp60
 70
     1
102
RTVSPropertyOp61
 70
     1
102
RTVSPropertyOp62
 70
     1
  0
XRECORD
  5
4FC
102
{ACAD_REACTORS
330
4FB
102
}
330
4FB
100
AcDbXrecord
280
     1
102
RTVSPost2010Prop28
280
     0
102
RTVSPost2010PropOp28
 70
     1
102
RTVSPost2010Prop29
280
     1
102
RTVSPost2010PropOp29
 70
     1
102
RTVSPost2010Prop30
280
     1
102
RTVSPost2010PropOp30
 70
     1
102
RTVSPost2010Prop31
280
     0
102
RTVSPost2010PropOp31
 70
     1
102
RTVSPost2010Prop32
280
     0
102
RTVSPost2010PropOp32
 70
     1
102
RTVSPost2010Prop33
280
     0
102
RTVSPost2010PropOp33
 70
     1
102
RTVSPost2010Prop34
280
     0
102
RTVSPost2010PropOp34
 70
     1
102
RTVSPost2010Prop35
280
     0
102
RTVSPost2010PropOp35
 70
     1
102
RTVSPost2010Prop36
280
     0
102
RTVSPost2010PropOp36
 70
     1
102
RTVSPost2010Prop37
 90
       50
102
RTVSPost2010PropOp37
 70
     0
102
RTVSPost2010Prop38
140
0.0
102
RTVSPost2010PropOp38
 70
     0
102
RTVSPost2010Prop39
140
1.0
102
RTVSPost2010PropOp39
 70
     0
102
RTVSPost2010Prop40
 90
        0
102
RTVSPost2010PropOp40
 70
     0
102
RTVSPost2010Prop41ColorIndex
 90
       18
102
RTVSPost2010Prop41ColorRGB
 90
        0
102
RTVSPost2010PropOp41
 70
     0
102
RTVSPost2010Prop42
 90
       50
102
RTVSPost2010PropOp42
 70
     0
102
RTVSPost2010Prop43
 90
        3
102
RTVSPost2010PropOp43
 70
     0
102
RTVSPost2010Prop44ColorIndex
 90
        5
102
RTVSPost2010Prop44ColorRGB
 90
      255
102
RTVSPost2010PropOp44
 70
     0
102
RTVSPost2010Prop45
280
     0
102
RTVSPost2010PropOp45
 70
     1
102
RTVSPost2010Prop46
 90
       50
102
RTVSPost2010PropOp46
 70
     0
102
RTVSPost2010Prop47
 90
       50
102
RTVSPost2010PropOp47
 70
     0
102
RTVSPost2010Prop48
 90
       50
102
RTVSPost2010PropOp48
 70
     0
102
RTVSPost2010Prop49
280
     0
102
RTVSPost2010PropOp49
 70
     1
102
RTVSPost2010Prop50
 90
       50
102
RTVSPost2010PropOp50
 70
     0
102
RTVSPost2010Prop51ColorIndex
 90
      256
102
RTVSPost2010Prop51ColorRGB
 90
-16777216
102
RTVSPost2010PropOp51
 70
     0
102
RTVSPost2010Prop52
140
1.0
102
RTVSPost2010PropOp52
 70
     0
102
RTVSPost2010Prop53
 90
        2
102
RTVSPost2010PropOp53
 70
     0
102
RTVSPost2010Prop54
  1
strokes_ogs.tif
102
RTVSPost2010PropOp54
 70
     0
102
RTVSPost2010Prop55
280
     0
102
RTVSPost2010PropOp55
 70
     1
102
RTVSPost2010Prop56
140
1.0
102
RTVSPost2010PropOp56
 70
     0
102
RTVSPost2010Prop57
140
1.0
102
RTVSPost2010PropOp57
 70
     0
102
RTVSPropertyOp0
 70
     0
102
RTVSPropertyOp1
 70
     0
102
RTVSPropertyOp2
 70
     0
102
RTVSPropertyOp3
 70
     0
102
RTVSPropertyOp4
 70
     0
102
RTVSPropertyOp5
 70
     0
102
RTVSPropertyOp6
 70
     0
102
RTVSPropertyOp7
 70
     0
102
RTVSPropertyOp8
 70
     0
102
RTVSPropertyOp9
 70
     0
102
RTVSPropertyOp10
 70
     0
102
RTVSPropertyOp11
 70
     0
102
RTVSPropertyOp12
 70
     0
102
RTVSPropertyOp13
 70
     0
102
RTVSPropertyOp14
 70
     2
102
RTVSPropertyOp15
 70
     0
102
RTVSPropertyOp16
 70
     0
102
RTVSPropertyOp17
 70
     0
102
RTVSPropertyOp18
 70
     0
102
RTVSPropertyOp19
 70
     0
102
RTVSPropertyOp20
 70
     0
102
RTVSPropertyOp21
 70
     0
102
RTVSPropertyOp22
 70
     0
102
RTVSPropertyOp23
 70
     0
102
RTVSPropertyOp24
 70
     0
102
RTVSPropertyOp25
 70
     0
102
RTVSPropertyOp26
 70
     0
102
RTVSPropertyOp27
 70
     0
102
RTVSPropertyOp28
 70
     1
102
RTVSPropertyOp29
 70
     1
102
RTVSPropertyOp30
 70
     1
102
RTVSPropertyOp31
 70
     1
102
RTVSPropertyOp32
 70
     1
102
RTVSPropertyOp33
 70
     1
102
RTVSPropertyOp34
 70
     1
102
RTVSPropertyOp35
 70
     1
102
RTVSPropertyOp36
 70
     1
102
RTVSPropertyOp37
 70
     0
102
RTVSPropertyOp38
 70
     0
102
RTVSPropertyOp39
 70
     0
102
RTVSPropertyOp40
 70
     0
102
RTVSPropertyOp41
 70
     0
102
RTVSPropertyOp42
 70
     0
102
RTVSPropertyOp43
 70
     0
102
RTVSPropertyOp44
 70
     0
102
RTVSPropertyOp45
 70
     1
102
RTVSPropertyOp46
 70
     0
102
RTVSPropertyOp47
 70
     0
102
RTVSPropertyOp48
 70
     0
102
RTVSPropertyOp49
 70
     1
102
RTVSPropertyOp50
 70
     0
102
RTVSPropertyOp51
 70
     0
102
RTVSPropertyOp52
 70
     0
102
RTVSPropertyOp53
 70
     0
102
RTVSPropertyOp54
 70
     0
102
RTVSPropertyOp55
 70
     1
102
RTVSPropertyOp56
 70
     0
102
RTVSPropertyOp57
 70
     0
102
RTVSPropertyOp58
 70
     0
102
RTVSPropertyOp59
 70
     0
102
RTVSPropertyOp60
 70
     0
102
RTVSPropertyOp61
 70
     0
102
RTVSPropertyOp62
 70
     0
  0
XRECORD
  5
4EA
102
{ACAD_REACTORS
330
4E9
102
}
330
4E9
100
AcDbXrecord
280
     1
102
RTVSPost2010Prop28
280
     0
102
RTVSPost2010PropOp28
 70
     1
102
RTVSPost2010Prop29
280
     1
102
RTVSPost2010PropOp29
 70
     1
102
RTVSPost2010Prop30
280
     1
102
RTVSPost2010PropOp30
 70
     1
102
RTVSPost2010Prop31
280
     0
102
RTVSPost2010PropOp31
 70
     1
102
RTVSPost2010Prop32
280
     0
102
RTVSPost2010PropOp32
 70
     1
102
RTVSPost2010Prop33
280
     0
102
RTVSPost2010PropOp33
 70
     1
102
RTVSPost2010Prop34
280
     0
102
RTVSPost2010PropOp34
 70
     1
102
RTVSPost2010Prop35
280
     0
102
RTVSPost2010PropOp35
 70
     1
102
RTVSPost2010Prop36
280
     0
102
RTVSPost2010PropOp36
 70
     1
102
RTVSPost2010Prop37
 90
       50
102
RTVSPost2010PropOp37
 70
     1
102
RTVSPost2010Prop38
140
0.0
102
RTVSPost2010PropOp38
 70
     1
102
RTVSPost2010Prop39
140
1.0
102
RTVSPost2010PropOp39
 70
     1
102
RTVSPost2010Prop40
 90
        0
102
RTVSPost2010PropOp40
 70
     1
102
RTVSPost2010Prop41ColorIndex
 90
       18
102
RTVSPost2010Prop41ColorRGB
 90
        0
102
RTVSPost2010PropOp41
 70
     1
102
RTVSPost2010Prop42
 90
       50
102
RTVSPost2010PropOp42
 70
     1
102
RTVSPost2010Prop43
 90
        3
102
RTVSPost2010PropOp43
 70
     1
102
RTVSPost2010Prop44ColorIndex
 90
        5
102
RTVSPost2010Prop44ColorRGB
 90
      255
102
RTVSPost2010PropOp44
 70
     1
102
RTVSPost2010Prop45
280
     0
102
RTVSPost2010PropOp45
 70
     1
102
RTVSPost2010Prop46
 90
       50
102
RTVSPost2010PropOp46
 70
     1
102
RTVSPost2010Prop47
 90
       50
102
RTVSPost2010PropOp47
 70
     1
102
RTVSPost2010Prop48
 90
       50
102
RTVSPost2010PropOp48
 70
     1
102
RTVSPost2010Prop49
280
     0
102
RTVSPost2010PropOp49
 70
     1
102
RTVSPost2010Prop50
 90
       50
102
RTVSPost2010PropOp50
 70
     1
102
RTVSPost2010Prop51ColorIndex
 90
      256
102
RTVSPost2010Prop51ColorRGB
 90
-16777216
102
RTVSPost2010PropOp51
 70
     0
102
RTVSPost2010Prop52
140
1.0
102
RTVSPost2010PropOp52
 70
     0
102
RTVSPost2010Prop53
 90
        2
102
RTVSPost2010PropOp53
 70
     1
102
RTVSPost2010Prop54
  1
strokes_ogs.tif
102
RTVSPost2010PropOp54
 70
     1
102
RTVSPost2010Prop55
280
     0
102
RTVSPost2010PropOp55
 70
     1
102
RTVSPost2010Prop56
140
1.0
102
RTVSPost2010PropOp56
 70
     1
102
RTVSPost2010Prop57
140
1.0
102
RTVSPost2010PropOp57
 70
     1
102
RTVSPropertyOp0
 70
     1
102
RTVSPropertyOp1
 70
     1
102
RTVSPropertyOp2
 70
     1
102
RTVSPropertyOp3
 70
     1
102
RTVSPropertyOp4
 70
     1
102
RTVSPropertyOp5
 70
     1
102
RTVSPropertyOp6
 70
     1
102
RTVSPropertyOp7
 70
     1
102
RTVSPropertyOp8
 70
     1
102
RTVSPropertyOp9
 70
     1
102
RTVSPropertyOp10
 70
     1
102
RTVSPropertyOp11
 70
     1
102
RTVSPropertyOp12
 70
     1
102
RTVSPropertyOp13
 70
     1
102
RTVSPropertyOp14
 70
     1
102
RTVSPropertyOp15
 70
     1
102
RTVSPropertyOp16
 70
     1
102
RTVSPropertyOp17
 70
     1
102
RTVSPropertyOp18
 70
     1
102
RTVSPropertyOp19
 70
     1
102
RTVSPropertyOp20
 70
     1
102
RTVSPropertyOp21
 70
     1
102
RTVSPropertyOp22
 70
     1
102
RTVSPropertyOp23
 70
     1
102
RTVSPropertyOp24
 70
     1
102
RTVSPropertyOp25
 70
     1
102
RTVSPropertyOp26
 70
     1
102
RTVSPropertyOp27
 70
     1
102
RTVSPropertyOp28
 70
     1
102
RTVSPropertyOp29
 70
     1
102
RTVSPropertyOp30
 70
     1
102
RTVSPropertyOp31
 70
     1
102
RTVSPropertyOp32
 70
     1
102
RTVSPropertyOp33
 70
     1
102
RTVSPropertyOp34
 70
     1
102
RTVSPropertyOp35
 70
     1
102
RTVSPropertyOp36
 70
     1
102
RTVSPropertyOp37
 70
     1
102
RTVSPropertyOp38
 70
     1
102
RTVSPropertyOp39
 70
     1
102
RTVSPropertyOp40
 70
     1
102
RTVSPropertyOp41
 70
     1
102
RTVSPropertyOp42
 70
     1
102
RTVSPropertyOp43
 70
     1
102
RTVSPropertyOp44
 70
     1
102
RTVSPropertyOp45
 70
     1
102
RTVSPropertyOp46
 70
     1
102
RTVSPropertyOp47
 70
     1
102
RTVSPropertyOp48
 70
     1
102
RTVSPropertyOp49
 70
     1
102
RTVSPropertyOp50
 70
     1
102
RTVSPropertyOp51
 70
     0
102
RTVSPropertyOp52
 70
     0
102
RTVSPropertyOp53
 70
     1
102
RTVSPropertyOp54
 70
     1
102
RTVSPropertyOp55
 70
     1
102
RTVSPropertyOp56
 70
     1
102
RTVSPropertyOp57
 70
     1
102
RTVSPropertyOp58
 70
     1
102
RTVSPropertyOp59
 70
     1
102
RTVSPropertyOp60
 70
     1
102
RTVSPropertyOp61
 70
     1
102
RTVSPropertyOp62
 70
     1
  0
XRECORD
  5
4CE
102
{ACAD_REACTORS
330
4CD
102
}
330
4CD
100
AcDbXrecord
280
     1
102
RTVSPost2010Prop28
280
     0
102
RTVSPost2010PropOp28
 70
     1
102
RTVSPost2010Prop29
280
     1
102
RTVSPost2010PropOp29
 70
     1
102
RTVSPost2010Prop30
280
     1
102
RTVSPost2010PropOp30
 70
     1
102
RTVSPost2010Prop31
280
     0
102
RTVSPost2010PropOp31
 70
     1
102
RTVSPost2010Prop32
280
     0
102
RTVSPost2010PropOp32
 70
     1
102
RTVSPost2010Prop33
280
     0
102
RTVSPost2010PropOp33
 70
     1
102
RTVSPost2010Prop34
280
     0
102
RTVSPost2010PropOp34
 70
     1
102
RTVSPost2010Prop35
280
     0
102
RTVSPost2010PropOp35
 70
     1
102
RTVSPost2010Prop36
280
     0
102
RTVSPost2010PropOp36
 70
     1
102
RTVSPost2010Prop37
 90
       50
102
RTVSPost2010PropOp37
 70
     1
102
RTVSPost2010Prop38
140
0.0
102
RTVSPost2010PropOp38
 70
     1
102
RTVSPost2010Prop39
140
1.0
102
RTVSPost2010PropOp39
 70
     1
102
RTVSPost2010Prop40
 90
        0
102
RTVSPost2010PropOp40
 70
     1
102
RTVSPost2010Prop41ColorIndex
 90
       18
102
RTVSPost2010Prop41ColorRGB
 90
        0
102
RTVSPost2010PropOp41
 70
     1
102
RTVSPost2010Prop42
 90
       50
102
RTVSPost2010PropOp42
 70
     1
102
RTVSPost2010Prop43
 90
        3
102
RTVSPost2010PropOp43
 70
     1
102
RTVSPost2010Prop44ColorIndex
 90
        5
102
RTVSPost2010Prop44ColorRGB
 90
      255
102
RTVSPost2010PropOp44
 70
     1
102
RTVSPost2010Prop45
280
     0
102
RTVSPost2010PropOp45
 70
     1
102
RTVSPost2010Prop46
 90
       50
102
RTVSPost2010PropOp46
 70
     1
102
RTVSPost2010Prop47
 90
       50
102
RTVSPost2010PropOp47
 70
     1
102
RTVSPost2010Prop48
 90
       50
102
RTVSPost2010PropOp48
 70
     1
102
RTVSPost2010Prop49
280
     0
102
RTVSPost2010PropOp49
 70
     1
102
RTVSPost2010Prop50
 90
       50
102
RTVSPost2010PropOp50
 70
     1
102
RTVSPost2010Prop51ColorIndex
 90
      256
102
RTVSPost2010Prop51ColorRGB
 90
-16777216
102
RTVSPost2010PropOp51
 70
     0
102
RTVSPost2010Prop52
140
1.0
102
RTVSPost2010PropOp52
 70
     0
102
RTVSPost2010Prop53
 90
        2
102
RTVSPost2010PropOp53
 70
     1
102
RTVSPost2010Prop54
  1
strokes_ogs.tif
102
RTVSPost2010PropOp54
 70
     1
102
RTVSPost2010Prop55
280
     0
102
RTVSPost2010PropOp55
 70
     1
102
RTVSPost2010Prop56
140
1.0
102
RTVSPost2010PropOp56
 70
     1
102
RTVSPost2010Prop57
140
1.0
102
RTVSPost2010PropOp57
 70
     1
102
RTVSPropertyOp0
 70
     1
102
RTVSPropertyOp1
 70
     1
102
RTVSPropertyOp2
 70
     1
102
RTVSPropertyOp3
 70
     1
102
RTVSPropertyOp4
 70
     1
102
RTVSPropertyOp5
 70
     1
102
RTVSPropertyOp6
 70
     1
102
RTVSPropertyOp7
 70
     1
102
RTVSPropertyOp8
 70
     1
102
RTVSPropertyOp9
 70
     1
102
RTVSPropertyOp10
 70
     1
102
RTVSPropertyOp11
 70
     1
102
RTVSPropertyOp12
 70
     1
102
RTVSPropertyOp13
 70
     1
102
RTVSPropertyOp14
 70
     1
102
RTVSPropertyOp15
 70
     1
102
RTVSPropertyOp16
 70
     1
102
RTVSPropertyOp17
 70
     1
102
RTVSPropertyOp18
 70
     1
102
RTVSPropertyOp19
 70
     1
102
RTVSPropertyOp20
 70
     1
102
RTVSPropertyOp21
 70
     1
102
RTVSPropertyOp22
 70
     1
102
RTVSPropertyOp23
 70
     1
102
RTVSPropertyOp24
 70
     1
102
RTVSPropertyOp25
 70
     1
102
RTVSPropertyOp26
 70
     1
102
RTVSPropertyOp27
 70
     1
102
RTVSPropertyOp28
 70
     1
102
RTVSPropertyOp29
 70
     1
102
RTVSPropertyOp30
 70
     1
102
RTVSPropertyOp31
 70
     1
102
RTVSPropertyOp32
 70
     1
102
RTVSPropertyOp33
 70
     1
102
RTVSPropertyOp34
 70
     1
102
RTVSPropertyOp35
 70
     1
102
RTVSPropertyOp36
 70
     1
102
RTVSPropertyOp37
 70
     1
102
RTVSPropertyOp38
 70
     1
102
RTVSPropertyOp39
 70
     1
102
RTVSPropertyOp40
 70
     1
102
RTVSPropertyOp41
 70
     1
102
RTVSPropertyOp42
 70
     1
102
RTVSPropertyOp43
 70
     1
102
RTVSPropertyOp44
 70
     1
102
RTVSPropertyOp45
 70
     1
102
RTVSPropertyOp46
 70
     1
102
RTVSPropertyOp47
 70
     1
102
RTVSPropertyOp48
 70
     1
102
RTVSPropertyOp49
 70
     1
102
RTVSPropertyOp50
 70
     1
102
RTVSPropertyOp51
 70
     0
102
RTVSPropertyOp52
 70
     0
102
RTVSPropertyOp53
 70
     1
102
RTVSPropertyOp54
 70
     1
102
RTVSPropertyOp55
 70
     1
102
RTVSPropertyOp56
 70
     1
102
RTVSPropertyOp57
 70
     1
102
RTVSPropertyOp58
 70
     1
102
RTVSPropertyOp59
 70
     1
102
RTVSPropertyOp60
 70
     1
102
RTVSPropertyOp61
 70
     1
102
RTVSPropertyOp62
 70
     1
  0
XRECORD
  5
4D0
102
{ACAD_REACTORS
330
4CF
102
}
330
4CF
100
AcDbXrecord
280
     1
102
RTVSPost2010Prop28
280
     0
102
RTVSPost2010PropOp28
 70
     1
102
RTVSPost2010Prop29
280
     1
102
RTVSPost2010PropOp29
 70
     1
102
RTVSPost2010Prop30
280
     1
102
RTVSPost2010PropOp30
 70
     1
102
RTVSPost2010Prop31
280
     0
102
RTVSPost2010PropOp31
 70
     1
102
RTVSPost2010Prop32
280
     0
102
RTVSPost2010PropOp32
 70
     1
102
RTVSPost2010Prop33
280
     0
102
RTVSPost2010PropOp33
 70
     1
102
RTVSPost2010Prop34
280
     0
102
RTVSPost2010PropOp34
 70
     1
102
RTVSPost2010Prop35
280
     0
102
RTVSPost2010PropOp35
 70
     1
102
RTVSPost2010Prop36
280
     0
102
RTVSPost2010PropOp36
 70
     1
102
RTVSPost2010Prop37
 90
       50
102
RTVSPost2010PropOp37
 70
     1
102
RTVSPost2010Prop38
140
0.0
102
RTVSPost2010PropOp38
 70
     1
102
RTVSPost2010Prop39
140
1.0
102
RTVSPost2010PropOp39
 70
     1
102
RTVSPost2010Prop40
 90
        0
102
RTVSPost2010PropOp40
 70
     1
102
RTVSPost2010Prop41ColorIndex
 90
       18
102
RTVSPost2010Prop41ColorRGB
 90
        0
102
RTVSPost2010PropOp41
 70
     1
102
RTVSPost2010Prop42
 90
       50
102
RTVSPost2010PropOp42
 70
     1
102
RTVSPost2010Prop43
 90
        3
102
RTVSPost2010PropOp43
 70
     1
102
RTVSPost2010Prop44ColorIndex
 90
        5
102
RTVSPost2010Prop44ColorRGB
 90
      255
102
RTVSPost2010PropOp44
 70
     1
102
RTVSPost2010Prop45
280
     0
102
RTVSPost2010PropOp45
 70
     1
102
RTVSPost2010Prop46
 90
       50
102
RTVSPost2010PropOp46
 70
     1
102
RTVSPost2010Prop47
 90
       50
102
RTVSPost2010PropOp47
 70
     1
102
RTVSPost2010Prop48
 90
       50
102
RTVSPost2010PropOp48
 70
     1
102
RTVSPost2010Prop49
280
     0
102
RTVSPost2010PropOp49
 70
     1
102
RTVSPost2010Prop50
 90
       50
102
RTVSPost2010PropOp50
 70
     1
102
RTVSPost2010Prop51ColorIndex
 90
      256
102
RTVSPost2010Prop51ColorRGB
 90
-16777216
102
RTVSPost2010PropOp51
 70
     0
102
RTVSPost2010Prop52
140
1.0
102
RTVSPost2010PropOp52
 70
     0
102
RTVSPost2010Prop53
 90
        2
102
RTVSPost2010PropOp53
 70
     1
102
RTVSPost2010Prop54
  1
strokes_ogs.tif
102
RTVSPost2010PropOp54
 70
     1
102
RTVSPost2010Prop55
280
     0
102
RTVSPost2010PropOp55
 70
     1
102
RTVSPost2010Prop56
140
1.0
102
RTVSPost2010PropOp56
 70
     1
102
RTVSPost2010Prop57
140
1.0
102
RTVSPost2010PropOp57
 70
     1
102
RTVSPropertyOp0
 70
     1
102
RTVSPropertyOp1
 70
     1
102
RTVSPropertyOp2
 70
     1
102
RTVSPropertyOp3
 70
     1
102
RTVSPropertyOp4
 70
     1
102
RTVSPropertyOp5
 70
     1
102
RTVSPropertyOp6
 70
     1
102
RTVSPropertyOp7
 70
     1
102
RTVSPropertyOp8
 70
     1
102
RTVSPropertyOp9
 70
     1
102
RTVSPropertyOp10
 70
     1
102
RTVSPropertyOp11
 70
     1
102
RTVSPropertyOp12
 70
     1
102
RTVSPropertyOp13
 70
     1
102
RTVSPropertyOp14
 70
     1
102
RTVSPropertyOp15
 70
     1
102
RTVSPropertyOp16
 70
     1
102
RTVSPropertyOp17
 70
     1
102
RTVSPropertyOp18
 70
     1
102
RTVSPropertyOp19
 70
     1
102
RTVSPropertyOp20
 70
     1
102
RTVSPropertyOp21
 70
     1
102
RTVSPropertyOp22
 70
     1
102
RTVSPropertyOp23
 70
     1
102
RTVSPropertyOp24
 70
     1
102
RTVSPropertyOp25
 70
     1
102
RTVSPropertyOp26
 70
     1
102
RTVSPropertyOp27
 70
     1
102
RTVSPropertyOp28
 70
     1
102
RTVSPropertyOp29
 70
     1
102
RTVSPropertyOp30
 70
     1
102
RTVSPropertyOp31
 70
     1
102
RTVSPropertyOp32
 70
     1
102
RTVSPropertyOp33
 70
     1
102
RTVSPropertyOp34
 70
     1
102
RTVSPropertyOp35
 70
     1
102
RTVSPropertyOp36
 70
     1
102
RTVSPropertyOp37
 70
     1
102
RTVSPropertyOp38
 70
     1
102
RTVSPropertyOp39
 70
     1
102
RTVSPropertyOp40
 70
     1
102
RTVSPropertyOp41
 70
     1
102
RTVSPropertyOp42
 70
     1
102
RTVSPropertyOp43
 70
     1
102
RTVSPropertyOp44
 70
     1
102
RTVSPropertyOp45
 70
     1
102
RTVSPropertyOp46
 70
     1
102
RTVSPropertyOp47
 70
     1
102
RTVSPropertyOp48
 70
     1
102
RTVSPropertyOp49
 70
     1
102
RTVSPropertyOp50
 70
     1
102
RTVSPropertyOp51
 70
     0
102
RTVSPropertyOp52
 70
     0
102
RTVSPropertyOp53
 70
     1
102
RTVSPropertyOp54
 70
     1
102
RTVSPropertyOp55
 70
     1
102
RTVSPropertyOp56
 70
     1
102
RTVSPropertyOp57
 70
     1
102
RTVSPropertyOp58
 70
     1
102
RTVSPropertyOp59
 70
     1
102
RTVSPropertyOp60
 70
     1
102
RTVSPropertyOp61
 70
     1
102
RTVSPropertyOp62
 70
     1
  0
XRECORD
  5
4D2
102
{ACAD_REACTORS
330
4D1
102
}
330
4D1
100
AcDbXrecord
280
     1
102
RTVSPost2010Prop28
280
     0
102
RTVSPost2010PropOp28
 70
     1
102
RTVSPost2010Prop29
280
     1
102
RTVSPost2010PropOp29
 70
     1
102
RTVSPost2010Prop30
280
     1
102
RTVSPost2010PropOp30
 70
     1
102
RTVSPost2010Prop31
280
     0
102
RTVSPost2010PropOp31
 70
     1
102
RTVSPost2010Prop32
280
     0
102
RTVSPost2010PropOp32
 70
     1
102
RTVSPost2010Prop33
280
     0
102
RTVSPost2010PropOp33
 70
     1
102
RTVSPost2010Prop34
280
     0
102
RTVSPost2010PropOp34
 70
     1
102
RTVSPost2010Prop35
280
     0
102
RTVSPost2010PropOp35
 70
     1
102
RTVSPost2010Prop36
280
     0
102
RTVSPost2010PropOp36
 70
     1
102
RTVSPost2010Prop37
 90
       50
102
RTVSPost2010PropOp37
 70
     1
102
RTVSPost2010Prop38
140
0.0
102
RTVSPost2010PropOp38
 70
     1
102
RTVSPost2010Prop39
140
1.0
102
RTVSPost2010PropOp39
 70
     1
102
RTVSPost2010Prop40
 90
        0
102
RTVSPost2010PropOp40
 70
     1
102
RTVSPost2010Prop41ColorIndex
 90
       18
102
RTVSPost2010Prop41ColorRGB
 90
        0
102
RTVSPost2010PropOp41
 70
     1
102
RTVSPost2010Prop42
 90
       50
102
RTVSPost2010PropOp42
 70
     1
102
RTVSPost2010Prop43
 90
        3
102
RTVSPost2010PropOp43
 70
     1
102
RTVSPost2010Prop44ColorIndex
 90
        5
102
RTVSPost2010Prop44ColorRGB
 90
      255
102
RTVSPost2010PropOp44
 70
     1
102
RTVSPost2010Prop45
280
     0
102
RTVSPost2010PropOp45
 70
     1
102
RTVSPost2010Prop46
 90
       50
102
RTVSPost2010PropOp46
 70
     1
102
RTVSPost2010Prop47
 90
       50
102
RTVSPost2010PropOp47
 70
     1
102
RTVSPost2010Prop48
 90
       50
102
RTVSPost2010PropOp48
 70
     1
102
RTVSPost2010Prop49
280
     0
102
RTVSPost2010PropOp49
 70
     1
102
RTVSPost2010Prop50
 90
       50
102
RTVSPost2010PropOp50
 70
     1
102
RTVSPost2010Prop51ColorIndex
 90
      256
102
RTVSPost2010Prop51ColorRGB
 90
-16777216
102
RTVSPost2010PropOp51
 70
     0
102
RTVSPost2010Prop52
140
1.0
102
RTVSPost2010PropOp52
 70
     0
102
RTVSPost2010Prop53
 90
        2
102
RTVSPost2010PropOp53
 70
     1
102
RTVSPost2010Prop54
  1
strokes_ogs.tif
102
RTVSPost2010PropOp54
 70
     1
102
RTVSPost2010Prop55
280
     0
102
RTVSPost2010PropOp55
 70
     1
102
RTVSPost2010Prop56
140
1.0
102
RTVSPost2010PropOp56
 70
     1
102
RTVSPost2010Prop57
140
1.0
102
RTVSPost2010PropOp57
 70
     1
102
RTVSPropertyOp0
 70
     1
102
RTVSPropertyOp1
 70
     1
102
RTVSPropertyOp2
 70
     1
102
RTVSPropertyOp3
 70
     1
102
RTVSPropertyOp4
 70
     1
102
RTVSPropertyOp5
 70
     1
102
RTVSPropertyOp6
 70
     1
102
RTVSPropertyOp7
 70
     1
102
RTVSPropertyOp8
 70
     1
102
RTVSPropertyOp9
 70
     1
102
RTVSPropertyOp10
 70
     1
102
RTVSPropertyOp11
 70
     1
102
RTVSPropertyOp12
 70
     1
102
RTVSPropertyOp13
 70
     1
102
RTVSPropertyOp14
 70
     1
102
RTVSPropertyOp15
 70
     1
102
RTVSPropertyOp16
 70
     1
102
RTVSPropertyOp17
 70
     1
102
RTVSPropertyOp18
 70
     1
102
RTVSPropertyOp19
 70
     1
102
RTVSPropertyOp20
 70
     1
102
RTVSPropertyOp21
 70
     1
102
RTVSPropertyOp22
 70
     1
102
RTVSPropertyOp23
 70
     1
102
RTVSPropertyOp24
 70
     1
102
RTVSPropertyOp25
 70
     1
102
RTVSPropertyOp26
 70
     1
102
RTVSPropertyOp27
 70
     1
102
RTVSPropertyOp28
 70
     1
102
RTVSPropertyOp29
 70
     1
102
RTVSPropertyOp30
 70
     1
102
RTVSPropertyOp31
 70
     1
102
RTVSPropertyOp32
 70
     1
102
RTVSPropertyOp33
 70
     1
102
RTVSPropertyOp34
 70
     1
102
RTVSPropertyOp35
 70
     1
102
RTVSPropertyOp36
 70
     1
102
RTVSPropertyOp37
 70
     1
102
RTVSPropertyOp38
 70
     1
102
RTVSPropertyOp39
 70
     1
102
RTVSPropertyOp40
 70
     1
102
RTVSPropertyOp41
 70
     1
102
RTVSPropertyOp42
 70
     1
102
RTVSPropertyOp43
 70
     1
102
RTVSPropertyOp44
 70
     1
102
RTVSPropertyOp45
 70
     1
102
RTVSPropertyOp46
 70
     1
102
RTVSPropertyOp47
 70
     1
102
RTVSPropertyOp48
 70
     1
102
RTVSPropertyOp49
 70
     1
102
RTVSPropertyOp50
 70
     1
102
RTVSPropertyOp51
 70
     0
102
RTVSPropertyOp52
 70
     0
102
RTVSPropertyOp53
 70
     1
102
RTVSPropertyOp54
 70
     1
102
RTVSPropertyOp55
 70
     1
102
RTVSPropertyOp56
 70
     1
102
RTVSPropertyOp57
 70
     1
102
RTVSPropertyOp58
 70
     1
102
RTVSPropertyOp59
 70
     1
102
RTVSPropertyOp60
 70
     1
102
RTVSPropertyOp61
 70
     1
102
RTVSPropertyOp62
 70
     1
  0
XRECORD
  5
4D4
102
{ACAD_REACTORS
330
4D3
102
}
330
4D3
100
AcDbXrecord
280
     1
102
RTVSPost2010Prop28
280
     0
102
RTVSPost2010PropOp28
 70
     1
102
RTVSPost2010Prop29
280
     1
102
RTVSPost2010PropOp29
 70
     1
102
RTVSPost2010Prop30
280
     1
102
RTVSPost2010PropOp30
 70
     1
102
RTVSPost2010Prop31
280
     0
102
RTVSPost2010PropOp31
 70
     1
102
RTVSPost2010Prop32
280
     0
102
RTVSPost2010PropOp32
 70
     1
102
RTVSPost2010Prop33
280
     0
102
RTVSPost2010PropOp33
 70
     1
102
RTVSPost2010Prop34
280
     0
102
RTVSPost2010PropOp34
 70
     1
102
RTVSPost2010Prop35
280
     0
102
RTVSPost2010PropOp35
 70
     1
102
RTVSPost2010Prop36
280
     0
102
RTVSPost2010PropOp36
 70
     1
102
RTVSPost2010Prop37
 90
       50
102
RTVSPost2010PropOp37
 70
     1
102
RTVSPost2010Prop38
140
0.0
102
RTVSPost2010PropOp38
 70
     1
102
RTVSPost2010Prop39
140
1.0
102
RTVSPost2010PropOp39
 70
     1
102
RTVSPost2010Prop40
 90
        0
102
RTVSPost2010PropOp40
 70
     1
102
RTVSPost2010Prop41ColorIndex
 90
       18
102
RTVSPost2010Prop41ColorRGB
 90
        0
102
RTVSPost2010PropOp41
 70
     1
102
RTVSPost2010Prop42
 90
       50
102
RTVSPost2010PropOp42
 70
     1
102
RTVSPost2010Prop43
 90
        3
102
RTVSPost2010PropOp43
 70
     1
102
RTVSPost2010Prop44ColorIndex
 90
        5
102
RTVSPost2010Prop44ColorRGB
 90
      255
102
RTVSPost2010PropOp44
 70
     1
102
RTVSPost2010Prop45
280
     0
102
RTVSPost2010PropOp45
 70
     1
102
RTVSPost2010Prop46
 90
       50
102
RTVSPost2010PropOp46
 70
     1
102
RTVSPost2010Prop47
 90
       50
102
RTVSPost2010PropOp47
 70
     1
102
RTVSPost2010Prop48
 90
       50
102
RTVSPost2010PropOp48
 70
     1
102
RTVSPost2010Prop49
280
     0
102
RTVSPost2010PropOp49
 70
     1
102
RTVSPost2010Prop50
 90
       50
102
RTVSPost2010PropOp50
 70
     1
102
RTVSPost2010Prop51ColorIndex
 90
      256
102
RTVSPost2010Prop51ColorRGB
 90
-16777216
102
RTVSPost2010PropOp51
 70
     0
102
RTVSPost2010Prop52
140
1.0
102
RTVSPost2010PropOp52
 70
     0
102
RTVSPost2010Prop53
 90
        2
102
RTVSPost2010PropOp53
 70
     1
102
RTVSPost2010Prop54
  1
strokes_ogs.tif
102
RTVSPost2010PropOp54
 70
     1
102
RTVSPost2010Prop55
280
     0
102
RTVSPost2010PropOp55
 70
     1
102
RTVSPost2010Prop56
140
1.0
102
RTVSPost2010PropOp56
 70
     1
102
RTVSPost2010Prop57
140
1.0
102
RTVSPost2010PropOp57
 70
     1
102
RTVSPropertyOp0
 70
     1
102
RTVSPropertyOp1
 70
     1
102
RTVSPropertyOp2
 70
     1
102
RTVSPropertyOp3
 70
     1
102
RTVSPropertyOp4
 70
     1
102
RTVSPropertyOp5
 70
     1
102
RTVSPropertyOp6
 70
     1
102
RTVSPropertyOp7
 70
     1
102
RTVSPropertyOp8
 70
     1
102
RTVSPropertyOp9
 70
     1
102
RTVSPropertyOp10
 70
     1
102
RTVSPropertyOp11
 70
     1
102
RTVSPropertyOp12
 70
     1
102
RTVSPropertyOp13
 70
     1
102
RTVSPropertyOp14
 70
     1
102
RTVSPropertyOp15
 70
     1
102
RTVSPropertyOp16
 70
     1
102
RTVSPropertyOp17
 70
     1
102
RTVSPropertyOp18
 70
     1
102
RTVSPropertyOp19
 70
     1
102
RTVSPropertyOp20
 70
     1
102
RTVSPropertyOp21
 70
     1
102
RTVSPropertyOp22
 70
     1
102
RTVSPropertyOp23
 70
     1
102
RTVSPropertyOp24
 70
     1
102
RTVSPropertyOp25
 70
     1
102
RTVSPropertyOp26
 70
     1
102
RTVSPropertyOp27
 70
     1
102
RTVSPropertyOp28
 70
     1
102
RTVSPropertyOp29
 70
     1
102
RTVSPropertyOp30
 70
     1
102
RTVSPropertyOp31
 70
     1
102
RTVSPropertyOp32
 70
     1
102
RTVSPropertyOp33
 70
     1
102
RTVSPropertyOp34
 70
     1
102
RTVSPropertyOp35
 70
     1
102
RTVSPropertyOp36
 70
     1
102
RTVSPropertyOp37
 70
     1
102
RTVSPropertyOp38
 70
     1
102
RTVSPropertyOp39
 70
     1
102
RTVSPropertyOp40
 70
     1
102
RTVSPropertyOp41
 70
     1
102
RTVSPropertyOp42
 70
     1
102
RTVSPropertyOp43
 70
     1
102
RTVSPropertyOp44
 70
     1
102
RTVSPropertyOp45
 70
     1
102
RTVSPropertyOp46
 70
     1
102
RTVSPropertyOp47
 70
     1
102
RTVSPropertyOp48
 70
     1
102
RTVSPropertyOp49
 70
     1
102
RTVSPropertyOp50
 70
     1
102
RTVSPropertyOp51
 70
     0
102
RTVSPropertyOp52
 70
     0
102
RTVSPropertyOp53
 70
     1
102
RTVSPropertyOp54
 70
     1
102
RTVSPropertyOp55
 70
     1
102
RTVSPropertyOp56
 70
     1
102
RTVSPropertyOp57
 70
     1
102
RTVSPropertyOp58
 70
     1
102
RTVSPropertyOp59
 70
     1
102
RTVSPropertyOp60
 70
     1
102
RTVSPropertyOp61
 70
     1
102
RTVSPropertyOp62
 70
     1
  0
XRECORD
  5
4DC
102
{ACAD_REACTORS
330
4DB
102
}
330
4DB
100
AcDbXrecord
280
     1
102
RTVSPost2010Prop28
280
     0
102
RTVSPost2010PropOp28
 70
     1
102
RTVSPost2010Prop29
280
     1
102
RTVSPost2010PropOp29
 70
     1
102
RTVSPost2010Prop30
280
     1
102
RTVSPost2010PropOp30
 70
     1
102
RTVSPost2010Prop31
280
     0
102
RTVSPost2010PropOp31
 70
     1
102
RTVSPost2010Prop32
280
     0
102
RTVSPost2010PropOp32
 70
     1
102
RTVSPost2010Prop33
280
     0
102
RTVSPost2010PropOp33
 70
     1
102
RTVSPost2010Prop34
280
     0
102
RTVSPost2010PropOp34
 70
     1
102
RTVSPost2010Prop35
280
     0
102
RTVSPost2010PropOp35
 70
     1
102
RTVSPost2010Prop36
280
     0
102
RTVSPost2010PropOp36
 70
     1
102
RTVSPost2010Prop37
 90
       50
102
RTVSPost2010PropOp37
 70
     1
102
RTVSPost2010Prop38
140
0.0
102
RTVSPost2010PropOp38
 70
     1
102
RTVSPost2010Prop39
140
1.0
102
RTVSPost2010PropOp39
 70
     1
102
RTVSPost2010Prop40
 90
        0
102
RTVSPost2010PropOp40
 70
     1
102
RTVSPost2010Prop41ColorIndex
 90
       18
102
RTVSPost2010Prop41ColorRGB
 90
        0
102
RTVSPost2010PropOp41
 70
     1
102
RTVSPost2010Prop42
 90
       50
102
RTVSPost2010PropOp42
 70
     1
102
RTVSPost2010Prop43
 90
        3
102
RTVSPost2010PropOp43
 70
     1
102
RTVSPost2010Prop44ColorIndex
 90
        5
102
RTVSPost2010Prop44ColorRGB
 90
      255
102
RTVSPost2010PropOp44
 70
     1
102
RTVSPost2010Prop45
280
     0
102
RTVSPost2010PropOp45
 70
     1
102
RTVSPost2010Prop46
 90
       50
102
RTVSPost2010PropOp46
 70
     1
102
RTVSPost2010Prop47
 90
       50
102
RTVSPost2010PropOp47
 70
     1
102
RTVSPost2010Prop48
 90
       50
102
RTVSPost2010PropOp48
 70
     1
102
RTVSPost2010Prop49
280
     0
102
RTVSPost2010PropOp49
 70
     1
102
RTVSPost2010Prop50
 90
       50
102
RTVSPost2010PropOp50
 70
     1
102
RTVSPost2010Prop51ColorIndex
 90
      256
102
RTVSPost2010Prop51ColorRGB
 90
-16777216
102
RTVSPost2010PropOp51
 70
     0
102
RTVSPost2010Prop52
140
1.0
102
RTVSPost2010PropOp52
 70
     0
102
RTVSPost2010Prop53
 90
        2
102
RTVSPost2010PropOp53
 70
     1
102
RTVSPost2010Prop54
  1
strokes_ogs.tif
102
RTVSPost2010PropOp54
 70
     1
102
RTVSPost2010Prop55
280
     0
102
RTVSPost2010PropOp55
 70
     1
102
RTVSPost2010Prop56
140
1.0
102
RTVSPost2010PropOp56
 70
     1
102
RTVSPost2010Prop57
140
1.0
102
RTVSPost2010PropOp57
 70
     1
102
RTVSPropertyOp0
 70
     1
102
RTVSPropertyOp1
 70
     1
102
RTVSPropertyOp2
 70
     1
102
RTVSPropertyOp3
 70
     1
102
RTVSPropertyOp4
 70
     1
102
RTVSPropertyOp5
 70
     1
102
RTVSPropertyOp6
 70
     1
102
RTVSPropertyOp7
 70
     1
102
RTVSPropertyOp8
 70
     1
102
RTVSPropertyOp9
 70
     1
102
RTVSPropertyOp10
 70
     1
102
RTVSPropertyOp11
 70
     1
102
RTVSPropertyOp12
 70
     1
102
RTVSPropertyOp13
 70
     1
102
RTVSPropertyOp14
 70
     1
102
RTVSPropertyOp15
 70
     1
102
RTVSPropertyOp16
 70
     1
102
RTVSPropertyOp17
 70
     1
102
RTVSPropertyOp18
 70
     1
102
RTVSPropertyOp19
 70
     1
102
RTVSPropertyOp20
 70
     1
102
RTVSPropertyOp21
 70
     1
102
RTVSPropertyOp22
 70
     1
102
RTVSPropertyOp23
 70
     1
102
RTVSPropertyOp24
 70
     1
102
RTVSPropertyOp25
 70
     1
102
RTVSPropertyOp26
 70
     1
102
RTVSPropertyOp27
 70
     1
102
RTVSPropertyOp28
 70
     1
102
RTVSPropertyOp29
 70
     1
102
RTVSPropertyOp30
 70
     1
102
RTVSPropertyOp31
 70
     1
102
RTVSPropertyOp32
 70
     1
102
RTVSPropertyOp33
 70
     1
102
RTVSPropertyOp34
 70
     1
102
RTVSPropertyOp35
 70
     1
102
RTVSPropertyOp36
 70
     1
102
RTVSPropertyOp37
 70
     1
102
RTVSPropertyOp38
 70
     1
102
RTVSPropertyOp39
 70
     1
102
RTVSPropertyOp40
 70
     1
102
RTVSPropertyOp41
 70
     1
102
RTVSPropertyOp42
 70
     1
102
RTVSPropertyOp43
 70
     1
102
RTVSPropertyOp44
 70
     1
102
RTVSPropertyOp45
 70
     1
102
RTVSPropertyOp46
 70
     1
102
RTVSPropertyOp47
 70
     1
102
RTVSPropertyOp48
 70
     1
102
RTVSPropertyOp49
 70
     1
102
RTVSPropertyOp50
 70
     1
102
RTVSPropertyOp51
 70
     0
102
RTVSPropertyOp52
 70
     0
102
RTVSPropertyOp53
 70
     1
102
RTVSPropertyOp54
 70
     1
102
RTVSPropertyOp55
 70
     1
102
RTVSPropertyOp56
 70
     1
102
RTVSPropertyOp57
 70
     1
102
RTVSPropertyOp58
 70
     1
102
RTVSPropertyOp59
 70
     1
102
RTVSPropertyOp60
 70
     1
102
RTVSPropertyOp61
 70
     1
102
RTVSPropertyOp62
 70
     1
  0
XRECORD
  5
4F8
102
{ACAD_REACTORS
330
4F7
102
}
330
4F7
100
AcDbXrecord
280
     1
102
RTVSPost2010Prop28
280
     0
102
RTVSPost2010PropOp28
 70
     1
102
RTVSPost2010Prop29
280
     1
102
RTVSPost2010PropOp29
 70
     1
102
RTVSPost2010Prop30
280
     1
102
RTVSPost2010PropOp30
 70
     1
102
RTVSPost2010Prop31
280
     0
102
RTVSPost2010PropOp31
 70
     1
102
RTVSPost2010Prop32
280
     0
102
RTVSPost2010PropOp32
 70
     1
102
RTVSPost2010Prop33
280
     0
102
RTVSPost2010PropOp33
 70
     1
102
RTVSPost2010Prop34
280
     0
102
RTVSPost2010PropOp34
 70
     1
102
RTVSPost2010Prop35
280
     0
102
RTVSPost2010PropOp35
 70
     1
102
RTVSPost2010Prop36
280
     0
102
RTVSPost2010PropOp36
 70
     1
102
RTVSPost2010Prop37
 90
       50
102
RTVSPost2010PropOp37
 70
     0
102
RTVSPost2010Prop38
140
0.0
102
RTVSPost2010PropOp38
 70
     0
102
RTVSPost2010Prop39
140
1.0
102
RTVSPost2010PropOp39
 70
     0
102
RTVSPost2010Prop40
 90
        0
102
RTVSPost2010PropOp40
 70
     0
102
RTVSPost2010Prop41ColorIndex
 90
       18
102
RTVSPost2010Prop41ColorRGB
 90
        0
102
RTVSPost2010PropOp41
 70
     0
102
RTVSPost2010Prop42
 90
       50
102
RTVSPost2010PropOp42
 70
     0
102
RTVSPost2010Prop43
 90
        3
102
RTVSPost2010PropOp43
 70
     0
102
RTVSPost2010Prop44ColorIndex
 90
        5
102
RTVSPost2010Prop44ColorRGB
 90
      255
102
RTVSPost2010PropOp44
 70
     0
102
RTVSPost2010Prop45
280
     0
102
RTVSPost2010PropOp45
 70
     1
102
RTVSPost2010Prop46
 90
       50
102
RTVSPost2010PropOp46
 70
     0
102
RTVSPost2010Prop47
 90
       50
102
RTVSPost2010PropOp47
 70
     0
102
RTVSPost2010Prop48
 90
       50
102
RTVSPost2010PropOp48
 70
     0
102
RTVSPost2010Prop49
280
     0
102
RTVSPost2010PropOp49
 70
     1
102
RTVSPost2010Prop50
 90
       50
102
RTVSPost2010PropOp50
 70
     0
102
RTVSPost2010Prop51ColorIndex
 90
      256
102
RTVSPost2010Prop51ColorRGB
 90
-16777216
102
RTVSPost2010PropOp51
 70
     0
102
RTVSPost2010Prop52
140
1.0
102
RTVSPost2010PropOp52
 70
     0
102
RTVSPost2010Prop53
 90
        2
102
RTVSPost2010PropOp53
 70
     0
102
RTVSPost2010Prop54
  1
strokes_ogs.tif
102
RTVSPost2010PropOp54
 70
     0
102
RTVSPost2010Prop55
280
     0
102
RTVSPost2010PropOp55
 70
     1
102
RTVSPost2010Prop56
140
1.0
102
RTVSPost2010PropOp56
 70
     0
102
RTVSPost2010Prop57
140
1.0
102
RTVSPost2010PropOp57
 70
     0
102
RTVSPropertyOp0
 70
     0
102
RTVSPropertyOp1
 70
     0
102
RTVSPropertyOp2
 70
     0
102
RTVSPropertyOp3
 70
     0
102
RTVSPropertyOp4
 70
     0
102
RTVSPropertyOp5
 70
     0
102
RTVSPropertyOp6
 70
     0
102
RTVSPropertyOp7
 70
     0
102
RTVSPropertyOp8
 70
     0
102
RTVSPropertyOp9
 70
     0
102
RTVSPropertyOp10
 70
     0
102
RTVSPropertyOp11
 70
     0
102
RTVSPropertyOp12
 70
     0
102
RTVSPropertyOp13
 70
     0
102
RTVSPropertyOp14
 70
     2
102
RTVSPropertyOp15
 70
     0
102
RTVSPropertyOp16
 70
     0
102
RTVSPropertyOp17
 70
     0
102
RTVSPropertyOp18
 70
     0
102
RTVSPropertyOp19
 70
     0
102
RTVSPropertyOp20
 70
     0
102
RTVSPropertyOp21
 70
     0
102
RTVSPropertyOp22
 70
     0
102
RTVSPropertyOp23
 70
     0
102
RTVSPropertyOp24
 70
     0
102
RTVSPropertyOp25
 70
     0
102
RTVSPropertyOp26
 70
     0
102
RTVSPropertyOp27
 70
     0
102
RTVSPropertyOp28
 70
     1
102
RTVSPropertyOp29
 70
     1
102
RTVSPropertyOp30
 70
     1
102
RTVSPropertyOp31
 70
     1
102
RTVSPropertyOp32
 70
     1
102
RTVSPropertyOp33
 70
     1
102
RTVSPropertyOp34
 70
     1
102
RTVSPropertyOp35
 70
     1
102
RTVSPropertyOp36
 70
     1
102
RTVSPropertyOp37
 70
     0
102
RTVSPropertyOp38
 70
     0
102
RTVSPropertyOp39
 70
     0
102
RTVSPropertyOp40
 70
     0
102
RTVSPropertyOp41
 70
     0
102
RTVSPropertyOp42
 70
     0
102
RTVSPropertyOp43
 70
     0
102
RTVSPropertyOp44
 70
     0
102
RTVSPropertyOp45
 70
     1
102
RTVSPropertyOp46
 70
     0
102
RTVSPropertyOp47
 70
     0
102
RTVSPropertyOp48
 70
     0
102
RTVSPropertyOp49
 70
     1
102
RTVSPropertyOp50
 70
     0
102
RTVSPropertyOp51
 70
     0
102
RTVSPropertyOp52
 70
     0
102
RTVSPropertyOp53
 70
     0
102
RTVSPropertyOp54
 70
     0
102
RTVSPropertyOp55
 70
     1
102
RTVSPropertyOp56
 70
     0
102
RTVSPropertyOp57
 70
     0
102
RTVSPropertyOp58
 70
     0
102
RTVSPropertyOp59
 70
     0
102
RTVSPropertyOp60
 70
     0
102
RTVSPropertyOp61
 70
     0
102
RTVSPropertyOp62
 70
     0
  0
XRECORD
  5
4E8
102
{ACAD_REACTORS
330
4E7
102
}
330
4E7
100
AcDbXrecord
280
     1
102
RTVSPost2010Prop28
280
     0
102
RTVSPost2010PropOp28
 70
     1
102
RTVSPost2010Prop29
280
     1
102
RTVSPost2010PropOp29
 70
     1
102
RTVSPost2010Prop30
280
     1
102
RTVSPost2010PropOp30
 70
     1
102
RTVSPost2010Prop31
280
     0
102
RTVSPost2010PropOp31
 70
     1
102
RTVSPost2010Prop32
280
     0
102
RTVSPost2010PropOp32
 70
     1
102
RTVSPost2010Prop33
280
     0
102
RTVSPost2010PropOp33
 70
     1
102
RTVSPost2010Prop34
280
     0
102
RTVSPost2010PropOp34
 70
     1
102
RTVSPost2010Prop35
280
     0
102
RTVSPost2010PropOp35
 70
     1
102
RTVSPost2010Prop36
280
     0
102
RTVSPost2010PropOp36
 70
     1
102
RTVSPost2010Prop37
 90
       50
102
RTVSPost2010PropOp37
 70
     1
102
RTVSPost2010Prop38
140
0.0
102
RTVSPost2010PropOp38
 70
     1
102
RTVSPost2010Prop39
140
1.0
102
RTVSPost2010PropOp39
 70
     1
102
RTVSPost2010Prop40
 90
        0
102
RTVSPost2010PropOp40
 70
     1
102
RTVSPost2010Prop41ColorIndex
 90
       18
102
RTVSPost2010Prop41ColorRGB
 90
        0
102
RTVSPost2010PropOp41
 70
     1
102
RTVSPost2010Prop42
 90
       50
102
RTVSPost2010PropOp42
 70
     1
102
RTVSPost2010Prop43
 90
        3
102
RTVSPost2010PropOp43
 70
     1
102
RTVSPost2010Prop44ColorIndex
 90
        5
102
RTVSPost2010Prop44ColorRGB
 90
      255
102
RTVSPost2010PropOp44
 70
     1
102
RTVSPost2010Prop45
280
     0
102
RTVSPost2010PropOp45
 70
     1
102
RTVSPost2010Prop46
 90
       50
102
RTVSPost2010PropOp46
 70
     1
102
RTVSPost2010Prop47
 90
       50
102
RTVSPost2010PropOp47
 70
     1
102
RTVSPost2010Prop48
 90
       50
102
RTVSPost2010PropOp48
 70
     1
102
RTVSPost2010Prop49
280
     0
102
RTVSPost2010PropOp49
 70
     1
102
RTVSPost2010Prop50
 90
       50
102
RTVSPost2010PropOp50
 70
     1
102
RTVSPost2010Prop51ColorIndex
 90
      256
102
RTVSPost2010Prop51ColorRGB
 90
-16777216
102
RTVSPost2010PropOp51
 70
     0
102
RTVSPost2010Prop52
140
1.0
102
RTVSPost2010PropOp52
 70
     0
102
RTVSPost2010Prop53
 90
        2
102
RTVSPost2010PropOp53
 70
     1
102
RTVSPost2010Prop54
  1
strokes_ogs.tif
102
RTVSPost2010PropOp54
 70
     1
102
RTVSPost2010Prop55
280
     0
102
RTVSPost2010PropOp55
 70
     1
102
RTVSPost2010Prop56
140
1.0
102
RTVSPost2010PropOp56
 70
     1
102
RTVSPost2010Prop57
140
1.0
102
RTVSPost2010PropOp57
 70
     1
102
RTVSPropertyOp0
 70
     1
102
RTVSPropertyOp1
 70
     1
102
RTVSPropertyOp2
 70
     1
102
RTVSPropertyOp3
 70
     1
102
RTVSPropertyOp4
 70
     1
102
RTVSPropertyOp5
 70
     1
102
RTVSPropertyOp6
 70
     1
102
RTVSPropertyOp7
 70
     1
102
RTVSPropertyOp8
 70
     1
102
RTVSPropertyOp9
 70
     1
102
RTVSPropertyOp10
 70
     1
102
RTVSPropertyOp11
 70
     1
102
RTVSPropertyOp12
 70
     1
102
RTVSPropertyOp13
 70
     1
102
RTVSPropertyOp14
 70
     1
102
RTVSPropertyOp15
 70
     1
102
RTVSPropertyOp16
 70
     1
102
RTVSPropertyOp17
 70
     1
102
RTVSPropertyOp18
 70
     1
102
RTVSPropertyOp19
 70
     1
102
RTVSPropertyOp20
 70
     1
102
RTVSPropertyOp21
 70
     1
102
RTVSPropertyOp22
 70
     1
102
RTVSPropertyOp23
 70
     1
102
RTVSPropertyOp24
 70
     1
102
RTVSPropertyOp25
 70
     1
102
RTVSPropertyOp26
 70
     1
102
RTVSPropertyOp27
 70
     1
102
RTVSPropertyOp28
 70
     1
102
RTVSPropertyOp29
 70
     1
102
RTVSPropertyOp30
 70
     1
102
RTVSPropertyOp31
 70
     1
102
RTVSPropertyOp32
 70
     1
102
RTVSPropertyOp33
 70
     1
102
RTVSPropertyOp34
 70
     1
102
RTVSPropertyOp35
 70
     1
102
RTVSPropertyOp36
 70
     1
102
RTVSPropertyOp37
 70
     1
102
RTVSPropertyOp38
 70
     1
102
RTVSPropertyOp39
 70
     1
102
RTVSPropertyOp40
 70
     1
102
RTVSPropertyOp41
 70
     1
102
RTVSPropertyOp42
 70
     1
102
RTVSPropertyOp43
 70
     1
102
RTVSPropertyOp44
 70
     1
102
RTVSPropertyOp45
 70
     1
102
RTVSPropertyOp46
 70
     1
102
RTVSPropertyOp47
 70
     1
102
RTVSPropertyOp48
 70
     1
102
RTVSPropertyOp49
 70
     1
102
RTVSPropertyOp50
 70
     1
102
RTVSPropertyOp51
 70
     0
102
RTVSPropertyOp52
 70
     0
102
RTVSPropertyOp53
 70
     1
102
RTVSPropertyOp54
 70
     1
102
RTVSPropertyOp55
 70
     1
102
RTVSPropertyOp56
 70
     1
102
RTVSPropertyOp57
 70
     1
102
RTVSPropertyOp58
 70
     1
102
RTVSPropertyOp59
 70
     1
102
RTVSPropertyOp60
 70
     1
102
RTVSPropertyOp61
 70
     1
102
RTVSPropertyOp62
 70
     1
  0
XRECORD
  5
4FA
102
{ACAD_REACTORS
330
4F9
102
}
330
4F9
100
AcDbXrecord
280
     1
102
RTVSPost2010Prop28
280
     0
102
RTVSPost2010PropOp28
 70
     1
102
RTVSPost2010Prop29
280
     1
102
RTVSPost2010PropOp29
 70
     1
102
RTVSPost2010Prop30
280
     1
102
RTVSPost2010PropOp30
 70
     1
102
RTVSPost2010Prop31
280
     0
102
RTVSPost2010PropOp31
 70
     1
102
RTVSPost2010Prop32
280
     0
102
RTVSPost2010PropOp32
 70
     1
102
RTVSPost2010Prop33
280
     0
102
RTVSPost2010PropOp33
 70
     1
102
RTVSPost2010Prop34
280
     0
102
RTVSPost2010PropOp34
 70
     1
102
RTVSPost2010Prop35
280
     0
102
RTVSPost2010PropOp35
 70
     1
102
RTVSPost2010Prop36
280
     0
102
RTVSPost2010PropOp36
 70
     1
102
RTVSPost2010Prop37
 90
       50
102
RTVSPost2010PropOp37
 70
     0
102
RTVSPost2010Prop38
140
0.0
102
RTVSPost2010PropOp38
 70
     0
102
RTVSPost2010Prop39
140
1.0
102
RTVSPost2010PropOp39
 70
     0
102
RTVSPost2010Prop40
 90
        0
102
RTVSPost2010PropOp40
 70
     0
102
RTVSPost2010Prop41ColorIndex
 90
       18
102
RTVSPost2010Prop41ColorRGB
 90
        0
102
RTVSPost2010PropOp41
 70
     0
102
RTVSPost2010Prop42
 90
       50
102
RTVSPost2010PropOp42
 70
     0
102
RTVSPost2010Prop43
 90
        3
102
RTVSPost2010PropOp43
 70
     0
102
RTVSPost2010Prop44ColorIndex
 90
        5
102
RTVSPost2010Prop44ColorRGB
 90
      255
102
RTVSPost2010PropOp44
 70
     0
102
RTVSPost2010Prop45
280
     0
102
RTVSPost2010PropOp45
 70
     1
102
RTVSPost2010Prop46
 90
       50
102
RTVSPost2010PropOp46
 70
     0
102
RTVSPost2010Prop47
 90
       50
102
RTVSPost2010PropOp47
 70
     0
102
RTVSPost2010Prop48
 90
       50
102
RTVSPost2010PropOp48
 70
     0
102
RTVSPost2010Prop49
280
     0
102
RTVSPost2010PropOp49
 70
     1
102
RTVSPost2010Prop50
 90
       50
102
RTVSPost2010PropOp50
 70
     0
102
RTVSPost2010Prop51ColorIndex
 90
      256
102
RTVSPost2010Prop51ColorRGB
 90
-16777216
102
RTVSPost2010PropOp51
 70
     0
102
RTVSPost2010Prop52
140
1.0
102
RTVSPost2010PropOp52
 70
     0
102
RTVSPost2010Prop53
 90
        2
102
RTVSPost2010PropOp53
 70
     0
102
RTVSPost2010Prop54
  1
strokes_ogs.tif
102
RTVSPost2010PropOp54
 70
     0
102
RTVSPost2010Prop55
280
     0
102
RTVSPost2010PropOp55
 70
     1
102
RTVSPost2010Prop56
140
1.0
102
RTVSPost2010PropOp56
 70
     0
102
RTVSPost2010Prop57
140
1.0
102
RTVSPost2010PropOp57
 70
     0
102
RTVSPropertyOp0
 70
     0
102
RTVSPropertyOp1
 70
     0
102
RTVSPropertyOp2
 70
     0
102
RTVSPropertyOp3
 70
     0
102
RTVSPropertyOp4
 70
     0
102
RTVSPropertyOp5
 70
     0
102
RTVSPropertyOp6
 70
     0
102
RTVSPropertyOp7
 70
     0
102
RTVSPropertyOp8
 70
     0
102
RTVSPropertyOp9
 70
     0
102
RTVSPropertyOp10
 70
     0
102
RTVSPropertyOp11
 70
     0
102
RTVSPropertyOp12
 70
     0
102
RTVSPropertyOp13
 70
     0
102
RTVSPropertyOp14
 70
     2
102
RTVSPropertyOp15
 70
     0
102
RTVSPropertyOp16
 70
     0
102
RTVSPropertyOp17
 70
     0
102
RTVSPropertyOp18
 70
     0
102
RTVSPropertyOp19
 70
     0
102
RTVSPropertyOp20
 70
     0
102
RTVSPropertyOp21
 70
     0
102
RTVSPropertyOp22
 70
     0
102
RTVSPropertyOp23
 70
     0
102
RTVSPropertyOp24
 70
     0
102
RTVSPropertyOp25
 70
     0
102
RTVSPropertyOp26
 70
     0
102
RTVSPropertyOp27
 70
     0
102
RTVSPropertyOp28
 70
     1
102
RTVSPropertyOp29
 70
     1
102
RTVSPropertyOp30
 70
     1
102
RTVSPropertyOp31
 70
     1
102
RTVSPropertyOp32
 70
     1
102
RTVSPropertyOp33
 70
     1
102
RTVSPropertyOp34
 70
     1
102
RTVSPropertyOp35
 70
     1
102
RTVSPropertyOp36
 70
     1
102
RTVSPropertyOp37
 70
     0
102
RTVSPropertyOp38
 70
     0
102
RTVSPropertyOp39
 70
     0
102
RTVSPropertyOp40
 70
     0
102
RTVSPropertyOp41
 70
     0
102
RTVSPropertyOp42
 70
     0
102
RTVSPropertyOp43
 70
     0
102
RTVSPropertyOp44
 70
     0
102
RTVSPropertyOp45
 70
     1
102
RTVSPropertyOp46
 70
     0
102
RTVSPropertyOp47
 70
     0
102
RTVSPropertyOp48
 70
     0
102
RTVSPropertyOp49
 70
     1
102
RTVSPropertyOp50
 70
     0
102
RTVSPropertyOp51
 70
     0
102
RTVSPropertyOp52
 70
     0
102
RTVSPropertyOp53
 70
     0
102
RTVSPropertyOp54
 70
     0
102
RTVSPropertyOp55
 70
     1
102
RTVSPropertyOp56
 70
     0
102
RTVSPropertyOp57
 70
     0
102
RTVSPropertyOp58
 70
     0
102
RTVSPropertyOp59
 70
     0
102
RTVSPropertyOp60
 70
     0
102
RTVSPropertyOp61
 70
     0
102
RTVSPropertyOp62
 70
     0
  0
XRECORD
  5
4E0
102
{ACAD_REACTORS
330
4DF
102
}
330
4DF
100
AcDbXrecord
280
     1
102
RTVSPost2010Prop28
280
     0
102
RTVSPost2010PropOp28
 70
     1
102
RTVSPost2010Prop29
280
     1
102
RTVSPost2010PropOp29
 70
     1
102
RTVSPost2010Prop30
280
     1
102
RTVSPost2010PropOp30
 70
     1
102
RTVSPost2010Prop31
280
     0
102
RTVSPost2010PropOp31
 70
     1
102
RTVSPost2010Prop32
280
     0
102
RTVSPost2010PropOp32
 70
     1
102
RTVSPost2010Prop33
280
     0
102
RTVSPost2010PropOp33
 70
     1
102
RTVSPost2010Prop34
280
     0
102
RTVSPost2010PropOp34
 70
     1
102
RTVSPost2010Prop35
280
     0
102
RTVSPost2010PropOp35
 70
     1
102
RTVSPost2010Prop36
280
     0
102
RTVSPost2010PropOp36
 70
     1
102
RTVSPost2010Prop37
 90
       50
102
RTVSPost2010PropOp37
 70
     1
102
RTVSPost2010Prop38
140
0.0
102
RTVSPost2010PropOp38
 70
     1
102
RTVSPost2010Prop39
140
1.0
102
RTVSPost2010PropOp39
 70
     1
102
RTVSPost2010Prop40
 90
        0
102
RTVSPost2010PropOp40
 70
     1
102
RTVSPost2010Prop41ColorIndex
 90
       18
102
RTVSPost2010Prop41ColorRGB
 90
        0
102
RTVSPost2010PropOp41
 70
     1
102
RTVSPost2010Prop42
 90
       50
102
RTVSPost2010PropOp42
 70
     1
102
RTVSPost2010Prop43
 90
        3
102
RTVSPost2010PropOp43
 70
     1
102
RTVSPost2010Prop44ColorIndex
 90
        5
102
RTVSPost2010Prop44ColorRGB
 90
      255
102
RTVSPost2010PropOp44
 70
     1
102
RTVSPost2010Prop45
280
     0
102
RTVSPost2010PropOp45
 70
     1
102
RTVSPost2010Prop46
 90
       50
102
RTVSPost2010PropOp46
 70
     1
102
RTVSPost2010Prop47
 90
       50
102
RTVSPost2010PropOp47
 70
     1
102
RTVSPost2010Prop48
 90
       50
102
RTVSPost2010PropOp48
 70
     1
102
RTVSPost2010Prop49
280
     0
102
RTVSPost2010PropOp49
 70
     1
102
RTVSPost2010Prop50
 90
       50
102
RTVSPost2010PropOp50
 70
     1
102
RTVSPost2010Prop51ColorIndex
 90
      256
102
RTVSPost2010Prop51ColorRGB
 90
-16777216
102
RTVSPost2010PropOp51
 70
     0
102
RTVSPost2010Prop52
140
1.0
102
RTVSPost2010PropOp52
 70
     0
102
RTVSPost2010Prop53
 90
        2
102
RTVSPost2010PropOp53
 70
     1
102
RTVSPost2010Prop54
  1
strokes_ogs.tif
102
RTVSPost2010PropOp54
 70
     1
102
RTVSPost2010Prop55
280
     0
102
RTVSPost2010PropOp55
 70
     1
102
RTVSPost2010Prop56
140
1.0
102
RTVSPost2010PropOp56
 70
     1
102
RTVSPost2010Prop57
140
1.0
102
RTVSPost2010PropOp57
 70
     1
102
RTVSPropertyOp0
 70
     1
102
RTVSPropertyOp1
 70
     1
102
RTVSPropertyOp2
 70
     1
102
RTVSPropertyOp3
 70
     1
102
RTVSPropertyOp4
 70
     1
102
RTVSPropertyOp5
 70
     1
102
RTVSPropertyOp6
 70
     1
102
RTVSPropertyOp7
 70
     1
102
RTVSPropertyOp8
 70
     1
102
RTVSPropertyOp9
 70
     1
102
RTVSPropertyOp10
 70
     1
102
RTVSPropertyOp11
 70
     1
102
RTVSPropertyOp12
 70
     1
102
RTVSPropertyOp13
 70
     1
102
RTVSPropertyOp14
 70
     1
102
RTVSPropertyOp15
 70
     1
102
RTVSPropertyOp16
 70
     1
102
RTVSPropertyOp17
 70
     1
102
RTVSPropertyOp18
 70
     1
102
RTVSPropertyOp19
 70
     1
102
RTVSPropertyOp20
 70
     1
102
RTVSPropertyOp21
 70
     1
102
RTVSPropertyOp22
 70
     1
102
RTVSPropertyOp23
 70
     1
102
RTVSPropertyOp24
 70
     1
102
RTVSPropertyOp25
 70
     1
102
RTVSPropertyOp26
 70
     1
102
RTVSPropertyOp27
 70
     1
102
RTVSPropertyOp28
 70
     1
102
RTVSPropertyOp29
 70
     1
102
RTVSPropertyOp30
 70
     1
102
RTVSPropertyOp31
 70
     1
102
RTVSPropertyOp32
 70
     1
102
RTVSPropertyOp33
 70
     1
102
RTVSPropertyOp34
 70
     1
102
RTVSPropertyOp35
 70
     1
102
RTVSPropertyOp36
 70
     1
102
RTVSPropertyOp37
 70
     1
102
RTVSPropertyOp38
 70
     1
102
RTVSPropertyOp39
 70
     1
102
RTVSPropertyOp40
 70
     1
102
RTVSPropertyOp41
 70
     1
102
RTVSPropertyOp42
 70
     1
102
RTVSPropertyOp43
 70
     1
102
RTVSPropertyOp44
 70
     1
102
RTVSPropertyOp45
 70
     1
102
RTVSPropertyOp46
 70
     1
102
RTVSPropertyOp47
 70
     1
102
RTVSPropertyOp48
 70
     1
102
RTVSPropertyOp49
 70
     1
102
RTVSPropertyOp50
 70
     1
102
RTVSPropertyOp51
 70
     0
102
RTVSPropertyOp52
 70
     0
102
RTVSPropertyOp53
 70
     1
102
RTVSPropertyOp54
 70
     1
102
RTVSPropertyOp55
 70
     1
102
RTVSPropertyOp56
 70
     1
102
RTVSPropertyOp57
 70
     1
102
RTVSPropertyOp58
 70
     1
102
RTVSPropertyOp59
 70
     1
102
RTVSPropertyOp60
 70
     1
102
RTVSPropertyOp61
 70
     1
102
RTVSPropertyOp62
 70
     1
  0
XRECORD
  5
4F6
102
{ACAD_REACTORS
330
4F5
102
}
330
4F5
100
AcDbXrecord
280
     1
102
RTVSPost2010Prop28
280
     0
102
RTVSPost2010PropOp28
 70
     1
102
RTVSPost2010Prop29
280
     1
102
RTVSPost2010PropOp29
 70
     1
102
RTVSPost2010Prop30
280
     1
102
RTVSPost2010PropOp30
 70
     1
102
RTVSPost2010Prop31
280
     0
102
RTVSPost2010PropOp31
 70
     1
102
RTVSPost2010Prop32
280
     0
102
RTVSPost2010PropOp32
 70
     1
102
RTVSPost2010Prop33
280
     0
102
RTVSPost2010PropOp33
 70
     1
102
RTVSPost2010Prop34
280
     0
102
RTVSPost2010PropOp34
 70
     1
102
RTVSPost2010Prop35
280
     0
102
RTVSPost2010PropOp35
 70
     1
102
RTVSPost2010Prop36
280
     0
102
RTVSPost2010PropOp36
 70
     1
102
RTVSPost2010Prop37
 90
       50
102
RTVSPost2010PropOp37
 70
     1
102
RTVSPost2010Prop38
140
0.0
102
RTVSPost2010PropOp38
 70
     1
102
RTVSPost2010Prop39
140
1.0
102
RTVSPost2010PropOp39
 70
     1
102
RTVSPost2010Prop40
 90
        0
102
RTVSPost2010PropOp40
 70
     1
102
RTVSPost2010Prop41ColorIndex
 90
       18
102
RTVSPost2010Prop41ColorRGB
 90
        0
102
RTVSPost2010PropOp41
 70
     1
102
RTVSPost2010Prop42
 90
       50
102
RTVSPost2010PropOp42
 70
     1
102
RTVSPost2010Prop43
 90
        3
102
RTVSPost2010PropOp43
 70
     1
102
RTVSPost2010Prop44ColorIndex
 90
        5
102
RTVSPost2010Prop44ColorRGB
 90
      255
102
RTVSPost2010PropOp44
 70
     1
102
RTVSPost2010Prop45
280
     0
102
RTVSPost2010PropOp45
 70
     1
102
RTVSPost2010Prop46
 90
       50
102
RTVSPost2010PropOp46
 70
     1
102
RTVSPost2010Prop47
 90
       50
102
RTVSPost2010PropOp47
 70
     1
102
RTVSPost2010Prop48
 90
       50
102
RTVSPost2010PropOp48
 70
     1
102
RTVSPost2010Prop49
280
     0
102
RTVSPost2010PropOp49
 70
     1
102
RTVSPost2010Prop50
 90
       50
102
RTVSPost2010PropOp50
 70
     1
102
RTVSPost2010Prop51ColorIndex
 90
      256
102
RTVSPost2010Prop51ColorRGB
 90
-16777216
102
RTVSPost2010PropOp51
 70
     0
102
RTVSPost2010Prop52
140
1.0
102
RTVSPost2010PropOp52
 70
     0
102
RTVSPost2010Prop53
 90
        2
102
RTVSPost2010PropOp53
 70
     1
102
RTVSPost2010Prop54
  1
strokes_ogs.tif
102
RTVSPost2010PropOp54
 70
     1
102
RTVSPost2010Prop55
280
     0
102
RTVSPost2010PropOp55
 70
     1
102
RTVSPost2010Prop56
140
1.0
102
RTVSPost2010PropOp56
 70
     1
102
RTVSPost2010Prop57
140
1.0
102
RTVSPost2010PropOp57
 70
     1
102
RTVSPropertyOp0
 70
     1
102
RTVSPropertyOp1
 70
     1
102
RTVSPropertyOp2
 70
     1
102
RTVSPropertyOp3
 70
     1
102
RTVSPropertyOp4
 70
     1
102
RTVSPropertyOp5
 70
     1
102
RTVSPropertyOp6
 70
     1
102
RTVSPropertyOp7
 70
     1
102
RTVSPropertyOp8
 70
     1
102
RTVSPropertyOp9
 70
     1
102
RTVSPropertyOp10
 70
     1
102
RTVSPropertyOp11
 70
     1
102
RTVSPropertyOp12
 70
     1
102
RTVSPropertyOp13
 70
     1
102
RTVSPropertyOp14
 70
     1
102
RTVSPropertyOp15
 70
     1
102
RTVSPropertyOp16
 70
     1
102
RTVSPropertyOp17
 70
     1
102
RTVSPropertyOp18
 70
     1
102
RTVSPropertyOp19
 70
     1
102
RTVSPropertyOp20
 70
     1
102
RTVSPropertyOp21
 70
     1
102
RTVSPropertyOp22
 70
     1
102
RTVSPropertyOp23
 70
     1
102
RTVSPropertyOp24
 70
     1
102
RTVSPropertyOp25
 70
     1
102
RTVSPropertyOp26
 70
     1
102
RTVSPropertyOp27
 70
     1
102
RTVSPropertyOp28
 70
     1
102
RTVSPropertyOp29
 70
     1
102
RTVSPropertyOp30
 70
     1
102
RTVSPropertyOp31
 70
     1
102
RTVSPropertyOp32
 70
     1
102
RTVSPropertyOp33
 70
     1
102
RTVSPropertyOp34
 70
     1
102
RTVSPropertyOp35
 70
     1
102
RTVSPropertyOp36
 70
     1
102
RTVSPropertyOp37
 70
     1
102
RTVSPropertyOp38
 70
     1
102
RTVSPropertyOp39
 70
     1
102
RTVSPropertyOp40
 70
     1
102
RTVSPropertyOp41
 70
     1
102
RTVSPropertyOp42
 70
     1
102
RTVSPropertyOp43
 70
     1
102
RTVSPropertyOp44
 70
     1
102
RTVSPropertyOp45
 70
     1
102
RTVSPropertyOp46
 70
     1
102
RTVSPropertyOp47
 70
     1
102
RTVSPropertyOp48
 70
     1
102
RTVSPropertyOp49
 70
     1
102
RTVSPropertyOp50
 70
     1
102
RTVSPropertyOp51
 70
     0
102
RTVSPropertyOp52
 70
     0
102
RTVSPropertyOp53
 70
     1
102
RTVSPropertyOp54
 70
     1
102
RTVSPropertyOp55
 70
     1
102
RTVSPropertyOp56
 70
     1
102
RTVSPropertyOp57
 70
     1
102
RTVSPropertyOp58
 70
     1
102
RTVSPropertyOp59
 70
     1
102
RTVSPropertyOp60
 70
     1
102
RTVSPropertyOp61
 70
     1
102
RTVSPropertyOp62
 70
     1
  0
XRECORD
  5
4F4
102
{ACAD_REACTORS
330
4F3
102
}
330
4F3
100
AcDbXrecord
280
     1
102
RTVSPost2010Prop28
280
     0
102
RTVSPost2010PropOp28
 70
     1
102
RTVSPost2010Prop29
280
     1
102
RTVSPost2010PropOp29
 70
     1
102
RTVSPost2010Prop30
280
     1
102
RTVSPost2010PropOp30
 70
     1
102
RTVSPost2010Prop31
280
     0
102
RTVSPost2010PropOp31
 70
     1
102
RTVSPost2010Prop32
280
     0
102
RTVSPost2010PropOp32
 70
     1
102
RTVSPost2010Prop33
280
     0
102
RTVSPost2010PropOp33
 70
     1
102
RTVSPost2010Prop34
280
     0
102
RTVSPost2010PropOp34
 70
     1
102
RTVSPost2010Prop35
280
     0
102
RTVSPost2010PropOp35
 70
     1
102
RTVSPost2010Prop36
280
     0
102
RTVSPost2010PropOp36
 70
     1
102
RTVSPost2010Prop37
 90
       50
102
RTVSPost2010PropOp37
 70
     1
102
RTVSPost2010Prop38
140
0.0
102
RTVSPost2010PropOp38
 70
     1
102
RTVSPost2010Prop39
140
1.0
102
RTVSPost2010PropOp39
 70
     1
102
RTVSPost2010Prop40
 90
        0
102
RTVSPost2010PropOp40
 70
     1
102
RTVSPost2010Prop41ColorIndex
 90
       18
102
RTVSPost2010Prop41ColorRGB
 90
        0
102
RTVSPost2010PropOp41
 70
     1
102
RTVSPost2010Prop42
 90
       50
102
RTVSPost2010PropOp42
 70
     1
102
RTVSPost2010Prop43
 90
        3
102
RTVSPost2010PropOp43
 70
     1
102
RTVSPost2010Prop44ColorIndex
 90
        5
102
RTVSPost2010Prop44ColorRGB
 90
      255
102
RTVSPost2010PropOp44
 70
     1
102
RTVSPost2010Prop45
280
     0
102
RTVSPost2010PropOp45
 70
     1
102
RTVSPost2010Prop46
 90
       50
102
RTVSPost2010PropOp46
 70
     1
102
RTVSPost2010Prop47
 90
       50
102
RTVSPost2010PropOp47
 70
     1
102
RTVSPost2010Prop48
 90
       50
102
RTVSPost2010PropOp48
 70
     1
102
RTVSPost2010Prop49
280
     0
102
RTVSPost2010PropOp49
 70
     1
102
RTVSPost2010Prop50
 90
       50
102
RTVSPost2010PropOp50
 70
     1
102
RTVSPost2010Prop51ColorIndex
 90
      256
102
RTVSPost2010Prop51ColorRGB
 90
-16777216
102
RTVSPost2010PropOp51
 70
     0
102
RTVSPost2010Prop52
140
1.0
102
RTVSPost2010PropOp52
 70
     0
102
RTVSPost2010Prop53
 90
        2
102
RTVSPost2010PropOp53
 70
     1
102
RTVSPost2010Prop54
  1
strokes_ogs.tif
102
RTVSPost2010PropOp54
 70
     1
102
RTVSPost2010Prop55
280
     0
102
RTVSPost2010PropOp55
 70
     1
102
RTVSPost2010Prop56
140
1.0
102
RTVSPost2010PropOp56
 70
     1
102
RTVSPost2010Prop57
140
1.0
102
RTVSPost2010PropOp57
 70
     1
102
RTVSPropertyOp0
 70
     1
102
RTVSPropertyOp1
 70
     1
102
RTVSPropertyOp2
 70
     1
102
RTVSPropertyOp3
 70
     1
102
RTVSPropertyOp4
 70
     1
102
RTVSPropertyOp5
 70
     1
102
RTVSPropertyOp6
 70
     1
102
RTVSPropertyOp7
 70
     1
102
RTVSPropertyOp8
 70
     1
102
RTVSPropertyOp9
 70
     1
102
RTVSPropertyOp10
 70
     1
102
RTVSPropertyOp11
 70
     1
102
RTVSPropertyOp12
 70
     1
102
RTVSPropertyOp13
 70
     1
102
RTVSPropertyOp14
 70
     1
102
RTVSPropertyOp15
 70
     1
102
RTVSPropertyOp16
 70
     1
102
RTVSPropertyOp17
 70
     1
102
RTVSPropertyOp18
 70
     1
102
RTVSPropertyOp19
 70
     1
102
RTVSPropertyOp20
 70
     1
102
RTVSPropertyOp21
 70
     1
102
RTVSPropertyOp22
 70
     1
102
RTVSPropertyOp23
 70
     1
102
RTVSPropertyOp24
 70
     1
102
RTVSPropertyOp25
 70
     1
102
RTVSPropertyOp26
 70
     1
102
RTVSPropertyOp27
 70
     1
102
RTVSPropertyOp28
 70
     1
102
RTVSPropertyOp29
 70
     1
102
RTVSPropertyOp30
 70
     1
102
RTVSPropertyOp31
 70
     1
102
RTVSPropertyOp32
 70
     1
102
RTVSPropertyOp33
 70
     1
102
RTVSPropertyOp34
 70
     1
102
RTVSPropertyOp35
 70
     1
102
RTVSPropertyOp36
 70
     1
102
RTVSPropertyOp37
 70
     1
102
RTVSPropertyOp38
 70
     1
102
RTVSPropertyOp39
 70
     1
102
RTVSPropertyOp40
 70
     1
102
RTVSPropertyOp41
 70
     1
102
RTVSPropertyOp42
 70
     1
102
RTVSPropertyOp43
 70
     1
102
RTVSPropertyOp44
 70
     1
102
RTVSPropertyOp45
 70
     1
102
RTVSPropertyOp46
 70
     1
102
RTVSPropertyOp47
 70
     1
102
RTVSPropertyOp48
 70
     1
102
RTVSPropertyOp49
 70
     1
102
RTVSPropertyOp50
 70
     1
102
RTVSPropertyOp51
 70
     0
102
RTVSPropertyOp52
 70
     0
102
RTVSPropertyOp53
 70
     1
102
RTVSPropertyOp54
 70
     1
102
RTVSPropertyOp55
 70
     1
102
RTVSPropertyOp56
 70
     1
102
RTVSPropertyOp57
 70
     1
102
RTVSPropertyOp58
 70
     1
102
RTVSPropertyOp59
 70
     1
102
RTVSPropertyOp60
 70
     1
102
RTVSPropertyOp61
 70
     1
102
RTVSPropertyOp62
 70
     1
  0
XRECORD
  5
4EE
102
{ACAD_REACTORS
330
4ED
102
}
330
4ED
100
AcDbXrecord
280
     1
102
RTVSPost2010Prop28
280
     0
102
RTVSPost2010PropOp28
 70
     1
102
RTVSPost2010Prop29
280
     1
102
RTVSPost2010PropOp29
 70
     1
102
RTVSPost2010Prop30
280
     1
102
RTVSPost2010PropOp30
 70
     1
102
RTVSPost2010Prop31
280
     0
102
RTVSPost2010PropOp31
 70
     1
102
RTVSPost2010Prop32
280
     0
102
RTVSPost2010PropOp32
 70
     1
102
RTVSPost2010Prop33
280
     0
102
RTVSPost2010PropOp33
 70
     1
102
RTVSPost2010Prop34
280
     0
102
RTVSPost2010PropOp34
 70
     1
102
RTVSPost2010Prop35
280
     0
102
RTVSPost2010PropOp35
 70
     1
102
RTVSPost2010Prop36
280
     0
102
RTVSPost2010PropOp36
 70
     1
102
RTVSPost2010Prop37
 90
       50
102
RTVSPost2010PropOp37
 70
     1
102
RTVSPost2010Prop38
140
0.0
102
RTVSPost2010PropOp38
 70
     1
102
RTVSPost2010Prop39
140
1.0
102
RTVSPost2010PropOp39
 70
     1
102
RTVSPost2010Prop40
 90
        0
102
RTVSPost2010PropOp40
 70
     1
102
RTVSPost2010Prop41ColorIndex
 90
       18
102
RTVSPost2010Prop41ColorRGB
 90
        0
102
RTVSPost2010PropOp41
 70
     1
102
RTVSPost2010Prop42
 90
       50
102
RTVSPost2010PropOp42
 70
     1
102
RTVSPost2010Prop43
 90
        3
102
RTVSPost2010PropOp43
 70
     1
102
RTVSPost2010Prop44ColorIndex
 90
        5
102
RTVSPost2010Prop44ColorRGB
 90
      255
102
RTVSPost2010PropOp44
 70
     1
102
RTVSPost2010Prop45
280
     0
102
RTVSPost2010PropOp45
 70
     1
102
RTVSPost2010Prop46
 90
       50
102
RTVSPost2010PropOp46
 70
     1
102
RTVSPost2010Prop47
 90
       50
102
RTVSPost2010PropOp47
 70
     1
102
RTVSPost2010Prop48
 90
       50
102
RTVSPost2010PropOp48
 70
     1
102
RTVSPost2010Prop49
280
     0
102
RTVSPost2010PropOp49
 70
     1
102
RTVSPost2010Prop50
 90
       50
102
RTVSPost2010PropOp50
 70
     1
102
RTVSPost2010Prop51ColorIndex
 90
      256
102
RTVSPost2010Prop51ColorRGB
 90
-16777216
102
RTVSPost2010PropOp51
 70
     0
102
RTVSPost2010Prop52
140
1.0
102
RTVSPost2010PropOp52
 70
     0
102
RTVSPost2010Prop53
 90
        2
102
RTVSPost2010PropOp53
 70
     1
102
RTVSPost2010Prop54
  1
strokes_ogs.tif
102
RTVSPost2010PropOp54
 70
     1
102
RTVSPost2010Prop55
280
     0
102
RTVSPost2010PropOp55
 70
     1
102
RTVSPost2010Prop56
140
1.0
102
RTVSPost2010PropOp56
 70
     1
102
RTVSPost2010Prop57
140
1.0
102
RTVSPost2010PropOp57
 70
     1
102
RTVSPropertyOp0
 70
     1
102
RTVSPropertyOp1
 70
     1
102
RTVSPropertyOp2
 70
     1
102
RTVSPropertyOp3
 70
     1
102
RTVSPropertyOp4
 70
     1
102
RTVSPropertyOp5
 70
     1
102
RTVSPropertyOp6
 70
     1
102
RTVSPropertyOp7
 70
     1
102
RTVSPropertyOp8
 70
     1
102
RTVSPropertyOp9
 70
     1
102
RTVSPropertyOp10
 70
     1
102
RTVSPropertyOp11
 70
     1
102
RTVSPropertyOp12
 70
     1
102
RTVSPropertyOp13
 70
     1
102
RTVSPropertyOp14
 70
     1
102
RTVSPropertyOp15
 70
     1
102
RTVSPropertyOp16
 70
     1
102
RTVSPropertyOp17
 70
     1
102
RTVSPropertyOp18
 70
     1
102
RTVSPropertyOp19
 70
     1
102
RTVSPropertyOp20
 70
     1
102
RTVSPropertyOp21
 70
     1
102
RTVSPropertyOp22
 70
     1
102
RTVSPropertyOp23
 70
     1
102
RTVSPropertyOp24
 70
     1
102
RTVSPropertyOp25
 70
     1
102
RTVSPropertyOp26
 70
     1
102
RTVSPropertyOp27
 70
     1
102
RTVSPropertyOp28
 70
     1
102
RTVSPropertyOp29
 70
     1
102
RTVSPropertyOp30
 70
     1
102
RTVSPropertyOp31
 70
     1
102
RTVSPropertyOp32
 70
     1
102
RTVSPropertyOp33
 70
     1
102
RTVSPropertyOp34
 70
     1
102
RTVSPropertyOp35
 70
     1
102
RTVSPropertyOp36
 70
     1
102
RTVSPropertyOp37
 70
     1
102
RTVSPropertyOp38
 70
     1
102
RTVSPropertyOp39
 70
     1
102
RTVSPropertyOp40
 70
     1
102
RTVSPropertyOp41
 70
     1
102
RTVSPropertyOp42
 70
     1
102
RTVSPropertyOp43
 70
     1
102
RTVSPropertyOp44
 70
     1
102
RTVSPropertyOp45
 70
     1
102
RTVSPropertyOp46
 70
     1
102
RTVSPropertyOp47
 70
     1
102
RTVSPropertyOp48
 70
     1
102
RTVSPropertyOp49
 70
     1
102
RTVSPropertyOp50
 70
     1
102
RTVSPropertyOp51
 70
     0
102
RTVSPropertyOp52
 70
     0
102
RTVSPropertyOp53
 70
     1
102
RTVSPropertyOp54
 70
     1
102
RTVSPropertyOp55
 70
     1
102
RTVSPropertyOp56
 70
     1
102
RTVSPropertyOp57
 70
     1
102
RTVSPropertyOp58
 70
     1
102
RTVSPropertyOp59
 70
     1
102
RTVSPropertyOp60
 70
     1
102
RTVSPropertyOp61
 70
     1
102
RTVSPropertyOp62
 70
     1
  0
XRECORD
  5
4F0
102
{ACAD_REACTORS
330
4EF
102
}
330
4EF
100
AcDbXrecord
280
     1
102
RTVSPost2010Prop28
280
     0
102
RTVSPost2010PropOp28
 70
     1
102
RTVSPost2010Prop29
280
     1
102
RTVSPost2010PropOp29
 70
     1
102
RTVSPost2010Prop30
280
     1
102
RTVSPost2010PropOp30
 70
     1
102
RTVSPost2010Prop31
280
     0
102
RTVSPost2010PropOp31
 70
     1
102
RTVSPost2010Prop32
280
     0
102
RTVSPost2010PropOp32
 70
     1
102
RTVSPost2010Prop33
280
     0
102
RTVSPost2010PropOp33
 70
     1
102
RTVSPost2010Prop34
280
     0
102
RTVSPost2010PropOp34
 70
     1
102
RTVSPost2010Prop35
280
     0
102
RTVSPost2010PropOp35
 70
     1
102
RTVSPost2010Prop36
280
     0
102
RTVSPost2010PropOp36
 70
     1
102
RTVSPost2010Prop37
 90
       50
102
RTVSPost2010PropOp37
 70
     1
102
RTVSPost2010Prop38
140
0.0
102
RTVSPost2010PropOp38
 70
     1
102
RTVSPost2010Prop39
140
1.0
102
RTVSPost2010PropOp39
 70
     1
102
RTVSPost2010Prop40
 90
        0
102
RTVSPost2010PropOp40
 70
     1
102
RTVSPost2010Prop41ColorIndex
 90
       18
102
RTVSPost2010Prop41ColorRGB
 90
        0
102
RTVSPost2010PropOp41
 70
     1
102
RTVSPost2010Prop42
 90
       50
102
RTVSPost2010PropOp42
 70
     1
102
RTVSPost2010Prop43
 90
        3
102
RTVSPost2010PropOp43
 70
     1
102
RTVSPost2010Prop44ColorIndex
 90
        5
102
RTVSPost2010Prop44ColorRGB
 90
      255
102
RTVSPost2010PropOp44
 70
     1
102
RTVSPost2010Prop45
280
     0
102
RTVSPost2010PropOp45
 70
     1
102
RTVSPost2010Prop46
 90
       50
102
RTVSPost2010PropOp46
 70
     1
102
RTVSPost2010Prop47
 90
       50
102
RTVSPost2010PropOp47
 70
     1
102
RTVSPost2010Prop48
 90
       50
102
RTVSPost2010PropOp48
 70
     1
102
RTVSPost2010Prop49
280
     0
102
RTVSPost2010PropOp49
 70
     1
102
RTVSPost2010Prop50
 90
       50
102
RTVSPost2010PropOp50
 70
     1
102
RTVSPost2010Prop51ColorIndex
 90
      256
102
RTVSPost2010Prop51ColorRGB
 90
-16777216
102
RTVSPost2010PropOp51
 70
     0
102
RTVSPost2010Prop52
140
1.0
102
RTVSPost2010PropOp52
 70
     0
102
RTVSPost2010Prop53
 90
        2
102
RTVSPost2010PropOp53
 70
     1
102
RTVSPost2010Prop54
  1
strokes_ogs.tif
102
RTVSPost2010PropOp54
 70
     1
102
RTVSPost2010Prop55
280
     0
102
RTVSPost2010PropOp55
 70
     1
102
RTVSPost2010Prop56
140
1.0
102
RTVSPost2010PropOp56
 70
     1
102
RTVSPost2010Prop57
140
1.0
102
RTVSPost2010PropOp57
 70
     1
102
RTVSPropertyOp0
 70
     1
102
RTVSPropertyOp1
 70
     1
102
RTVSPropertyOp2
 70
     1
102
RTVSPropertyOp3
 70
     1
102
RTVSPropertyOp4
 70
     1
102
RTVSPropertyOp5
 70
     1
102
RTVSPropertyOp6
 70
     1
102
RTVSPropertyOp7
 70
     1
102
RTVSPropertyOp8
 70
     1
102
RTVSPropertyOp9
 70
     1
102
RTVSPropertyOp10
 70
     1
102
RTVSPropertyOp11
 70
     1
102
RTVSPropertyOp12
 70
     1
102
RTVSPropertyOp13
 70
     1
102
RTVSPropertyOp14
 70
     1
102
RTVSPropertyOp15
 70
     1
102
RTVSPropertyOp16
 70
     1
102
RTVSPropertyOp17
 70
     1
102
RTVSPropertyOp18
 70
     1
102
RTVSPropertyOp19
 70
     1
102
RTVSPropertyOp20
 70
     1
102
RTVSPropertyOp21
 70
     1
102
RTVSPropertyOp22
 70
     1
102
RTVSPropertyOp23
 70
     1
102
RTVSPropertyOp24
 70
     1
102
RTVSPropertyOp25
 70
     1
102
RTVSPropertyOp26
 70
     1
102
RTVSPropertyOp27
 70
     1
102
RTVSPropertyOp28
 70
     1
102
RTVSPropertyOp29
 70
     1
102
RTVSPropertyOp30
 70
     1
102
RTVSPropertyOp31
 70
     1
102
RTVSPropertyOp32
 70
     1
102
RTVSPropertyOp33
 70
     1
102
RTVSPropertyOp34
 70
     1
102
RTVSPropertyOp35
 70
     1
102
RTVSPropertyOp36
 70
     1
102
RTVSPropertyOp37
 70
     1
102
RTVSPropertyOp38
 70
     1
102
RTVSPropertyOp39
 70
     1
102
RTVSPropertyOp40
 70
     1
102
RTVSPropertyOp41
 70
     1
102
RTVSPropertyOp42
 70
     1
102
RTVSPropertyOp43
 70
     1
102
RTVSPropertyOp44
 70
     1
102
RTVSPropertyOp45
 70
     1
102
RTVSPropertyOp46
 70
     1
102
RTVSPropertyOp47
 70
     1
102
RTVSPropertyOp48
 70
     1
102
RTVSPropertyOp49
 70
     1
102
RTVSPropertyOp50
 70
     1
102
RTVSPropertyOp51
 70
     0
102
RTVSPropertyOp52
 70
     0
102
RTVSPropertyOp53
 70
     1
102
RTVSPropertyOp54
 70
     1
102
RTVSPropertyOp55
 70
     1
102
RTVSPropertyOp56
 70
     1
102
RTVSPropertyOp57
 70
     1
102
RTVSPropertyOp58
 70
     1
102
RTVSPropertyOp59
 70
     1
102
RTVSPropertyOp60
 70
     1
102
RTVSPropertyOp61
 70
     1
102
RTVSPropertyOp62
 70
     1
  0
XRECORD
  5
4E6
102
{ACAD_REACTORS
330
4E5
102
}
330
4E5
100
AcDbXrecord
280
     1
102
RTVSPost2010Prop28
280
     0
102
RTVSPost2010PropOp28
 70
     1
102
RTVSPost2010Prop29
280
     1
102
RTVSPost2010PropOp29
 70
     1
102
RTVSPost2010Prop30
280
     1
102
RTVSPost2010PropOp30
 70
     1
102
RTVSPost2010Prop31
280
     0
102
RTVSPost2010PropOp31
 70
     1
102
RTVSPost2010Prop32
280
     0
102
RTVSPost2010PropOp32
 70
     1
102
RTVSPost2010Prop33
280
     0
102
RTVSPost2010PropOp33
 70
     1
102
RTVSPost2010Prop34
280
     0
102
RTVSPost2010PropOp34
 70
     1
102
RTVSPost2010Prop35
280
     0
102
RTVSPost2010PropOp35
 70
     1
102
RTVSPost2010Prop36
280
     0
102
RTVSPost2010PropOp36
 70
     1
102
RTVSPost2010Prop37
 90
       50
102
RTVSPost2010PropOp37
 70
     1
102
RTVSPost2010Prop38
140
0.0
102
RTVSPost2010PropOp38
 70
     1
102
RTVSPost2010Prop39
140
1.0
102
RTVSPost2010PropOp39
 70
     1
102
RTVSPost2010Prop40
 90
        0
102
RTVSPost2010PropOp40
 70
     1
102
RTVSPost2010Prop41ColorIndex
 90
       18
102
RTVSPost2010Prop41ColorRGB
 90
        0
102
RTVSPost2010PropOp41
 70
     1
102
RTVSPost2010Prop42
 90
       50
102
RTVSPost2010PropOp42
 70
     1
102
RTVSPost2010Prop43
 90
        3
102
RTVSPost2010PropOp43
 70
     1
102
RTVSPost2010Prop44ColorIndex
 90
        5
102
RTVSPost2010Prop44ColorRGB
 90
      255
102
RTVSPost2010PropOp44
 70
     1
102
RTVSPost2010Prop45
280
     0
102
RTVSPost2010PropOp45
 70
     1
102
RTVSPost2010Prop46
 90
       50
102
RTVSPost2010PropOp46
 70
     1
102
RTVSPost2010Prop47
 90
       50
102
RTVSPost2010PropOp47
 70
     1
102
RTVSPost2010Prop48
 90
       50
102
RTVSPost2010PropOp48
 70
     1
102
RTVSPost2010Prop49
280
     0
102
RTVSPost2010PropOp49
 70
     1
102
RTVSPost2010Prop50
 90
       50
102
RTVSPost2010PropOp50
 70
     1
102
RTVSPost2010Prop51ColorIndex
 90
      256
102
RTVSPost2010Prop51ColorRGB
 90
-16777216
102
RTVSPost2010PropOp51
 70
     0
102
RTVSPost2010Prop52
140
1.0
102
RTVSPost2010PropOp52
 70
     0
102
RTVSPost2010Prop53
 90
        2
102
RTVSPost2010PropOp53
 70
     1
102
RTVSPost2010Prop54
  1
strokes_ogs.tif
102
RTVSPost2010PropOp54
 70
     1
102
RTVSPost2010Prop55
280
     0
102
RTVSPost2010PropOp55
 70
     1
102
RTVSPost2010Prop56
140
1.0
102
RTVSPost2010PropOp56
 70
     1
102
RTVSPost2010Prop57
140
1.0
102
RTVSPost2010PropOp57
 70
     1
102
RTVSPropertyOp0
 70
     1
102
RTVSPropertyOp1
 70
     1
102
RTVSPropertyOp2
 70
     1
102
RTVSPropertyOp3
 70
     1
102
RTVSPropertyOp4
 70
     1
102
RTVSPropertyOp5
 70
     1
102
RTVSPropertyOp6
 70
     1
102
RTVSPropertyOp7
 70
     1
102
RTVSPropertyOp8
 70
     1
102
RTVSPropertyOp9
 70
     1
102
RTVSPropertyOp10
 70
     1
102
RTVSPropertyOp11
 70
     1
102
RTVSPropertyOp12
 70
     1
102
RTVSPropertyOp13
 70
     1
102
RTVSPropertyOp14
 70
     1
102
RTVSPropertyOp15
 70
     1
102
RTVSPropertyOp16
 70
     1
102
RTVSPropertyOp17
 70
     1
102
RTVSPropertyOp18
 70
     1
102
RTVSPropertyOp19
 70
     1
102
RTVSPropertyOp20
 70
     1
102
RTVSPropertyOp21
 70
     1
102
RTVSPropertyOp22
 70
     1
102
RTVSPropertyOp23
 70
     1
102
RTVSPropertyOp24
 70
     1
102
RTVSPropertyOp25
 70
     1
102
RTVSPropertyOp26
 70
     1
102
RTVSPropertyOp27
 70
     1
102
RTVSPropertyOp28
 70
     1
102
RTVSPropertyOp29
 70
     1
102
RTVSPropertyOp30
 70
     1
102
RTVSPropertyOp31
 70
     1
102
RTVSPropertyOp32
 70
     1
102
RTVSPropertyOp33
 70
     1
102
RTVSPropertyOp34
 70
     1
102
RTVSPropertyOp35
 70
     1
102
RTVSPropertyOp36
 70
     1
102
RTVSPropertyOp37
 70
     1
102
RTVSPropertyOp38
 70
     1
102
RTVSPropertyOp39
 70
     1
102
RTVSPropertyOp40
 70
     1
102
RTVSPropertyOp41
 70
     1
102
RTVSPropertyOp42
 70
     1
102
RTVSPropertyOp43
 70
     1
102
RTVSPropertyOp44
 70
     1
102
RTVSPropertyOp45
 70
     1
102
RTVSPropertyOp46
 70
     1
102
RTVSPropertyOp47
 70
     1
102
RTVSPropertyOp48
 70
     1
102
RTVSPropertyOp49
 70
     1
102
RTVSPropertyOp50
 70
     1
102
RTVSPropertyOp51
 70
     0
102
RTVSPropertyOp52
 70
     0
102
RTVSPropertyOp53
 70
     1
102
RTVSPropertyOp54
 70
     1
102
RTVSPropertyOp55
 70
     1
102
RTVSPropertyOp56
 70
     1
102
RTVSPropertyOp57
 70
     1
102
RTVSPropertyOp58
 70
     1
102
RTVSPropertyOp59
 70
     1
102
RTVSPropertyOp60
 70
     1
102
RTVSPropertyOp61
 70
     1
102
RTVSPropertyOp62
 70
     1
  0
XRECORD
  5
4DA
102
{ACAD_REACTORS
330
4D9
102
}
330
4D9
100
AcDbXrecord
280
     1
102
RTVSPost2010Prop28
280
     0
102
RTVSPost2010PropOp28
 70
     1
102
RTVSPost2010Prop29
280
     1
102
RTVSPost2010PropOp29
 70
     1
102
RTVSPost2010Prop30
280
     1
102
RTVSPost2010PropOp30
 70
     1
102
RTVSPost2010Prop31
280
     0
102
RTVSPost2010PropOp31
 70
     1
102
RTVSPost2010Prop32
280
     0
102
RTVSPost2010PropOp32
 70
     1
102
RTVSPost2010Prop33
280
     0
102
RTVSPost2010PropOp33
 70
     1
102
RTVSPost2010Prop34
280
     0
102
RTVSPost2010PropOp34
 70
     1
102
RTVSPost2010Prop35
280
     0
102
RTVSPost2010PropOp35
 70
     1
102
RTVSPost2010Prop36
280
     0
102
RTVSPost2010PropOp36
 70
     1
102
RTVSPost2010Prop37
 90
       50
102
RTVSPost2010PropOp37
 70
     1
102
RTVSPost2010Prop38
140
0.0
102
RTVSPost2010PropOp38
 70
     1
102
RTVSPost2010Prop39
140
1.0
102
RTVSPost2010PropOp39
 70
     1
102
RTVSPost2010Prop40
 90
        0
102
RTVSPost2010PropOp40
 70
     1
102
RTVSPost2010Prop41ColorIndex
 90
       18
102
RTVSPost2010Prop41ColorRGB
 90
        0
102
RTVSPost2010PropOp41
 70
     1
102
RTVSPost2010Prop42
 90
       50
102
RTVSPost2010PropOp42
 70
     1
102
RTVSPost2010Prop43
 90
        3
102
RTVSPost2010PropOp43
 70
     1
102
RTVSPost2010Prop44ColorIndex
 90
        5
102
RTVSPost2010Prop44ColorRGB
 90
      255
102
RTVSPost2010PropOp44
 70
     1
102
RTVSPost2010Prop45
280
     0
102
RTVSPost2010PropOp45
 70
     1
102
RTVSPost2010Prop46
 90
       50
102
RTVSPost2010PropOp46
 70
     1
102
RTVSPost2010Prop47
 90
       50
102
RTVSPost2010PropOp47
 70
     1
102
RTVSPost2010Prop48
 90
       50
102
RTVSPost2010PropOp48
 70
     1
102
RTVSPost2010Prop49
280
     0
102
RTVSPost2010PropOp49
 70
     1
102
RTVSPost2010Prop50
 90
       50
102
RTVSPost2010PropOp50
 70
     1
102
RTVSPost2010Prop51ColorIndex
 90
      256
102
RTVSPost2010Prop51ColorRGB
 90
-16777216
102
RTVSPost2010PropOp51
 70
     0
102
RTVSPost2010Prop52
140
1.0
102
RTVSPost2010PropOp52
 70
     0
102
RTVSPost2010Prop53
 90
        2
102
RTVSPost2010PropOp53
 70
     1
102
RTVSPost2010Prop54
  1
strokes_ogs.tif
102
RTVSPost2010PropOp54
 70
     1
102
RTVSPost2010Prop55
280
     0
102
RTVSPost2010PropOp55
 70
     1
102
RTVSPost2010Prop56
140
1.0
102
RTVSPost2010PropOp56
 70
     1
102
RTVSPost2010Prop57
140
1.0
102
RTVSPost2010PropOp57
 70
     1
102
RTVSPropertyOp0
 70
     1
102
RTVSPropertyOp1
 70
     1
102
RTVSPropertyOp2
 70
     1
102
RTVSPropertyOp3
 70
     1
102
RTVSPropertyOp4
 70
     1
102
RTVSPropertyOp5
 70
     1
102
RTVSPropertyOp6
 70
     1
102
RTVSPropertyOp7
 70
     1
102
RTVSPropertyOp8
 70
     1
102
RTVSPropertyOp9
 70
     1
102
RTVSPropertyOp10
 70
     1
102
RTVSPropertyOp11
 70
     1
102
RTVSPropertyOp12
 70
     1
102
RTVSPropertyOp13
 70
     1
102
RTVSPropertyOp14
 70
     1
102
RTVSPropertyOp15
 70
     1
102
RTVSPropertyOp16
 70
     1
102
RTVSPropertyOp17
 70
     1
102
RTVSPropertyOp18
 70
     1
102
RTVSPropertyOp19
 70
     1
102
RTVSPropertyOp20
 70
     1
102
RTVSPropertyOp21
 70
     1
102
RTVSPropertyOp22
 70
     1
102
RTVSPropertyOp23
 70
     1
102
RTVSPropertyOp24
 70
     1
102
RTVSPropertyOp25
 70
     1
102
RTVSPropertyOp26
 70
     1
102
RTVSPropertyOp27
 70
     1
102
RTVSPropertyOp28
 70
     1
102
RTVSPropertyOp29
 70
     1
102
RTVSPropertyOp30
 70
     1
102
RTVSPropertyOp31
 70
     1
102
RTVSPropertyOp32
 70
     1
102
RTVSPropertyOp33
 70
     1
102
RTVSPropertyOp34
 70
     1
102
RTVSPropertyOp35
 70
     1
102
RTVSPropertyOp36
 70
     1
102
RTVSPropertyOp37
 70
     1
102
RTVSPropertyOp38
 70
     1
102
RTVSPropertyOp39
 70
     1
102
RTVSPropertyOp40
 70
     1
102
RTVSPropertyOp41
 70
     1
102
RTVSPropertyOp42
 70
     1
102
RTVSPropertyOp43
 70
     1
102
RTVSPropertyOp44
 70
     1
102
RTVSPropertyOp45
 70
     1
102
RTVSPropertyOp46
 70
     1
102
RTVSPropertyOp47
 70
     1
102
RTVSPropertyOp48
 70
     1
102
RTVSPropertyOp49
 70
     1
102
RTVSPropertyOp50
 70
     1
102
RTVSPropertyOp51
 70
     0
102
RTVSPropertyOp52
 70
     0
102
RTVSPropertyOp53
 70
     1
102
RTVSPropertyOp54
 70
     1
102
RTVSPropertyOp55
 70
     1
102
RTVSPropertyOp56
 70
     1
102
RTVSPropertyOp57
 70
     1
102
RTVSPropertyOp58
 70
     1
102
RTVSPropertyOp59
 70
     1
102
RTVSPropertyOp60
 70
     1
102
RTVSPropertyOp61
 70
     1
102
RTVSPropertyOp62
 70
     1
  0
XRECORD
  5
4F2
102
{ACAD_REACTORS
330
4F1
102
}
330
4F1
100
AcDbXrecord
280
     1
102
RTVSPost2010Prop28
280
     0
102
RTVSPost2010PropOp28
 70
     1
102
RTVSPost2010Prop29
280
     1
102
RTVSPost2010PropOp29
 70
     1
102
RTVSPost2010Prop30
280
     1
102
RTVSPost2010PropOp30
 70
     1
102
RTVSPost2010Prop31
280
     0
102
RTVSPost2010PropOp31
 70
     1
102
RTVSPost2010Prop32
280
     0
102
RTVSPost2010PropOp32
 70
     1
102
RTVSPost2010Prop33
280
     0
102
RTVSPost2010PropOp33
 70
     1
102
RTVSPost2010Prop34
280
     0
102
RTVSPost2010PropOp34
 70
     1
102
RTVSPost2010Prop35
280
     0
102
RTVSPost2010PropOp35
 70
     1
102
RTVSPost2010Prop36
280
     0
102
RTVSPost2010PropOp36
 70
     1
102
RTVSPost2010Prop37
 90
       50
102
RTVSPost2010PropOp37
 70
     1
102
RTVSPost2010Prop38
140
0.0
102
RTVSPost2010PropOp38
 70
     1
102
RTVSPost2010Prop39
140
1.0
102
RTVSPost2010PropOp39
 70
     1
102
RTVSPost2010Prop40
 90
        0
102
RTVSPost2010PropOp40
 70
     1
102
RTVSPost2010Prop41ColorIndex
 90
       18
102
RTVSPost2010Prop41ColorRGB
 90
        0
102
RTVSPost2010PropOp41
 70
     1
102
RTVSPost2010Prop42
 90
       50
102
RTVSPost2010PropOp42
 70
     1
102
RTVSPost2010Prop43
 90
        3
102
RTVSPost2010PropOp43
 70
     1
102
RTVSPost2010Prop44ColorIndex
 90
        5
102
RTVSPost2010Prop44ColorRGB
 90
      255
102
RTVSPost2010PropOp44
 70
     1
102
RTVSPost2010Prop45
280
     0
102
RTVSPost2010PropOp45
 70
     1
102
RTVSPost2010Prop46
 90
       50
102
RTVSPost2010PropOp46
 70
     1
102
RTVSPost2010Prop47
 90
       50
102
RTVSPost2010PropOp47
 70
     1
102
RTVSPost2010Prop48
 90
       50
102
RTVSPost2010PropOp48
 70
     1
102
RTVSPost2010Prop49
280
     0
102
RTVSPost2010PropOp49
 70
     1
102
RTVSPost2010Prop50
 90
       50
102
RTVSPost2010PropOp50
 70
     1
102
RTVSPost2010Prop51ColorIndex
 90
      256
102
RTVSPost2010Prop51ColorRGB
 90
-16777216
102
RTVSPost2010PropOp51
 70
     0
102
RTVSPost2010Prop52
140
1.0
102
RTVSPost2010PropOp52
 70
     0
102
RTVSPost2010Prop53
 90
        2
102
RTVSPost2010PropOp53
 70
     1
102
RTVSPost2010Prop54
  1
strokes_ogs.tif
102
RTVSPost2010PropOp54
 70
     1
102
RTVSPost2010Prop55
280
     0
102
RTVSPost2010PropOp55
 70
     1
102
RTVSPost2010Prop56
140
1.0
102
RTVSPost2010PropOp56
 70
     1
102
RTVSPost2010Prop57
140
1.0
102
RTVSPost2010PropOp57
 70
     1
102
RTVSPropertyOp0
 70
     1
102
RTVSPropertyOp1
 70
     1
102
RTVSPropertyOp2
 70
     1
102
RTVSPropertyOp3
 70
     1
102
RTVSPropertyOp4
 70
     1
102
RTVSPropertyOp5
 70
     1
102
RTVSPropertyOp6
 70
     1
102
RTVSPropertyOp7
 70
     1
102
RTVSPropertyOp8
 70
     1
102
RTVSPropertyOp9
 70
     1
102
RTVSPropertyOp10
 70
     1
102
RTVSPropertyOp11
 70
     1
102
RTVSPropertyOp12
 70
     1
102
RTVSPropertyOp13
 70
     1
102
RTVSPropertyOp14
 70
     1
102
RTVSPropertyOp15
 70
     1
102
RTVSPropertyOp16
 70
     1
102
RTVSPropertyOp17
 70
     1
102
RTVSPropertyOp18
 70
     1
102
RTVSPropertyOp19
 70
     1
102
RTVSPropertyOp20
 70
     1
102
RTVSPropertyOp21
 70
     1
102
RTVSPropertyOp22
 70
     1
102
RTVSPropertyOp23
 70
     1
102
RTVSPropertyOp24
 70
     1
102
RTVSPropertyOp25
 70
     1
102
RTVSPropertyOp26
 70
     1
102
RTVSPropertyOp27
 70
     1
102
RTVSPropertyOp28
 70
     1
102
RTVSPropertyOp29
 70
     1
102
RTVSPropertyOp30
 70
     1
102
RTVSPropertyOp31
 70
     1
102
RTVSPropertyOp32
 70
     1
102
RTVSPropertyOp33
 70
     1
102
RTVSPropertyOp34
 70
     1
102
RTVSPropertyOp35
 70
     1
102
RTVSPropertyOp36
 70
     1
102
RTVSPropertyOp37
 70
     1
102
RTVSPropertyOp38
 70
     1
102
RTVSPropertyOp39
 70
     1
102
RTVSPropertyOp40
 70
     1
102
RTVSPropertyOp41
 70
     1
102
RTVSPropertyOp42
 70
     1
102
RTVSPropertyOp43
 70
     1
102
RTVSPropertyOp44
 70
     1
102
RTVSPropertyOp45
 70
     1
102
RTVSPropertyOp46
 70
     1
102
RTVSPropertyOp47
 70
     1
102
RTVSPropertyOp48
 70
     1
102
RTVSPropertyOp49
 70
     1
102
RTVSPropertyOp50
 70
     1
102
RTVSPropertyOp51
 70
     0
102
RTVSPropertyOp52
 70
     0
102
RTVSPropertyOp53
 70
     1
102
RTVSPropertyOp54
 70
     1
102
RTVSPropertyOp55
 70
     1
102
RTVSPropertyOp56
 70
     1
102
RTVSPropertyOp57
 70
     1
102
RTVSPropertyOp58
 70
     1
102
RTVSPropertyOp59
 70
     1
102
RTVSPropertyOp60
 70
     1
102
RTVSPropertyOp61
 70
     1
102
RTVSPropertyOp62
 70
     1
  0
ENDSEC
  0
EOF
