  0
SECTION
  2
HEADER
  9
$ACADVER
  1
AC1015
  9
$ACADMAINTVER
 70
    20
  9
$DWGCODEPAGE
  3
ANSI_932
  9
$INSBASE
 10
0.0
 20
0.0
 30
0.0
  9
$EXTMIN
 10
0.0
 20
0.0
 30
0.0
  9
$EXTMAX
 10
4200.000000000001
 20
2970.0
 30
0.0
  9
$LIMMIN
 10
0.0
 20
0.0
  9
$LIMMAX
 10
12.0
 20
9.0
  9
$ORTHOMODE
 70
     0
  9
$REGENMODE
 70
     1
  9
$FILLMODE
 70
     1
  9
$QTEXTMODE
 70
     0
  9
$MIRRTEXT
 70
     0
  9
$LTSCALE
 40
10.0
  9
$ATTMODE
 70
     1
  9
$TEXTSIZE
 40
0.0
  9
$TRACEWID
 40
0.05
  9
$TEXTSTYLE
  7
STANDARD
  9
$CLAYER
  8
0
  9
$CELTYPE
  6
CONTINUOUS
  9
$CECOLOR
 62
   256
  9
$CELTSCALE
 40
1.0
  9
$DISPSILH
 70
     0
  9
$DIMSCALE
 40
1.0
  9
$DIMASZ
 40
0.18
  9
$DIMEXO
 40
0.0625
  9
$DIMDLI
 40
0.38
  9
$DIMRND
 40
0.0
  9
$DIMDLE
 40
0.0
  9
$DIMEXE
 40
0.18
  9
$DIMTP
 40
0.0
  9
$DIMTM
 40
0.0
  9
$DIMTXT
 40
0.18
  9
$DIMCEN
 40
0.09
  9
$DIMTSZ
 40
0.0
  9
$DIMTOL
 70
     0
  9
$DIMLIM
 70
     0
  9
$DIMTIH
 70
     1
  9
$DIMTOH
 70
     1
  9
$DIMSE1
 70
     0
  9
$DIMSE2
 70
     0
  9
$DIMTAD
 70
     0
  9
$DIMZIN
 70
     0
  9
$DIMBLK
  1

  9
$DIMASO
 70
     1
  9
$DIMSHO
 70
     1
  9
$DIMPOST
  1

  9
$DIMAPOST
  1

  9
$DIMALT
 70
     0
  9
$DIMALTD
 70
     2
  9
$DIMALTF
 40
25.4
  9
$DIMLFAC
 40
1.0
  9
$DIMTOFL
 70
     0
  9
$DIMTVP
 40
0.0
  9
$DIMTIX
 70
     0
  9
$DIMSOXD
 70
     0
  9
$DIMSAH
 70
     0
  9
$DIMBLK1
  1

  9
$DIMBLK2
  1

  9
$DIMSTYLE
  2
Standard
  9
$DIMCLRD
 70
     0
  9
$DIMCLRE
 70
     0
  9
$DIMCLRT
 70
     0
  9
$DIMTFAC
 40
1.0
  9
$DIMGAP
 40
0.09
  9
$DIMJUST
 70
     0
  9
$DIMSD1
 70
     0
  9
$DIMSD2
 70
     0
  9
$DIMTOLJ
 70
     1
  9
$DIMTZIN
 70
     0
  9
$DIMALTZ
 70
     0
  9
$DIMALTTZ
 70
     0
  9
$DIMUPT
 70
     0
  9
$DIMDEC
 70
     4
  9
$DIMTDEC
 70
     4
  9
$DIMALTU
 70
     2
  9
$DIMALTTD
 70
     2
  9
$DIMTXSTY
  7
STANDARD
  9
$DIMAUNIT
 70
     0
  9
$DIMADEC
 70
     0
  9
$DIMALTRND
 40
0.0
  9
$DIMAZIN
 70
     0
  9
$DIMDSEP
 70
    46
  9
$DIMATFIT
 70
     3
  9
$DIMFRAC
 70
     0
  9
$DIMLDRBLK
  1

  9
$DIMLUNIT
 70
     2
  9
$DIMLWD
 70
    -2
  9
$DIMLWE
 70
    -2
  9
$DIMTMOVE
 70
     0
  9
$LUNITS
 70
     2
  9
$LUPREC
 70
     4
  9
$SKETCHINC
 40
0.1
  9
$FILLETRAD
 40
0.0
  9
$AUNITS
 70
     0
  9
$AUPREC
 70
     0
  9
$MENU
  1
.
  9
$ELEVATION
 40
0.0
  9
$PELEVATION
 40
0.0
  9
$THICKNESS
 40
0.0
  9
$LIMCHECK
 70
     0
  9
$CHAMFERA
 40
0.0
  9
$CHAMFERB
 40
0.0
  9
$CHAMFERC
 40
0.0
  9
$CHAMFERD
 40
0.0
  9
$SKPOLY
 70
     0
  9
$TDCREATE
 40
2459620.658668981
  9
$TDUCREATE
 40
2459620.283668982
  9
$TDUPDATE
 40
2459620.659085648
  9
$TDUUPDATE
 40
2459620.284085648
  9
$TDINDWG
 40
0.0004166667
  9
$TDUSRTIMER
 40
0.0004166667
  9
$USRTIMER
 70
     1
  9
$ANGBASE
 50
0.0
  9
$ANGDIR
 70
     0
  9
$PDMODE
 70
     0
  9
$PDSIZE
 40
5.0
  9
$PLINEWID
 40
0.0
  9
$SPLFRAME
 70
     0
  9
$SPLINETYPE
 70
     6
  9
$SPLINESEGS
 70
     8
  9
$HANDSEED
  5
51D
  9
$SURFTAB1
 70
     6
  9
$SURFTAB2
 70
     6
  9
$SURFTYPE
 70
     6
  9
$SURFU
 70
     6
  9
$SURFV
 70
     6
  9
$UCSBASE
  2

  9
$UCSNAME
  2

  9
$UCSORG
 10
0.0
 20
0.0
 30
0.0
  9
$UCSXDIR
 10
1.0
 20
0.0
 30
0.0
  9
$UCSYDIR
 10
0.0
 20
1.0
 30
0.0
  9
$UCSORTHOREF
  2

  9
$UCSORTHOVIEW
 70
     0
  9
$UCSORGTOP
 10
0.0
 20
0.0
 30
0.0
  9
$UCSORGBOTTOM
 10
0.0
 20
0.0
 30
0.0
  9
$UCSORGLEFT
 10
0.0
 20
0.0
 30
0.0
  9
$UCSORGRIGHT
 10
0.0
 20
0.0
 30
0.0
  9
$UCSORGFRONT
 10
0.0
 20
0.0
 30
0.0
  9
$UCSORGBACK
 10
0.0
 20
0.0
 30
0.0
  9
$PUCSBASE
  2

  9
$PUCSNAME
  2

  9
$PUCSORG
 10
0.0
 20
0.0
 30
0.0
  9
$PUCSXDIR
 10
1.0
 20
0.0
 30
0.0
  9
$PUCSYDIR
 10
0.0
 20
1.0
 30
0.0
  9
$PUCSORTHOREF
  2

  9
$PUCSORTHOVIEW
 70
     0
  9
$PUCSORGTOP
 10
0.0
 20
0.0
 30
0.0
  9
$PUCSORGBOTTOM
 10
0.0
 20
0.0
 30
0.0
  9
$PUCSORGLEFT
 10
0.0
 20
0.0
 30
0.0
  9
$PUCSORGRIGHT
 10
0.0
 20
0.0
 30
0.0
  9
$PUCSORGFRONT
 10
0.0
 20
0.0
 30
0.0
  9
$PUCSORGBACK
 10
0.0
 20
0.0
 30
0.0
  9
$USERI1
 70
     0
  9
$USERI2
 70
     0
  9
$USERI3
 70
     0
  9
$USERI4
 70
     0
  9
$USERI5
 70
     0
  9
$USERR1
 40
0.0
  9
$USERR2
 40
0.0
  9
$USERR3
 40
0.0
  9
$USERR4
 40
0.0
  9
$USERR5
 40
0.0
  9
$WORLDVIEW
 70
     1
  9
$SHADEDGE
 70
     3
  9
$SHADEDIF
 70
    70
  9
$TILEMODE
 70
     1
  9
$MAXACTVP
 70
    64
  9
$PINSBASE
 10
0.0
 20
0.0
 30
0.0
  9
$PLIMCHECK
 70
     0
  9
$PEXTMIN
 10
1.000000000000000E+20
 20
1.000000000000000E+20
 30
1.000000000000000E+20
  9
$PEXTMAX
 10
-1.000000000000000E+20
 20
-1.000000000000000E+20
 30
-1.000000000000000E+20
  9
$PLIMMIN
 10
0.0
 20
0.0
  9
$PLIMMAX
 10
12.0
 20
9.0
  9
$UNITMODE
 70
     0
  9
$VISRETAIN
 70
     1
  9
$PLINEGEN
 70
     0
  9
$PSLTSCALE
 70
     1
  9
$TREEDEPTH
 70
  3020
  9
$CMLSTYLE
  2
Standard
  9
$CMLJUST
 70
     0
  9
$CMLSCALE
 40
1.0
  9
$PROXYGRAPHICS
 70
     1
  9
$MEASUREMENT
 70
     0
  9
$CELWEIGHT
370
    -1
  9
$ENDCAPS
280
     0
  9
$JOINSTYLE
280
     0
  9
$LWDISPLAY
290
     0
  9
$INSUNITS
 70
     0
  9
$HYPERLINKBASE
  1

  9
$STYLESHEET
  1

  9
$XEDIT
290
     1
  9
$CEPSNTYPE
380
     0
  9
$PSTYLEMODE
290
     1
  9
$FINGERPRINTGUID
  2
{284269B7-1A80-4548-856C-21AE0AB732EF}
  9
$VERSIONGUID
  2
{ACB54C81-A9A6-5A4F-9E9E-7D7725DA2990}
  9
$EXTNAMES
290
     1
  9
$PSVPSCALE
 40
0.0
  9
$OLESTARTUP
290
     0
  0
ENDSEC
  0
SECTION
  2
CLASSES
  0
CLASS
  1
ACDBDICTIONARYWDFLT
  2
AcDbDictionaryWithDefault
  3
ObjectDBX Classes
 90
        0
280
     0
281
     0
  0
CLASS
  1
MATERIAL
  2
AcDbMaterial
  3
ObjectDBX Classes
 90
     1153
280
     0
281
     0
  0
CLASS
  1
VISUALSTYLE
  2
AcDbVisualStyle
  3
ObjectDBX Classes
 90
     4095
280
     0
281
     0
  0
CLASS
  1
SCALE
  2
AcDbScale
  3
ObjectDBX Classes
 90
     1153
280
     0
281
     0
  0
CLASS
  1
TABLESTYLE
  2
AcDbTableStyle
  3
ObjectDBX Classes
 90
     4095
280
     0
281
     0
  0
CLASS
  1
MLEADERSTYLE
  2
AcDbMLeaderStyle
  3
ACDB_MLEADERSTYLE_CLASS
 90
     4095
280
     0
281
     0
  0
CLASS
  1
ACDBSECTIONVIEWSTYLE
  2
AcDbSectionViewStyle
  3
ObjectDBX Classes
 90
     1025
280
     0
281
     0
  0
CLASS
  1
ACDBDETAILVIEWSTYLE
  2
AcDbDetailViewStyle
  3
ObjectDBX Classes
 90
     1025
280
     0
281
     0
  0
CLASS
  1
DICTIONARYVAR
  2
AcDbDictionaryVar
  3
ObjectDBX Classes
 90
        0
280
     0
281
     0
  0
CLASS
  1
CELLSTYLEMAP
  2
AcDbCellStyleMap
  3
ObjectDBX Classes
 90
     1152
280
     0
281
     0
  0
CLASS
  1
ACDBPLACEHOLDER
  2
AcDbPlaceHolder
  3
ObjectDBX Classes
 90
        0
280
     0
281
     0
  0
CLASS
  1
LAYOUT
  2
AcDbLayout
  3
ObjectDBX Classes
 90
        0
280
     0
281
     0
  0
ENDSEC
  0
SECTION
  2
TABLES
  0
TABLE
  2
VPORT
  5
8
330
0
100
AcDbSymbolTable
 70
     1
  0
VPORT
  5
8E
330
8
100
AcDbSymbolTableRecord
100
AcDbViewportTableRecord
  2
*Active
 70
     0
 10
0.0
 20
0.0
 11
1.0
 21
1.0
 12
2716.024573039223
 22
1055.886945904882
 13
0.0
 23
0.0
 14
1.0
 24
1.0
 15
0.0
 25
0.0
 16
0.0
 26
0.0
 36
1.0
 17
0.0
 27
0.0
 37
0.0
 40
4039.670224030782
 41
2.289855072463768
 42
50.0
 43
0.0
 44
0.0
 50
0.0
 51
0.0
 71
     0
 72
   100
 73
     1
 74
     0
 75
     1
 76
     0
 77
     0
 78
     0
281
     0
 65
     1
110
0.0
120
0.0
130
0.0
111
1.0
121
0.0
131
0.0
112
0.0
122
1.0
132
0.0
 79
     0
146
0.0
1001
ACAD_NAV_VCDISPLAY
1070
     3
  0
ENDTAB
  0
TABLE
  2
LTYPE
  5
5
330
0
100
AcDbSymbolTable
 70
     9
  0
LTYPE
  5
5A
330
5
100
AcDbSymbolTableRecord
100
AcDbLinetypeTableRecord
  2
ByBlock
 70
     0
  3

 72
    65
 73
     0
 40
0.0
  0
LTYPE
  5
5B
330
5
100
AcDbSymbolTableRecord
100
AcDbLinetypeTableRecord
  2
ByLayer
 70
     0
  3

 72
    65
 73
     0
 40
0.0
  0
LTYPE
  5
5C
330
5
100
AcDbSymbolTableRecord
100
AcDbLinetypeTableRecord
  2
CONTINUOUS
 70
     0
  3
SolidLine
 72
    65
 73
     0
 40
0.0
  0
LTYPE
  5
73
330
5
100
AcDbSymbolTableRecord
100
AcDbLinetypeTableRecord
  2
DOT
 70
     0
  3
--  --  --  --  --  --  --  --     
 72
    65
 73
     2
 40
3.0
 49
1.0
 74
     0
 49
-2.0
 74
     0
  0
LTYPE
  5
74
330
5
100
AcDbSymbolTableRecord
100
AcDbLinetypeTableRecord
  2
DASHED
 70
     0
  3
----    ----    ----    ----    
 72
    65
 73
     2
 40
5.0
 49
2.0
 74
     0
 49
-3.0
 74
     0
  0
LTYPE
  5
75
330
5
100
AcDbSymbolTableRecord
100
AcDbLinetypeTableRecord
  2
DASHED2
 70
     0
  3
------  ------  ------  ------ 
 72
    65
 73
     2
 40
10.0
 49
4.0
 74
     0
 49
-6.0
 74
     0
  0
LTYPE
  5
76
330
5
100
AcDbSymbolTableRecord
100
AcDbLinetypeTableRecord
  2
CENTER
 70
     0
  3
----- - ----- - ----- - ----- - 
 72
    65
 73
     4
 40
10.0
 49
6.0
 74
     0
 49
-3.0
 74
     0
 49
1.0
 74
     0
 49
-3.0
 74
     0
  0
LTYPE
  5
77
330
5
100
AcDbSymbolTableRecord
100
AcDbLinetypeTableRecord
  2
CENTER2
 70
     0
  3
----------  --  ----------  -- 
 72
    65
 73
     4
 40
17.0
 49
12.0
 74
     0
 49
-5.0
 74
     0
 49
2.0
 74
     0
 49
-5.0
 74
     0
  0
LTYPE
  5
78
330
5
100
AcDbSymbolTableRecord
100
AcDbLinetypeTableRecord
  2
PHANTOM
 70
     0
  3
--- - - --- - - --- - - --- - -
 72
    65
 73
     6
 40
13.0
 49
5.0
 74
     0
 49
-3.0
 74
     0
 49
1.0
 74
     0
 49
-3.0
 74
     0
 49
1.0
 74
     0
 49
-3.0
 74
     0
  0
LTYPE
  5
79
330
5
100
AcDbSymbolTableRecord
100
AcDbLinetypeTableRecord
  2
PHANTOM2
 70
     0
  3
--------  -  -  --------  -  -
 72
    65
 73
     6
 40
20.0
 49
6.0
 74
     0
 49
-5.0
 74
     0
 49
2.0
 74
     0
 49
-5.0
 74
     0
 49
2.0
 74
     0
 49
-5.0
 74
     0
  0
LTYPE
  5
7A
330
5
100
AcDbSymbolTableRecord
100
AcDbLinetypeTableRecord
  2
HIDDEN
 70
     0
  3
-   -   -   -   -   -   -   -   
 72
    65
 73
     2
 40
3.0
 49
0.5
 74
     0
 49
-2.5
 74
     0
  0
ENDTAB
  0
TABLE
  2
LAYER
  5
2
330
0
100
AcDbSymbolTable
 70
    13
  0
LAYER
  5
54
102
{ACAD_XDICTIONARY
360
4B7
102
}
330
2
100
AcDbSymbolTableRecord
100
AcDbLayerTableRecord
  2
0
 70
     0
 62
     7
  6
CONTINUOUS
370
    -3
390
F
  0
LAYER
  5
7F
102
{ACAD_XDICTIONARY
360
4B9
102
}
330
2
100
AcDbSymbolTableRecord
100
AcDbLayerTableRecord
  2
2-0
 70
     0
 62
     3
  6
CONTINUOUS
370
    -3
390
F
  0
LAYER
  5
80
102
{ACAD_XDICTIONARY
360
4BB
102
}
330
2
100
AcDbSymbolTableRecord
100
AcDbLayerTableRecord
  2
3-0
 70
     0
 62
     7
  6
CONTINUOUS
370
    -3
390
F
  0
LAYER
  5
81
102
{ACAD_XDICTIONARY
360
4BD
102
}
330
2
100
AcDbSymbolTableRecord
100
AcDbLayerTableRecord
  2
4-0
 70
     0
 62
     7
  6
CONTINUOUS
370
    -3
390
F
  0
LAYER
  5
82
102
{ACAD_XDICTIONARY
360
4BF
102
}
330
2
100
AcDbSymbolTableRecord
100
AcDbLayerTableRecord
  2
5-0
 70
     0
 62
     7
  6
CONTINUOUS
370
    -3
390
F
  0
LAYER
  5
83
102
{ACAD_XDICTIONARY
360
4C1
102
}
330
2
100
AcDbSymbolTableRecord
100
AcDbLayerTableRecord
  2
6-0
 70
     0
 62
    -7
  6
CONTINUOUS
370
    -3
390
F
  0
LAYER
  5
84
102
{ACAD_XDICTIONARY
360
4C3
102
}
330
2
100
AcDbSymbolTableRecord
100
AcDbLayerTableRecord
  2
7-0
 70
     0
 62
    -7
  6
CONTINUOUS
370
    -3
390
F
  0
LAYER
  5
85
102
{ACAD_XDICTIONARY
360
4C5
102
}
330
2
100
AcDbSymbolTableRecord
100
AcDbLayerTableRecord
  2
8-0
 70
     0
 62
     7
  6
CONTINUOUS
370
    -3
390
F
  0
LAYER
  5
86
102
{ACAD_XDICTIONARY
360
4C7
102
}
330
2
100
AcDbSymbolTableRecord
100
AcDbLayerTableRecord
  2
9-0
 70
     0
 62
     7
  6
CONTINUOUS
370
    -3
390
F
  0
LAYER
  5
87
102
{ACAD_XDICTIONARY
360
4C9
102
}
330
2
100
AcDbSymbolTableRecord
100
AcDbLayerTableRecord
  2
A-0
 70
     0
 62
     1
  6
CONTINUOUS
370
    -3
390
F
  0
LAYER
  5
88
102
{ACAD_XDICTIONARY
360
4CB
102
}
330
2
100
AcDbSymbolTableRecord
100
AcDbLayerTableRecord
  2
B-0
 70
     0
 62
     6
  6
CENTER
370
    -3
390
F
  0
LAYER
  5
89
102
{ACAD_XDICTIONARY
360
4CD
102
}
330
2
100
AcDbSymbolTableRecord
100
AcDbLayerTableRecord
  2
D-0
 70
     0
 62
     5
  6
CONTINUOUS
370
    -3
390
F
  0
LAYER
  5
408
102
{ACAD_XDICTIONARY
360
4CF
102
}
330
2
100
AcDbSymbolTableRecord
100
AcDbLayerTableRecord
  2
1-0
 70
     0
 62
     7
  6
CONTINUOUS
370
    -3
390
F
  0
ENDTAB
  0
TABLE
  2
STYLE
  5
3
330
0
100
AcDbSymbolTable
 70
     6
  0
STYLE
  5
55
330
3
100
AcDbSymbolTableRecord
100
AcDbTextStyleTableRecord
  2
STANDARD
 70
     0
 40
0.0
 41
1.0
 50
0.0
 71
     0
 42
0.0
  3
txt.shx
  4
extfont.shx
  0
STYLE
  5
59
330
3
100
AcDbSymbolTableRecord
100
AcDbTextStyleTableRecord
  2
Annotative
 70
     0
 40
0.0
 41
1.0
 50
0.0
 71
     0
 42
0.2
  3
txt
  4

1001
AcadAnnotative
1000
AnnotativeData
1002
{
1070
     1
1070
     1
1002
}
  0
STYLE
  5
7B
330
3
100
AcDbSymbolTableRecord
100
AcDbTextStyleTableRecord
  2
TATEGAKI
 70
     4
 40
0.0
 41
1.0
 50
0.0
 71
     0
 42
0.0
  3
txt.shx
  4
extfont.shx
  0
STYLE
  5
7C
330
3
100
AcDbSymbolTableRecord
100
AcDbTextStyleTableRecord
  2
DIM
 70
     0
 40
0.0
 41
0.75
 50
0.0
 71
     0
 42
0.0
  3
txt.shx
  4
extfont.shx
  0
STYLE
  5
7D
330
3
100
AcDbSymbolTableRecord
100
AcDbTextStyleTableRecord
  2
_GOTHIC__
 70
     0
 40
0.0
 41
1.0
 50
0.0
 71
     0
 42
0.0
  3
MS Gothic
  4

  0
STYLE
  5
7E
330
3
100
AcDbSymbolTableRecord
100
AcDbTextStyleTableRecord
  2
_TATEGOTHIC_
 70
     4
 40
0.0
 41
1.0
 50
0.0
 71
     0
 42
0.0
  3
@MS Gothic
  4

  0
ENDTAB
  0
TABLE
  2
VIEW
  5
6
330
0
100
AcDbSymbolTable
 70
     0
  0
ENDTAB
  0
TABLE
  2
UCS
  5
7
330
0
100
AcDbSymbolTable
 70
     0
  0
ENDTAB
  0
TABLE
  2
APPID
  5
9
330
0
100
AcDbSymbolTable
 70
     4
  0
APPID
  5
56
330
9
100
AcDbSymbolTableRecord
100
AcDbRegAppTableRecord
  2
ACAD
 70
     0
  0
APPID
  5
5D
330
9
100
AcDbSymbolTableRecord
100
AcDbRegAppTableRecord
  2
AcadAnnotative
 70
     0
  0
APPID
  5
4DB
330
9
100
AcDbSymbolTableRecord
100
AcDbRegAppTableRecord
  2
ACAD_NAV_VCDISPLAY
 70
     0
  0
APPID
  5
514
330
9
100
AcDbSymbolTableRecord
100
AcDbRegAppTableRecord
  2
ACAD_MLEADERVER
 70
     0
  0
ENDTAB
  0
TABLE
  2
DIMSTYLE
  5
A
330
0
100
AcDbSymbolTable
 70
     2
100
AcDbDimStyleTable
 71
     0
  0
DIMSTYLE
105
57
330
A
100
AcDbSymbolTableRecord
100
AcDbDimStyleTableRecord
  2
Standard
 70
     0
340
55
  0
DIMSTYLE
105
58
330
A
100
AcDbSymbolTableRecord
100
AcDbDimStyleTableRecord
  2
Annotative
 70
     0
340
55
1001
AcadAnnotative
1000
AnnotativeData
1002
{
1070
     1
1070
     1
1002
}
  0
ENDTAB
  0
TABLE
  2
BLOCK_RECORD
  5
1
330
0
100
AcDbSymbolTable
 70
     0
  0
BLOCK_RECORD
  5
6F
330
1
100
AcDbSymbolTableRecord
100
AcDbBlockTableRecord
  2
*Model_Space
340
72
  0
BLOCK_RECORD
  5
6B
330
1
100
AcDbSymbolTableRecord
100
AcDbBlockTableRecord
  2
*Paper_Space
340
6E
  0
ENDTAB
  0
ENDSEC
  0
SECTION
  2
BLOCKS
  0
BLOCK
  5
70
330
6F
100
AcDbEntity
  8
0
100
AcDbBlockBegin
  2
*Model_Space
 70
     0
 10
0.0
 20
0.0
 30
0.0
  3
*Model_Space
  1

  0
ENDBLK
  5
71
330
6F
100
AcDbEntity
  8
0
100
AcDbBlockEnd
  0
BLOCK
  5
6C
330
6B
100
AcDbEntity
 67
     1
  8
0
100
AcDbBlockBegin
  2
*Paper_Space
 70
     0
 10
0.0
 20
0.0
 30
0.0
  3
*Paper_Space
  1

  0
ENDBLK
  5
6D
330
6B
100
AcDbEntity
 67
     1
  8
0
100
AcDbBlockEnd
  0
ENDSEC
  0
SECTION
  2
ENTITIES
  0
LINE
  5
8F
330
6F
100
AcDbEntity
  8
9-0
  6
Continuous
 62
     7
100
AcDbLine
 10
4100.0
 20
100.0
 30
0.0
 11
100.0
 21
100.0
 31
0.0
  0
LINE
  5
90
330
6F
100
AcDbEntity
  8
9-0
  6
Continuous
 62
     7
100
AcDbLine
 10
4100.0
 20
300.0
 30
0.0
 11
3164.715324
 21
300.0
 31
0.0
  0
LINE
  5
91
330
6F
100
AcDbEntity
  8
8-0
  6
Continuous
 62
     7
100
AcDbLine
 10
3164.715324
 20
240.0
 30
0.0
 11
2514.715324
 21
240.0
 31
0.0
  0
LINE
  5
92
330
6F
100
AcDbEntity
  8
9-0
  6
Continuous
 62
     7
100
AcDbLine
 10
100.0
 20
100.0
 30
0.0
 11
100.0
 21
2870.0
 31
0.0
  0
LINE
  5
93
330
6F
100
AcDbEntity
  8
9-0
  6
Continuous
 62
     7
100
AcDbLine
 10
100.0
 20
2870.0
 30
0.0
 11
4100.0
 21
2870.0
 31
0.0
  0
LINE
  5
94
330
6F
100
AcDbEntity
  8
9-0
  6
Continuous
 62
     7
100
AcDbLine
 10
4100.0
 20
2870.0
 30
0.0
 11
4100.0
 21
100.0
 31
0.0
  0
LINE
  5
95
330
6F
100
AcDbEntity
  8
8-0
  6
Continuous
 62
     7
100
AcDbLine
 10
2514.715324
 20
100.0
 30
0.0
 11
2514.715324
 21
300.0
 31
0.0
  0
LINE
  5
96
330
6F
100
AcDbEntity
  8
9-0
  6
Continuous
 62
     7
100
AcDbLine
 10
3164.715324
 20
100.0
 30
0.0
 11
3164.715324
 21
300.0
 31
0.0
  0
TEXT
  5
97
330
6F
100
AcDbEntity
  8
D-0
 62
     5
100
AcDbText
 10
2803.15
 20
252.531
 30
0.0
 40
31.104
  1
品番
100
AcDbText
  0
TEXT
  5
98
330
6F
100
AcDbEntity
  8
D-0
 62
     5
100
AcDbText
 10
2647.554
 20
149.981
 30
0.0
 40
51.84000000000001
  1
KW-1050 R
100
AcDbText
  0
TEXT
  5
99
330
6F
100
AcDbEntity
  8
D-0
 62
     5
100
AcDbText
 10
3072.987
 20
192.32
 30
0.0
 40
62.208
  1
        アイオ産業株式会社
100
AcDbText
  0
TEXT
  5
9A
330
6F
100
AcDbEntity
  8
D-0
 62
     5
100
AcDbText
 10
3139.138
 20
124.513
 30
0.0
 40
31.104
  1
                 アイオシステムキッチン事業部
100
AcDbText
  0
LINE
  5
9B
330
6F
100
AcDbEntity
  8
A-0
  6
Continuous
 62
     4
100
AcDbLine
 10
847.520115372672
 20
1932.764479
 30
0.0
 11
847.520115372672
 21
1802.764479
 31
0.0
  0
LINE
  5
9C
330
6F
100
AcDbEntity
  8
A-0
  6
Continuous
 62
     4
100
AcDbLine
 10
1897.520115372672
 20
1932.764479
 30
0.0
 11
1897.520115372672
 21
1802.764479
 31
0.0
  0
TEXT
  5
9D
330
6F
100
AcDbEntity
  8
A-0
 62
     4
100
AcDbText
 10
1330.543
 20
1803.384
 30
0.0
 40
36.288
  1
1050
100
AcDbText
  0
LINE
  5
9E
330
6F
100
AcDbEntity
  8
A-0
  6
Continuous
 62
     4
100
AcDbLine
 10
1897.520115630774
 20
1802.764478645261
 30
0.0
 11
847.5201156307749
 21
1802.764478645261
 31
0.0
  0
CIRCLE
  5
9F
330
6F
100
AcDbEntity
  8
A-0
  6
Continuous
 62
     4
100
AcDbCircle
 10
1897.520115630774
 20
1802.764478645261
 30
0.0
 40
0.25
  0
CIRCLE
  5
A0
330
6F
100
AcDbEntity
  8
A-0
  6
Continuous
 62
     4
100
AcDbCircle
 10
1897.520115630774
 20
1802.764478645261
 30
0.0
 40
0.1875
  0
CIRCLE
  5
A1
330
6F
100
AcDbEntity
  8
A-0
  6
Continuous
 62
     4
100
AcDbCircle
 10
1897.520115630774
 20
1802.764478645261
 30
0.0
 40
0.125
  0
CIRCLE
  5
A2
330
6F
100
AcDbEntity
  8
A-0
  6
Continuous
 62
     4
100
AcDbCircle
 10
1897.520115630774
 20
1802.764478645261
 30
0.0
 40
0.0625
  0
CIRCLE
  5
A3
330
6F
100
AcDbEntity
  8
A-0
  6
Continuous
 62
     4
100
AcDbCircle
 10
847.5201156307749
 20
1802.764478645261
 30
0.0
 40
0.25
  0
CIRCLE
  5
A4
330
6F
100
AcDbEntity
  8
A-0
  6
Continuous
 62
     4
100
AcDbCircle
 10
847.5201156307749
 20
1802.764478645261
 30
0.0
 40
0.1875
  0
CIRCLE
  5
A5
330
6F
100
AcDbEntity
  8
A-0
  6
Continuous
 62
     4
100
AcDbCircle
 10
847.5201156307749
 20
1802.764478645261
 30
0.0
 40
0.125
  0
CIRCLE
  5
A6
330
6F
100
AcDbEntity
  8
A-0
  6
Continuous
 62
     4
100
AcDbCircle
 10
847.5201156307749
 20
1802.764478645261
 30
0.0
 40
0.0625
  0
LINE
  5
A7
330
6F
100
AcDbEntity
  8
A-0
  6
Continuous
 62
     4
100
AcDbLine
 10
1897.520115372672
 20
2622.764479
 30
0.0
 11
1897.520115372672
 21
2682.764479
 31
0.0
  0
LINE
  5
A8
330
6F
100
AcDbEntity
  8
A-0
  6
Continuous
 62
     4
100
AcDbLine
 10
1697.520115372672
 20
2622.764479
 30
0.0
 11
1697.520115372672
 21
2682.764479
 31
0.0
  0
TEXT
  5
A9
330
6F
100
AcDbEntity
  8
A-0
 62
     4
100
AcDbText
 10
1766.743
 20
2683.384
 30
0.0
 40
36.288
  1
200
100
AcDbText
  0
LINE
  5
AA
330
6F
100
AcDbEntity
  8
A-0
  6
Continuous
 62
     4
100
AcDbLine
 10
1697.520115630776
 20
2682.76447864527
 30
0.0
 11
1897.520115630776
 21
2682.76447864527
 31
0.0
  0
CIRCLE
  5
AB
330
6F
100
AcDbEntity
  8
A-0
  6
Continuous
 62
     4
100
AcDbCircle
 10
1697.520115630776
 20
2682.76447864527
 30
0.0
 40
0.25
  0
CIRCLE
  5
AC
330
6F
100
AcDbEntity
  8
A-0
  6
Continuous
 62
     4
100
AcDbCircle
 10
1697.520115630776
 20
2682.76447864527
 30
0.0
 40
0.1875
  0
CIRCLE
  5
AD
330
6F
100
AcDbEntity
  8
A-0
  6
Continuous
 62
     4
100
AcDbCircle
 10
1697.520115630776
 20
2682.76447864527
 30
0.0
 40
0.125
  0
CIRCLE
  5
AE
330
6F
100
AcDbEntity
  8
A-0
  6
Continuous
 62
     4
100
AcDbCircle
 10
1697.520115630776
 20
2682.76447864527
 30
0.0
 40
0.0625
  0
CIRCLE
  5
AF
330
6F
100
AcDbEntity
  8
A-0
  6
Continuous
 62
     4
100
AcDbCircle
 10
1897.520115630776
 20
2682.76447864527
 30
0.0
 40
0.25
  0
CIRCLE
  5
B0
330
6F
100
AcDbEntity
  8
A-0
  6
Continuous
 62
     4
100
AcDbCircle
 10
1897.520115630776
 20
2682.76447864527
 30
0.0
 40
0.1875
  0
CIRCLE
  5
B1
330
6F
100
AcDbEntity
  8
A-0
  6
Continuous
 62
     4
100
AcDbCircle
 10
1897.520115630776
 20
2682.76447864527
 30
0.0
 40
0.125
  0
CIRCLE
  5
B2
330
6F
100
AcDbEntity
  8
A-0
  6
Continuous
 62
     4
100
AcDbCircle
 10
1897.520115630776
 20
2682.76447864527
 30
0.0
 40
0.0625
  0
LINE
  5
B3
330
6F
100
AcDbEntity
  8
A-0
  6
Continuous
 62
     4
100
AcDbLine
 10
1917.520115372672
 20
2577.764479
 30
0.0
 11
2047.520115372672
 21
2577.764479
 31
0.0
  0
LINE
  5
B4
330
6F
100
AcDbEntity
  8
A-0
  6
Continuous
 62
     4
100
AcDbLine
 10
1920.020115372672
 20
2602.764479
 30
0.0
 11
2047.520115372672
 21
2602.764479
 31
0.0
  0
LINE
  5
B5
330
6F
100
AcDbEntity
  8
A-0
  6
Continuous
 62
     4
100
AcDbLine
 10
2047.520115372672
 20
2567.764479
 30
0.0
 11
2047.520115372672
 21
2557.764479
 31
0.0
  0
LINE
  5
B6
330
6F
100
AcDbEntity
  8
A-0
  6
Continuous
 62
     4
100
AcDbLine
 10
2047.520115372672
 20
2612.764479
 30
0.0
 11
2047.520115372672
 21
2622.764479
 31
0.0
  0
LINE
  5
B7
330
6F
100
AcDbEntity
  8
A-0
  6
Continuous
 62
     4
100
AcDbLine
 10
2047.520115372672
 20
2590.264479
 30
0.0
 11
2107.520115372672
 21
2624.235458
 31
0.0
  0
LINE
  5
B8
330
6F
100
AcDbEntity
  8
A-0
  6
Continuous
 62
     4
100
AcDbLine
 10
2107.520115372672
 20
2624.235458
 30
0.0
 11
2107.520115372672
 21
2684.920737
 31
0.0
  0
TEXT
  5
B9
330
6F
100
AcDbEntity
  8
A-0
 62
     4
100
AcDbText
 10
2106.9
 20
2632.178
 30
0.0
 40
36.288
  1
25
 50
90.0
100
AcDbText
  0
LINE
  5
BA
330
6F
100
AcDbEntity
  8
A-0
  6
Continuous
 62
     4
100
AcDbLine
 10
2047.520115372672
 20
2577.764479
 30
0.0
 11
2047.520115372672
 21
2602.764479
 31
0.0
  0
LINE
  5
BB
330
6F
100
AcDbEntity
  8
A-0
  6
Continuous
 62
     4
100
AcDbLine
 10
2047.520115372672
 20
2577.764479
 30
0.0
 11
2047.520115372672
 21
2602.764479
 31
0.0
  0
CIRCLE
  5
BC
330
6F
100
AcDbEntity
  8
A-0
  6
Continuous
 62
     4
100
AcDbCircle
 10
2047.52011563078
 20
2577.764478645271
 30
0.0
 40
0.25
  0
CIRCLE
  5
BD
330
6F
100
AcDbEntity
  8
A-0
  6
Continuous
 62
     4
100
AcDbCircle
 10
2047.52011563078
 20
2577.764478645271
 30
0.0
 40
0.1875
  0
CIRCLE
  5
BE
330
6F
100
AcDbEntity
  8
A-0
  6
Continuous
 62
     4
100
AcDbCircle
 10
2047.52011563078
 20
2577.764478645271
 30
0.0
 40
0.125
  0
CIRCLE
  5
BF
330
6F
100
AcDbEntity
  8
A-0
  6
Continuous
 62
     4
100
AcDbCircle
 10
2047.52011563078
 20
2577.764478645271
 30
0.0
 40
0.0625
  0
ARC
  5
C0
330
6F
100
AcDbEntity
  8
A-0
 62
     4
100
AcDbCircle
 10
2047.515115630779
 20
2577.764478645271
 30
0.0
 40
2.5
100
AcDbArc
 50
90.11459140653
 51
270.114591405945
  0
LINE
  5
C1
330
6F
100
AcDbEntity
  8
A-0
 62
     4
100
AcDbLine
 10
2047.520115630805
 20
2572.764478645271
 30
0.0
 11
2047.52011563083
 21
2567.764478645271
 31
0.0
  0
CIRCLE
  5
C2
330
6F
100
AcDbEntity
  8
A-0
  6
Continuous
 62
     4
100
AcDbCircle
 10
2047.52011563078
 20
2602.764478645271
 30
0.0
 40
0.25
  0
CIRCLE
  5
C3
330
6F
100
AcDbEntity
  8
A-0
  6
Continuous
 62
     4
100
AcDbCircle
 10
2047.52011563078
 20
2602.764478645271
 30
0.0
 40
0.1875
  0
CIRCLE
  5
C4
330
6F
100
AcDbEntity
  8
A-0
  6
Continuous
 62
     4
100
AcDbCircle
 10
2047.52011563078
 20
2602.764478645271
 30
0.0
 40
0.125
  0
CIRCLE
  5
C5
330
6F
100
AcDbEntity
  8
A-0
  6
Continuous
 62
     4
100
AcDbCircle
 10
2047.52011563078
 20
2602.764478645271
 30
0.0
 40
0.0625
  0
ARC
  5
C6
330
6F
100
AcDbEntity
  8
A-0
 62
     4
100
AcDbCircle
 10
2047.52511563078
 20
2602.764478645271
 30
0.0
 40
2.5
100
AcDbArc
 50
270.1145914065301
 51
90.11459140594496
  0
LINE
  5
C7
330
6F
100
AcDbEntity
  8
A-0
 62
     4
100
AcDbLine
 10
2047.520115630703
 20
2607.764478645271
 30
0.0
 11
2047.520115630626
 21
2612.764478645271
 31
0.0
  0
LINE
  5
C8
330
6F
100
AcDbEntity
  8
A-0
  6
Continuous
 62
     4
100
AcDbLine
 10
1917.520115372672
 20
2577.764479
 30
0.0
 11
2047.520115372672
 21
2577.764479
 31
0.0
  0
LINE
  5
C9
330
6F
100
AcDbEntity
  8
A-0
  6
Continuous
 62
     4
100
AcDbLine
 10
1920.020115372672
 20
2487.764479
 30
0.0
 11
2047.520115372672
 21
2487.764479
 31
0.0
  0
TEXT
  5
CA
330
6F
100
AcDbEntity
  8
A-0
 62
     4
100
AcDbText
 10
2046.9
 20
2510.364
 30
0.0
 40
36.288
  1
90
 50
90.0
100
AcDbText
  0
LINE
  5
CB
330
6F
100
AcDbEntity
  8
A-0
  6
Continuous
 62
     4
100
AcDbLine
 10
2047.52011563078
 20
2487.764478645271
 30
0.0
 11
2047.52011563078
 21
2577.764478645271
 31
0.0
  0
CIRCLE
  5
CC
330
6F
100
AcDbEntity
  8
A-0
  6
Continuous
 62
     4
100
AcDbCircle
 10
2047.52011563078
 20
2487.764478645271
 30
0.0
 40
0.25
  0
CIRCLE
  5
CD
330
6F
100
AcDbEntity
  8
A-0
  6
Continuous
 62
     4
100
AcDbCircle
 10
2047.52011563078
 20
2487.764478645271
 30
0.0
 40
0.1875
  0
CIRCLE
  5
CE
330
6F
100
AcDbEntity
  8
A-0
  6
Continuous
 62
     4
100
AcDbCircle
 10
2047.52011563078
 20
2487.764478645271
 30
0.0
 40
0.125
  0
CIRCLE
  5
CF
330
6F
100
AcDbEntity
  8
A-0
  6
Continuous
 62
     4
100
AcDbCircle
 10
2047.52011563078
 20
2487.764478645271
 30
0.0
 40
0.0625
  0
CIRCLE
  5
D0
330
6F
100
AcDbEntity
  8
A-0
  6
Continuous
 62
     4
100
AcDbCircle
 10
2047.52011563078
 20
2577.764478645271
 30
0.0
 40
0.25
  0
CIRCLE
  5
D1
330
6F
100
AcDbEntity
  8
A-0
  6
Continuous
 62
     4
100
AcDbCircle
 10
2047.52011563078
 20
2577.764478645271
 30
0.0
 40
0.1875
  0
CIRCLE
  5
D2
330
6F
100
AcDbEntity
  8
A-0
  6
Continuous
 62
     4
100
AcDbCircle
 10
2047.52011563078
 20
2577.764478645271
 30
0.0
 40
0.125
  0
CIRCLE
  5
D3
330
6F
100
AcDbEntity
  8
A-0
  6
Continuous
 62
     4
100
AcDbCircle
 10
2047.52011563078
 20
2577.764478645271
 30
0.0
 40
0.0625
  0
LINE
  5
D4
330
6F
100
AcDbEntity
  8
A-0
  6
Continuous
 62
     4
100
AcDbLine
 10
1917.520115372672
 20
2112.764479
 30
0.0
 11
2047.520115372672
 21
2112.764479
 31
0.0
  0
LINE
  5
D5
330
6F
100
AcDbEntity
  8
A-0
  6
Continuous
 62
     4
100
AcDbLine
 10
1920.020115372672
 20
2052.764479
 30
0.0
 11
2047.520115372672
 21
2052.764479
 31
0.0
  0
TEXT
  5
D6
330
6F
100
AcDbEntity
  8
A-0
 62
     4
100
AcDbText
 10
2114.4
 20
2111.224
 30
0.0
 40
36.288
  1
60
 50
90.0
100
AcDbText
  0
LINE
  5
D7
330
6F
100
AcDbEntity
  8
A-0
  6
Continuous
 62
     4
100
AcDbLine
 10
2047.52011563078
 20
2052.764478645271
 30
0.0
 11
2047.52011563078
 21
2112.764478645271
 31
0.0
  0
CIRCLE
  5
D8
330
6F
100
AcDbEntity
  8
A-0
  6
Continuous
 62
     4
100
AcDbCircle
 10
2047.52011563078
 20
2052.764478645271
 30
0.0
 40
0.25
  0
CIRCLE
  5
D9
330
6F
100
AcDbEntity
  8
A-0
  6
Continuous
 62
     4
100
AcDbCircle
 10
2047.52011563078
 20
2052.764478645271
 30
0.0
 40
0.1875
  0
CIRCLE
  5
DA
330
6F
100
AcDbEntity
  8
A-0
  6
Continuous
 62
     4
100
AcDbCircle
 10
2047.52011563078
 20
2052.764478645271
 30
0.0
 40
0.125
  0
CIRCLE
  5
DB
330
6F
100
AcDbEntity
  8
A-0
  6
Continuous
 62
     4
100
AcDbCircle
 10
2047.52011563078
 20
2052.764478645271
 30
0.0
 40
0.0625
  0
CIRCLE
  5
DC
330
6F
100
AcDbEntity
  8
A-0
  6
Continuous
 62
     4
100
AcDbCircle
 10
2047.52011563078
 20
2112.764478645271
 30
0.0
 40
0.25
  0
CIRCLE
  5
DD
330
6F
100
AcDbEntity
  8
A-0
  6
Continuous
 62
     4
100
AcDbCircle
 10
2047.52011563078
 20
2112.764478645271
 30
0.0
 40
0.1875
  0
CIRCLE
  5
DE
330
6F
100
AcDbEntity
  8
A-0
  6
Continuous
 62
     4
100
AcDbCircle
 10
2047.52011563078
 20
2112.764478645271
 30
0.0
 40
0.125
  0
CIRCLE
  5
DF
330
6F
100
AcDbEntity
  8
A-0
  6
Continuous
 62
     4
100
AcDbCircle
 10
2047.52011563078
 20
2112.764478645271
 30
0.0
 40
0.0625
  0
LINE
  5
E0
330
6F
100
AcDbEntity
  8
A-0
  6
Continuous
 62
     4
100
AcDbLine
 10
1917.520115372672
 20
2112.764479
 30
0.0
 11
2047.520115372672
 21
2112.764479
 31
0.0
  0
LINE
  5
E1
330
6F
100
AcDbEntity
  8
A-0
  6
Continuous
 62
     4
100
AcDbLine
 10
1920.020115372672
 20
2487.764479
 30
0.0
 11
2047.520115372672
 21
2487.764479
 31
0.0
  0
TEXT
  5
E2
330
6F
100
AcDbEntity
  8
A-0
 62
     4
100
AcDbText
 10
2046.9
 20
2266.664
 30
0.0
 40
36.288
  1
375
 50
90.0
100
AcDbText
  0
LINE
  5
E3
330
6F
100
AcDbEntity
  8
A-0
  6
Continuous
 62
     4
100
AcDbLine
 10
2047.52011563078
 20
2487.764478645271
 30
0.0
 11
2047.52011563078
 21
2112.764478645271
 31
0.0
  0
CIRCLE
  5
E4
330
6F
100
AcDbEntity
  8
A-0
  6
Continuous
 62
     4
100
AcDbCircle
 10
2047.52011563078
 20
2487.764478645271
 30
0.0
 40
0.25
  0
CIRCLE
  5
E5
330
6F
100
AcDbEntity
  8
A-0
  6
Continuous
 62
     4
100
AcDbCircle
 10
2047.52011563078
 20
2487.764478645271
 30
0.0
 40
0.1875
  0
CIRCLE
  5
E6
330
6F
100
AcDbEntity
  8
A-0
  6
Continuous
 62
     4
100
AcDbCircle
 10
2047.52011563078
 20
2487.764478645271
 30
0.0
 40
0.125
  0
CIRCLE
  5
E7
330
6F
100
AcDbEntity
  8
A-0
  6
Continuous
 62
     4
100
AcDbCircle
 10
2047.52011563078
 20
2487.764478645271
 30
0.0
 40
0.0625
  0
CIRCLE
  5
E8
330
6F
100
AcDbEntity
  8
A-0
  6
Continuous
 62
     4
100
AcDbCircle
 10
2047.52011563078
 20
2112.764478645271
 30
0.0
 40
0.25
  0
CIRCLE
  5
E9
330
6F
100
AcDbEntity
  8
A-0
  6
Continuous
 62
     4
100
AcDbCircle
 10
2047.52011563078
 20
2112.764478645271
 30
0.0
 40
0.1875
  0
CIRCLE
  5
EA
330
6F
100
AcDbEntity
  8
A-0
  6
Continuous
 62
     4
100
AcDbCircle
 10
2047.52011563078
 20
2112.764478645271
 30
0.0
 40
0.125
  0
CIRCLE
  5
EB
330
6F
100
AcDbEntity
  8
A-0
  6
Continuous
 62
     4
100
AcDbCircle
 10
2047.52011563078
 20
2112.764478645271
 30
0.0
 40
0.0625
  0
LINE
  5
EC
330
6F
100
AcDbEntity
  8
A-0
  6
Continuous
 62
     4
100
AcDbLine
 10
1997.103449372673
 20
2602.764479
 30
0.0
 11
2147.520115372672
 21
2602.764479
 31
0.0
  0
LINE
  5
ED
330
6F
100
AcDbEntity
  8
A-0
  6
Continuous
 62
     4
100
AcDbLine
 10
2020.020115372672
 20
2052.764479
 30
0.0
 11
2147.520115372672
 21
2052.764479
 31
0.0
  0
TEXT
  5
EE
330
6F
100
AcDbEntity
  8
A-0
 62
     4
100
AcDbText
 10
2146.9
 20
2294.164
 30
0.0
 40
36.288
  1
550
 50
90.0
100
AcDbText
  0
LINE
  5
EF
330
6F
100
AcDbEntity
  8
A-0
  6
Continuous
 62
     4
100
AcDbLine
 10
2147.520115630779
 20
2052.764478645271
 30
0.0
 11
2147.520115630779
 21
2602.764478645271
 31
0.0
  0
CIRCLE
  5
F0
330
6F
100
AcDbEntity
  8
A-0
  6
Continuous
 62
     4
100
AcDbCircle
 10
2147.520115630779
 20
2052.764478645271
 30
0.0
 40
0.25
  0
CIRCLE
  5
F1
330
6F
100
AcDbEntity
  8
A-0
  6
Continuous
 62
     4
100
AcDbCircle
 10
2147.520115630779
 20
2052.764478645271
 30
0.0
 40
0.1875
  0
CIRCLE
  5
F2
330
6F
100
AcDbEntity
  8
A-0
  6
Continuous
 62
     4
100
AcDbCircle
 10
2147.520115630779
 20
2052.764478645271
 30
0.0
 40
0.125
  0
CIRCLE
  5
F3
330
6F
100
AcDbEntity
  8
A-0
  6
Continuous
 62
     4
100
AcDbCircle
 10
2147.520115630779
 20
2052.764478645271
 30
0.0
 40
0.0625
  0
CIRCLE
  5
F4
330
6F
100
AcDbEntity
  8
A-0
  6
Continuous
 62
     4
100
AcDbCircle
 10
2147.520115630779
 20
2602.764478645271
 30
0.0
 40
0.25
  0
CIRCLE
  5
F5
330
6F
100
AcDbEntity
  8
A-0
  6
Continuous
 62
     4
100
AcDbCircle
 10
2147.520115630779
 20
2602.764478645271
 30
0.0
 40
0.1875
  0
CIRCLE
  5
F6
330
6F
100
AcDbEntity
  8
A-0
  6
Continuous
 62
     4
100
AcDbCircle
 10
2147.520115630779
 20
2602.764478645271
 30
0.0
 40
0.125
  0
CIRCLE
  5
F7
330
6F
100
AcDbEntity
  8
A-0
  6
Continuous
 62
     4
100
AcDbCircle
 10
2147.520115630779
 20
2602.764478645271
 30
0.0
 40
0.0625
  0
ARC
  5
F8
330
6F
100
AcDbEntity
  8
3-0
  6
Continuous
 62
     7
100
AcDbCircle
 10
1262.520116
 20
2297.764479
 30
0.0
 40
5.0
100
AcDbArc
 50
0.0000000002920064
 51
90.0
  0
LINE
  5
F9
330
6F
100
AcDbEntity
  8
3-0
  6
Continuous
 62
     7
100
AcDbLine
 10
1267.520115630776
 20
2297.76447864527
 30
0.0
 11
1267.520115630776
 21
2257.76447864527
 31
0.0
  0
ARC
  5
FA
330
6F
100
AcDbEntity
  8
3-0
  6
Continuous
 62
     7
100
AcDbCircle
 10
1262.520116
 20
2257.764479
 30
0.0
 40
5.0
100
AcDbArc
 50
270.0
 51
359.9999999997079
  0
LINE
  5
FB
330
6F
100
AcDbEntity
  8
3-0
  6
Continuous
 62
     7
100
AcDbLine
 10
1262.520115630776
 20
2252.76447864527
 30
0.0
 11
947.520115630777
 21
2252.76447864527
 31
0.0
  0
ARC
  5
FC
330
6F
100
AcDbEntity
  8
3-0
  6
Continuous
 62
     7
100
AcDbCircle
 10
947.5201160000001
 20
2257.764479
 30
0.0
 40
5.0
100
AcDbArc
 50
180.000000000295
 51
269.9999999999981
  0
LINE
  5
FD
330
6F
100
AcDbEntity
  8
3-0
  6
Continuous
 62
     7
100
AcDbLine
 10
942.5201156307769
 20
2257.76447864527
 30
0.0
 11
942.5201156307739
 21
2297.76447864527
 31
0.0
  0
ARC
  5
FE
330
6F
100
AcDbEntity
  8
3-0
  6
Continuous
 62
     7
100
AcDbCircle
 10
947.5201160000001
 20
2297.764479
 30
0.0
 40
5.0
100
AcDbArc
 50
89.99999999999401
 51
179.9999999997029
  0
LINE
  5
FF
330
6F
100
AcDbEntity
  8
3-0
  6
Continuous
 62
     7
100
AcDbLine
 10
947.5201156307749
 20
2302.76447864527
 30
0.0
 11
1262.520115630776
 21
2302.76447864527
 31
0.0
  0
LINE
  5
100
330
6F
100
AcDbEntity
  8
3-0
  6
Continuous
 62
     7
100
AcDbLine
 10
847.5201160000001
 20
2052.764479
 30
0.0
 11
847.5201160000001
 21
2602.764479
 31
0.0
  0
LINE
  5
101
330
6F
100
AcDbEntity
  8
3-0
  6
Continuous
 62
     7
100
AcDbLine
 10
1897.520116
 20
2602.764479
 30
0.0
 11
1897.520116
 21
2052.764479
 31
0.0
  0
LINE
  5
102
330
6F
100
AcDbEntity
  8
B-0
  6
CENTER
 62
     6
100
AcDbLine
 10
1580.020116
 20
2399.09617
 30
0.0
 11
1580.020116
 21
2752.764479
 31
0.0
  0
LINE
  5
103
330
6F
100
AcDbEntity
  8
3-0
  6
Continuous
 62
     7
100
AcDbLine
 10
1592.020116
 20
2474.20758
 30
0.0
 11
1592.020116
 21
2276.764479
 31
0.0
  0
LINE
  5
104
330
6F
100
AcDbEntity
  8
3-0
  6
Continuous
 62
     7
100
AcDbLine
 10
1568.020116
 20
2474.20758
 30
0.0
 11
1568.020116
 21
2276.764479
 31
0.0
  0
ARC
  5
105
330
6F
100
AcDbEntity
  8
3-0
  6
Continuous
 62
     7
100
AcDbCircle
 10
892.520116
 20
2532.764479
 30
0.0
 40
20.0
100
AcDbArc
 50
90.00000000000095
 51
179.9999999997089
  0
LINE
  5
106
330
6F
100
AcDbEntity
  8
3-0
  6
Continuous
 62
     7
100
AcDbLine
 10
892.5201156307739
 20
2552.76447864527
 30
0.0
 11
1852.520115630778
 21
2552.76447864527
 31
0.0
  0
ARC
  5
107
330
6F
100
AcDbEntity
  8
3-0
  6
Continuous
 62
     7
100
AcDbCircle
 10
1852.520116
 20
2532.764479
 30
0.0
 40
20.0
100
AcDbArc
 50
0.0000000002870504
 51
89.99999999999495
  0
LINE
  5
108
330
6F
100
AcDbEntity
  8
3-0
  6
Continuous
 62
     7
100
AcDbLine
 10
1872.520115630774
 20
2532.76447864527
 30
0.0
 11
1872.520115630778
 21
2097.76447864527
 31
0.0
  0
ARC
  5
109
330
6F
100
AcDbEntity
  8
3-0
  6
Continuous
 62
     7
100
AcDbCircle
 10
1852.520116
 20
2097.764479
 30
0.0
 40
20.0
100
AcDbArc
 50
270.0
 51
359.9999999997079
  0
LINE
  5
10A
330
6F
100
AcDbEntity
  8
3-0
  6
Continuous
 62
     7
100
AcDbLine
 10
1852.520115630778
 20
2077.76447864527
 30
0.0
 11
892.5201156307739
 21
2077.76447864527
 31
0.0
  0
ARC
  5
10B
330
6F
100
AcDbEntity
  8
3-0
  6
Continuous
 62
     7
100
AcDbCircle
 10
892.520116
 20
2097.764479
 30
0.0
 40
20.0
100
AcDbArc
 50
180.000000000291
 51
269.999999999999
  0
LINE
  5
10C
330
6F
100
AcDbEntity
  8
3-0
  6
Continuous
 62
     7
100
AcDbLine
 10
872.5201156307749
 20
2097.76447864527
 30
0.0
 11
872.5201156307749
 21
2532.76447864527
 31
0.0
  0
ARC
  5
10D
330
6F
100
AcDbEntity
  8
3-0
  6
Continuous
 62
     7
100
AcDbCircle
 10
892.520116
 20
2532.764479
 30
0.0
 40
25.0
100
AcDbArc
 50
90.0
 51
179.9999999997081
  0
LINE
  5
10E
330
6F
100
AcDbEntity
  8
3-0
  6
Continuous
 62
     7
100
AcDbLine
 10
892.5201156307739
 20
2557.76447864527
 30
0.0
 11
1852.520115630778
 21
2557.76447864527
 31
0.0
  0
ARC
  5
10F
330
6F
100
AcDbEntity
  8
3-0
  6
Continuous
 62
     7
100
AcDbCircle
 10
1852.520116
 20
2532.764479
 30
0.0
 40
25.0
100
AcDbArc
 50
0.0000000002929657
 51
89.99999999999905
  0
LINE
  5
110
330
6F
100
AcDbEntity
  8
3-0
  6
Continuous
 62
     7
100
AcDbLine
 10
1877.520115630778
 20
2532.76447864527
 30
0.0
 11
1877.520115630778
 21
2097.76447864527
 31
0.0
  0
ARC
  5
111
330
6F
100
AcDbEntity
  8
3-0
  6
Continuous
 62
     7
100
AcDbCircle
 10
1852.520116
 20
2097.764479
 30
0.0
 40
25.0
100
AcDbArc
 50
270.0
 51
359.9999999997079
  0
LINE
  5
112
330
6F
100
AcDbEntity
  8
3-0
  6
Continuous
 62
     7
100
AcDbLine
 10
1852.520115630778
 20
2072.76447864527
 30
0.0
 11
892.5201156307739
 21
2072.76447864527
 31
0.0
  0
ARC
  5
113
330
6F
100
AcDbEntity
  8
3-0
  6
Continuous
 62
     7
100
AcDbCircle
 10
892.520116
 20
2097.764479
 30
0.0
 40
25.0
100
AcDbArc
 50
180.000000000292
 51
270.0
  0
LINE
  5
114
330
6F
100
AcDbEntity
  8
3-0
  6
Continuous
 62
     7
100
AcDbLine
 10
867.5201156307739
 20
2097.76447864527
 30
0.0
 11
867.5201156307739
 21
2532.76447864527
 31
0.0
  0
ARC
  5
115
330
6F
100
AcDbEntity
  8
3-0
  6
Continuous
 62
     7
100
AcDbCircle
 10
1866.67237
 20
2300.267305
 30
0.0
 40
554.1743109999999
100
AcDbArc
 50
169.9665707535219
 51
190.034022662316
  0
ARC
  5
116
330
6F
100
AcDbEntity
  8
3-0
  6
Continuous
 62
     7
100
AcDbCircle
 10
1419.282784
 20
2378.50655
 30
0.0
 40
100.0
100
AcDbArc
 50
96.59280351781902
 51
169.449319760348
  0
ARC
  5
117
330
6F
100
AcDbEntity
  8
3-0
  6
Continuous
 62
     7
100
AcDbCircle
 10
1580.01579
 20
987.7649790000001
 30
0.0
 40
1500.0
100
AcDbArc
 50
83.40703013606697
 51
96.59263717170606
  0
ARC
  5
118
330
6F
100
AcDbEntity
  8
3-0
  6
Continuous
 62
     7
100
AcDbCircle
 10
1740.757447
 20
2378.50655
 30
0.0
 40
100.0
100
AcDbArc
 50
10.55068023965201
 51
83.40719648218003
  0
ARC
  5
119
330
6F
100
AcDbEntity
  8
3-0
  6
Continuous
 62
     7
100
AcDbCircle
 10
1293.368862
 20
2300.267305
 30
0.0
 40
554.1743109999999
100
AcDbArc
 50
349.9659773376839
 51
10.03342924647798
  0
ARC
  5
11A
330
6F
100
AcDbEntity
  8
3-0
  6
Continuous
 62
     7
100
AcDbCircle
 10
1740.757447
 20
2222.022407
 30
0.0
 40
100.0
100
AcDbArc
 50
276.59280351782
 51
349.449319760348
  0
ARC
  5
11B
330
6F
100
AcDbEntity
  8
3-0
  6
Continuous
 62
     7
100
AcDbCircle
 10
1580.015789
 20
3612.764979
 30
0.0
 40
1500.0
100
AcDbArc
 50
263.407362828294
 51
276.592969863933
  0
ARC
  5
11C
330
6F
100
AcDbEntity
  8
3-0
  6
Continuous
 62
     7
100
AcDbCircle
 10
1419.282784
 20
2222.022407
 30
0.0
 40
100.0
100
AcDbArc
 50
190.550680239652
 51
263.407196482181
  0
CIRCLE
  5
11D
330
6F
100
AcDbEntity
  8
3-0
  6
Continuous
 62
     7
100
AcDbCircle
 10
1697.520116
 20
2297.764479
 30
0.0
 40
90.0
  0
CIRCLE
  5
11E
330
6F
100
AcDbEntity
  8
3-0
  6
Continuous
 62
     7
100
AcDbCircle
 10
1697.520116
 20
2297.764479
 30
0.0
 40
80.0
  0
ARC
  5
11F
330
6F
100
AcDbEntity
  8
3-0
  6
DASHED2
 62
     7
100
AcDbCircle
 10
1580.020116
 20
2524.764479
 30
0.0
 40
260.0
100
AcDbArc
 50
190.538
 51
349.462
  0
LINE
  5
120
330
6F
100
AcDbEntity
  8
3-0
  6
Continuous
 62
     7
100
AcDbLine
 10
947.5201156307781
 20
2102.76447864527
 30
0.0
 11
1295.045628491616
 21
2102.76447864527
 31
0.0
  0
ARC
  5
121
330
6F
100
AcDbEntity
  8
3-0
  6
Continuous
 62
     7
100
AcDbCircle
 10
1295.045628
 20
2107.764479
 30
0.0
 40
5.0
100
AcDbArc
 50
270.000000000004
 51
37.79972243502291
  0
ARC
  5
122
330
6F
100
AcDbEntity
  8
3-0
  6
Continuous
 62
     7
100
AcDbCircle
 10
1417.520116
 20
2202.764479
 30
0.0
 40
150.0
100
AcDbArc
 50
200.783559596072
 51
217.799722435598
  0
ARC
  5
123
330
6F
100
AcDbEntity
  8
3-0
  6
Continuous
 62
     7
100
AcDbCircle
 10
1272.606348
 20
2147.764479
 30
0.0
 40
5.0
100
AcDbArc
 50
20.78355959605703
 51
89.99999999998593
  0
LINE
  5
124
330
6F
100
AcDbEntity
  8
3-0
  6
Continuous
 62
     7
100
AcDbLine
 10
1272.606348168882
 20
2152.76447864527
 30
0.0
 11
947.5201156307781
 21
2152.76447864527
 31
0.0
  0
ARC
  5
125
330
6F
100
AcDbEntity
  8
3-0
  6
Continuous
 62
     7
100
AcDbCircle
 10
947.5201160000001
 20
2147.764479
 30
0.0
 40
5.0
100
AcDbArc
 50
90.00000000000095
 51
179.9999999997059
  0
LINE
  5
126
330
6F
100
AcDbEntity
  8
3-0
  6
Continuous
 62
     7
100
AcDbLine
 10
942.520115630778
 20
2147.76447864527
 30
0.0
 11
942.520115630778
 21
2107.76447864527
 31
0.0
  0
ARC
  5
127
330
6F
100
AcDbEntity
  8
3-0
  6
Continuous
 62
     7
100
AcDbCircle
 10
947.5201160000001
 20
2107.764479
 30
0.0
 40
5.0
100
AcDbArc
 50
180.000000000292
 51
270.0
  0
ARC
  5
128
330
6F
100
AcDbEntity
  8
3-0
  6
Continuous
 62
     7
100
AcDbCircle
 10
1265.451052
 20
2182.764479
 30
0.0
 40
5.0
100
AcDbArc
 50
269.999999999977
 51
11.15993687183503
  0
ARC
  5
129
330
6F
100
AcDbEntity
  8
3-0
  6
Continuous
 62
     7
100
AcDbCircle
 10
1417.520116
 20
2212.764479
 30
0.0
 40
150.0
100
AcDbArc
 50
176.3009289371429
 51
191.1599368724449
  0
ARC
  5
12A
330
6F
100
AcDbEntity
  8
3-0
  6
Continuous
 62
     7
100
AcDbCircle
 10
1262.843033
 20
2222.764479
 30
0.0
 40
5.0
100
AcDbArc
 50
356.3009289371251
 51
89.99999999996699
  0
LINE
  5
12B
330
6F
100
AcDbEntity
  8
3-0
  6
Continuous
 62
     7
100
AcDbLine
 10
1262.843032648199
 20
2227.76447864527
 30
0.0
 11
947.5201156307781
 21
2227.76447864527
 31
0.0
  0
ARC
  5
12C
330
6F
100
AcDbEntity
  8
3-0
  6
Continuous
 62
     7
100
AcDbCircle
 10
947.5201160000001
 20
2222.764479
 30
0.0
 40
5.0
100
AcDbArc
 50
90.0
 51
179.9999999997081
  0
LINE
  5
12D
330
6F
100
AcDbEntity
  8
3-0
  6
Continuous
 62
     7
100
AcDbLine
 10
942.520115630778
 20
2222.76447864527
 30
0.0
 11
942.5201156307769
 21
2182.76447864527
 31
0.0
  0
ARC
  5
12E
330
6F
100
AcDbEntity
  8
3-0
  6
Continuous
 62
     7
100
AcDbCircle
 10
947.5201160000001
 20
2182.764479
 30
0.0
 40
5.0
100
AcDbArc
 50
180.000000000292
 51
270.0
  0
LINE
  5
12F
330
6F
100
AcDbEntity
  8
3-0
  6
Continuous
 62
     7
100
AcDbLine
 10
947.520115630777
 20
2177.76447864527
 30
0.0
 11
1265.451052373319
 21
2177.76447864527
 31
0.0
  0
LINE
  5
130
330
6F
100
AcDbEntity
  8
3-0
  6
Continuous
 62
     7
100
AcDbLine
 10
1897.520116
 20
2052.764479
 30
0.0
 11
847.5201160000001
 21
2052.764479
 31
0.0
  0
LINE
  5
131
330
6F
100
AcDbEntity
  8
A-0
  6
Continuous
 62
     4
100
AcDbLine
 10
1312.520115372672
 20
2032.764479
 30
0.0
 11
1312.520115372672
 21
1902.764479
 31
0.0
  0
LINE
  5
132
330
6F
100
AcDbEntity
  8
A-0
  6
Continuous
 62
     4
100
AcDbLine
 10
847.520115372672
 20
2032.764479
 30
0.0
 11
847.520115372672
 21
1902.764479
 31
0.0
  0
TEXT
  5
133
330
6F
100
AcDbEntity
  8
A-0
 62
     4
100
AcDbText
 10
1049.243
 20
1903.384
 30
0.0
 40
36.288
  1
465
100
AcDbText
  0
LINE
  5
134
330
6F
100
AcDbEntity
  8
A-0
  6
Continuous
 62
     4
100
AcDbLine
 10
847.5201156307781
 20
1902.764478645261
 30
0.0
 11
1312.520115630776
 21
1902.764478645261
 31
0.0
  0
CIRCLE
  5
135
330
6F
100
AcDbEntity
  8
A-0
  6
Continuous
 62
     4
100
AcDbCircle
 10
847.5201156307781
 20
1902.764478645261
 30
0.0
 40
0.25
  0
CIRCLE
  5
136
330
6F
100
AcDbEntity
  8
A-0
  6
Continuous
 62
     4
100
AcDbCircle
 10
847.5201156307781
 20
1902.764478645261
 30
0.0
 40
0.1875
  0
CIRCLE
  5
137
330
6F
100
AcDbEntity
  8
A-0
  6
Continuous
 62
     4
100
AcDbCircle
 10
847.5201156307781
 20
1902.764478645261
 30
0.0
 40
0.125
  0
CIRCLE
  5
138
330
6F
100
AcDbEntity
  8
A-0
  6
Continuous
 62
     4
100
AcDbCircle
 10
847.5201156307781
 20
1902.764478645261
 30
0.0
 40
0.0625
  0
CIRCLE
  5
139
330
6F
100
AcDbEntity
  8
A-0
  6
Continuous
 62
     4
100
AcDbCircle
 10
1312.520115630776
 20
1902.764478645261
 30
0.0
 40
0.25
  0
CIRCLE
  5
13A
330
6F
100
AcDbEntity
  8
A-0
  6
Continuous
 62
     4
100
AcDbCircle
 10
1312.520115630776
 20
1902.764478645261
 30
0.0
 40
0.1875
  0
CIRCLE
  5
13B
330
6F
100
AcDbEntity
  8
A-0
  6
Continuous
 62
     4
100
AcDbCircle
 10
1312.520115630776
 20
1902.764478645261
 30
0.0
 40
0.125
  0
CIRCLE
  5
13C
330
6F
100
AcDbEntity
  8
A-0
  6
Continuous
 62
     4
100
AcDbCircle
 10
1312.520115630776
 20
1902.764478645261
 30
0.0
 40
0.0625
  0
LINE
  5
13D
330
6F
100
AcDbEntity
  8
A-0
  6
Continuous
 62
     4
100
AcDbLine
 10
1312.520115372672
 20
2032.764479
 30
0.0
 11
1312.520115372672
 21
1902.764479
 31
0.0
  0
LINE
  5
13E
330
6F
100
AcDbEntity
  8
A-0
  6
Continuous
 62
     4
100
AcDbLine
 10
1847.520115372672
 20
2032.764479
 30
0.0
 11
1847.520115372672
 21
1902.764479
 31
0.0
  0
TEXT
  5
13F
330
6F
100
AcDbEntity
  8
A-0
 62
     4
100
AcDbText
 10
1549.243
 20
1903.384
 30
0.0
 40
36.288
  1
535
100
AcDbText
  0
LINE
  5
140
330
6F
100
AcDbEntity
  8
A-0
  6
Continuous
 62
     4
100
AcDbLine
 10
1847.520115630778
 20
1902.764478645261
 30
0.0
 11
1312.520115630776
 21
1902.764478645261
 31
0.0
  0
CIRCLE
  5
141
330
6F
100
AcDbEntity
  8
A-0
  6
Continuous
 62
     4
100
AcDbCircle
 10
1847.520115630778
 20
1902.764478645261
 30
0.0
 40
0.25
  0
CIRCLE
  5
142
330
6F
100
AcDbEntity
  8
A-0
  6
Continuous
 62
     4
100
AcDbCircle
 10
1847.520115630778
 20
1902.764478645261
 30
0.0
 40
0.1875
  0
CIRCLE
  5
143
330
6F
100
AcDbEntity
  8
A-0
  6
Continuous
 62
     4
100
AcDbCircle
 10
1847.520115630778
 20
1902.764478645261
 30
0.0
 40
0.125
  0
CIRCLE
  5
144
330
6F
100
AcDbEntity
  8
A-0
  6
Continuous
 62
     4
100
AcDbCircle
 10
1847.520115630778
 20
1902.764478645261
 30
0.0
 40
0.0625
  0
CIRCLE
  5
145
330
6F
100
AcDbEntity
  8
A-0
  6
Continuous
 62
     4
100
AcDbCircle
 10
1312.520115630776
 20
1902.764478645261
 30
0.0
 40
0.25
  0
CIRCLE
  5
146
330
6F
100
AcDbEntity
  8
A-0
  6
Continuous
 62
     4
100
AcDbCircle
 10
1312.520115630776
 20
1902.764478645261
 30
0.0
 40
0.1875
  0
CIRCLE
  5
147
330
6F
100
AcDbEntity
  8
A-0
  6
Continuous
 62
     4
100
AcDbCircle
 10
1312.520115630776
 20
1902.764478645261
 30
0.0
 40
0.125
  0
CIRCLE
  5
148
330
6F
100
AcDbEntity
  8
A-0
  6
Continuous
 62
     4
100
AcDbCircle
 10
1312.520115630776
 20
1902.764478645261
 30
0.0
 40
0.0625
  0
LINE
  5
149
330
6F
100
AcDbEntity
  8
A-0
  6
Continuous
 62
     4
100
AcDbLine
 10
1897.520115372672
 20
2032.764479
 30
0.0
 11
1897.520115372672
 21
1902.764479
 31
0.0
  0
LINE
  5
14A
330
6F
100
AcDbEntity
  8
A-0
  6
Continuous
 62
     4
100
AcDbLine
 10
1847.520115372672
 20
2032.764479
 30
0.0
 11
1847.520115372672
 21
1902.764479
 31
0.0
  0
LINE
  5
14B
330
6F
100
AcDbEntity
  8
A-0
  6
Continuous
 62
     4
100
AcDbLine
 10
1887.520115372672
 20
1902.764479
 30
0.0
 11
1857.520115372672
 21
1902.764479
 31
0.0
  0
LINE
  5
14C
330
6F
100
AcDbEntity
  8
A-0
  6
Continuous
 62
     4
100
AcDbLine
 10
1872.520115372672
 20
1902.764479
 30
0.0
 11
1848.165398372672
 21
1842.764479
 31
0.0
  0
LINE
  5
14D
330
6F
100
AcDbEntity
  8
A-0
  6
Continuous
 62
     4
100
AcDbLine
 10
1848.165398372672
 20
1842.764479
 30
0.0
 11
1786.414128372673
 21
1842.764479
 31
0.0
  0
TEXT
  5
14E
330
6F
100
AcDbEntity
  8
A-0
 62
     4
100
AcDbText
 10
1797.712
 20
1843.384
 30
0.0
 40
36.288
  1
50
100
AcDbText
  0
CIRCLE
  5
14F
330
6F
100
AcDbEntity
  8
A-0
  6
Continuous
 62
     4
100
AcDbCircle
 10
1897.520115630776
 20
1902.764478645261
 30
0.0
 40
0.25
  0
CIRCLE
  5
150
330
6F
100
AcDbEntity
  8
A-0
  6
Continuous
 62
     4
100
AcDbCircle
 10
1897.520115630776
 20
1902.764478645261
 30
0.0
 40
0.1875
  0
CIRCLE
  5
151
330
6F
100
AcDbEntity
  8
A-0
  6
Continuous
 62
     4
100
AcDbCircle
 10
1897.520115630776
 20
1902.764478645261
 30
0.0
 40
0.125
  0
CIRCLE
  5
152
330
6F
100
AcDbEntity
  8
A-0
  6
Continuous
 62
     4
100
AcDbCircle
 10
1897.520115630776
 20
1902.764478645261
 30
0.0
 40
0.0625
  0
ARC
  5
153
330
6F
100
AcDbEntity
  8
A-0
 62
     4
100
AcDbCircle
 10
1897.520115630776
 20
1902.769478645261
 30
0.0
 40
2.5
100
AcDbArc
 50
0.1145914065300158
 51
180.114591405945
  0
LINE
  5
154
330
6F
100
AcDbEntity
  8
A-0
 62
     4
100
AcDbLine
 10
1892.520115630776
 20
1902.764478645261
 30
0.0
 11
1887.520115630776
 21
1902.764478645261
 31
0.0
  0
CIRCLE
  5
155
330
6F
100
AcDbEntity
  8
A-0
  6
Continuous
 62
     4
100
AcDbCircle
 10
1847.520115630778
 20
1902.764478645261
 30
0.0
 40
0.25
  0
CIRCLE
  5
156
330
6F
100
AcDbEntity
  8
A-0
  6
Continuous
 62
     4
100
AcDbCircle
 10
1847.520115630778
 20
1902.764478645261
 30
0.0
 40
0.1875
  0
CIRCLE
  5
157
330
6F
100
AcDbEntity
  8
A-0
  6
Continuous
 62
     4
100
AcDbCircle
 10
1847.520115630778
 20
1902.764478645261
 30
0.0
 40
0.125
  0
CIRCLE
  5
158
330
6F
100
AcDbEntity
  8
A-0
  6
Continuous
 62
     4
100
AcDbCircle
 10
1847.520115630778
 20
1902.764478645261
 30
0.0
 40
0.0625
  0
ARC
  5
159
330
6F
100
AcDbEntity
  8
A-0
 62
     4
100
AcDbCircle
 10
1847.520115630778
 20
1902.759478645261
 30
0.0
 40
2.5
100
AcDbArc
 50
180.1145914065301
 51
0.1145914059449637
  0
LINE
  5
15A
330
6F
100
AcDbEntity
  8
A-0
 62
     4
100
AcDbLine
 10
1852.520115630778
 20
1902.764478645312
 30
0.0
 11
1857.520115630778
 21
1902.764478645363
 31
0.0
  0
LINE
  5
15B
330
6F
100
AcDbEntity
  8
3-0
  6
Continuous
 62
     7
100
AcDbLine
 10
1563.675396983716
 20
2140.432443591456
 30
0.0
 11
1788.355808421249
 21
2140.432443591456
 31
0.0
  0
LINE
  5
15C
330
6F
100
AcDbEntity
  8
3-0
  6
Continuous
 62
     7
100
AcDbLine
 10
1788.355808421249
 20
2140.432443591456
 30
0.0
 11
1697.520115630776
 21
2297.76447864527
 31
0.0
  0
LINE
  5
15D
330
6F
100
AcDbEntity
  8
3-0
  6
Continuous
 62
     7
100
AcDbLine
 10
1697.520115630776
 20
2297.76447864527
 30
0.0
 11
1723.308086843221
 21
2277.964025689117
 31
0.0
  0
LINE
  5
15E
330
6F
100
AcDbEntity
  8
B-0
  6
CENTER
 62
     6
100
AcDbLine
 10
1617.520116
 20
2297.764479
 30
0.0
 11
1777.520115999999
 21
2297.764479
 31
0.0
  0
TEXT
  5
15F
330
6F
100
AcDbEntity
  8
D-0
 62
     5
100
AcDbText
 10
1587.474
 20
2151.754
 30
0.0
 40
25.92
  1
床板排水芯
100
AcDbText
  0
ARC
  5
160
330
6F
100
AcDbEntity
  8
3-0
  6
Continuous
 62
     7
100
AcDbCircle
 10
1580.020116
 20
2276.764479
 30
0.0
 40
12.0
100
AcDbArc
 50
180.0
 51
0.0
  0
LINE
  5
161
330
6F
100
AcDbEntity
  8
3-0
  6
Continuous
 62
     7
100
AcDbLine
 10
947.5201156307781
 20
2527.76447864527
 30
0.0
 11
1295.045628491616
 21
2527.76447864527
 31
0.0
  0
ARC
  5
162
330
6F
100
AcDbEntity
  8
3-0
  6
Continuous
 62
     7
100
AcDbCircle
 10
1295.045628
 20
2522.764479
 30
0.0
 40
5.0
100
AcDbArc
 50
322.20027756498
 51
89.99999999999799
  0
ARC
  5
163
330
6F
100
AcDbEntity
  8
3-0
  6
Continuous
 62
     7
100
AcDbCircle
 10
1417.520116
 20
2427.764479
 30
0.0
 40
150.0
100
AcDbArc
 50
142.2002775644029
 51
159.216440403929
  0
ARC
  5
164
330
6F
100
AcDbEntity
  8
3-0
  6
Continuous
 62
     7
100
AcDbCircle
 10
1272.606348
 20
2482.764479
 30
0.0
 40
5.0
100
AcDbArc
 50
270.00000000001
 51
339.2164404039391
  0
LINE
  5
165
330
6F
100
AcDbEntity
  8
3-0
  6
Continuous
 62
     7
100
AcDbLine
 10
1272.606348168882
 20
2477.76447864527
 30
0.0
 11
947.5201156307781
 21
2477.76447864527
 31
0.0
  0
ARC
  5
166
330
6F
100
AcDbEntity
  8
3-0
  6
Continuous
 62
     7
100
AcDbCircle
 10
947.5201160000001
 20
2482.764479
 30
0.0
 40
5.0
100
AcDbArc
 50
180.000000000294
 51
269.999999999999
  0
LINE
  5
167
330
6F
100
AcDbEntity
  8
3-0
  6
Continuous
 62
     7
100
AcDbLine
 10
942.520115630778
 20
2482.76447864527
 30
0.0
 11
942.520115630778
 21
2522.76447864527
 31
0.0
  0
ARC
  5
168
330
6F
100
AcDbEntity
  8
3-0
  6
Continuous
 62
     7
100
AcDbCircle
 10
947.5201160000001
 20
2522.764479
 30
0.0
 40
5.0
100
AcDbArc
 50
90.0
 51
179.9999999997081
  0
ARC
  5
169
330
6F
100
AcDbEntity
  8
3-0
  6
Continuous
 62
     7
100
AcDbCircle
 10
1262.520116
 20
2372.764479
 30
0.0
 40
5.0
100
AcDbArc
 50
0.0000000002980816
 51
90.00000000000502
  0
LINE
  5
16A
330
6F
100
AcDbEntity
  8
3-0
  6
Continuous
 62
     7
100
AcDbLine
 10
1267.520115630776
 20
2372.764478645271
 30
0.0
 11
1267.520115630776
 21
2332.76447864527
 31
0.0
  0
ARC
  5
16B
330
6F
100
AcDbEntity
  8
3-0
  6
Continuous
 62
     7
100
AcDbCircle
 10
1262.520116
 20
2332.764479
 30
0.0
 40
5.0
100
AcDbArc
 50
270.0
 51
359.9999999997079
  0
LINE
  5
16C
330
6F
100
AcDbEntity
  8
3-0
  6
Continuous
 62
     7
100
AcDbLine
 10
1262.520115630776
 20
2327.76447864527
 30
0.0
 11
947.520115630777
 21
2327.76447864527
 31
0.0
  0
ARC
  5
16D
330
6F
100
AcDbEntity
  8
3-0
  6
Continuous
 62
     7
100
AcDbCircle
 10
947.5201160000001
 20
2332.764479
 30
0.0
 40
5.0
100
AcDbArc
 50
180.000000000295
 51
269.9999999999981
  0
LINE
  5
16E
330
6F
100
AcDbEntity
  8
3-0
  6
Continuous
 62
     7
100
AcDbLine
 10
942.5201156307769
 20
2332.76447864527
 30
0.0
 11
942.5201156307739
 21
2372.764478645271
 31
0.0
  0
ARC
  5
16F
330
6F
100
AcDbEntity
  8
3-0
  6
Continuous
 62
     7
100
AcDbCircle
 10
947.5201160000001
 20
2372.764479
 30
0.0
 40
5.0
100
AcDbArc
 50
89.99999999998896
 51
179.999999999698
  0
LINE
  5
170
330
6F
100
AcDbEntity
  8
3-0
  6
Continuous
 62
     7
100
AcDbLine
 10
947.5201156307749
 20
2377.76447864527
 30
0.0
 11
1262.520115630776
 21
2377.76447864527
 31
0.0
  0
ARC
  5
171
330
6F
100
AcDbEntity
  8
3-0
  6
Continuous
 62
     7
100
AcDbCircle
 10
1262.520116
 20
2447.764479
 30
0.0
 40
5.0
100
AcDbArc
 50
0.0000000002920064
 51
90.0
  0
LINE
  5
172
330
6F
100
AcDbEntity
  8
3-0
  6
Continuous
 62
     7
100
AcDbLine
 10
1267.520115630776
 20
2447.76447864527
 30
0.0
 11
1267.520115630776
 21
2407.76447864527
 31
0.0
  0
ARC
  5
173
330
6F
100
AcDbEntity
  8
3-0
  6
Continuous
 62
     7
100
AcDbCircle
 10
1262.520116
 20
2407.764479
 30
0.0
 40
5.0
100
AcDbArc
 50
270.0
 51
359.9999999997079
  0
LINE
  5
174
330
6F
100
AcDbEntity
  8
3-0
  6
Continuous
 62
     7
100
AcDbLine
 10
1262.520115630776
 20
2402.76447864527
 30
0.0
 11
947.520115630777
 21
2402.76447864527
 31
0.0
  0
ARC
  5
175
330
6F
100
AcDbEntity
  8
3-0
  6
Continuous
 62
     7
100
AcDbCircle
 10
947.5201160000001
 20
2407.764479
 30
0.0
 40
5.0
100
AcDbArc
 50
180.000000000295
 51
269.9999999999981
  0
LINE
  5
176
330
6F
100
AcDbEntity
  8
3-0
  6
Continuous
 62
     7
100
AcDbLine
 10
942.5201156307769
 20
2407.76447864527
 30
0.0
 11
942.5201156307739
 21
2447.76447864527
 31
0.0
  0
ARC
  5
177
330
6F
100
AcDbEntity
  8
3-0
  6
Continuous
 62
     7
100
AcDbCircle
 10
947.5201160000001
 20
2447.764479
 30
0.0
 40
5.0
100
AcDbArc
 50
89.99999999999401
 51
179.9999999997029
  0
LINE
  5
178
330
6F
100
AcDbEntity
  8
3-0
  6
Continuous
 62
     7
100
AcDbLine
 10
947.5201156307749
 20
2452.76447864527
 30
0.0
 11
1262.520115630776
 21
2452.76447864527
 31
0.0
  0
LINE
  5
179
330
6F
100
AcDbEntity
  8
3-0
  6
Continuous
 62
     7
100
AcDbLine
 10
847.5201160000001
 20
2602.764479
 30
0.0
 11
1897.520116
 21
2602.764479
 31
0.0
  0
LINE
  5
17A
330
6F
100
AcDbEntity
  8
3-0
  6
Continuous
 62
     7
100
AcDbLine
 10
847.5201160000001
 20
2577.764479
 30
0.0
 11
1897.520116
 21
2577.764479
 31
0.0
  0
ARC
  5
17B
330
6F
100
AcDbEntity
  8
3-0
  6
Continuous
 62
     7
100
AcDbCircle
 10
1580.020116
 20
2524.764479
 30
0.0
 40
30.0
100
AcDbArc
 50
320.805
 51
219.195
  0
LINE
  5
17C
330
6F
100
AcDbEntity
  8
B-0
  6
CENTER
 62
     6
100
AcDbLine
 10
1645.892054
 20
2524.764479
 30
0.0
 11
1507.567781
 21
2524.764479
 31
0.0
  0
ARC
  5
17D
330
6F
100
AcDbEntity
  8
3-0
  6
Continuous
 62
     7
100
AcDbCircle
 10
1580.020116
 20
2411.09617
 30
0.0
 40
12.0
100
AcDbArc
 50
180.0
 51
0.0
  0
ARC
  5
17E
330
6F
100
AcDbEntity
  8
3-0
  6
Continuous
 62
     7
100
AcDbCircle
 10
1642.020116
 20
2474.20758
 30
0.0
 40
50.0
100
AcDbArc
 50
140.805
 51
180.0
  0
ARC
  5
17F
330
6F
100
AcDbEntity
  8
3-0
  6
Continuous
 62
     7
100
AcDbCircle
 10
1518.020116
 20
2474.20758
 30
0.0
 40
50.0
100
AcDbArc
 50
0.0
 51
39.195
  0
LINE
  5
180
330
6F
100
AcDbEntity
  8
3-0
  6
DASHED2
 62
     7
100
AcDbLine
 10
1677.020116
 20
1058.510889
 30
0.0
 11
1677.020116
 21
594.510889
 31
0.0
  0
LINE
  5
181
330
6F
100
AcDbEntity
  8
3-0
  6
DASHED2
 62
     7
100
AcDbLine
 10
1707.020116
 20
1058.510889
 30
0.0
 11
1707.020116
 21
594.510889
 31
0.0
  0
LINE
  5
182
330
6F
100
AcDbEntity
  8
3-0
  6
Continuous
 62
     7
100
AcDbLine
 10
1895.020116
 20
1369.510889
 30
0.0
 11
1895.020116
 21
594.510889
 31
0.0
  0
LINE
  5
183
330
6F
100
AcDbEntity
  8
B-0
  6
CENTER
 62
     6
100
AcDbLine
 10
1580.020116
 20
1586.548277
 30
0.0
 11
1580.020116
 21
993.089976
 31
0.0
  0
LINE
  5
184
330
6F
100
AcDbEntity
  8
3-0
  6
DASHED2
 62
     7
100
AcDbLine
 10
1880.020116
 20
699.510889
 30
0.0
 11
865.520116
 21
699.510889
 31
0.0
  0
LINE
  5
185
330
6F
100
AcDbEntity
  8
3-0
  6
Continuous
 62
     7
100
AcDbLine
 10
1895.020116
 20
684.510889
 30
0.0
 11
850.0201159999999
 21
684.510889
 31
0.0
  0
LINE
  5
186
330
6F
100
AcDbEntity
  8
3-0
  6
DASHED2
 62
     7
100
AcDbLine
 10
1242.770116
 20
699.510889
 30
0.0
 11
1242.770116
 21
821.3427499999999
 31
0.0
  0
LINE
  5
187
330
6F
100
AcDbEntity
  8
3-0
  6
DASHED2
 62
     7
100
AcDbLine
 10
1260.270116
 20
699.510889
 30
0.0
 11
1260.270116
 21
821.3427499999999
 31
0.0
  0
LINE
  5
188
330
6F
100
AcDbEntity
  8
3-0
  6
DASHED2
 62
     7
100
AcDbLine
 10
1880.020116
 20
699.510889
 30
0.0
 11
1880.020116
 21
821.3427499999999
 31
0.0
  0
LINE
  5
189
330
6F
100
AcDbEntity
  8
3-0
  6
Continuous
 62
     7
100
AcDbLine
 10
1897.520116
 20
1369.510889
 30
0.0
 11
1897.520116
 21
1484.510889
 31
0.0
  0
LINE
  5
18A
330
6F
100
AcDbEntity
  8
3-0
  6
DASHED2
 62
     7
100
AcDbLine
 10
1607.520115630776
 20
1488.642513361969
 30
0.0
 11
1607.520115630776
 21
1494.906323361969
 31
0.0
  0
LINE
  5
18B
330
6F
100
AcDbEntity
  8
3-0
  6
DASHED2
 62
     7
100
AcDbLine
 10
1552.520115630776
 20
1497.017487361969
 30
0.0
 11
1552.520115630776
 21
1488.642513361969
 31
0.0
  0
LINE
  5
18C
330
6F
100
AcDbEntity
  8
3-0
  6
DASHED2
 62
     7
100
AcDbLine
 10
1607.520115630776
 20
1459.909299361969
 30
0.0
 11
1823.672640630776
 21
1568.157040361969
 31
0.0
  0
LINE
  5
18D
330
6F
100
AcDbEntity
  8
3-0
  6
DASHED2
 62
     7
100
AcDbLine
 10
1607.520115630776
 20
1448.725409361969
 30
0.0
 11
1819.578911630776
 21
1554.923038361969
 31
0.0
  0
LINE
  5
18E
330
6F
100
AcDbEntity
  8
3-0
  6
DASHED2
 62
     7
100
AcDbLine
 10
1607.520115630776
 20
1484.510889361969
 30
0.0
 11
1607.520115630776
 21
1394.510889361969
 31
0.0
  0
LINE
  5
18F
330
6F
100
AcDbEntity
  8
3-0
  6
DASHED2
 62
     7
100
AcDbLine
 10
1552.520115630776
 20
1464.510889361969
 30
0.0
 11
1607.520115630776
 21
1464.510889361969
 31
0.0
  0
LINE
  5
190
330
6F
100
AcDbEntity
  8
3-0
  6
DASHED2
 62
     7
100
AcDbLine
 10
1552.520115630776
 20
1484.510889361969
 30
0.0
 11
1607.520115630776
 21
1484.510889361969
 31
0.0
  0
LINE
  5
191
330
6F
100
AcDbEntity
  8
3-0
  6
DASHED2
 62
     7
100
AcDbLine
 10
1552.520115630776
 20
1484.510889361969
 30
0.0
 11
1552.520115630776
 21
1394.510889361969
 31
0.0
  0
LINE
  5
192
330
6F
100
AcDbEntity
  8
3-0
  6
DASHED2
 62
     7
100
AcDbLine
 10
1552.520115630776
 20
1488.642513361969
 30
0.0
 11
1607.520115630776
 21
1488.642513361969
 31
0.0
  0
LINE
  5
193
330
6F
100
AcDbEntity
  8
3-0
  6
DASHED2
 62
     7
100
AcDbLine
 10
1552.520115630776
 20
1394.510889361969
 30
0.0
 11
1607.520115630776
 21
1394.510889361969
 31
0.0
  0
ARC
  5
194
330
6F
100
AcDbEntity
  8
3-0
  6
DASHED2
 62
     7
100
AcDbCircle
 10
1666.572664630776
 20
1407.904669361969
 30
0.0
 40
115.364508
100
AcDbArc
 50
80.09600000000004
 51
114.174
  0
LINE
  5
195
330
6F
100
AcDbEntity
  8
3-0
  6
DASHED2
 62
     7
100
AcDbLine
 10
1630.092207630776
 20
1529.764889361969
 30
0.0
 11
1698.980960630776
 21
1529.764889361969
 31
0.0
  0
LINE
  5
196
330
6F
100
AcDbEntity
  8
3-0
  6
DASHED2
 62
     7
100
AcDbLine
 10
1692.906778630776
 20
1520.432144361969
 30
0.0
 11
1686.414557630776
 21
1521.550034361969
 31
0.0
  0
ARC
  5
197
330
6F
100
AcDbEntity
  8
3-0
  6
DASHED2
 62
     7
100
AcDbCircle
 10
1694.603697630776
 20
1530.287115361969
 30
0.0
 40
10.0
100
AcDbArc
 50
260.23
 51
310.455
  0
ARC
  5
198
330
6F
100
AcDbEntity
  8
3-0
  6
DASHED2
 62
     7
100
AcDbCircle
 10
1698.980960630776
 20
1527.764889361969
 30
0.0
 40
2.0
100
AcDbArc
 50
70.295
 51
90.0
  0
LINE
  5
199
330
6F
100
AcDbEntity
  8
3-0
  6
DASHED2
 62
     7
100
AcDbLine
 10
1703.172487630776
 20
1528.388096361969
 30
0.0
 11
1699.655314630776
 21
1529.647771361969
 31
0.0
  0
LINE
  5
19A
330
6F
100
AcDbEntity
  8
3-0
  6
DASHED2
 62
     7
100
AcDbLine
 10
1703.795827630776
 20
1524.983375361969
 30
0.0
 11
1701.092165630776
 21
1522.677924361969
 31
0.0
  0
ARC
  5
19B
330
6F
100
AcDbEntity
  8
3-0
  6
DASHED2
 62
     7
100
AcDbCircle
 10
1702.498133630776
 20
1526.505214361969
 30
0.0
 40
2.0
100
AcDbArc
 50
310.455
 51
70.295
  0
LINE
  5
19C
330
6F
100
AcDbEntity
  8
3-0
  6
DASHED2
 62
     7
100
AcDbLine
 10
1847.107825630776
 20
1551.510889361969
 30
0.0
 11
1832.932405630776
 21
1551.510889361969
 31
0.0
  0
LINE
  5
19D
330
6F
100
AcDbEntity
  8
3-0
  6
DASHED2
 62
     7
100
AcDbLine
 10
1832.932405630776
 20
1556.510889361969
 30
0.0
 11
1832.932405630776
 21
1551.510889361969
 31
0.0
  0
LINE
  5
19E
330
6F
100
AcDbEntity
  8
3-0
  6
DASHED2
 62
     7
100
AcDbLine
 10
1847.107825630776
 20
1556.510889361969
 30
0.0
 11
1847.107825630776
 21
1551.510889361969
 31
0.0
  0
LINE
  5
19F
330
6F
100
AcDbEntity
  8
3-0
  6
DASHED2
 62
     7
100
AcDbLine
 10
1850.252325630776
 20
1564.744891361969
 30
0.0
 11
1850.252325630776
 21
1556.510889361969
 31
0.0
  0
ARC
  5
1A0
330
6F
100
AcDbEntity
  8
3-0
  6
DASHED2
 62
     7
100
AcDbCircle
 10
1845.252325630776
 20
1564.744891361969
 30
0.0
 40
5.0
100
AcDbArc
 50
0.0
 51
90.0
  0
LINE
  5
1A1
330
6F
100
AcDbEntity
  8
3-0
  6
DASHED2
 62
     7
100
AcDbLine
 10
1850.252325630776
 20
1556.510889361969
 30
0.0
 11
1826.295626630776
 21
1556.510889361969
 31
0.0
  0
ARC
  5
1A2
330
6F
100
AcDbEntity
  8
3-0
  6
DASHED2
 62
     7
100
AcDbCircle
 10
1826.295626630776
 20
1541.510889361969
 30
0.0
 40
15.0
100
AcDbArc
 50
90.0
 51
116.6009999999999
  0
LINE
  5
1A3
330
6F
100
AcDbEntity
  8
3-0
  6
DASHED2
 62
     7
100
AcDbLine
 10
1845.252325630776
 20
1569.744891361969
 30
0.0
 11
1830.389355630776
 21
1569.744891361969
 31
0.0
  0
ARC
  5
1A4
330
6F
100
AcDbEntity
  8
3-0
  6
DASHED2
 62
     7
100
AcDbCircle
 10
1830.389355630776
 20
1554.744891361969
 30
0.0
 40
15.0
100
AcDbArc
 50
90.0
 51
116.6009999999999
  0
ARC
  5
1A5
330
6F
100
AcDbEntity
  8
3-0
  6
DASHED2
 62
     7
100
AcDbCircle
 10
1631.647653630776
 20
1411.916605361969
 30
0.0
 40
117.858548
100
AcDbArc
 50
90.75599999999999
 51
131.058
  0
ARC
  5
1A6
330
6F
100
AcDbEntity
  8
3-0
  6
DASHED2
 62
     7
100
AcDbCircle
 10
1557.520115630776
 20
1497.017487361969
 30
0.0
 40
5.0
100
AcDbArc
 50
131.058
 51
180.0
  0
ARC
  5
1A7
330
6F
100
AcDbEntity
  8
3-0
  6
DASHED2
 62
     7
100
AcDbCircle
 10
1634.768420630776
 20
1490.214846361969
 30
0.0
 40
27.649233
100
AcDbArc
 50
123.943
 51
170.231
  0
LINE
  5
1A8
330
6F
100
AcDbEntity
  8
3-0
  6
Continuous
 62
     7
100
AcDbLine
 10
1897.520116
 20
1369.510889
 30
0.0
 11
847.5201160000001
 21
1369.510889
 31
0.0
  0
LINE
  5
1A9
330
6F
100
AcDbEntity
  8
3-0
  6
Continuous
 62
     7
100
AcDbLine
 10
1897.520116
 20
1394.510889
 30
0.0
 11
847.5201160000001
 21
1394.510889
 31
0.0
  0
LINE
  5
1AA
330
6F
100
AcDbEntity
  8
3-0
  6
DASHED2
 62
     7
100
AcDbLine
 10
872.5201156307749
 20
1394.510889361969
 30
0.0
 11
872.5201156307749
 21
1389.51088936197
 31
0.0
  0
LINE
  5
1AB
330
6F
100
AcDbEntity
  8
3-0
  6
DASHED2
 62
     7
100
AcDbLine
 10
872.5201156307749
 20
1389.51088936197
 30
0.0
 11
1307.520115630778
 21
1389.51088936197
 31
0.0
  0
ARC
  5
1AC
330
6F
100
AcDbEntity
  8
3-0
  6
DASHED2
 62
     7
100
AcDbCircle
 10
1307.520116
 20
1384.510889
 30
0.0
 40
5.0
100
AcDbArc
 50
0.0000000002870504
 51
89.99999999999495
  0
LINE
  5
1AD
330
6F
100
AcDbEntity
  8
3-0
  6
DASHED2
 62
     7
100
AcDbLine
 10
1312.520115630778
 20
1384.510889361969
 30
0.0
 11
1312.520115630778
 21
1266.51088936197
 31
0.0
  0
ARC
  5
1AE
330
6F
100
AcDbEntity
  8
3-0
  6
DASHED2
 62
     7
100
AcDbCircle
 10
1332.520116
 20
1266.510889
 30
0.0
 40
20.0
100
AcDbArc
 50
180.000000000292
 51
270.0
  0
LINE
  5
1AF
330
6F
100
AcDbEntity
  8
3-0
  6
DASHED2
 62
     7
100
AcDbLine
 10
1332.520115630778
 20
1246.51088936197
 30
0.0
 11
1827.520115630776
 21
1246.51088936197
 31
0.0
  0
ARC
  5
1B0
330
6F
100
AcDbEntity
  8
3-0
  6
DASHED2
 62
     7
100
AcDbCircle
 10
1827.520116
 20
1266.510889
 30
0.0
 40
20.0
100
AcDbArc
 50
270.0
 51
359.999999999711
  0
LINE
  5
1B1
330
6F
100
AcDbEntity
  8
3-0
  6
DASHED2
 62
     7
100
AcDbLine
 10
1847.520115630776
 20
1266.510889361971
 30
0.0
 11
1847.520115630769
 21
1384.510889361969
 31
0.0
  0
ARC
  5
1B2
330
6F
100
AcDbEntity
  8
3-0
  6
DASHED2
 62
     7
100
AcDbCircle
 10
1852.520116
 20
1384.510889
 30
0.0
 40
5.0
100
AcDbArc
 50
90.00000000000399
 51
179.999999999714
  0
LINE
  5
1B3
330
6F
100
AcDbEntity
  8
3-0
  6
DASHED2
 62
     7
100
AcDbLine
 10
1852.520115630769
 20
1389.51088936197
 30
0.0
 11
1872.520115630779
 21
1389.51088936197
 31
0.0
  0
LINE
  5
1B4
330
6F
100
AcDbEntity
  8
3-0
  6
DASHED2
 62
     7
100
AcDbLine
 10
1872.520115630779
 20
1389.51088936197
 30
0.0
 11
1872.520115630779
 21
1394.510889361969
 31
0.0
  0
LINE
  5
1B5
330
6F
100
AcDbEntity
  8
B-0
  6
CENTER
 62
     6
100
AcDbLine
 10
1680.020116
 20
1124.422808
 30
0.0
 11
1680.020116
 21
995.4589089999998
 31
0.0
  0
CIRCLE
  5
1B6
330
6F
100
AcDbEntity
  8
3-0
  6
Continuous
 62
     7
100
AcDbCircle
 10
1680.020116
 20
994.510889
 30
0.0
 40
20.0
  0
LINE
  5
1B7
330
6F
100
AcDbEntity
  8
3-0
  6
Continuous
 62
     7
100
AcDbLine
 10
1701.233319
 20
973.297686
 30
0.0
 11
1658.806912
 21
1015.724093
 31
0.0
  0
LINE
  5
1B8
330
6F
100
AcDbEntity
  8
3-0
  6
Continuous
 62
     7
100
AcDbLine
 10
1658.806912
 20
973.297686
 30
0.0
 11
1701.233319
 21
1015.724093
 31
0.0
  0
LINE
  5
1B9
330
6F
100
AcDbEntity
  8
B-0
  6
CENTER
 62
     6
100
AcDbLine
 10
1480.020116
 20
1124.422808
 30
0.0
 11
1480.020116
 21
995.4589089999998
 31
0.0
  0
LINE
  5
1BA
330
6F
100
AcDbEntity
  8
B-0
  6
CENTER
 62
     6
100
AcDbLine
 10
1480.020116
 20
994.510889
 30
0.0
 11
1378.721228
 21
994.510889
 31
0.0
  0
CIRCLE
  5
1BB
330
6F
100
AcDbEntity
  8
3-0
  6
Continuous
 62
     7
100
AcDbCircle
 10
1480.020116
 20
994.510889
 30
0.0
 40
20.0
  0
LINE
  5
1BC
330
6F
100
AcDbEntity
  8
3-0
  6
Continuous
 62
     7
100
AcDbLine
 10
1458.806912
 20
973.297686
 30
0.0
 11
1465.87798
 21
980.368754
 31
0.0
  0
LINE
  5
1BD
330
6F
100
AcDbEntity
  8
3-0
  6
Continuous
 62
     7
100
AcDbLine
 10
1458.806912
 20
1015.724093
 30
0.0
 11
1465.87798
 21
1008.653025
 31
0.0
  0
LINE
  5
1BE
330
6F
100
AcDbEntity
  8
3-0
  6
Continuous
 62
     7
100
AcDbLine
 10
1897.520116
 20
1484.510889
 30
0.0
 11
847.5201160000001
 21
1484.510889
 31
0.0
  0
LINE
  5
1BF
330
6F
100
AcDbEntity
  8
3-0
  6
Continuous
 62
     7
100
AcDbLine
 10
847.5201160000001
 20
1484.510889
 30
0.0
 11
847.5201160000001
 21
1369.510889
 31
0.0
  0
LINE
  5
1C0
330
6F
100
AcDbEntity
  8
3-0
  6
Continuous
 62
     7
100
AcDbLine
 10
1709.740325
 20
1621.464275
 30
0.0
 11
1351.886201
 21
1621.464275
 31
0.0
  0
TEXT
  5
1C1
330
6F
100
AcDbEntity
  8
D-0
 62
     5
100
AcDbText
 10
1352.442
 20
1632.786
 30
0.0
 40
25.92
  1
背面桟木位置(配管注意）
100
AcDbText
  0
LINE
  5
1C2
330
6F
100
AcDbEntity
  8
B-0
  6
CENTER
 62
     6
100
AcDbLine
 10
1232.520116
 20
1625.317386
 30
0.0
 11
1232.520116
 21
1441.797664
 31
0.0
  0
LINE
  5
1C3
330
6F
100
AcDbEntity
  8
3-0
  6
Continuous
 62
     7
100
AcDbLine
 10
1351.886201
 20
1621.464275
 30
0.0
 11
1232.520116
 21
1484.510889
 31
0.0
  0
LINE
  5
1C4
330
6F
100
AcDbEntity
  8
3-0
  6
DASHED2
 62
     7
100
AcDbLine
 10
1250.020116
 20
1508.25102
 30
0.0
 11
1250.020116
 21
1585.633935
 31
0.0
  0
LINE
  5
1C5
330
6F
100
AcDbEntity
  8
3-0
  6
DASHED2
 62
     7
100
AcDbLine
 10
1215.020116
 20
1508.25102
 30
0.0
 11
1215.020116
 21
1585.633935
 31
0.0
  0
LINE
  5
1C6
330
6F
100
AcDbEntity
  8
3-0
  6
Continuous
 62
     7
100
AcDbLine
 10
1232.520116
 20
1484.510889
 30
0.0
 11
1242.886317
 21
1515.326782
 31
0.0
  0
LINE
  5
1C7
330
6F
100
AcDbEntity
  8
3-0
  6
DASHED2
 62
     7
100
AcDbLine
 10
1250.020116
 20
1585.633935
 30
0.0
 11
1215.020116
 21
1585.633935
 31
0.0
  0
LINE
  5
1C8
330
6F
100
AcDbEntity
  8
3-0
  6
DASHED2
 62
     7
100
AcDbLine
 10
1628.593772331002
 20
1152.510889765829
 30
0.0
 11
1628.593772331002
 21
1099.410889765829
 31
0.0
  0
ARC
  5
1C9
330
6F
100
AcDbEntity
  8
3-0
  6
DASHED2
 62
     7
100
AcDbCircle
 10
1638.593772
 20
1099.41089
 30
0.0
 40
10.0
100
AcDbArc
 50
180.000000000292
 51
270.0
  0
LINE
  5
1CA
330
6F
100
AcDbEntity
  8
3-0
  6
DASHED2
 62
     7
100
AcDbLine
 10
1638.593772331002
 20
1089.410889765829
 30
0.0
 11
1745.446458930548
 21
1089.410889765829
 31
0.0
  0
ARC
  5
1CB
330
6F
100
AcDbEntity
  8
3-0
  6
DASHED2
 62
     7
100
AcDbCircle
 10
1745.446459
 20
1099.41089
 30
0.0
 40
10.0
100
AcDbArc
 50
269.999999999995
 51
359.999999999702
  0
LINE
  5
1CC
330
6F
100
AcDbEntity
  8
3-0
  6
DASHED2
 62
     7
100
AcDbLine
 10
1755.44645893055
 20
1099.410889765829
 30
0.0
 11
1755.44645893055
 21
1152.510889765829
 31
0.0
  0
LINE
  5
1CD
330
6F
100
AcDbEntity
  8
3-0
  6
DASHED2
 62
     7
100
AcDbLine
 10
1722.020115630774
 20
1089.410889765829
 30
0.0
 11
1722.020115630776
 21
1058.510889361969
 31
0.0
  0
LINE
  5
1CE
330
6F
100
AcDbEntity
  8
3-0
  6
DASHED2
 62
     7
100
AcDbLine
 10
1722.020115630776
 20
1058.510889361969
 30
0.0
 11
1662.020115630774
 21
1058.510889361969
 31
0.0
  0
LINE
  5
1CF
330
6F
100
AcDbEntity
  8
3-0
  6
DASHED2
 62
     7
100
AcDbLine
 10
1662.020115630774
 20
1058.510889361969
 30
0.0
 11
1662.020115630774
 21
1089.410889765829
 31
0.0
  0
LINE
  5
1D0
330
6F
100
AcDbEntity
  8
3-0
  6
DASHED2
 62
     7
100
AcDbLine
 10
1614.020116
 20
1224.309365
 30
0.0
 11
1623.108914
 21
1219.309365
 31
0.0
  0
LINE
  5
1D1
330
6F
100
AcDbEntity
  8
3-0
  6
DASHED2
 62
     7
100
AcDbLine
 10
1770.020116
 20
1224.309365
 30
0.0
 11
1760.931317
 21
1219.309365
 31
0.0
  0
LINE
  5
1D2
330
6F
100
AcDbEntity
  8
3-0
  6
DASHED2
 62
     7
100
AcDbLine
 10
1623.108914
 20
1219.309365
 30
0.0
 11
1760.931317
 21
1219.309365
 31
0.0
  0
LINE
  5
1D3
330
6F
100
AcDbEntity
  8
3-0
  6
DASHED2
 62
     7
100
AcDbLine
 10
1623.108914487544
 20
1152.510889765829
 30
0.0
 11
1760.931316774006
 21
1152.510889765829
 31
0.0
  0
LINE
  5
1D4
330
6F
100
AcDbEntity
  8
3-0
  6
DASHED2
 62
     7
100
AcDbLine
 10
1760.931317
 20
1219.309365
 30
0.0
 11
1760.931317
 21
1154.725656
 31
0.0
  0
LINE
  5
1D5
330
6F
100
AcDbEntity
  8
3-0
  6
DASHED2
 62
     7
100
AcDbLine
 10
1623.108914
 20
1219.309365
 30
0.0
 11
1623.108914
 21
1154.725656
 31
0.0
  0
LINE
  5
1D6
330
6F
100
AcDbEntity
  8
3-0
  6
DASHED2
 62
     7
100
AcDbLine
 10
1614.020116
 20
1224.309365
 30
0.0
 11
1770.020116
 21
1224.309365
 31
0.0
  0
LINE
  5
1D7
330
6F
100
AcDbEntity
  8
3-0
  6
DASHED2
 62
     7
100
AcDbLine
 10
1602.020116
 20
1241.510889
 30
0.0
 11
1782.020116
 21
1241.510889
 31
0.0
  0
LINE
  5
1D8
330
6F
100
AcDbEntity
  8
3-0
  6
DASHED2
 62
     7
100
AcDbLine
 10
1779.772459
 20
1241.510889
 30
0.0
 11
1779.772459
 21
1227.510889
 31
0.0
  0
LINE
  5
1D9
330
6F
100
AcDbEntity
  8
3-0
  6
DASHED2
 62
     7
100
AcDbLine
 10
1779.772459
 20
1227.510889
 30
0.0
 11
1770.020116
 21
1227.510889
 31
0.0
  0
LINE
  5
1DA
330
6F
100
AcDbEntity
  8
3-0
  6
DASHED2
 62
     7
100
AcDbLine
 10
1770.020116
 20
1241.510889
 30
0.0
 11
1770.020116
 21
1224.309365
 31
0.0
  0
LINE
  5
1DB
330
6F
100
AcDbEntity
  8
3-0
  6
DASHED2
 62
     7
100
AcDbLine
 10
1782.020116
 20
1246.510889
 30
0.0
 11
1782.020116
 21
1241.510889
 31
0.0
  0
LINE
  5
1DC
330
6F
100
AcDbEntity
  8
3-0
  6
DASHED2
 62
     7
100
AcDbLine
 10
1604.267772
 20
1241.510889
 30
0.0
 11
1604.267772
 21
1227.510889
 31
0.0
  0
LINE
  5
1DD
330
6F
100
AcDbEntity
  8
3-0
  6
DASHED2
 62
     7
100
AcDbLine
 10
1604.267772
 20
1227.510889
 30
0.0
 11
1614.020116
 21
1227.510889
 31
0.0
  0
LINE
  5
1DE
330
6F
100
AcDbEntity
  8
3-0
  6
DASHED2
 62
     7
100
AcDbLine
 10
1614.020116
 20
1241.510889
 30
0.0
 11
1614.020116
 21
1224.309365
 31
0.0
  0
LINE
  5
1DF
330
6F
100
AcDbEntity
  8
3-0
  6
DASHED2
 62
     7
100
AcDbLine
 10
1602.020116
 20
1246.510889
 30
0.0
 11
1602.020116
 21
1241.510889
 31
0.0
  0
LINE
  5
1E0
330
6F
100
AcDbEntity
  8
3-0
  6
Continuous
 62
     7
100
AcDbLine
 10
1895.020116
 20
594.510889
 30
0.0
 11
850.0201159999999
 21
594.510889
 31
0.0
  0
LINE
  5
1E1
330
6F
100
AcDbEntity
  8
3-0
  6
Continuous
 62
     7
100
AcDbLine
 10
850.0201159999999
 20
1369.510889
 30
0.0
 11
850.0201159999999
 21
594.510889
 31
0.0
  0
LINE
  5
1E2
330
6F
100
AcDbEntity
  8
A-0
  6
Continuous
 62
     4
100
AcDbLine
 10
847.520115372672
 20
1504.510889
 30
0.0
 11
847.520115372672
 21
1634.510889
 31
0.0
  0
LINE
  5
1E3
330
6F
100
AcDbEntity
  8
A-0
  6
Continuous
 62
     4
100
AcDbLine
 10
1232.520115372672
 20
1645.317386
 30
0.0
 11
1232.520115372672
 21
1634.510889
 31
0.0
  0
TEXT
  5
1E4
330
6F
100
AcDbEntity
  8
A-0
 62
     4
100
AcDbText
 10
1009.243
 20
1635.131
 30
0.0
 40
36.288
  1
385
100
AcDbText
  0
LINE
  5
1E5
330
6F
100
AcDbEntity
  8
A-0
  6
Continuous
 62
     4
100
AcDbLine
 10
1232.520115630778
 20
1634.510889361979
 30
0.0
 11
847.5201156307781
 21
1634.510889361979
 31
0.0
  0
CIRCLE
  5
1E6
330
6F
100
AcDbEntity
  8
A-0
  6
Continuous
 62
     4
100
AcDbCircle
 10
1232.520115630778
 20
1634.510889361979
 30
0.0
 40
0.25
  0
CIRCLE
  5
1E7
330
6F
100
AcDbEntity
  8
A-0
  6
Continuous
 62
     4
100
AcDbCircle
 10
1232.520115630778
 20
1634.510889361979
 30
0.0
 40
0.1875
  0
CIRCLE
  5
1E8
330
6F
100
AcDbEntity
  8
A-0
  6
Continuous
 62
     4
100
AcDbCircle
 10
1232.520115630778
 20
1634.510889361979
 30
0.0
 40
0.125
  0
CIRCLE
  5
1E9
330
6F
100
AcDbEntity
  8
A-0
  6
Continuous
 62
     4
100
AcDbCircle
 10
1232.520115630778
 20
1634.510889361979
 30
0.0
 40
0.0625
  0
CIRCLE
  5
1EA
330
6F
100
AcDbEntity
  8
A-0
  6
Continuous
 62
     4
100
AcDbCircle
 10
847.5201156307781
 20
1634.510889361979
 30
0.0
 40
0.25
  0
CIRCLE
  5
1EB
330
6F
100
AcDbEntity
  8
A-0
  6
Continuous
 62
     4
100
AcDbCircle
 10
847.5201156307781
 20
1634.510889361979
 30
0.0
 40
0.1875
  0
CIRCLE
  5
1EC
330
6F
100
AcDbEntity
  8
A-0
  6
Continuous
 62
     4
100
AcDbCircle
 10
847.5201156307781
 20
1634.510889361979
 30
0.0
 40
0.125
  0
CIRCLE
  5
1ED
330
6F
100
AcDbEntity
  8
A-0
  6
Continuous
 62
     4
100
AcDbCircle
 10
847.5201156307781
 20
1634.510889361979
 30
0.0
 40
0.0625
  0
LINE
  5
1EE
330
6F
100
AcDbEntity
  8
A-0
  6
Continuous
 62
     4
100
AcDbLine
 10
847.520115372672
 20
1504.510889
 30
0.0
 11
847.520115372672
 21
1734.510889
 31
0.0
  0
LINE
  5
1EF
330
6F
100
AcDbEntity
  8
A-0
  6
Continuous
 62
     4
100
AcDbLine
 10
1897.520115372672
 20
1504.510889
 30
0.0
 11
1897.520115372672
 21
1734.510889
 31
0.0
  0
TEXT
  5
1F0
330
6F
100
AcDbEntity
  8
A-0
 62
     4
100
AcDbText
 10
1330.543
 20
1735.131
 30
0.0
 40
36.288
  1
1050
100
AcDbText
  0
LINE
  5
1F1
330
6F
100
AcDbEntity
  8
A-0
  6
Continuous
 62
     4
100
AcDbLine
 10
1897.520115630776
 20
1734.510889361979
 30
0.0
 11
847.5201156307781
 21
1734.510889361979
 31
0.0
  0
CIRCLE
  5
1F2
330
6F
100
AcDbEntity
  8
A-0
  6
Continuous
 62
     4
100
AcDbCircle
 10
1897.520115630776
 20
1734.510889361979
 30
0.0
 40
0.25
  0
CIRCLE
  5
1F3
330
6F
100
AcDbEntity
  8
A-0
  6
Continuous
 62
     4
100
AcDbCircle
 10
1897.520115630776
 20
1734.510889361979
 30
0.0
 40
0.1875
  0
CIRCLE
  5
1F4
330
6F
100
AcDbEntity
  8
A-0
  6
Continuous
 62
     4
100
AcDbCircle
 10
1897.520115630776
 20
1734.510889361979
 30
0.0
 40
0.125
  0
CIRCLE
  5
1F5
330
6F
100
AcDbEntity
  8
A-0
  6
Continuous
 62
     4
100
AcDbCircle
 10
1897.520115630776
 20
1734.510889361979
 30
0.0
 40
0.0625
  0
CIRCLE
  5
1F6
330
6F
100
AcDbEntity
  8
A-0
  6
Continuous
 62
     4
100
AcDbCircle
 10
847.5201156307781
 20
1734.510889361979
 30
0.0
 40
0.25
  0
CIRCLE
  5
1F7
330
6F
100
AcDbEntity
  8
A-0
  6
Continuous
 62
     4
100
AcDbCircle
 10
847.5201156307781
 20
1734.510889361979
 30
0.0
 40
0.1875
  0
CIRCLE
  5
1F8
330
6F
100
AcDbEntity
  8
A-0
  6
Continuous
 62
     4
100
AcDbCircle
 10
847.5201156307781
 20
1734.510889361979
 30
0.0
 40
0.125
  0
CIRCLE
  5
1F9
330
6F
100
AcDbEntity
  8
A-0
  6
Continuous
 62
     4
100
AcDbCircle
 10
847.5201156307781
 20
1734.510889361979
 30
0.0
 40
0.0625
  0
LINE
  5
1FA
330
6F
100
AcDbEntity
  8
A-0
  6
Continuous
 62
     4
100
AcDbLine
 10
1915.020115372672
 20
594.510889
 30
0.0
 11
2045.020115372672
 21
594.510889
 31
0.0
  0
LINE
  5
1FB
330
6F
100
AcDbEntity
  8
A-0
  6
Continuous
 62
     4
100
AcDbLine
 10
1915.020115372672
 20
684.510889
 30
0.0
 11
2045.020115372672
 21
684.510889
 31
0.0
  0
TEXT
  5
1FC
330
6F
100
AcDbEntity
  8
A-0
 62
     4
100
AcDbText
 10
2044.4
 20
617.1109999999999
 30
0.0
 40
36.288
  1
90
 50
90.0
100
AcDbText
  0
LINE
  5
1FD
330
6F
100
AcDbEntity
  8
A-0
  6
Continuous
 62
     4
100
AcDbLine
 10
2045.020115630776
 20
684.5108893619689
 30
0.0
 11
2045.020115630776
 21
594.510889361967
 31
0.0
  0
CIRCLE
  5
1FE
330
6F
100
AcDbEntity
  8
A-0
  6
Continuous
 62
     4
100
AcDbCircle
 10
2045.020115630776
 20
684.5108893619689
 30
0.0
 40
0.25
  0
CIRCLE
  5
1FF
330
6F
100
AcDbEntity
  8
A-0
  6
Continuous
 62
     4
100
AcDbCircle
 10
2045.020115630776
 20
684.5108893619689
 30
0.0
 40
0.1875
  0
CIRCLE
  5
200
330
6F
100
AcDbEntity
  8
A-0
  6
Continuous
 62
     4
100
AcDbCircle
 10
2045.020115630776
 20
684.5108893619689
 30
0.0
 40
0.125
  0
CIRCLE
  5
201
330
6F
100
AcDbEntity
  8
A-0
  6
Continuous
 62
     4
100
AcDbCircle
 10
2045.020115630776
 20
684.5108893619689
 30
0.0
 40
0.0625
  0
CIRCLE
  5
202
330
6F
100
AcDbEntity
  8
A-0
  6
Continuous
 62
     4
100
AcDbCircle
 10
2045.020115630776
 20
594.510889361967
 30
0.0
 40
0.25
  0
CIRCLE
  5
203
330
6F
100
AcDbEntity
  8
A-0
  6
Continuous
 62
     4
100
AcDbCircle
 10
2045.020115630776
 20
594.510889361967
 30
0.0
 40
0.1875
  0
CIRCLE
  5
204
330
6F
100
AcDbEntity
  8
A-0
  6
Continuous
 62
     4
100
AcDbCircle
 10
2045.020115630776
 20
594.510889361967
 30
0.0
 40
0.125
  0
CIRCLE
  5
205
330
6F
100
AcDbEntity
  8
A-0
  6
Continuous
 62
     4
100
AcDbCircle
 10
2045.020115630776
 20
594.510889361967
 30
0.0
 40
0.0625
  0
LINE
  5
206
330
6F
100
AcDbEntity
  8
A-0
  6
Continuous
 62
     4
100
AcDbLine
 10
1915.020115372672
 20
684.510889
 30
0.0
 11
2045.020115372672
 21
684.510889
 31
0.0
  0
LINE
  5
207
330
6F
100
AcDbEntity
  8
A-0
  6
Continuous
 62
     4
100
AcDbLine
 10
1911.520115372672
 20
1359.510889
 30
0.0
 11
2045.020115372672
 21
1359.510889
 31
0.0
  0
TEXT
  5
208
330
6F
100
AcDbEntity
  8
A-0
 62
     4
100
AcDbText
 10
2044.4
 20
988.4110000000001
 30
0.0
 40
36.288
  1
675
 50
90.0
100
AcDbText
  0
LINE
  5
209
330
6F
100
AcDbEntity
  8
A-0
  6
Continuous
 62
     4
100
AcDbLine
 10
2045.020115630776
 20
1359.51088936197
 30
0.0
 11
2045.020115630776
 21
684.5108893619689
 31
0.0
  0
CIRCLE
  5
20A
330
6F
100
AcDbEntity
  8
A-0
  6
Continuous
 62
     4
100
AcDbCircle
 10
2045.020115630776
 20
1359.51088936197
 30
0.0
 40
0.25
  0
CIRCLE
  5
20B
330
6F
100
AcDbEntity
  8
A-0
  6
Continuous
 62
     4
100
AcDbCircle
 10
2045.020115630776
 20
1359.51088936197
 30
0.0
 40
0.1875
  0
CIRCLE
  5
20C
330
6F
100
AcDbEntity
  8
A-0
  6
Continuous
 62
     4
100
AcDbCircle
 10
2045.020115630776
 20
1359.51088936197
 30
0.0
 40
0.125
  0
CIRCLE
  5
20D
330
6F
100
AcDbEntity
  8
A-0
  6
Continuous
 62
     4
100
AcDbCircle
 10
2045.020115630776
 20
1359.51088936197
 30
0.0
 40
0.0625
  0
CIRCLE
  5
20E
330
6F
100
AcDbEntity
  8
A-0
  6
Continuous
 62
     4
100
AcDbCircle
 10
2045.020115630776
 20
684.5108893619689
 30
0.0
 40
0.25
  0
CIRCLE
  5
20F
330
6F
100
AcDbEntity
  8
A-0
  6
Continuous
 62
     4
100
AcDbCircle
 10
2045.020115630776
 20
684.5108893619689
 30
0.0
 40
0.1875
  0
CIRCLE
  5
210
330
6F
100
AcDbEntity
  8
A-0
  6
Continuous
 62
     4
100
AcDbCircle
 10
2045.020115630776
 20
684.5108893619689
 30
0.0
 40
0.125
  0
CIRCLE
  5
211
330
6F
100
AcDbEntity
  8
A-0
  6
Continuous
 62
     4
100
AcDbCircle
 10
2045.020115630776
 20
684.5108893619689
 30
0.0
 40
0.0625
  0
LINE
  5
212
330
6F
100
AcDbEntity
  8
A-0
  6
Continuous
 62
     4
100
AcDbLine
 10
1911.520115372672
 20
1359.510889
 30
0.0
 11
2045.020115372672
 21
1359.510889
 31
0.0
  0
LINE
  5
213
330
6F
100
AcDbEntity
  8
A-0
  6
Continuous
 62
     4
100
AcDbLine
 10
1917.520115372672
 20
1369.510889
 30
0.0
 11
2045.020115372672
 21
1369.510889
 31
0.0
  0
LINE
  5
214
330
6F
100
AcDbEntity
  8
A-0
  6
Continuous
 62
     4
100
AcDbLine
 10
2045.020115372672
 20
1349.510889
 30
0.0
 11
2045.020115372672
 21
1339.510889
 31
0.0
  0
LINE
  5
215
330
6F
100
AcDbEntity
  8
A-0
  6
Continuous
 62
     4
100
AcDbLine
 10
2045.020115372672
 20
1379.510889
 30
0.0
 11
2045.020115372672
 21
1389.510889
 31
0.0
  0
LINE
  5
216
330
6F
100
AcDbEntity
  8
A-0
  6
Continuous
 62
     4
100
AcDbLine
 10
2045.020115372672
 20
1364.510889
 30
0.0
 11
2017.368567372672
 21
1351.277517
 31
0.0
  0
LINE
  5
217
330
6F
100
AcDbEntity
  8
A-0
  6
Continuous
 62
     4
100
AcDbLine
 10
2017.368567372672
 20
1351.277517
 30
0.0
 11
2017.368567372672
 21
1292.013557
 31
0.0
  0
TEXT
  5
218
330
6F
100
AcDbEntity
  8
A-0
 62
     4
100
AcDbText
 10
2016.749
 20
1299.246
 30
0.0
 40
36.288
  1
10
 50
90.0
100
AcDbText
  0
LINE
  5
219
330
6F
100
AcDbEntity
  8
A-0
  6
Continuous
 62
     4
100
AcDbLine
 10
2045.020115372672
 20
1359.510889
 30
0.0
 11
2045.020115372672
 21
1369.510889
 31
0.0
  0
LINE
  5
21A
330
6F
100
AcDbEntity
  8
A-0
  6
Continuous
 62
     4
100
AcDbLine
 10
2045.020115372672
 20
1359.510889
 30
0.0
 11
2045.020115372672
 21
1369.510889
 31
0.0
  0
CIRCLE
  5
21B
330
6F
100
AcDbEntity
  8
A-0
  6
Continuous
 62
     4
100
AcDbCircle
 10
2045.020115630776
 20
1359.51088936197
 30
0.0
 40
0.25
  0
CIRCLE
  5
21C
330
6F
100
AcDbEntity
  8
A-0
  6
Continuous
 62
     4
100
AcDbCircle
 10
2045.020115630776
 20
1359.51088936197
 30
0.0
 40
0.1875
  0
CIRCLE
  5
21D
330
6F
100
AcDbEntity
  8
A-0
  6
Continuous
 62
     4
100
AcDbCircle
 10
2045.020115630776
 20
1359.51088936197
 30
0.0
 40
0.125
  0
CIRCLE
  5
21E
330
6F
100
AcDbEntity
  8
A-0
  6
Continuous
 62
     4
100
AcDbCircle
 10
2045.020115630776
 20
1359.51088936197
 30
0.0
 40
0.0625
  0
ARC
  5
21F
330
6F
100
AcDbEntity
  8
A-0
 62
     4
100
AcDbCircle
 10
2045.015115630776
 20
1359.51088936197
 30
0.0
 40
2.5
100
AcDbArc
 50
90.11459140653
 51
270.114591405945
  0
LINE
  5
220
330
6F
100
AcDbEntity
  8
A-0
 62
     4
100
AcDbLine
 10
2045.020115630801
 20
1354.51088936197
 30
0.0
 11
2045.020115630827
 21
1349.51088936197
 31
0.0
  0
CIRCLE
  5
221
330
6F
100
AcDbEntity
  8
A-0
  6
Continuous
 62
     4
100
AcDbCircle
 10
2045.020115630776
 20
1369.51088936197
 30
0.0
 40
0.25
  0
CIRCLE
  5
222
330
6F
100
AcDbEntity
  8
A-0
  6
Continuous
 62
     4
100
AcDbCircle
 10
2045.020115630776
 20
1369.51088936197
 30
0.0
 40
0.1875
  0
CIRCLE
  5
223
330
6F
100
AcDbEntity
  8
A-0
  6
Continuous
 62
     4
100
AcDbCircle
 10
2045.020115630776
 20
1369.51088936197
 30
0.0
 40
0.125
  0
CIRCLE
  5
224
330
6F
100
AcDbEntity
  8
A-0
  6
Continuous
 62
     4
100
AcDbCircle
 10
2045.020115630776
 20
1369.51088936197
 30
0.0
 40
0.0625
  0
ARC
  5
225
330
6F
100
AcDbEntity
  8
A-0
 62
     4
100
AcDbCircle
 10
2045.025115630776
 20
1369.51088936197
 30
0.0
 40
2.5
100
AcDbArc
 50
270.1145914065301
 51
90.11459140594496
  0
LINE
  5
226
330
6F
100
AcDbEntity
  8
A-0
 62
     4
100
AcDbLine
 10
2045.020115630699
 20
1374.51088936197
 30
0.0
 11
2045.020115630623
 21
1379.51088936197
 31
0.0
  0
LINE
  5
227
330
6F
100
AcDbEntity
  8
A-0
  6
Continuous
 62
     4
100
AcDbLine
 10
1917.520115372672
 20
1369.510889
 30
0.0
 11
2045.020115372672
 21
1369.510889
 31
0.0
  0
LINE
  5
228
330
6F
100
AcDbEntity
  8
A-0
  6
Continuous
 62
     4
100
AcDbLine
 10
1917.520115372672
 20
1394.510889
 30
0.0
 11
2045.020115372672
 21
1394.510889
 31
0.0
  0
LINE
  5
229
330
6F
100
AcDbEntity
  8
A-0
  6
Continuous
 62
     4
100
AcDbLine
 10
2045.020115372672
 20
1359.510889
 30
0.0
 11
2045.020115372672
 21
1349.510889
 31
0.0
  0
LINE
  5
22A
330
6F
100
AcDbEntity
  8
A-0
  6
Continuous
 62
     4
100
AcDbLine
 10
2045.020115372672
 20
1404.510889
 30
0.0
 11
2045.020115372672
 21
1414.510889
 31
0.0
  0
LINE
  5
22B
330
6F
100
AcDbEntity
  8
A-0
  6
Continuous
 62
     4
100
AcDbLine
 10
2045.020115372672
 20
1382.010889
 30
0.0
 11
2110.919523372671
 21
1370.849125
 31
0.0
  0
LINE
  5
22C
330
6F
100
AcDbEntity
  8
A-0
  6
Continuous
 62
     4
100
AcDbLine
 10
2110.919523372671
 20
1370.849125
 30
0.0
 11
2110.919523372671
 21
1310.163845
 31
0.0
  0
TEXT
  5
22D
330
6F
100
AcDbEntity
  8
A-0
 62
     4
100
AcDbText
 10
2110.3
 20
1318.106
 30
0.0
 40
36.288
  1
25
 50
90.0
100
AcDbText
  0
LINE
  5
22E
330
6F
100
AcDbEntity
  8
A-0
  6
Continuous
 62
     4
100
AcDbLine
 10
2045.020115372672
 20
1369.510889
 30
0.0
 11
2045.020115372672
 21
1394.510889
 31
0.0
  0
LINE
  5
22F
330
6F
100
AcDbEntity
  8
A-0
  6
Continuous
 62
     4
100
AcDbLine
 10
2045.020115372672
 20
1369.510889
 30
0.0
 11
2045.020115372672
 21
1394.510889
 31
0.0
  0
CIRCLE
  5
230
330
6F
100
AcDbEntity
  8
A-0
  6
Continuous
 62
     4
100
AcDbCircle
 10
2045.020115630776
 20
1369.51088936197
 30
0.0
 40
0.25
  0
CIRCLE
  5
231
330
6F
100
AcDbEntity
  8
A-0
  6
Continuous
 62
     4
100
AcDbCircle
 10
2045.020115630776
 20
1369.51088936197
 30
0.0
 40
0.1875
  0
CIRCLE
  5
232
330
6F
100
AcDbEntity
  8
A-0
  6
Continuous
 62
     4
100
AcDbCircle
 10
2045.020115630776
 20
1369.51088936197
 30
0.0
 40
0.125
  0
CIRCLE
  5
233
330
6F
100
AcDbEntity
  8
A-0
  6
Continuous
 62
     4
100
AcDbCircle
 10
2045.020115630776
 20
1369.51088936197
 30
0.0
 40
0.0625
  0
ARC
  5
234
330
6F
100
AcDbEntity
  8
A-0
 62
     4
100
AcDbCircle
 10
2045.015115630776
 20
1369.51088936197
 30
0.0
 40
2.5
100
AcDbArc
 50
90.11459140653
 51
270.114591405945
  0
LINE
  5
235
330
6F
100
AcDbEntity
  8
A-0
 62
     4
100
AcDbLine
 10
2045.020115630801
 20
1364.51088936197
 30
0.0
 11
2045.020115630827
 21
1359.51088936197
 31
0.0
  0
CIRCLE
  5
236
330
6F
100
AcDbEntity
  8
A-0
  6
Continuous
 62
     4
100
AcDbCircle
 10
2045.020115630776
 20
1394.510889361969
 30
0.0
 40
0.25
  0
CIRCLE
  5
237
330
6F
100
AcDbEntity
  8
A-0
  6
Continuous
 62
     4
100
AcDbCircle
 10
2045.020115630776
 20
1394.510889361969
 30
0.0
 40
0.1875
  0
CIRCLE
  5
238
330
6F
100
AcDbEntity
  8
A-0
  6
Continuous
 62
     4
100
AcDbCircle
 10
2045.020115630776
 20
1394.510889361969
 30
0.0
 40
0.125
  0
CIRCLE
  5
239
330
6F
100
AcDbEntity
  8
A-0
  6
Continuous
 62
     4
100
AcDbCircle
 10
2045.020115630776
 20
1394.510889361969
 30
0.0
 40
0.0625
  0
ARC
  5
23A
330
6F
100
AcDbEntity
  8
A-0
 62
     4
100
AcDbCircle
 10
2045.025115630776
 20
1394.510889361969
 30
0.0
 40
2.5
100
AcDbArc
 50
270.1145914065301
 51
90.11459140594496
  0
LINE
  5
23B
330
6F
100
AcDbEntity
  8
A-0
 62
     4
100
AcDbLine
 10
2045.020115630699
 20
1399.510889361969
 30
0.0
 11
2045.020115630623
 21
1404.510889361969
 31
0.0
  0
LINE
  5
23C
330
6F
100
AcDbEntity
  8
A-0
  6
Continuous
 62
     4
100
AcDbLine
 10
1897.520115372672
 20
1349.510889
 30
0.0
 11
1897.520115372672
 21
1233.184898
 31
0.0
  0
LINE
  5
23D
330
6F
100
AcDbEntity
  8
A-0
  6
Continuous
 62
     4
100
AcDbLine
 10
1895.020115372672
 20
1349.510889
 30
0.0
 11
1895.020115372672
 21
1233.184898
 31
0.0
  0
LINE
  5
23E
330
6F
100
AcDbEntity
  8
A-0
  6
Continuous
 62
     4
100
AcDbLine
 10
1907.520115372672
 20
1233.184898
 30
0.0
 11
1917.520115372672
 21
1233.184898
 31
0.0
  0
LINE
  5
23F
330
6F
100
AcDbEntity
  8
A-0
  6
Continuous
 62
     4
100
AcDbLine
 10
1885.020115372672
 20
1233.184898
 30
0.0
 11
1875.020115372672
 21
1233.184898
 31
0.0
  0
LINE
  5
240
330
6F
100
AcDbEntity
  8
A-0
  6
Continuous
 62
     4
100
AcDbLine
 10
1896.270115372672
 20
1233.184898
 30
0.0
 11
1919.601790372672
 21
1174.453373
 31
0.0
  0
LINE
  5
241
330
6F
100
AcDbEntity
  8
A-0
  6
Continuous
 62
     4
100
AcDbLine
 10
1919.601790372672
 20
1174.453373
 30
0.0
 11
2003.028186372672
 21
1174.453373
 31
0.0
  0
TEXT
  5
242
330
6F
100
AcDbEntity
  8
A-0
 62
     4
100
AcDbText
 10
1930.537
 20
1175.073
 30
0.0
 40
36.288
  1
2.5
100
AcDbText
  0
LINE
  5
243
330
6F
100
AcDbEntity
  8
A-0
  6
Continuous
 62
     4
100
AcDbLine
 10
1897.520115372672
 20
1233.184898
 30
0.0
 11
1895.020115372672
 21
1233.184898
 31
0.0
  0
LINE
  5
244
330
6F
100
AcDbEntity
  8
A-0
  6
Continuous
 62
     4
100
AcDbLine
 10
1897.520115372672
 20
1233.184898
 30
0.0
 11
1895.020115372672
 21
1233.184898
 31
0.0
  0
CIRCLE
  5
245
330
6F
100
AcDbEntity
  8
A-0
  6
Continuous
 62
     4
100
AcDbCircle
 10
1897.520115630776
 20
1233.184897849634
 30
0.0
 40
0.25
  0
CIRCLE
  5
246
330
6F
100
AcDbEntity
  8
A-0
  6
Continuous
 62
     4
100
AcDbCircle
 10
1897.520115630776
 20
1233.184897849634
 30
0.0
 40
0.1875
  0
CIRCLE
  5
247
330
6F
100
AcDbEntity
  8
A-0
  6
Continuous
 62
     4
100
AcDbCircle
 10
1897.520115630776
 20
1233.184897849634
 30
0.0
 40
0.125
  0
CIRCLE
  5
248
330
6F
100
AcDbEntity
  8
A-0
  6
Continuous
 62
     4
100
AcDbCircle
 10
1897.520115630776
 20
1233.184897849634
 30
0.0
 40
0.0625
  0
ARC
  5
249
330
6F
100
AcDbEntity
  8
A-0
 62
     4
100
AcDbCircle
 10
1897.520115630776
 20
1233.179897849634
 30
0.0
 40
2.5
100
AcDbArc
 50
180.1145914065301
 51
0.1145914059449637
  0
LINE
  5
24A
330
6F
100
AcDbEntity
  8
A-0
 62
     4
100
AcDbLine
 10
1902.520115630776
 20
1233.184897849685
 30
0.0
 11
1907.520115630776
 21
1233.184897849736
 31
0.0
  0
CIRCLE
  5
24B
330
6F
100
AcDbEntity
  8
A-0
  6
Continuous
 62
     4
100
AcDbCircle
 10
1895.020115630776
 20
1233.184897849634
 30
0.0
 40
0.25
  0
CIRCLE
  5
24C
330
6F
100
AcDbEntity
  8
A-0
  6
Continuous
 62
     4
100
AcDbCircle
 10
1895.020115630776
 20
1233.184897849634
 30
0.0
 40
0.1875
  0
CIRCLE
  5
24D
330
6F
100
AcDbEntity
  8
A-0
  6
Continuous
 62
     4
100
AcDbCircle
 10
1895.020115630776
 20
1233.184897849634
 30
0.0
 40
0.125
  0
CIRCLE
  5
24E
330
6F
100
AcDbEntity
  8
A-0
  6
Continuous
 62
     4
100
AcDbCircle
 10
1895.020115630776
 20
1233.184897849634
 30
0.0
 40
0.0625
  0
ARC
  5
24F
330
6F
100
AcDbEntity
  8
A-0
 62
     4
100
AcDbCircle
 10
1895.020115630776
 20
1233.189897849634
 30
0.0
 40
2.5
100
AcDbArc
 50
0.1145914065300158
 51
180.114591405945
  0
LINE
  5
250
330
6F
100
AcDbEntity
  8
A-0
 62
     4
100
AcDbLine
 10
1890.020115630776
 20
1233.184897849634
 30
0.0
 11
1885.020115630776
 21
1233.184897849634
 31
0.0
  0
LINE
  5
251
330
6F
100
AcDbEntity
  8
A-0
  6
Continuous
 62
     4
100
AcDbLine
 10
1915.020115372672
 20
594.510889
 30
0.0
 11
2145.020115372672
 21
594.510889
 31
0.0
  0
LINE
  5
252
330
6F
100
AcDbEntity
  8
A-0
  6
Continuous
 62
     4
100
AcDbLine
 10
1917.520115372672
 20
1394.510889
 30
0.0
 11
2145.020115372672
 21
1394.510889
 31
0.0
  0
TEXT
  5
253
330
6F
100
AcDbEntity
  8
A-0
 62
     4
100
AcDbText
 10
2144.4
 20
960.9110000000001
 30
0.0
 40
36.288
  1
800
 50
90.0
100
AcDbText
  0
LINE
  5
254
330
6F
100
AcDbEntity
  8
A-0
  6
Continuous
 62
     4
100
AcDbLine
 10
2145.020115630776
 20
1394.510889361969
 30
0.0
 11
2145.020115630776
 21
594.510889361967
 31
0.0
  0
CIRCLE
  5
255
330
6F
100
AcDbEntity
  8
A-0
  6
Continuous
 62
     4
100
AcDbCircle
 10
2145.020115630776
 20
1394.510889361969
 30
0.0
 40
0.25
  0
CIRCLE
  5
256
330
6F
100
AcDbEntity
  8
A-0
  6
Continuous
 62
     4
100
AcDbCircle
 10
2145.020115630776
 20
1394.510889361969
 30
0.0
 40
0.1875
  0
CIRCLE
  5
257
330
6F
100
AcDbEntity
  8
A-0
  6
Continuous
 62
     4
100
AcDbCircle
 10
2145.020115630776
 20
1394.510889361969
 30
0.0
 40
0.125
  0
CIRCLE
  5
258
330
6F
100
AcDbEntity
  8
A-0
  6
Continuous
 62
     4
100
AcDbCircle
 10
2145.020115630776
 20
1394.510889361969
 30
0.0
 40
0.0625
  0
CIRCLE
  5
259
330
6F
100
AcDbEntity
  8
A-0
  6
Continuous
 62
     4
100
AcDbCircle
 10
2145.020115630776
 20
594.510889361967
 30
0.0
 40
0.25
  0
CIRCLE
  5
25A
330
6F
100
AcDbEntity
  8
A-0
  6
Continuous
 62
     4
100
AcDbCircle
 10
2145.020115630776
 20
594.510889361967
 30
0.0
 40
0.1875
  0
CIRCLE
  5
25B
330
6F
100
AcDbEntity
  8
A-0
  6
Continuous
 62
     4
100
AcDbCircle
 10
2145.020115630776
 20
594.510889361967
 30
0.0
 40
0.125
  0
CIRCLE
  5
25C
330
6F
100
AcDbEntity
  8
A-0
  6
Continuous
 62
     4
100
AcDbCircle
 10
2145.020115630776
 20
594.510889361967
 30
0.0
 40
0.0625
  0
LINE
  5
25D
330
6F
100
AcDbEntity
  8
A-0
  6
Continuous
 62
     4
100
AcDbLine
 10
1917.520115372672
 20
1394.510889
 30
0.0
 11
2145.020115372672
 21
1394.510889
 31
0.0
  0
LINE
  5
25E
330
6F
100
AcDbEntity
  8
A-0
  6
Continuous
 62
     4
100
AcDbLine
 10
1917.520115372672
 20
1484.510889
 30
0.0
 11
2145.020115372672
 21
1484.510889
 31
0.0
  0
TEXT
  5
25F
330
6F
100
AcDbEntity
  8
A-0
 62
     4
100
AcDbText
 10
2144.4
 20
1417.111
 30
0.0
 40
36.288
  1
90
 50
90.0
100
AcDbText
  0
LINE
  5
260
330
6F
100
AcDbEntity
  8
A-0
  6
Continuous
 62
     4
100
AcDbLine
 10
2145.020115630776
 20
1484.51088936197
 30
0.0
 11
2145.020115630776
 21
1394.510889361969
 31
0.0
  0
CIRCLE
  5
261
330
6F
100
AcDbEntity
  8
A-0
  6
Continuous
 62
     4
100
AcDbCircle
 10
2145.020115630776
 20
1484.51088936197
 30
0.0
 40
0.25
  0
CIRCLE
  5
262
330
6F
100
AcDbEntity
  8
A-0
  6
Continuous
 62
     4
100
AcDbCircle
 10
2145.020115630776
 20
1484.51088936197
 30
0.0
 40
0.1875
  0
CIRCLE
  5
263
330
6F
100
AcDbEntity
  8
A-0
  6
Continuous
 62
     4
100
AcDbCircle
 10
2145.020115630776
 20
1484.51088936197
 30
0.0
 40
0.125
  0
CIRCLE
  5
264
330
6F
100
AcDbEntity
  8
A-0
  6
Continuous
 62
     4
100
AcDbCircle
 10
2145.020115630776
 20
1484.51088936197
 30
0.0
 40
0.0625
  0
CIRCLE
  5
265
330
6F
100
AcDbEntity
  8
A-0
  6
Continuous
 62
     4
100
AcDbCircle
 10
2145.020115630776
 20
1394.510889361969
 30
0.0
 40
0.25
  0
CIRCLE
  5
266
330
6F
100
AcDbEntity
  8
A-0
  6
Continuous
 62
     4
100
AcDbCircle
 10
2145.020115630776
 20
1394.510889361969
 30
0.0
 40
0.1875
  0
CIRCLE
  5
267
330
6F
100
AcDbEntity
  8
A-0
  6
Continuous
 62
     4
100
AcDbCircle
 10
2145.020115630776
 20
1394.510889361969
 30
0.0
 40
0.125
  0
CIRCLE
  5
268
330
6F
100
AcDbEntity
  8
A-0
  6
Continuous
 62
     4
100
AcDbCircle
 10
2145.020115630776
 20
1394.510889361969
 30
0.0
 40
0.0625
  0
LINE
  5
269
330
6F
100
AcDbEntity
  8
A-0
  6
Continuous
 62
     4
100
AcDbLine
 10
1680.020115372672
 20
1079.940859
 30
0.0
 11
1680.020115372672
 21
1124.422808
 31
0.0
  0
LINE
  5
26A
330
6F
100
AcDbEntity
  8
A-0
  6
Continuous
 62
     4
100
AcDbLine
 10
1580.020115372672
 20
1144.422808
 30
0.0
 11
1580.020115372672
 21
1124.422808
 31
0.0
  0
TEXT
  5
26B
330
6F
100
AcDbEntity
  8
A-0
 62
     4
100
AcDbText
 10
1599.243
 20
1125.043
 30
0.0
 40
36.288
  1
100
100
AcDbText
  0
LINE
  5
26C
330
6F
100
AcDbEntity
  8
A-0
  6
Continuous
 62
     4
100
AcDbLine
 10
1580.020115630776
 20
1124.422808292588
 30
0.0
 11
1680.020115630776
 21
1124.422808292588
 31
0.0
  0
CIRCLE
  5
26D
330
6F
100
AcDbEntity
  8
A-0
  6
Continuous
 62
     4
100
AcDbCircle
 10
1580.020115630776
 20
1124.422808292588
 30
0.0
 40
0.25
  0
CIRCLE
  5
26E
330
6F
100
AcDbEntity
  8
A-0
  6
Continuous
 62
     4
100
AcDbCircle
 10
1580.020115630776
 20
1124.422808292588
 30
0.0
 40
0.1875
  0
CIRCLE
  5
26F
330
6F
100
AcDbEntity
  8
A-0
  6
Continuous
 62
     4
100
AcDbCircle
 10
1580.020115630776
 20
1124.422808292588
 30
0.0
 40
0.125
  0
CIRCLE
  5
270
330
6F
100
AcDbEntity
  8
A-0
  6
Continuous
 62
     4
100
AcDbCircle
 10
1580.020115630776
 20
1124.422808292588
 30
0.0
 40
0.0625
  0
CIRCLE
  5
271
330
6F
100
AcDbEntity
  8
A-0
  6
Continuous
 62
     4
100
AcDbCircle
 10
1680.020115630776
 20
1124.422808292588
 30
0.0
 40
0.25
  0
CIRCLE
  5
272
330
6F
100
AcDbEntity
  8
A-0
  6
Continuous
 62
     4
100
AcDbCircle
 10
1680.020115630776
 20
1124.422808292588
 30
0.0
 40
0.1875
  0
CIRCLE
  5
273
330
6F
100
AcDbEntity
  8
A-0
  6
Continuous
 62
     4
100
AcDbCircle
 10
1680.020115630776
 20
1124.422808292588
 30
0.0
 40
0.125
  0
CIRCLE
  5
274
330
6F
100
AcDbEntity
  8
A-0
  6
Continuous
 62
     4
100
AcDbCircle
 10
1680.020115630776
 20
1124.422808292588
 30
0.0
 40
0.0625
  0
LINE
  5
275
330
6F
100
AcDbEntity
  8
A-0
  6
Continuous
 62
     4
100
AcDbLine
 10
1580.020115372672
 20
1144.422808
 30
0.0
 11
1580.020115372672
 21
1124.422808
 31
0.0
  0
LINE
  5
276
330
6F
100
AcDbEntity
  8
A-0
  6
Continuous
 62
     4
100
AcDbLine
 10
1480.020115372672
 20
1078.510889
 30
0.0
 11
1480.020115372672
 21
1124.422808
 31
0.0
  0
TEXT
  5
277
330
6F
100
AcDbEntity
  8
A-0
 62
     4
100
AcDbText
 10
1499.243
 20
1125.043
 30
0.0
 40
36.288
  1
100
100
AcDbText
  0
LINE
  5
278
330
6F
100
AcDbEntity
  8
A-0
  6
Continuous
 62
     4
100
AcDbLine
 10
1480.020115630776
 20
1124.422808292588
 30
0.0
 11
1580.020115630776
 21
1124.422808292588
 31
0.0
  0
CIRCLE
  5
279
330
6F
100
AcDbEntity
  8
A-0
  6
Continuous
 62
     4
100
AcDbCircle
 10
1480.020115630776
 20
1124.422808292588
 30
0.0
 40
0.25
  0
CIRCLE
  5
27A
330
6F
100
AcDbEntity
  8
A-0
  6
Continuous
 62
     4
100
AcDbCircle
 10
1480.020115630776
 20
1124.422808292588
 30
0.0
 40
0.1875
  0
CIRCLE
  5
27B
330
6F
100
AcDbEntity
  8
A-0
  6
Continuous
 62
     4
100
AcDbCircle
 10
1480.020115630776
 20
1124.422808292588
 30
0.0
 40
0.125
  0
CIRCLE
  5
27C
330
6F
100
AcDbEntity
  8
A-0
  6
Continuous
 62
     4
100
AcDbCircle
 10
1480.020115630776
 20
1124.422808292588
 30
0.0
 40
0.0625
  0
CIRCLE
  5
27D
330
6F
100
AcDbEntity
  8
A-0
  6
Continuous
 62
     4
100
AcDbCircle
 10
1580.020115630776
 20
1124.422808292588
 30
0.0
 40
0.25
  0
CIRCLE
  5
27E
330
6F
100
AcDbEntity
  8
A-0
  6
Continuous
 62
     4
100
AcDbCircle
 10
1580.020115630776
 20
1124.422808292588
 30
0.0
 40
0.1875
  0
CIRCLE
  5
27F
330
6F
100
AcDbEntity
  8
A-0
  6
Continuous
 62
     4
100
AcDbCircle
 10
1580.020115630776
 20
1124.422808292588
 30
0.0
 40
0.125
  0
CIRCLE
  5
280
330
6F
100
AcDbEntity
  8
A-0
  6
Continuous
 62
     4
100
AcDbCircle
 10
1580.020115630776
 20
1124.422808292588
 30
0.0
 40
0.0625
  0
LINE
  5
281
330
6F
100
AcDbEntity
  8
A-0
  6
Continuous
 62
     4
100
AcDbLine
 10
1726.717508372673
 20
594.510889
 30
0.0
 11
1784.886179372672
 21
594.510889
 31
0.0
  0
LINE
  5
282
330
6F
100
AcDbEntity
  8
A-0
  6
Continuous
 62
     4
100
AcDbLine
 10
1738.035738372671
 20
1058.510889
 30
0.0
 11
1784.886179372672
 21
1058.510889
 31
0.0
  0
TEXT
  5
283
330
6F
100
AcDbEntity
  8
A-0
 62
     4
100
AcDbText
 10
1784.266
 20
792.911
 30
0.0
 40
36.288
  1
464
 50
90.0
100
AcDbText
  0
LINE
  5
284
330
6F
100
AcDbEntity
  8
A-0
  6
Continuous
 62
     4
100
AcDbLine
 10
1784.886179243757
 20
1058.510889361969
 30
0.0
 11
1784.886179243757
 21
594.5108893619679
 31
0.0
  0
CIRCLE
  5
285
330
6F
100
AcDbEntity
  8
A-0
  6
Continuous
 62
     4
100
AcDbCircle
 10
1784.886179243757
 20
1058.510889361969
 30
0.0
 40
0.25
  0
CIRCLE
  5
286
330
6F
100
AcDbEntity
  8
A-0
  6
Continuous
 62
     4
100
AcDbCircle
 10
1784.886179243757
 20
1058.510889361969
 30
0.0
 40
0.1875
  0
CIRCLE
  5
287
330
6F
100
AcDbEntity
  8
A-0
  6
Continuous
 62
     4
100
AcDbCircle
 10
1784.886179243757
 20
1058.510889361969
 30
0.0
 40
0.125
  0
CIRCLE
  5
288
330
6F
100
AcDbEntity
  8
A-0
  6
Continuous
 62
     4
100
AcDbCircle
 10
1784.886179243757
 20
1058.510889361969
 30
0.0
 40
0.0625
  0
CIRCLE
  5
289
330
6F
100
AcDbEntity
  8
A-0
  6
Continuous
 62
     4
100
AcDbCircle
 10
1784.886179243757
 20
594.5108893619679
 30
0.0
 40
0.25
  0
CIRCLE
  5
28A
330
6F
100
AcDbEntity
  8
A-0
  6
Continuous
 62
     4
100
AcDbCircle
 10
1784.886179243757
 20
594.5108893619679
 30
0.0
 40
0.1875
  0
CIRCLE
  5
28B
330
6F
100
AcDbEntity
  8
A-0
  6
Continuous
 62
     4
100
AcDbCircle
 10
1784.886179243757
 20
594.5108893619679
 30
0.0
 40
0.125
  0
CIRCLE
  5
28C
330
6F
100
AcDbEntity
  8
A-0
  6
Continuous
 62
     4
100
AcDbCircle
 10
1784.886179243757
 20
594.5108893619679
 30
0.0
 40
0.0625
  0
LINE
  5
28D
330
6F
100
AcDbEntity
  8
A-0
  6
Continuous
 62
     4
100
AcDbLine
 10
1392.520115372672
 20
594.510889
 30
0.0
 11
1378.721227372673
 21
594.510889
 31
0.0
  0
LINE
  5
28E
330
6F
100
AcDbEntity
  8
A-0
  6
Continuous
 62
     4
100
AcDbLine
 10
1385.788834372672
 20
994.510889
 30
0.0
 11
1378.721227372673
 21
994.510889
 31
0.0
  0
TEXT
  5
28F
330
6F
100
AcDbEntity
  8
A-0
 62
     4
100
AcDbText
 10
1375.17
 20
738.511
 30
0.0
 40
36.288
  1
(400)
 50
90.0
100
AcDbText
  0
LINE
  5
290
330
6F
100
AcDbEntity
  8
A-0
  6
Continuous
 62
     4
100
AcDbLine
 10
1378.721227645638
 20
994.5108893619659
 30
0.0
 11
1378.721227645638
 21
594.5108893619679
 31
0.0
  0
CIRCLE
  5
291
330
6F
100
AcDbEntity
  8
A-0
  6
Continuous
 62
     4
100
AcDbCircle
 10
1378.721227645638
 20
994.5108893619659
 30
0.0
 40
0.25
  0
CIRCLE
  5
292
330
6F
100
AcDbEntity
  8
A-0
  6
Continuous
 62
     4
100
AcDbCircle
 10
1378.721227645638
 20
994.5108893619659
 30
0.0
 40
0.1875
  0
CIRCLE
  5
293
330
6F
100
AcDbEntity
  8
A-0
  6
Continuous
 62
     4
100
AcDbCircle
 10
1378.721227645638
 20
994.5108893619659
 30
0.0
 40
0.125
  0
CIRCLE
  5
294
330
6F
100
AcDbEntity
  8
A-0
  6
Continuous
 62
     4
100
AcDbCircle
 10
1378.721227645638
 20
994.5108893619659
 30
0.0
 40
0.0625
  0
CIRCLE
  5
295
330
6F
100
AcDbEntity
  8
A-0
  6
Continuous
 62
     4
100
AcDbCircle
 10
1378.721227645638
 20
594.5108893619679
 30
0.0
 40
0.25
  0
CIRCLE
  5
296
330
6F
100
AcDbEntity
  8
A-0
  6
Continuous
 62
     4
100
AcDbCircle
 10
1378.721227645638
 20
594.5108893619679
 30
0.0
 40
0.1875
  0
CIRCLE
  5
297
330
6F
100
AcDbEntity
  8
A-0
  6
Continuous
 62
     4
100
AcDbCircle
 10
1378.721227645638
 20
594.5108893619679
 30
0.0
 40
0.125
  0
CIRCLE
  5
298
330
6F
100
AcDbEntity
  8
A-0
  6
Continuous
 62
     4
100
AcDbCircle
 10
1378.721227645638
 20
594.5108893619679
 30
0.0
 40
0.0625
  0
LINE
  5
299
330
6F
100
AcDbEntity
  8
A-0
  6
Continuous
 62
     4
100
AcDbLine
 10
1895.020115372672
 20
574.510889
 30
0.0
 11
1895.020115372672
 21
444.510889
 31
0.0
  0
LINE
  5
29A
330
6F
100
AcDbEntity
  8
A-0
  6
Continuous
 62
     4
100
AcDbLine
 10
1890.520115372672
 20
574.510889
 30
0.0
 11
1890.520115372672
 21
444.510889
 31
0.0
  0
TEXT
  5
29B
330
6F
100
AcDbEntity
  8
A-0
 62
     4
100
AcDbText
 10
1924.311
 20
377.631
 30
0.0
 40
36.288
  1
4.5
100
AcDbText
  0
LINE
  5
29C
330
6F
100
AcDbEntity
  8
A-0
  6
Continuous
 62
     4
100
AcDbLine
 10
1890.520115630776
 20
444.51088936197
 30
0.0
 11
1895.020115630774
 21
444.51088936197
 31
0.0
  0
CIRCLE
  5
29D
330
6F
100
AcDbEntity
  8
A-0
  6
Continuous
 62
     4
100
AcDbCircle
 10
1890.520115630776
 20
444.51088936197
 30
0.0
 40
0.25
  0
CIRCLE
  5
29E
330
6F
100
AcDbEntity
  8
A-0
  6
Continuous
 62
     4
100
AcDbCircle
 10
1890.520115630776
 20
444.51088936197
 30
0.0
 40
0.1875
  0
CIRCLE
  5
29F
330
6F
100
AcDbEntity
  8
A-0
  6
Continuous
 62
     4
100
AcDbCircle
 10
1890.520115630776
 20
444.51088936197
 30
0.0
 40
0.125
  0
CIRCLE
  5
2A0
330
6F
100
AcDbEntity
  8
A-0
  6
Continuous
 62
     4
100
AcDbCircle
 10
1890.520115630776
 20
444.51088936197
 30
0.0
 40
0.0625
  0
CIRCLE
  5
2A1
330
6F
100
AcDbEntity
  8
A-0
  6
Continuous
 62
     4
100
AcDbCircle
 10
1895.020115630774
 20
444.51088936197
 30
0.0
 40
0.25
  0
CIRCLE
  5
2A2
330
6F
100
AcDbEntity
  8
A-0
  6
Continuous
 62
     4
100
AcDbCircle
 10
1895.020115630774
 20
444.51088936197
 30
0.0
 40
0.1875
  0
CIRCLE
  5
2A3
330
6F
100
AcDbEntity
  8
A-0
  6
Continuous
 62
     4
100
AcDbCircle
 10
1895.020115630774
 20
444.51088936197
 30
0.0
 40
0.125
  0
CIRCLE
  5
2A4
330
6F
100
AcDbEntity
  8
A-0
  6
Continuous
 62
     4
100
AcDbCircle
 10
1895.020115630774
 20
444.51088936197
 30
0.0
 40
0.0625
  0
LINE
  5
2A5
330
6F
100
AcDbEntity
  8
A-0
  6
Continuous
 62
     4
100
AcDbLine
 10
1890.520115372672
 20
574.510889
 30
0.0
 11
1890.520115372672
 21
444.510889
 31
0.0
  0
LINE
  5
2A6
330
6F
100
AcDbEntity
  8
A-0
  6
Continuous
 62
     4
100
AcDbLine
 10
1572.520115372672
 20
574.510889
 30
0.0
 11
1572.520115372672
 21
444.510889
 31
0.0
  0
TEXT
  5
2A7
330
6F
100
AcDbEntity
  8
A-0
 62
     4
100
AcDbText
 10
1700.743
 20
445.1309999999999
 30
0.0
 40
36.288
  1
318
100
AcDbText
  0
LINE
  5
2A8
330
6F
100
AcDbEntity
  8
A-0
  6
Continuous
 62
     4
100
AcDbLine
 10
1572.520115630777
 20
444.51088936197
 30
0.0
 11
1890.520115630776
 21
444.51088936197
 31
0.0
  0
CIRCLE
  5
2A9
330
6F
100
AcDbEntity
  8
A-0
  6
Continuous
 62
     4
100
AcDbCircle
 10
1572.520115630777
 20
444.51088936197
 30
0.0
 40
0.25
  0
CIRCLE
  5
2AA
330
6F
100
AcDbEntity
  8
A-0
  6
Continuous
 62
     4
100
AcDbCircle
 10
1572.520115630777
 20
444.51088936197
 30
0.0
 40
0.1875
  0
CIRCLE
  5
2AB
330
6F
100
AcDbEntity
  8
A-0
  6
Continuous
 62
     4
100
AcDbCircle
 10
1572.520115630777
 20
444.51088936197
 30
0.0
 40
0.125
  0
CIRCLE
  5
2AC
330
6F
100
AcDbEntity
  8
A-0
  6
Continuous
 62
     4
100
AcDbCircle
 10
1572.520115630777
 20
444.51088936197
 30
0.0
 40
0.0625
  0
CIRCLE
  5
2AD
330
6F
100
AcDbEntity
  8
A-0
  6
Continuous
 62
     4
100
AcDbCircle
 10
1890.520115630776
 20
444.51088936197
 30
0.0
 40
0.25
  0
CIRCLE
  5
2AE
330
6F
100
AcDbEntity
  8
A-0
  6
Continuous
 62
     4
100
AcDbCircle
 10
1890.520115630776
 20
444.51088936197
 30
0.0
 40
0.1875
  0
CIRCLE
  5
2AF
330
6F
100
AcDbEntity
  8
A-0
  6
Continuous
 62
     4
100
AcDbCircle
 10
1890.520115630776
 20
444.51088936197
 30
0.0
 40
0.125
  0
CIRCLE
  5
2B0
330
6F
100
AcDbEntity
  8
A-0
  6
Continuous
 62
     4
100
AcDbCircle
 10
1890.520115630776
 20
444.51088936197
 30
0.0
 40
0.0625
  0
LINE
  5
2B1
330
6F
100
AcDbEntity
  8
A-0
  6
Continuous
 62
     4
100
AcDbLine
 10
1572.520115372672
 20
574.510889
 30
0.0
 11
1572.520115372672
 21
444.510889
 31
0.0
  0
LINE
  5
2B2
330
6F
100
AcDbEntity
  8
A-0
  6
Continuous
 62
     4
100
AcDbLine
 10
1571.520115372672
 20
574.510889
 30
0.0
 11
1571.520115372672
 21
444.510889
 31
0.0
  0
TEXT
  5
2B3
330
6F
100
AcDbEntity
  8
A-0
 62
     4
100
AcDbText
 10
1598.601
 20
377.631
 30
0.0
 40
36.288
  1
1
100
AcDbText
  0
LINE
  5
2B4
330
6F
100
AcDbEntity
  8
A-0
  6
Continuous
 62
     4
100
AcDbLine
 10
1571.520115630778
 20
444.51088936197
 30
0.0
 11
1572.520115630777
 21
444.51088936197
 31
0.0
  0
CIRCLE
  5
2B5
330
6F
100
AcDbEntity
  8
A-0
  6
Continuous
 62
     4
100
AcDbCircle
 10
1571.520115630778
 20
444.51088936197
 30
0.0
 40
0.25
  0
CIRCLE
  5
2B6
330
6F
100
AcDbEntity
  8
A-0
  6
Continuous
 62
     4
100
AcDbCircle
 10
1571.520115630778
 20
444.51088936197
 30
0.0
 40
0.1875
  0
CIRCLE
  5
2B7
330
6F
100
AcDbEntity
  8
A-0
  6
Continuous
 62
     4
100
AcDbCircle
 10
1571.520115630778
 20
444.51088936197
 30
0.0
 40
0.125
  0
CIRCLE
  5
2B8
330
6F
100
AcDbEntity
  8
A-0
  6
Continuous
 62
     4
100
AcDbCircle
 10
1571.520115630778
 20
444.51088936197
 30
0.0
 40
0.0625
  0
CIRCLE
  5
2B9
330
6F
100
AcDbEntity
  8
A-0
  6
Continuous
 62
     4
100
AcDbCircle
 10
1572.520115630777
 20
444.51088936197
 30
0.0
 40
0.25
  0
CIRCLE
  5
2BA
330
6F
100
AcDbEntity
  8
A-0
  6
Continuous
 62
     4
100
AcDbCircle
 10
1572.520115630777
 20
444.51088936197
 30
0.0
 40
0.1875
  0
CIRCLE
  5
2BB
330
6F
100
AcDbEntity
  8
A-0
  6
Continuous
 62
     4
100
AcDbCircle
 10
1572.520115630777
 20
444.51088936197
 30
0.0
 40
0.125
  0
CIRCLE
  5
2BC
330
6F
100
AcDbEntity
  8
A-0
  6
Continuous
 62
     4
100
AcDbCircle
 10
1572.520115630777
 20
444.51088936197
 30
0.0
 40
0.0625
  0
LINE
  5
2BD
330
6F
100
AcDbEntity
  8
A-0
  6
Continuous
 62
     4
100
AcDbLine
 10
1571.520115372672
 20
574.510889
 30
0.0
 11
1571.520115372672
 21
444.510889
 31
0.0
  0
LINE
  5
2BE
330
6F
100
AcDbEntity
  8
A-0
  6
Continuous
 62
     4
100
AcDbLine
 10
1253.520115372672
 20
664.510889
 30
0.0
 11
1253.520115372672
 21
444.510889
 31
0.0
  0
TEXT
  5
2BF
330
6F
100
AcDbEntity
  8
A-0
 62
     4
100
AcDbText
 10
1381.743
 20
445.1309999999999
 30
0.0
 40
36.288
  1
318
100
AcDbText
  0
LINE
  5
2C0
330
6F
100
AcDbEntity
  8
A-0
  6
Continuous
 62
     4
100
AcDbLine
 10
1253.520115630776
 20
444.51088936197
 30
0.0
 11
1571.520115630776
 21
444.51088936197
 31
0.0
  0
CIRCLE
  5
2C1
330
6F
100
AcDbEntity
  8
A-0
  6
Continuous
 62
     4
100
AcDbCircle
 10
1253.520115630776
 20
444.51088936197
 30
0.0
 40
0.25
  0
CIRCLE
  5
2C2
330
6F
100
AcDbEntity
  8
A-0
  6
Continuous
 62
     4
100
AcDbCircle
 10
1253.520115630776
 20
444.51088936197
 30
0.0
 40
0.1875
  0
CIRCLE
  5
2C3
330
6F
100
AcDbEntity
  8
A-0
  6
Continuous
 62
     4
100
AcDbCircle
 10
1253.520115630776
 20
444.51088936197
 30
0.0
 40
0.125
  0
CIRCLE
  5
2C4
330
6F
100
AcDbEntity
  8
A-0
  6
Continuous
 62
     4
100
AcDbCircle
 10
1253.520115630776
 20
444.51088936197
 30
0.0
 40
0.0625
  0
CIRCLE
  5
2C5
330
6F
100
AcDbEntity
  8
A-0
  6
Continuous
 62
     4
100
AcDbCircle
 10
1571.520115630776
 20
444.51088936197
 30
0.0
 40
0.25
  0
CIRCLE
  5
2C6
330
6F
100
AcDbEntity
  8
A-0
  6
Continuous
 62
     4
100
AcDbCircle
 10
1571.520115630776
 20
444.51088936197
 30
0.0
 40
0.1875
  0
CIRCLE
  5
2C7
330
6F
100
AcDbEntity
  8
A-0
  6
Continuous
 62
     4
100
AcDbCircle
 10
1571.520115630776
 20
444.51088936197
 30
0.0
 40
0.125
  0
CIRCLE
  5
2C8
330
6F
100
AcDbEntity
  8
A-0
  6
Continuous
 62
     4
100
AcDbCircle
 10
1571.520115630776
 20
444.51088936197
 30
0.0
 40
0.0625
  0
LINE
  5
2C9
330
6F
100
AcDbEntity
  8
A-0
  6
Continuous
 62
     4
100
AcDbLine
 10
1253.520115372672
 20
574.510889
 30
0.0
 11
1253.520115372672
 21
444.510889
 31
0.0
  0
LINE
  5
2CA
330
6F
100
AcDbEntity
  8
A-0
  6
Continuous
 62
     4
100
AcDbLine
 10
1248.520115372672
 20
574.510889
 30
0.0
 11
1248.520115372672
 21
444.510889
 31
0.0
  0
TEXT
  5
2CB
330
6F
100
AcDbEntity
  8
A-0
 62
     4
100
AcDbText
 10
1281.953
 20
377.631
 30
0.0
 40
36.288
  1
5
100
AcDbText
  0
LINE
  5
2CC
330
6F
100
AcDbEntity
  8
A-0
  6
Continuous
 62
     4
100
AcDbLine
 10
1248.520115630778
 20
444.51088936197
 30
0.0
 11
1253.520115630776
 21
444.51088936197
 31
0.0
  0
CIRCLE
  5
2CD
330
6F
100
AcDbEntity
  8
A-0
  6
Continuous
 62
     4
100
AcDbCircle
 10
1248.520115630778
 20
444.51088936197
 30
0.0
 40
0.25
  0
CIRCLE
  5
2CE
330
6F
100
AcDbEntity
  8
A-0
  6
Continuous
 62
     4
100
AcDbCircle
 10
1248.520115630778
 20
444.51088936197
 30
0.0
 40
0.1875
  0
CIRCLE
  5
2CF
330
6F
100
AcDbEntity
  8
A-0
  6
Continuous
 62
     4
100
AcDbCircle
 10
1248.520115630778
 20
444.51088936197
 30
0.0
 40
0.125
  0
CIRCLE
  5
2D0
330
6F
100
AcDbEntity
  8
A-0
  6
Continuous
 62
     4
100
AcDbCircle
 10
1248.520115630778
 20
444.51088936197
 30
0.0
 40
0.0625
  0
CIRCLE
  5
2D1
330
6F
100
AcDbEntity
  8
A-0
  6
Continuous
 62
     4
100
AcDbCircle
 10
1253.520115630776
 20
444.51088936197
 30
0.0
 40
0.25
  0
CIRCLE
  5
2D2
330
6F
100
AcDbEntity
  8
A-0
  6
Continuous
 62
     4
100
AcDbCircle
 10
1253.520115630776
 20
444.51088936197
 30
0.0
 40
0.1875
  0
CIRCLE
  5
2D3
330
6F
100
AcDbEntity
  8
A-0
  6
Continuous
 62
     4
100
AcDbCircle
 10
1253.520115630776
 20
444.51088936197
 30
0.0
 40
0.125
  0
CIRCLE
  5
2D4
330
6F
100
AcDbEntity
  8
A-0
  6
Continuous
 62
     4
100
AcDbCircle
 10
1253.520115630776
 20
444.51088936197
 30
0.0
 40
0.0625
  0
LINE
  5
2D5
330
6F
100
AcDbEntity
  8
A-0
  6
Continuous
 62
     4
100
AcDbLine
 10
1248.520115372672
 20
664.510889
 30
0.0
 11
1248.520115372672
 21
444.510889
 31
0.0
  0
LINE
  5
2D6
330
6F
100
AcDbEntity
  8
A-0
  6
Continuous
 62
     4
100
AcDbLine
 10
854.520115372672
 20
574.510889
 30
0.0
 11
854.520115372672
 21
444.510889
 31
0.0
  0
TEXT
  5
2D7
330
6F
100
AcDbEntity
  8
A-0
 62
     4
100
AcDbText
 10
1020.743
 20
445.1309999999999
 30
0.0
 40
36.288
  1
394
100
AcDbText
  0
LINE
  5
2D8
330
6F
100
AcDbEntity
  8
A-0
  6
Continuous
 62
     4
100
AcDbLine
 10
854.52011563078
 20
444.51088936197
 30
0.0
 11
1248.520115630778
 21
444.51088936197
 31
0.0
  0
CIRCLE
  5
2D9
330
6F
100
AcDbEntity
  8
A-0
  6
Continuous
 62
     4
100
AcDbCircle
 10
854.52011563078
 20
444.51088936197
 30
0.0
 40
0.25
  0
CIRCLE
  5
2DA
330
6F
100
AcDbEntity
  8
A-0
  6
Continuous
 62
     4
100
AcDbCircle
 10
854.52011563078
 20
444.51088936197
 30
0.0
 40
0.1875
  0
CIRCLE
  5
2DB
330
6F
100
AcDbEntity
  8
A-0
  6
Continuous
 62
     4
100
AcDbCircle
 10
854.52011563078
 20
444.51088936197
 30
0.0
 40
0.125
  0
CIRCLE
  5
2DC
330
6F
100
AcDbEntity
  8
A-0
  6
Continuous
 62
     4
100
AcDbCircle
 10
854.52011563078
 20
444.51088936197
 30
0.0
 40
0.0625
  0
CIRCLE
  5
2DD
330
6F
100
AcDbEntity
  8
A-0
  6
Continuous
 62
     4
100
AcDbCircle
 10
1248.520115630778
 20
444.51088936197
 30
0.0
 40
0.25
  0
CIRCLE
  5
2DE
330
6F
100
AcDbEntity
  8
A-0
  6
Continuous
 62
     4
100
AcDbCircle
 10
1248.520115630778
 20
444.51088936197
 30
0.0
 40
0.1875
  0
CIRCLE
  5
2DF
330
6F
100
AcDbEntity
  8
A-0
  6
Continuous
 62
     4
100
AcDbCircle
 10
1248.520115630778
 20
444.51088936197
 30
0.0
 40
0.125
  0
CIRCLE
  5
2E0
330
6F
100
AcDbEntity
  8
A-0
  6
Continuous
 62
     4
100
AcDbCircle
 10
1248.520115630778
 20
444.51088936197
 30
0.0
 40
0.0625
  0
LINE
  5
2E1
330
6F
100
AcDbEntity
  8
A-0
  6
Continuous
 62
     4
100
AcDbLine
 10
854.520115372672
 20
574.510889
 30
0.0
 11
854.520115372672
 21
444.510889
 31
0.0
  0
LINE
  5
2E2
330
6F
100
AcDbEntity
  8
A-0
  6
Continuous
 62
     4
100
AcDbLine
 10
850.0201153726719
 20
574.510889
 30
0.0
 11
850.0201153726719
 21
444.510889
 31
0.0
  0
LINE
  5
2E3
330
6F
100
AcDbEntity
  8
A-0
  6
Continuous
 62
     4
100
AcDbLine
 10
864.520115372672
 20
444.510889
 30
0.0
 11
874.520115372672
 21
444.510889
 31
0.0
  0
LINE
  5
2E4
330
6F
100
AcDbEntity
  8
A-0
  6
Continuous
 62
     4
100
AcDbLine
 10
840.0201153726719
 20
444.510889
 30
0.0
 11
830.0201153726719
 21
444.510889
 31
0.0
  0
LINE
  5
2E5
330
6F
100
AcDbEntity
  8
A-0
  6
Continuous
 62
     4
100
AcDbLine
 10
852.2701153726719
 20
444.510889
 30
0.0
 11
878.032507372673
 21
379.180426
 31
0.0
  0
LINE
  5
2E6
330
6F
100
AcDbEntity
  8
A-0
  6
Continuous
 62
     4
100
AcDbLine
 10
878.032507372673
 20
379.180426
 30
0.0
 11
962.1695633726719
 21
379.180426
 31
0.0
  0
TEXT
  5
2E7
330
6F
100
AcDbEntity
  8
A-0
 62
     4
100
AcDbText
 10
889.323
 20
379.8
 30
0.0
 40
36.288
  1
4.5
100
AcDbText
  0
LINE
  5
2E8
330
6F
100
AcDbEntity
  8
A-0
  6
Continuous
 62
     4
100
AcDbLine
 10
854.520115372672
 20
444.510889
 30
0.0
 11
850.0201153726719
 21
444.510889
 31
0.0
  0
LINE
  5
2E9
330
6F
100
AcDbEntity
  8
A-0
  6
Continuous
 62
     4
100
AcDbLine
 10
854.520115372672
 20
444.510889
 30
0.0
 11
850.0201153726719
 21
444.510889
 31
0.0
  0
CIRCLE
  5
2EA
330
6F
100
AcDbEntity
  8
A-0
  6
Continuous
 62
     4
100
AcDbCircle
 10
854.52011563078
 20
444.51088936197
 30
0.0
 40
0.25
  0
CIRCLE
  5
2EB
330
6F
100
AcDbEntity
  8
A-0
  6
Continuous
 62
     4
100
AcDbCircle
 10
854.52011563078
 20
444.51088936197
 30
0.0
 40
0.1875
  0
CIRCLE
  5
2EC
330
6F
100
AcDbEntity
  8
A-0
  6
Continuous
 62
     4
100
AcDbCircle
 10
854.52011563078
 20
444.51088936197
 30
0.0
 40
0.125
  0
CIRCLE
  5
2ED
330
6F
100
AcDbEntity
  8
A-0
  6
Continuous
 62
     4
100
AcDbCircle
 10
854.52011563078
 20
444.51088936197
 30
0.0
 40
0.0625
  0
ARC
  5
2EE
330
6F
100
AcDbEntity
  8
A-0
 62
     4
100
AcDbCircle
 10
854.52011563078
 20
444.50588936197
 30
0.0
 40
2.5
100
AcDbArc
 50
180.1145914065301
 51
0.1145914059449637
  0
LINE
  5
2EF
330
6F
100
AcDbEntity
  8
A-0
 62
     4
100
AcDbLine
 10
859.5201156307801
 20
444.510889362021
 30
0.0
 11
864.52011563078
 21
444.5108893620719
 31
0.0
  0
CIRCLE
  5
2F0
330
6F
100
AcDbEntity
  8
A-0
  6
Continuous
 62
     4
100
AcDbCircle
 10
850.0201156307779
 20
444.51088936197
 30
0.0
 40
0.25
  0
CIRCLE
  5
2F1
330
6F
100
AcDbEntity
  8
A-0
  6
Continuous
 62
     4
100
AcDbCircle
 10
850.0201156307779
 20
444.51088936197
 30
0.0
 40
0.1875
  0
CIRCLE
  5
2F2
330
6F
100
AcDbEntity
  8
A-0
  6
Continuous
 62
     4
100
AcDbCircle
 10
850.0201156307779
 20
444.51088936197
 30
0.0
 40
0.125
  0
CIRCLE
  5
2F3
330
6F
100
AcDbEntity
  8
A-0
  6
Continuous
 62
     4
100
AcDbCircle
 10
850.0201156307779
 20
444.51088936197
 30
0.0
 40
0.0625
  0
ARC
  5
2F4
330
6F
100
AcDbEntity
  8
A-0
 62
     4
100
AcDbCircle
 10
850.0201156307779
 20
444.51588936197
 30
0.0
 40
2.5
100
AcDbArc
 50
0.1145914065300158
 51
180.114591405945
  0
LINE
  5
2F5
330
6F
100
AcDbEntity
  8
A-0
 62
     4
100
AcDbLine
 10
845.020115630778
 20
444.51088936197
 30
0.0
 11
840.020115630778
 21
444.51088936197
 31
0.0
  0
LINE
  5
2F6
330
6F
100
AcDbEntity
  8
A-0
  6
Continuous
 62
     4
100
AcDbLine
 10
850.0201153726719
 20
1349.510889
 30
0.0
 11
850.0201153726719
 21
1254.814849
 31
0.0
  0
LINE
  5
2F7
330
6F
100
AcDbEntity
  8
A-0
  6
Continuous
 62
     4
100
AcDbLine
 10
847.520115372672
 20
1349.510889
 30
0.0
 11
847.520115372672
 21
1254.814849
 31
0.0
  0
LINE
  5
2F8
330
6F
100
AcDbEntity
  8
A-0
  6
Continuous
 62
     4
100
AcDbLine
 10
860.020115372672
 20
1254.814849
 30
0.0
 11
870.020115372672
 21
1254.814849
 31
0.0
  0
LINE
  5
2F9
330
6F
100
AcDbEntity
  8
A-0
  6
Continuous
 62
     4
100
AcDbLine
 10
837.5201153726719
 20
1254.814849
 30
0.0
 11
827.5201153726719
 21
1254.814849
 31
0.0
  0
LINE
  5
2FA
330
6F
100
AcDbEntity
  8
A-0
  6
Continuous
 62
     4
100
AcDbLine
 10
848.7701153726719
 20
1254.814849
 30
0.0
 11
808.9430273726719
 21
1197.984748
 31
0.0
  0
LINE
  5
2FB
330
6F
100
AcDbEntity
  8
A-0
  6
Continuous
 62
     4
100
AcDbLine
 10
808.9430273726719
 20
1197.984748
 30
0.0
 11
725.516631372672
 21
1197.984748
 31
0.0
  0
TEXT
  5
2FC
330
6F
100
AcDbEntity
  8
A-0
 62
     4
100
AcDbText
 10
736.4519999999999
 20
1198.605
 30
0.0
 40
36.288
  1
2.5
100
AcDbText
  0
LINE
  5
2FD
330
6F
100
AcDbEntity
  8
A-0
  6
Continuous
 62
     4
100
AcDbLine
 10
850.0201153726719
 20
1254.814849
 30
0.0
 11
847.520115372672
 21
1254.814849
 31
0.0
  0
LINE
  5
2FE
330
6F
100
AcDbEntity
  8
A-0
  6
Continuous
 62
     4
100
AcDbLine
 10
850.0201153726719
 20
1254.814849
 30
0.0
 11
847.520115372672
 21
1254.814849
 31
0.0
  0
CIRCLE
  5
2FF
330
6F
100
AcDbEntity
  8
A-0
  6
Continuous
 62
     4
100
AcDbCircle
 10
850.020115630779
 20
1254.814848852787
 30
0.0
 40
0.25
  0
CIRCLE
  5
300
330
6F
100
AcDbEntity
  8
A-0
  6
Continuous
 62
     4
100
AcDbCircle
 10
850.020115630779
 20
1254.814848852787
 30
0.0
 40
0.1875
  0
CIRCLE
  5
301
330
6F
100
AcDbEntity
  8
A-0
  6
Continuous
 62
     4
100
AcDbCircle
 10
850.020115630779
 20
1254.814848852787
 30
0.0
 40
0.125
  0
CIRCLE
  5
302
330
6F
100
AcDbEntity
  8
A-0
  6
Continuous
 62
     4
100
AcDbCircle
 10
850.020115630779
 20
1254.814848852787
 30
0.0
 40
0.0625
  0
ARC
  5
303
330
6F
100
AcDbEntity
  8
A-0
 62
     4
100
AcDbCircle
 10
850.0201156307801
 20
1254.809848852787
 30
0.0
 40
2.5
100
AcDbArc
 50
180.1145914065301
 51
0.1145914059449637
  0
LINE
  5
304
330
6F
100
AcDbEntity
  8
A-0
 62
     4
100
AcDbLine
 10
855.0201156307789
 20
1254.814848852838
 30
0.0
 11
860.020115630779
 21
1254.814848852889
 31
0.0
  0
CIRCLE
  5
305
330
6F
100
AcDbEntity
  8
A-0
  6
Continuous
 62
     4
100
AcDbCircle
 10
847.5201156307781
 20
1254.814848852787
 30
0.0
 40
0.25
  0
CIRCLE
  5
306
330
6F
100
AcDbEntity
  8
A-0
  6
Continuous
 62
     4
100
AcDbCircle
 10
847.5201156307781
 20
1254.814848852787
 30
0.0
 40
0.1875
  0
CIRCLE
  5
307
330
6F
100
AcDbEntity
  8
A-0
  6
Continuous
 62
     4
100
AcDbCircle
 10
847.5201156307781
 20
1254.814848852787
 30
0.0
 40
0.125
  0
CIRCLE
  5
308
330
6F
100
AcDbEntity
  8
A-0
  6
Continuous
 62
     4
100
AcDbCircle
 10
847.5201156307781
 20
1254.814848852787
 30
0.0
 40
0.0625
  0
ARC
  5
309
330
6F
100
AcDbEntity
  8
A-0
 62
     4
100
AcDbCircle
 10
847.5201156307781
 20
1254.819848852787
 30
0.0
 40
2.5
100
AcDbArc
 50
0.1145914065300158
 51
180.114591405945
  0
LINE
  5
30A
330
6F
100
AcDbEntity
  8
A-0
 62
     4
100
AcDbLine
 10
842.520115630778
 20
1254.814848852787
 30
0.0
 11
837.5201156307779
 21
1254.814848852787
 31
0.0
  0
LINE
  5
30B
330
6F
100
AcDbEntity
  8
A-0
  6
Continuous
 62
     4
100
AcDbLine
 10
1895.020115372672
 20
574.510889
 30
0.0
 11
1895.020115372672
 21
342.010889
 31
0.0
  0
LINE
  5
30C
330
6F
100
AcDbEntity
  8
A-0
  6
Continuous
 62
     4
100
AcDbLine
 10
850.0201153726719
 20
574.510889
 30
0.0
 11
850.0201153726719
 21
342.010889
 31
0.0
  0
TEXT
  5
30D
330
6F
100
AcDbEntity
  8
A-0
 62
     4
100
AcDbText
 10
1330.543
 20
342.631
 30
0.0
 40
36.288
  1
1045
100
AcDbText
  0
LINE
  5
30E
330
6F
100
AcDbEntity
  8
A-0
  6
Continuous
 62
     4
100
AcDbLine
 10
850.0201156307779
 20
342.01088936197
 30
0.0
 11
1895.020115630774
 21
342.01088936197
 31
0.0
  0
CIRCLE
  5
30F
330
6F
100
AcDbEntity
  8
A-0
  6
Continuous
 62
     4
100
AcDbCircle
 10
850.0201156307779
 20
342.01088936197
 30
0.0
 40
0.25
  0
CIRCLE
  5
310
330
6F
100
AcDbEntity
  8
A-0
  6
Continuous
 62
     4
100
AcDbCircle
 10
850.0201156307779
 20
342.01088936197
 30
0.0
 40
0.1875
  0
CIRCLE
  5
311
330
6F
100
AcDbEntity
  8
A-0
  6
Continuous
 62
     4
100
AcDbCircle
 10
850.0201156307779
 20
342.01088936197
 30
0.0
 40
0.125
  0
CIRCLE
  5
312
330
6F
100
AcDbEntity
  8
A-0
  6
Continuous
 62
     4
100
AcDbCircle
 10
850.0201156307779
 20
342.01088936197
 30
0.0
 40
0.0625
  0
CIRCLE
  5
313
330
6F
100
AcDbEntity
  8
A-0
  6
Continuous
 62
     4
100
AcDbCircle
 10
1895.020115630774
 20
342.01088936197
 30
0.0
 40
0.25
  0
CIRCLE
  5
314
330
6F
100
AcDbEntity
  8
A-0
  6
Continuous
 62
     4
100
AcDbCircle
 10
1895.020115630774
 20
342.01088936197
 30
0.0
 40
0.1875
  0
CIRCLE
  5
315
330
6F
100
AcDbEntity
  8
A-0
  6
Continuous
 62
     4
100
AcDbCircle
 10
1895.020115630774
 20
342.01088936197
 30
0.0
 40
0.125
  0
CIRCLE
  5
316
330
6F
100
AcDbEntity
  8
A-0
  6
Continuous
 62
     4
100
AcDbCircle
 10
1895.020115630774
 20
342.01088936197
 30
0.0
 40
0.0625
  0
LINE
  5
317
330
6F
100
AcDbEntity
  8
B-0
  6
CENTER
 62
     6
100
AcDbLine
 10
1697.520116
 20
2217.764479
 30
0.0
 11
1697.520116
 21
2602.764479
 31
0.0
  0
LINE
  5
318
330
6F
100
AcDbEntity
  8
3-0
  6
Continuous
 62
     7
100
AcDbLine
 10
1580.020116
 20
2524.764479
 30
0.0
 11
1574.039023
 21
2569.941742
 31
0.0
  0
LINE
  5
319
330
6F
100
AcDbEntity
  8
3-0
  6
Continuous
 62
     7
100
AcDbLine
 10
1486.486104
 20
2762.764479
 30
0.0
 11
1580.020116
 21
2524.764479
 31
0.0
  0
LINE
  5
31A
330
6F
100
AcDbEntity
  8
3-0
  6
Continuous
 62
     7
100
AcDbLine
 10
1486.486104
 20
2762.764479
 30
0.0
 11
1210.244836
 21
2762.764479
 31
0.0
  0
LINE
  5
31B
330
6F
100
AcDbEntity
  8
A-0
  6
Continuous
 62
     4
100
AcDbLine
 10
1560.020115372672
 20
2602.764479
 30
0.0
 11
1505.067780372672
 21
2602.764479
 31
0.0
  0
LINE
  5
31C
330
6F
100
AcDbEntity
  8
A-0
  6
Continuous
 62
     4
100
AcDbLine
 10
1519.409982372672
 20
2524.764479
 30
0.0
 11
1505.067780372672
 21
2524.764479
 31
0.0
  0
LINE
  5
31D
330
6F
100
AcDbEntity
  8
A-0
  6
Continuous
 62
     4
100
AcDbLine
 10
1505.067780372672
 20
2592.764479
 30
0.0
 11
1505.067780372672
 21
2534.764479
 31
0.0
  0
LINE
  5
31E
330
6F
100
AcDbEntity
  8
A-0
  6
Continuous
 62
     4
100
AcDbLine
 10
1505.067780372672
 20
2563.764479
 30
0.0
 11
1435.442443372673
 21
2629.260134
 31
0.0
  0
LINE
  5
31F
330
6F
100
AcDbEntity
  8
A-0
  6
Continuous
 62
     4
100
AcDbLine
 10
1435.442443372673
 20
2629.260134
 30
0.0
 11
1435.442443372673
 21
2719.082469
 31
0.0
  0
TEXT
  5
320
330
6F
100
AcDbEntity
  8
A-0
 62
     4
100
AcDbText
 10
1431.891
 20
2629.371
 30
0.0
 40
36.288
  1
(78)
 50
90.0
100
AcDbText
  0
CIRCLE
  5
321
330
6F
100
AcDbEntity
  8
A-0
  6
Continuous
 62
     4
100
AcDbCircle
 10
1505.067780618721
 20
2602.764478645273
 30
0.0
 40
0.25
  0
CIRCLE
  5
322
330
6F
100
AcDbEntity
  8
A-0
  6
Continuous
 62
     4
100
AcDbCircle
 10
1505.067780618721
 20
2602.764478645273
 30
0.0
 40
0.1875
  0
CIRCLE
  5
323
330
6F
100
AcDbEntity
  8
A-0
  6
Continuous
 62
     4
100
AcDbCircle
 10
1505.067780618721
 20
2602.764478645273
 30
0.0
 40
0.125
  0
CIRCLE
  5
324
330
6F
100
AcDbEntity
  8
A-0
  6
Continuous
 62
     4
100
AcDbCircle
 10
1505.067780618721
 20
2602.764478645273
 30
0.0
 40
0.0625
  0
ARC
  5
325
330
6F
100
AcDbEntity
  8
A-0
 62
     4
100
AcDbCircle
 10
1505.062780618721
 20
2602.764478645273
 30
0.0
 40
2.5
100
AcDbArc
 50
90.11459140653
 51
270.114591405945
  0
LINE
  5
326
330
6F
100
AcDbEntity
  8
A-0
 62
     4
100
AcDbLine
 10
1505.067780618747
 20
2597.764478645274
 30
0.0
 11
1505.067780618772
 21
2592.764478645273
 31
0.0
  0
CIRCLE
  5
327
330
6F
100
AcDbEntity
  8
A-0
  6
Continuous
 62
     4
100
AcDbCircle
 10
1505.067780618721
 20
2524.764478645272
 30
0.0
 40
0.25
  0
CIRCLE
  5
328
330
6F
100
AcDbEntity
  8
A-0
  6
Continuous
 62
     4
100
AcDbCircle
 10
1505.067780618721
 20
2524.764478645272
 30
0.0
 40
0.1875
  0
CIRCLE
  5
329
330
6F
100
AcDbEntity
  8
A-0
  6
Continuous
 62
     4
100
AcDbCircle
 10
1505.067780618721
 20
2524.764478645272
 30
0.0
 40
0.125
  0
CIRCLE
  5
32A
330
6F
100
AcDbEntity
  8
A-0
  6
Continuous
 62
     4
100
AcDbCircle
 10
1505.067780618721
 20
2524.764478645272
 30
0.0
 40
0.0625
  0
ARC
  5
32B
330
6F
100
AcDbEntity
  8
A-0
 62
     4
100
AcDbCircle
 10
1505.072780618722
 20
2524.764478645272
 30
0.0
 40
2.5
100
AcDbArc
 50
270.1145914065301
 51
90.11459140594496
  0
LINE
  5
32C
330
6F
100
AcDbEntity
  8
A-0
 62
     4
100
AcDbLine
 10
1505.067780618645
 20
2529.764478645272
 30
0.0
 11
1505.067780618568
 21
2534.764478645272
 31
0.0
  0
TEXT
  5
32D
330
6F
100
AcDbEntity
  8
D-0
 62
     5
100
AcDbText
 10
1225.002
 20
2761.888
 30
0.0
 40
25.92
  1
水栓取付参考位置
100
AcDbText
  0
LINE
  5
32E
330
6F
100
AcDbEntity
  8
A-0
  6
Continuous
 62
     4
100
AcDbLine
 10
1897.520115372672
 20
2622.764479
 30
0.0
 11
1897.520115372672
 21
2762.764479
 31
0.0
  0
LINE
  5
32F
330
6F
100
AcDbEntity
  8
A-0
  6
Continuous
 62
     4
100
AcDbLine
 10
1580.020115372672
 20
2759.069633
 30
0.0
 11
1580.020115372672
 21
2762.764479
 31
0.0
  0
TEXT
  5
330
330
6F
100
AcDbEntity
  8
A-0
 62
     4
100
AcDbText
 10
1685.593
 20
2763.384
 30
0.0
 40
36.288
  1
317.5
100
AcDbText
  0
LINE
  5
331
330
6F
100
AcDbEntity
  8
A-0
  6
Continuous
 62
     4
100
AcDbLine
 10
1580.020115630776
 20
2762.76447864527
 30
0.0
 11
1897.520115630776
 21
2762.76447864527
 31
0.0
  0
CIRCLE
  5
332
330
6F
100
AcDbEntity
  8
A-0
  6
Continuous
 62
     4
100
AcDbCircle
 10
1580.020115630776
 20
2762.76447864527
 30
0.0
 40
0.25
  0
CIRCLE
  5
333
330
6F
100
AcDbEntity
  8
A-0
  6
Continuous
 62
     4
100
AcDbCircle
 10
1580.020115630776
 20
2762.76447864527
 30
0.0
 40
0.1875
  0
CIRCLE
  5
334
330
6F
100
AcDbEntity
  8
A-0
  6
Continuous
 62
     4
100
AcDbCircle
 10
1580.020115630776
 20
2762.76447864527
 30
0.0
 40
0.125
  0
CIRCLE
  5
335
330
6F
100
AcDbEntity
  8
A-0
  6
Continuous
 62
     4
100
AcDbCircle
 10
1580.020115630776
 20
2762.76447864527
 30
0.0
 40
0.0625
  0
CIRCLE
  5
336
330
6F
100
AcDbEntity
  8
A-0
  6
Continuous
 62
     4
100
AcDbCircle
 10
1897.520115630776
 20
2762.76447864527
 30
0.0
 40
0.25
  0
CIRCLE
  5
337
330
6F
100
AcDbEntity
  8
A-0
  6
Continuous
 62
     4
100
AcDbCircle
 10
1897.520115630776
 20
2762.76447864527
 30
0.0
 40
0.1875
  0
CIRCLE
  5
338
330
6F
100
AcDbEntity
  8
A-0
  6
Continuous
 62
     4
100
AcDbCircle
 10
1897.520115630776
 20
2762.76447864527
 30
0.0
 40
0.125
  0
CIRCLE
  5
339
330
6F
100
AcDbEntity
  8
A-0
  6
Continuous
 62
     4
100
AcDbCircle
 10
1897.520115630776
 20
2762.76447864527
 30
0.0
 40
0.0625
  0
LINE
  5
33A
330
6F
100
AcDbEntity
  8
A-0
  6
Continuous
 62
     4
100
AcDbLine
 10
1740.044191372672
 20
2602.764479
 30
0.0
 11
1757.539958372672
 21
2602.764479
 31
0.0
  0
LINE
  5
33B
330
6F
100
AcDbEntity
  8
A-0
  6
Continuous
 62
     4
100
AcDbLine
 10
1733.260396372672
 20
2297.764479
 30
0.0
 11
1757.539958372672
 21
2297.764479
 31
0.0
  0
TEXT
  5
33C
330
6F
100
AcDbEntity
  8
A-0
 62
     4
100
AcDbText
 10
1756.92
 20
2416.664
 30
0.0
 40
36.288
  1
305
 50
90.0
100
AcDbText
  0
LINE
  5
33D
330
6F
100
AcDbEntity
  8
A-0
  6
Continuous
 62
     4
100
AcDbLine
 10
1757.539958748774
 20
2297.764478645271
 30
0.0
 11
1757.539958748774
 21
2602.764478645271
 31
0.0
  0
CIRCLE
  5
33E
330
6F
100
AcDbEntity
  8
A-0
  6
Continuous
 62
     4
100
AcDbCircle
 10
1757.539958748774
 20
2297.764478645271
 30
0.0
 40
0.25
  0
CIRCLE
  5
33F
330
6F
100
AcDbEntity
  8
A-0
  6
Continuous
 62
     4
100
AcDbCircle
 10
1757.539958748774
 20
2297.764478645271
 30
0.0
 40
0.1875
  0
CIRCLE
  5
340
330
6F
100
AcDbEntity
  8
A-0
  6
Continuous
 62
     4
100
AcDbCircle
 10
1757.539958748774
 20
2297.764478645271
 30
0.0
 40
0.125
  0
CIRCLE
  5
341
330
6F
100
AcDbEntity
  8
A-0
  6
Continuous
 62
     4
100
AcDbCircle
 10
1757.539958748774
 20
2297.764478645271
 30
0.0
 40
0.0625
  0
CIRCLE
  5
342
330
6F
100
AcDbEntity
  8
A-0
  6
Continuous
 62
     4
100
AcDbCircle
 10
1757.539958748774
 20
2602.764478645271
 30
0.0
 40
0.25
  0
CIRCLE
  5
343
330
6F
100
AcDbEntity
  8
A-0
  6
Continuous
 62
     4
100
AcDbCircle
 10
1757.539958748774
 20
2602.764478645271
 30
0.0
 40
0.1875
  0
CIRCLE
  5
344
330
6F
100
AcDbEntity
  8
A-0
  6
Continuous
 62
     4
100
AcDbCircle
 10
1757.539958748774
 20
2602.764478645271
 30
0.0
 40
0.125
  0
CIRCLE
  5
345
330
6F
100
AcDbEntity
  8
A-0
  6
Continuous
 62
     4
100
AcDbCircle
 10
1757.539958748774
 20
2602.764478645271
 30
0.0
 40
0.0625
  0
LINE
  5
346
330
6F
100
AcDbEntity
  8
B-0
  6
CENTER
 62
     6
100
AcDbLine
 10
1692.020116
 20
1293.380374
 30
0.0
 11
1692.020116
 21
589.4360749999999
 31
0.0
  0
LINE
  5
347
330
6F
100
AcDbEntity
  8
A-0
  6
Continuous
 62
     4
100
AcDbLine
 10
3003.945337372672
 20
809.8775900000001
 30
0.0
 11
3003.945337372672
 21
800.0552259999999
 31
0.0
  0
LINE
  5
348
330
6F
100
AcDbEntity
  8
A-0
  6
Continuous
 62
     4
100
AcDbLine
 10
3308.945337372672
 20
978.9383279999999
 30
0.0
 11
3308.945337372672
 21
800.0552259999999
 31
0.0
  0
TEXT
  5
349
330
6F
100
AcDbEntity
  8
A-0
 62
     4
100
AcDbText
 10
3125.668
 20
800.675
 30
0.0
 40
36.288
  1
305
100
AcDbText
  0
LINE
  5
34A
330
6F
100
AcDbEntity
  8
A-0
  6
Continuous
 62
     4
100
AcDbLine
 10
3308.945337002614
 20
800.0552261541809
 30
0.0
 11
3003.945337002602
 21
800.0552261541809
 31
0.0
  0
CIRCLE
  5
34B
330
6F
100
AcDbEntity
  8
A-0
  6
Continuous
 62
     4
100
AcDbCircle
 10
3308.945337002614
 20
800.0552261541809
 30
0.0
 40
0.25
  0
CIRCLE
  5
34C
330
6F
100
AcDbEntity
  8
A-0
  6
Continuous
 62
     4
100
AcDbCircle
 10
3308.945337002614
 20
800.0552261541809
 30
0.0
 40
0.1875
  0
CIRCLE
  5
34D
330
6F
100
AcDbEntity
  8
A-0
  6
Continuous
 62
     4
100
AcDbCircle
 10
3308.945337002614
 20
800.0552261541809
 30
0.0
 40
0.125
  0
CIRCLE
  5
34E
330
6F
100
AcDbEntity
  8
A-0
  6
Continuous
 62
     4
100
AcDbCircle
 10
3308.945337002614
 20
800.0552261541809
 30
0.0
 40
0.0625
  0
CIRCLE
  5
34F
330
6F
100
AcDbEntity
  8
A-0
  6
Continuous
 62
     4
100
AcDbCircle
 10
3003.945337002602
 20
800.0552261541809
 30
0.0
 40
0.25
  0
CIRCLE
  5
350
330
6F
100
AcDbEntity
  8
A-0
  6
Continuous
 62
     4
100
AcDbCircle
 10
3003.945337002602
 20
800.0552261541809
 30
0.0
 40
0.1875
  0
CIRCLE
  5
351
330
6F
100
AcDbEntity
  8
A-0
  6
Continuous
 62
     4
100
AcDbCircle
 10
3003.945337002602
 20
800.0552261541809
 30
0.0
 40
0.125
  0
CIRCLE
  5
352
330
6F
100
AcDbEntity
  8
A-0
  6
Continuous
 62
     4
100
AcDbCircle
 10
3003.945337002602
 20
800.0552261541809
 30
0.0
 40
0.0625
  0
LINE
  5
353
330
6F
100
AcDbEntity
  8
3-0
  6
DASHED2
 62
     7
100
AcDbLine
 10
3018.945337
 20
1058.128414
 30
0.0
 11
3018.945337
 21
594.128414
 31
0.0
  0
LINE
  5
354
330
6F
100
AcDbEntity
  8
3-0
  6
DASHED2
 62
     7
100
AcDbLine
 10
2988.945337
 20
1058.128414
 30
0.0
 11
2988.945337
 21
594.128414
 31
0.0
  0
LINE
  5
355
330
6F
100
AcDbEntity
  8
B-0
  6
CENTER
 62
     6
100
AcDbLine
 10
3003.945337
 20
1484.128414
 30
0.0
 11
3003.945337
 21
564.3746559999999
 31
0.0
  0
LINE
  5
356
330
6F
100
AcDbEntity
  8
3-0
  6
DASHED2
 62
     7
100
AcDbLine
 10
3293.945337
 20
1369.128414
 30
0.0
 11
3293.945337
 21
594.128414
 31
0.0
  0
LINE
  5
357
330
6F
100
AcDbEntity
  8
3-0
  6
Continuous
 62
     7
100
AcDbLine
 10
2787.945337
 20
1369.128414
 30
0.0
 11
2787.945337
 21
684.1284139999999
 31
0.0
  0
LINE
  5
358
330
6F
100
AcDbEntity
  8
3-0
  6
Continuous
 62
     7
100
AcDbLine
 10
3308.945337
 20
1369.128414
 30
0.0
 11
3308.945337
 21
594.128414
 31
0.0
  0
LINE
  5
359
330
6F
100
AcDbEntity
  8
A-0
  6
Continuous
 62
     4
100
AcDbLine
 10
2766.945337372672
 20
574.128414
 30
0.0
 11
2766.945337372672
 21
344.128414
 31
0.0
  0
LINE
  5
35A
330
6F
100
AcDbEntity
  8
A-0
  6
Continuous
 62
     4
100
AcDbLine
 10
3308.945337372672
 20
574.128414
 30
0.0
 11
3308.945337372672
 21
344.128414
 31
0.0
  0
TEXT
  5
35B
330
6F
100
AcDbEntity
  8
A-0
 62
     4
100
AcDbText
 10
3007.168
 20
344.748
 30
0.0
 40
36.288
  1
542
100
AcDbText
  0
LINE
  5
35C
330
6F
100
AcDbEntity
  8
A-0
  6
Continuous
 62
     4
100
AcDbLine
 10
3308.945337002614
 20
344.12841405775
 30
0.0
 11
2766.945337002614
 21
344.12841405775
 31
0.0
  0
CIRCLE
  5
35D
330
6F
100
AcDbEntity
  8
A-0
  6
Continuous
 62
     4
100
AcDbCircle
 10
3308.945337002614
 20
344.12841405775
 30
0.0
 40
0.25
  0
CIRCLE
  5
35E
330
6F
100
AcDbEntity
  8
A-0
  6
Continuous
 62
     4
100
AcDbCircle
 10
3308.945337002614
 20
344.12841405775
 30
0.0
 40
0.1875
  0
CIRCLE
  5
35F
330
6F
100
AcDbEntity
  8
A-0
  6
Continuous
 62
     4
100
AcDbCircle
 10
3308.945337002614
 20
344.12841405775
 30
0.0
 40
0.125
  0
CIRCLE
  5
360
330
6F
100
AcDbEntity
  8
A-0
  6
Continuous
 62
     4
100
AcDbCircle
 10
3308.945337002614
 20
344.12841405775
 30
0.0
 40
0.0625
  0
CIRCLE
  5
361
330
6F
100
AcDbEntity
  8
A-0
  6
Continuous
 62
     4
100
AcDbCircle
 10
2766.945337002614
 20
344.12841405775
 30
0.0
 40
0.25
  0
CIRCLE
  5
362
330
6F
100
AcDbEntity
  8
A-0
  6
Continuous
 62
     4
100
AcDbCircle
 10
2766.945337002614
 20
344.12841405775
 30
0.0
 40
0.1875
  0
CIRCLE
  5
363
330
6F
100
AcDbEntity
  8
A-0
  6
Continuous
 62
     4
100
AcDbCircle
 10
2766.945337002614
 20
344.12841405775
 30
0.0
 40
0.125
  0
CIRCLE
  5
364
330
6F
100
AcDbEntity
  8
A-0
  6
Continuous
 62
     4
100
AcDbCircle
 10
2766.945337002614
 20
344.12841405775
 30
0.0
 40
0.0625
  0
LINE
  5
365
330
6F
100
AcDbEntity
  8
3-0
  6
DASHED2
 62
     7
100
AcDbLine
 10
3293.945337
 20
699.128414
 30
0.0
 11
2787.945337
 21
699.128414
 31
0.0
  0
LINE
  5
366
330
6F
100
AcDbEntity
  8
A-0
  6
Continuous
 62
     4
100
AcDbLine
 10
2818.945337372672
 20
574.128414
 30
0.0
 11
2818.945337372672
 21
444.128414
 31
0.0
  0
LINE
  5
367
330
6F
100
AcDbEntity
  8
A-0
  6
Continuous
 62
     4
100
AcDbLine
 10
3308.945337372672
 20
574.128414
 30
0.0
 11
3308.945337372672
 21
444.128414
 31
0.0
  0
TEXT
  5
368
330
6F
100
AcDbEntity
  8
A-0
 62
     4
100
AcDbText
 10
3033.168
 20
444.748
 30
0.0
 40
36.288
  1
490
100
AcDbText
  0
LINE
  5
369
330
6F
100
AcDbEntity
  8
A-0
  6
Continuous
 62
     4
100
AcDbLine
 10
3308.945337002614
 20
444.128414057749
 30
0.0
 11
2818.94533700261
 21
444.128414057749
 31
0.0
  0
CIRCLE
  5
36A
330
6F
100
AcDbEntity
  8
A-0
  6
Continuous
 62
     4
100
AcDbCircle
 10
3308.945337002614
 20
444.128414057749
 30
0.0
 40
0.25
  0
CIRCLE
  5
36B
330
6F
100
AcDbEntity
  8
A-0
  6
Continuous
 62
     4
100
AcDbCircle
 10
3308.945337002614
 20
444.128414057749
 30
0.0
 40
0.1875
  0
CIRCLE
  5
36C
330
6F
100
AcDbEntity
  8
A-0
  6
Continuous
 62
     4
100
AcDbCircle
 10
3308.945337002614
 20
444.128414057749
 30
0.0
 40
0.125
  0
CIRCLE
  5
36D
330
6F
100
AcDbEntity
  8
A-0
  6
Continuous
 62
     4
100
AcDbCircle
 10
3308.945337002614
 20
444.128414057749
 30
0.0
 40
0.0625
  0
CIRCLE
  5
36E
330
6F
100
AcDbEntity
  8
A-0
  6
Continuous
 62
     4
100
AcDbCircle
 10
2818.94533700261
 20
444.128414057749
 30
0.0
 40
0.25
  0
CIRCLE
  5
36F
330
6F
100
AcDbEntity
  8
A-0
  6
Continuous
 62
     4
100
AcDbCircle
 10
2818.94533700261
 20
444.128414057749
 30
0.0
 40
0.1875
  0
CIRCLE
  5
370
330
6F
100
AcDbEntity
  8
A-0
  6
Continuous
 62
     4
100
AcDbCircle
 10
2818.94533700261
 20
444.128414057749
 30
0.0
 40
0.125
  0
CIRCLE
  5
371
330
6F
100
AcDbEntity
  8
A-0
  6
Continuous
 62
     4
100
AcDbCircle
 10
2818.94533700261
 20
444.128414057749
 30
0.0
 40
0.0625
  0
LINE
  5
372
330
6F
100
AcDbEntity
  8
3-0
  6
Continuous
 62
     7
100
AcDbLine
 10
3308.945337
 20
594.128414
 30
0.0
 11
2818.945337
 21
594.128414
 31
0.0
  0
LINE
  5
373
330
6F
100
AcDbEntity
  8
3-0
  6
DASHED2
 62
     7
100
AcDbLine
 10
3293.945337
 20
684.1284139999999
 30
0.0
 11
2787.945337
 21
684.1284139999999
 31
0.0
  0
LINE
  5
374
330
6F
100
AcDbEntity
  8
3-0
  6
Continuous
 62
     7
100
AcDbLine
 10
3247.088354000001
 20
497.6406879999999
 30
0.0
 11
3021.954106
 21
684.1284139999999
 31
0.0
  0
LINE
  5
375
330
6F
100
AcDbEntity
  8
3-0
  6
Continuous
 62
     7
100
AcDbLine
 10
3652.298594
 20
497.6406879999999
 30
0.0
 11
3247.088354000001
 21
497.6406879999999
 31
0.0
  0
LINE
  5
376
330
6F
100
AcDbEntity
  8
3-0
  6
DASHED2
 62
     7
100
AcDbLine
 10
3308.945337
 20
594.128414
 30
0.0
 11
3293.945337
 21
619.128414
 31
0.0
  0
LINE
  5
377
330
6F
100
AcDbEntity
  8
3-0
  6
DASHED2
 62
     7
100
AcDbLine
 10
3308.945337
 20
594.128414
 30
0.0
 11
3293.945337
 21
594.128414
 31
0.0
  0
LINE
  5
378
330
6F
100
AcDbEntity
  8
3-0
  6
Continuous
 62
     7
100
AcDbLine
 10
3021.954106
 20
684.1284139999999
 30
0.0
 11
3045.649778
 21
676.312548
 31
0.0
  0
LINE
  5
379
330
6F
100
AcDbEntity
  8
3-0
  6
DASHED2
 62
     7
100
AcDbLine
 10
3072.295337002612
 20
703.800202731228
 30
0.0
 11
3024.195337002613
 21
703.800202731228
 31
0.0
  0
LINE
  5
37A
330
6F
100
AcDbEntity
  8
3-0
  6
DASHED2
 62
     7
100
AcDbLine
 10
3024.195337002613
 20
703.800202731228
 30
0.0
 11
3024.195337002613
 21
694.906219330899
 31
0.0
  0
LINE
  5
37B
330
6F
100
AcDbEntity
  8
3-0
  6
DASHED2
 62
     7
100
AcDbLine
 10
3024.195337002613
 20
694.906219330899
 30
0.0
 11
2983.695337002602
 21
694.906219330899
 31
0.0
  0
LINE
  5
37C
330
6F
100
AcDbEntity
  8
3-0
  6
DASHED2
 62
     7
100
AcDbLine
 10
2983.695337002602
 20
694.906219330899
 30
0.0
 11
2983.695337002602
 21
703.800202731228
 31
0.0
  0
LINE
  5
37D
330
6F
100
AcDbEntity
  8
3-0
  6
DASHED2
 62
     7
100
AcDbLine
 10
2983.695337002602
 20
703.800202731228
 30
0.0
 11
2935.595337002611
 21
703.800202731228
 31
0.0
  0
LINE
  5
37E
330
6F
100
AcDbEntity
  8
3-0
  6
DASHED2
 62
     7
100
AcDbLine
 10
2948.945337000001
 20
699.128414
 30
0.0
 11
2948.945337000001
 21
684.1284139999999
 31
0.0
  0
LINE
  5
37F
330
6F
100
AcDbEntity
  8
3-0
  6
DASHED2
 62
     7
100
AcDbLine
 10
3058.945337
 20
699.128414
 30
0.0
 11
3058.945337
 21
684.1284139999999
 31
0.0
  0
LINE
  5
380
330
6F
100
AcDbEntity
  8
3-0
  6
DASHED2
 62
     7
100
AcDbLine
 10
3308.945337
 20
619.128414
 30
0.0
 11
3293.945337
 21
619.128414
 31
0.0
  0
LINE
  5
381
330
6F
100
AcDbEntity
  8
3-0
  6
Continuous
 62
     7
100
AcDbLine
 10
2817.945337
 20
684.1284139999999
 30
0.0
 11
2787.945337
 21
684.1284139999999
 31
0.0
  0
LINE
  5
382
330
6F
100
AcDbEntity
  8
3-0
  6
Continuous
 62
     7
100
AcDbLine
 10
2827.945337
 20
684.1284139999999
 30
0.0
 11
2827.945337
 21
594.128414
 31
0.0
  0
LINE
  5
383
330
6F
100
AcDbEntity
  8
3-0
  6
Continuous
 62
     7
100
AcDbLine
 10
2818.945337
 20
684.1284139999999
 30
0.0
 11
2818.945337
 21
594.128414
 31
0.0
  0
LINE
  5
384
330
6F
100
AcDbEntity
  8
B-0
  6
CENTER
 62
     6
100
AcDbLine
 10
3223.945337
 20
1564.227728
 30
0.0
 11
3223.945337
 21
994.128414
 31
0.0
  0
LINE
  5
385
330
6F
100
AcDbEntity
  8
3-0
  6
DASHED2
 62
     7
100
AcDbLine
 10
2778.945337002613
 20
1394.128414057751
 30
0.0
 11
2778.945337002613
 21
1389.128414057751
 31
0.0
  0
LINE
  5
386
330
6F
100
AcDbEntity
  8
3-0
  6
DASHED2
 62
     7
100
AcDbLine
 10
2778.945337002613
 20
1389.128414057751
 30
0.0
 11
2818.945337002615
 21
1389.128414057751
 31
0.0
  0
ARC
  5
387
330
6F
100
AcDbEntity
  8
3-0
  6
DASHED2
 62
     7
100
AcDbCircle
 10
2818.945337
 20
1384.128414
 30
0.0
 40
5.0
100
AcDbArc
 50
0.0000000002820144
 51
89.99999999999001
  0
LINE
  5
388
330
6F
100
AcDbEntity
  8
3-0
  6
DASHED2
 62
     7
100
AcDbLine
 10
2823.945337002613
 20
1384.128414057751
 30
0.0
 11
2823.945337002613
 21
1276.128414057751
 31
0.0
  0
ARC
  5
389
330
6F
100
AcDbEntity
  8
3-0
  6
DASHED2
 62
     7
100
AcDbCircle
 10
2853.945337
 20
1276.128414
 30
0.0
 40
30.0
100
AcDbArc
 50
180.000000000292
 51
270.0
  0
LINE
  5
38A
330
6F
100
AcDbEntity
  8
3-0
  6
DASHED2
 62
     7
100
AcDbLine
 10
2853.945337002613
 20
1246.128414057751
 30
0.0
 11
3158.945337002613
 21
1246.128414057751
 31
0.0
  0
ARC
  5
38B
330
6F
100
AcDbEntity
  8
3-0
  6
DASHED2
 62
     7
100
AcDbCircle
 10
3158.945337
 20
1276.128414
 30
0.0
 40
30.0
100
AcDbArc
 50
270.0
 51
359.999999999708
  0
LINE
  5
38C
330
6F
100
AcDbEntity
  8
3-0
  6
DASHED2
 62
     7
100
AcDbLine
 10
3188.945337002613
 20
1276.128414057751
 30
0.0
 11
3188.945337002613
 21
1384.128414057751
 31
0.0
  0
ARC
  5
38D
330
6F
100
AcDbEntity
  8
3-0
  6
DASHED2
 62
     7
100
AcDbCircle
 10
3193.945337000001
 20
1384.128414
 30
0.0
 40
5.0
100
AcDbArc
 50
90.0
 51
179.9999999997081
  0
LINE
  5
38E
330
6F
100
AcDbEntity
  8
3-0
  6
DASHED2
 62
     7
100
AcDbLine
 10
3193.945337002614
 20
1389.128414057751
 30
0.0
 11
3266.083351465923
 21
1389.128414057751
 31
0.0
  0
LINE
  5
38F
330
6F
100
AcDbEntity
  8
3-0
  6
DASHED2
 62
     7
100
AcDbLine
 10
3266.083351465923
 20
1389.128414057751
 30
0.0
 11
3266.083351465923
 21
1394.128414057751
 31
0.0
  0
LINE
  5
390
330
6F
100
AcDbEntity
  8
A-0
  6
Continuous
 62
     4
100
AcDbLine
 10
3068.419321372672
 20
1246.128414
 30
0.0
 11
3062.846273372672
 21
1246.128414
 31
0.0
  0
LINE
  5
391
330
6F
100
AcDbEntity
  8
A-0
  6
Continuous
 62
     4
100
AcDbLine
 10
3068.419321372672
 20
1394.128414
 30
0.0
 11
3062.846273372672
 21
1394.128414
 31
0.0
  0
TEXT
  5
392
330
6F
100
AcDbEntity
  8
A-0
 62
     4
100
AcDbText
 10
3062.226
 20
1286.528
 30
0.0
 40
36.288
  1
148
 50
90.0
100
AcDbText
  0
LINE
  5
393
330
6F
100
AcDbEntity
  8
A-0
  6
Continuous
 62
     4
100
AcDbLine
 10
3062.846273274352
 20
1394.128414057751
 30
0.0
 11
3062.846273274352
 21
1246.128414057751
 31
0.0
  0
CIRCLE
  5
394
330
6F
100
AcDbEntity
  8
A-0
  6
Continuous
 62
     4
100
AcDbCircle
 10
3062.846273274352
 20
1394.128414057751
 30
0.0
 40
0.25
  0
CIRCLE
  5
395
330
6F
100
AcDbEntity
  8
A-0
  6
Continuous
 62
     4
100
AcDbCircle
 10
3062.846273274352
 20
1394.128414057751
 30
0.0
 40
0.1875
  0
CIRCLE
  5
396
330
6F
100
AcDbEntity
  8
A-0
  6
Continuous
 62
     4
100
AcDbCircle
 10
3062.846273274352
 20
1394.128414057751
 30
0.0
 40
0.125
  0
CIRCLE
  5
397
330
6F
100
AcDbEntity
  8
A-0
  6
Continuous
 62
     4
100
AcDbCircle
 10
3062.846273274352
 20
1394.128414057751
 30
0.0
 40
0.0625
  0
CIRCLE
  5
398
330
6F
100
AcDbEntity
  8
A-0
  6
Continuous
 62
     4
100
AcDbCircle
 10
3062.846273274352
 20
1246.128414057751
 30
0.0
 40
0.25
  0
CIRCLE
  5
399
330
6F
100
AcDbEntity
  8
A-0
  6
Continuous
 62
     4
100
AcDbCircle
 10
3062.846273274352
 20
1246.128414057751
 30
0.0
 40
0.1875
  0
CIRCLE
  5
39A
330
6F
100
AcDbEntity
  8
A-0
  6
Continuous
 62
     4
100
AcDbCircle
 10
3062.846273274352
 20
1246.128414057751
 30
0.0
 40
0.125
  0
CIRCLE
  5
39B
330
6F
100
AcDbEntity
  8
A-0
  6
Continuous
 62
     4
100
AcDbCircle
 10
3062.846273274352
 20
1246.128414057751
 30
0.0
 40
0.0625
  0
LINE
  5
39C
330
6F
100
AcDbEntity
  8
3-0
  6
DASHED2
 62
     7
100
AcDbLine
 10
2799.945337
 20
1369.128414
 30
0.0
 11
2799.945337
 21
1234.128414
 31
0.0
  0
LINE
  5
39D
330
6F
100
AcDbEntity
  8
3-0
  6
Continuous
 62
     7
100
AcDbLine
 10
3402.724791
 20
1131.0818
 30
0.0
 11
3308.945337
 21
994.128414
 31
0.0
  0
LINE
  5
39E
330
6F
100
AcDbEntity
  8
3-0
  6
Continuous
 62
     7
100
AcDbLine
 10
3308.945337
 20
994.128414
 30
0.0
 11
3319.311539
 21
1024.944307
 31
0.0
  0
LINE
  5
39F
330
6F
100
AcDbEntity
  8
3-0
  6
Continuous
 62
     7
100
AcDbLine
 10
3548.281504
 20
1131.0818
 30
0.0
 11
3402.724791
 21
1131.0818
 31
0.0
  0
LINE
  5
3A0
330
6F
100
AcDbEntity
  8
3-0
  6
DASHED2
 62
     7
100
AcDbLine
 10
2799.945337
 20
1234.128414
 30
0.0
 11
2787.945337
 21
1234.128414
 31
0.0
  0
LINE
  5
3A1
330
6F
100
AcDbEntity
  8
A-0
  6
Continuous
 62
     4
100
AcDbLine
 10
2758.945337372672
 20
1480.390906
 30
0.0
 11
2758.945337372672
 21
1610.390906
 31
0.0
  0
LINE
  5
3A2
330
6F
100
AcDbEntity
  8
A-0
  6
Continuous
 62
     4
100
AcDbLine
 10
3308.945337372672
 20
1480.390906
 30
0.0
 11
3308.945337372672
 21
1610.390906
 31
0.0
  0
TEXT
  5
3A3
330
6F
100
AcDbEntity
  8
A-0
 62
     4
100
AcDbText
 10
3003.168
 20
1611.011
 30
0.0
 40
36.288
  1
550
100
AcDbText
  0
LINE
  5
3A4
330
6F
100
AcDbEntity
  8
A-0
  6
Continuous
 62
     4
100
AcDbLine
 10
3308.945337002614
 20
1610.390905954614
 30
0.0
 11
2758.945337002606
 21
1610.390905954614
 31
0.0
  0
CIRCLE
  5
3A5
330
6F
100
AcDbEntity
  8
A-0
  6
Continuous
 62
     4
100
AcDbCircle
 10
3308.945337002614
 20
1610.390905954614
 30
0.0
 40
0.25
  0
CIRCLE
  5
3A6
330
6F
100
AcDbEntity
  8
A-0
  6
Continuous
 62
     4
100
AcDbCircle
 10
3308.945337002614
 20
1610.390905954614
 30
0.0
 40
0.1875
  0
CIRCLE
  5
3A7
330
6F
100
AcDbEntity
  8
A-0
  6
Continuous
 62
     4
100
AcDbCircle
 10
3308.945337002614
 20
1610.390905954614
 30
0.0
 40
0.125
  0
CIRCLE
  5
3A8
330
6F
100
AcDbEntity
  8
A-0
  6
Continuous
 62
     4
100
AcDbCircle
 10
3308.945337002614
 20
1610.390905954614
 30
0.0
 40
0.0625
  0
CIRCLE
  5
3A9
330
6F
100
AcDbEntity
  8
A-0
  6
Continuous
 62
     4
100
AcDbCircle
 10
2758.945337002606
 20
1610.390905954614
 30
0.0
 40
0.25
  0
CIRCLE
  5
3AA
330
6F
100
AcDbEntity
  8
A-0
  6
Continuous
 62
     4
100
AcDbCircle
 10
2758.945337002606
 20
1610.390905954614
 30
0.0
 40
0.1875
  0
CIRCLE
  5
3AB
330
6F
100
AcDbEntity
  8
A-0
  6
Continuous
 62
     4
100
AcDbCircle
 10
2758.945337002606
 20
1610.390905954614
 30
0.0
 40
0.125
  0
CIRCLE
  5
3AC
330
6F
100
AcDbEntity
  8
A-0
  6
Continuous
 62
     4
100
AcDbCircle
 10
2758.945337002606
 20
1610.390905954614
 30
0.0
 40
0.0625
  0
LINE
  5
3AD
330
6F
100
AcDbEntity
  8
3-0
  6
Continuous
 62
     7
100
AcDbLine
 10
3283.945337
 20
1394.128414
 30
0.0
 11
2760.945337
 21
1394.128414
 31
0.0
  0
LINE
  5
3AE
330
6F
100
AcDbEntity
  8
3-0
  6
Continuous
 62
     7
100
AcDbLine
 10
3308.945337
 20
1369.128414
 30
0.0
 11
2760.945337
 21
1369.128414
 31
0.0
  0
LINE
  5
3AF
330
6F
100
AcDbEntity
  8
3-0
  6
DASHED2
 62
     7
100
AcDbLine
 10
3196.445337002602
 20
1488.260038057749
 30
0.0
 11
3196.445337002602
 21
1494.523848057749
 31
0.0
  0
LINE
  5
3B0
330
6F
100
AcDbEntity
  8
3-0
  6
DASHED2
 62
     7
100
AcDbLine
 10
3251.445337002602
 20
1496.635012057749
 30
0.0
 11
3251.445337002602
 21
1488.260038057749
 31
0.0
  0
LINE
  5
3B1
330
6F
100
AcDbEntity
  8
3-0
  6
DASHED2
 62
     7
100
AcDbLine
 10
3196.445337002602
 20
1459.526824057749
 30
0.0
 11
2980.292812002602
 21
1567.774565057749
 31
0.0
  0
LINE
  5
3B2
330
6F
100
AcDbEntity
  8
3-0
  6
DASHED2
 62
     7
100
AcDbLine
 10
3196.445337002602
 20
1448.342934057749
 30
0.0
 11
2984.386541002602
 21
1554.540563057749
 31
0.0
  0
LINE
  5
3B3
330
6F
100
AcDbEntity
  8
3-0
  6
DASHED2
 62
     7
100
AcDbLine
 10
3196.445337002602
 20
1484.128414057749
 30
0.0
 11
3196.445337002602
 21
1394.128414057749
 31
0.0
  0
LINE
  5
3B4
330
6F
100
AcDbEntity
  8
3-0
  6
DASHED2
 62
     7
100
AcDbLine
 10
3251.445337002602
 20
1464.128414057749
 30
0.0
 11
3196.445337002602
 21
1464.128414057749
 31
0.0
  0
LINE
  5
3B5
330
6F
100
AcDbEntity
  8
3-0
  6
DASHED2
 62
     7
100
AcDbLine
 10
3251.445337002602
 20
1484.128414057749
 30
0.0
 11
3196.445337002602
 21
1484.128414057749
 31
0.0
  0
LINE
  5
3B6
330
6F
100
AcDbEntity
  8
3-0
  6
DASHED2
 62
     7
100
AcDbLine
 10
3251.445337002602
 20
1484.128414057749
 30
0.0
 11
3251.445337002602
 21
1394.128414057749
 31
0.0
  0
LINE
  5
3B7
330
6F
100
AcDbEntity
  8
3-0
  6
DASHED2
 62
     7
100
AcDbLine
 10
3251.445337002602
 20
1488.260038057749
 30
0.0
 11
3196.445337002602
 21
1488.260038057749
 31
0.0
  0
LINE
  5
3B8
330
6F
100
AcDbEntity
  8
3-0
  6
DASHED2
 62
     7
100
AcDbLine
 10
3251.445337002602
 20
1394.128414057749
 30
0.0
 11
3196.445337002602
 21
1394.128414057749
 31
0.0
  0
ARC
  5
3B9
330
6F
100
AcDbEntity
  8
3-0
  6
DASHED2
 62
     7
100
AcDbCircle
 10
3137.392788002602
 20
1407.522194057749
 30
0.0
 40
115.364508
100
AcDbArc
 50
65.82599999999999
 51
99.90400000000001
  0
LINE
  5
3BA
330
6F
100
AcDbEntity
  8
3-0
  6
DASHED2
 62
     7
100
AcDbLine
 10
3173.873245002602
 20
1529.382414057749
 30
0.0
 11
3104.984492002602
 21
1529.382414057749
 31
0.0
  0
LINE
  5
3BB
330
6F
100
AcDbEntity
  8
3-0
  6
DASHED2
 62
     7
100
AcDbLine
 10
3111.058674002602
 20
1520.049669057749
 30
0.0
 11
3117.550895002602
 21
1521.167559057749
 31
0.0
  0
ARC
  5
3BC
330
6F
100
AcDbEntity
  8
3-0
  6
DASHED2
 62
     7
100
AcDbCircle
 10
3109.361755002602
 20
1529.904640057749
 30
0.0
 40
10.0
100
AcDbArc
 50
229.545
 51
279.77
  0
ARC
  5
3BD
330
6F
100
AcDbEntity
  8
3-0
  6
DASHED2
 62
     7
100
AcDbCircle
 10
3104.984492002602
 20
1527.382414057749
 30
0.0
 40
2.0
100
AcDbArc
 50
90.0
 51
109.705
  0
LINE
  5
3BE
330
6F
100
AcDbEntity
  8
3-0
  6
DASHED2
 62
     7
100
AcDbLine
 10
3100.792965002602
 20
1528.005621057749
 30
0.0
 11
3104.310138002602
 21
1529.265296057749
 31
0.0
  0
LINE
  5
3BF
330
6F
100
AcDbEntity
  8
3-0
  6
DASHED2
 62
     7
100
AcDbLine
 10
3100.169625002602
 20
1524.600900057749
 30
0.0
 11
3102.873287002602
 21
1522.295449057749
 31
0.0
  0
ARC
  5
3C0
330
6F
100
AcDbEntity
  8
3-0
  6
DASHED2
 62
     7
100
AcDbCircle
 10
3101.467319002602
 20
1526.122739057749
 30
0.0
 40
2.0
100
AcDbArc
 50
109.705
 51
229.545
  0
LINE
  5
3C1
330
6F
100
AcDbEntity
  8
3-0
  6
DASHED2
 62
     7
100
AcDbLine
 10
2956.857627002602
 20
1551.128414057749
 30
0.0
 11
2971.033047002602
 21
1551.128414057749
 31
0.0
  0
LINE
  5
3C2
330
6F
100
AcDbEntity
  8
3-0
  6
DASHED2
 62
     7
100
AcDbLine
 10
2971.033047002602
 20
1556.128414057749
 30
0.0
 11
2971.033047002602
 21
1551.128414057749
 31
0.0
  0
LINE
  5
3C3
330
6F
100
AcDbEntity
  8
3-0
  6
DASHED2
 62
     7
100
AcDbLine
 10
2956.857627002602
 20
1556.128414057749
 30
0.0
 11
2956.857627002602
 21
1551.128414057749
 31
0.0
  0
LINE
  5
3C4
330
6F
100
AcDbEntity
  8
3-0
  6
DASHED2
 62
     7
100
AcDbLine
 10
2953.713127002602
 20
1564.362416057749
 30
0.0
 11
2953.713127002602
 21
1556.128414057749
 31
0.0
  0
ARC
  5
3C5
330
6F
100
AcDbEntity
  8
3-0
  6
DASHED2
 62
     7
100
AcDbCircle
 10
2958.713127002602
 20
1564.362416057749
 30
0.0
 40
5.0
100
AcDbArc
 50
90.0
 51
180.0
  0
LINE
  5
3C6
330
6F
100
AcDbEntity
  8
3-0
  6
DASHED2
 62
     7
100
AcDbLine
 10
2953.713127002602
 20
1556.128414057749
 30
0.0
 11
2977.669826002602
 21
1556.128414057749
 31
0.0
  0
ARC
  5
3C7
330
6F
100
AcDbEntity
  8
3-0
  6
DASHED2
 62
     7
100
AcDbCircle
 10
2977.669826002602
 20
1541.128414057749
 30
0.0
 40
15.0
100
AcDbArc
 50
63.399
 51
90.0
  0
LINE
  5
3C8
330
6F
100
AcDbEntity
  8
3-0
  6
DASHED2
 62
     7
100
AcDbLine
 10
2958.713127002602
 20
1569.362416057749
 30
0.0
 11
2973.576097002602
 21
1569.362416057749
 31
0.0
  0
ARC
  5
3C9
330
6F
100
AcDbEntity
  8
3-0
  6
DASHED2
 62
     7
100
AcDbCircle
 10
2973.576097002602
 20
1554.362416057749
 30
0.0
 40
15.0
100
AcDbArc
 50
63.399
 51
90.0
  0
ARC
  5
3CA
330
6F
100
AcDbEntity
  8
3-0
  6
DASHED2
 62
     7
100
AcDbCircle
 10
3172.317799002602
 20
1411.534130057749
 30
0.0
 40
117.858548
100
AcDbArc
 50
48.942
 51
89.244
  0
ARC
  5
3CB
330
6F
100
AcDbEntity
  8
3-0
  6
DASHED2
 62
     7
100
AcDbCircle
 10
3246.445337002602
 20
1496.635012057749
 30
0.0
 40
5.0
100
AcDbArc
 50
0.0
 51
48.942
  0
ARC
  5
3CC
330
6F
100
AcDbEntity
  8
3-0
  6
DASHED2
 62
     7
100
AcDbCircle
 10
3169.197032002602
 20
1489.832371057749
 30
0.0
 40
27.649233
100
AcDbArc
 50
9.769
 51
56.05700000000001
  0
LINE
  5
3CD
330
6F
100
AcDbEntity
  8
3-0
  6
Continuous
 62
     7
100
AcDbLine
 10
3283.945337
 20
1479.128414
 30
0.0
 11
3283.945337
 21
1394.128414
 31
0.0
  0
LINE
  5
3CE
330
6F
100
AcDbEntity
  8
3-0
  6
Continuous
 62
     7
100
AcDbLine
 10
3308.945337
 20
1484.128414
 30
0.0
 11
3308.945337
 21
1369.128414
 31
0.0
  0
LINE
  5
3CF
330
6F
100
AcDbEntity
  8
3-0
  6
DASHED2
 62
     7
100
AcDbLine
 10
3308.945337
 20
1344.128414
 30
0.0
 11
3293.945337
 21
1369.128414
 31
0.0
  0
LINE
  5
3D0
330
6F
100
AcDbEntity
  8
3-0
  6
DASHED2
 62
     7
100
AcDbLine
 10
3308.945337
 20
1344.128414
 30
0.0
 11
3293.945337
 21
1344.128414
 31
0.0
  0
ARC
  5
3D1
330
6F
100
AcDbEntity
  8
3-0
  6
Continuous
 62
     7
100
AcDbCircle
 10
3288.945337
 20
1479.128414
 30
0.0
 40
5.0
100
AcDbArc
 50
90.0
 51
180.0
  0
LINE
  5
3D2
330
6F
100
AcDbEntity
  8
3-0
  6
Continuous
 62
     7
100
AcDbLine
 10
3308.945337
 20
1484.128414
 30
0.0
 11
3288.945337
 21
1484.128414
 31
0.0
  0
ARC
  5
3D3
330
6F
100
AcDbEntity
  8
3-0
  6
Continuous
 62
     7
100
AcDbCircle
 10
2760.945337
 20
1371.128414
 30
0.0
 40
2.0
100
AcDbArc
 50
180.0
 51
270.0
  0
ARC
  5
3D4
330
6F
100
AcDbEntity
  8
3-0
  6
Continuous
 62
     7
100
AcDbCircle
 10
2760.945337
 20
1392.128414
 30
0.0
 40
2.0
100
AcDbArc
 50
90.0
 51
180.0
  0
LINE
  5
3D5
330
6F
100
AcDbEntity
  8
3-0
  6
Continuous
 62
     7
100
AcDbLine
 10
2780.945337
 20
1369.128414
 30
0.0
 11
2765.945337
 21
1369.128414
 31
0.0
  0
LINE
  5
3D6
330
6F
100
AcDbEntity
  8
3-0
  6
Continuous
 62
     7
100
AcDbLine
 10
2758.945337
 20
1392.128414
 30
0.0
 11
2758.945337
 21
1371.128414
 31
0.0
  0
LINE
  5
3D7
330
6F
100
AcDbEntity
  8
3-0
  6
DASHED2
 62
     7
100
AcDbLine
 10
2913.945337
 20
1241.128414
 30
0.0
 11
3093.945337
 21
1241.128414
 31
0.0
  0
LINE
  5
3D8
330
6F
100
AcDbEntity
  8
3-0
  6
DASHED2
 62
     7
100
AcDbLine
 10
3091.697680000001
 20
1227.128414
 30
0.0
 11
3081.945337
 21
1227.128414
 31
0.0
  0
LINE
  5
3D9
330
6F
100
AcDbEntity
  8
3-0
  6
DASHED2
 62
     7
100
AcDbLine
 10
3091.697680000001
 20
1241.128414
 30
0.0
 11
3091.697680000001
 21
1227.128414
 31
0.0
  0
LINE
  5
3DA
330
6F
100
AcDbEntity
  8
3-0
  6
DASHED2
 62
     7
100
AcDbLine
 10
3093.945337
 20
1246.128414
 30
0.0
 11
3093.945337
 21
1241.128414
 31
0.0
  0
LINE
  5
3DB
330
6F
100
AcDbEntity
  8
3-0
  6
DASHED2
 62
     7
100
AcDbLine
 10
2940.518993702837
 20
1152.128414461611
 30
0.0
 11
2940.518993702837
 21
1099.028414461611
 31
0.0
  0
ARC
  5
3DC
330
6F
100
AcDbEntity
  8
3-0
  6
DASHED2
 62
     7
100
AcDbCircle
 10
2950.518994
 20
1099.028414
 30
0.0
 40
10.0
100
AcDbArc
 50
180.00000000029
 51
269.999999999997
  0
LINE
  5
3DD
330
6F
100
AcDbEntity
  8
3-0
  6
DASHED2
 62
     7
100
AcDbLine
 10
2950.518993702837
 20
1089.02841446161
 30
0.0
 11
3057.371680302382
 21
1089.02841446161
 31
0.0
  0
ARC
  5
3DE
330
6F
100
AcDbEntity
  8
3-0
  6
DASHED2
 62
     7
100
AcDbCircle
 10
3057.371680000001
 20
1099.028414
 30
0.0
 40
10.0
100
AcDbArc
 50
270.000000000003
 51
359.99999999971
  0
LINE
  5
3DF
330
6F
100
AcDbEntity
  8
3-0
  6
DASHED2
 62
     7
100
AcDbLine
 10
3067.371680302382
 20
1099.028414461611
 30
0.0
 11
3067.371680302382
 21
1152.128414461611
 31
0.0
  0
LINE
  5
3E0
330
6F
100
AcDbEntity
  8
3-0
  6
DASHED2
 62
     7
100
AcDbLine
 10
3033.945337002613
 20
1089.02841446161
 30
0.0
 11
3033.945337002613
 21
1058.128414057751
 31
0.0
  0
LINE
  5
3E1
330
6F
100
AcDbEntity
  8
3-0
  6
DASHED2
 62
     7
100
AcDbLine
 10
3033.945337002613
 20
1058.128414057751
 30
0.0
 11
2973.945337002613
 21
1058.128414057751
 31
0.0
  0
LINE
  5
3E2
330
6F
100
AcDbEntity
  8
3-0
  6
DASHED2
 62
     7
100
AcDbLine
 10
2973.945337002613
 20
1058.128414057751
 30
0.0
 11
2973.945337002613
 21
1089.02841446161
 31
0.0
  0
LINE
  5
3E3
330
6F
100
AcDbEntity
  8
3-0
  6
DASHED2
 62
     7
100
AcDbLine
 10
2925.945337
 20
1223.92689
 30
0.0
 11
2935.034136
 21
1218.92689
 31
0.0
  0
LINE
  5
3E4
330
6F
100
AcDbEntity
  8
3-0
  6
DASHED2
 62
     7
100
AcDbLine
 10
3081.945337
 20
1223.92689
 30
0.0
 11
3072.856538
 21
1218.92689
 31
0.0
  0
LINE
  5
3E5
330
6F
100
AcDbEntity
  8
3-0
  6
DASHED2
 62
     7
100
AcDbLine
 10
2935.034136
 20
1218.92689
 30
0.0
 11
2935.034136
 21
1154.34318
 31
0.0
  0
LINE
  5
3E6
330
6F
100
AcDbEntity
  8
3-0
  6
DASHED2
 62
     7
100
AcDbLine
 10
3072.856538
 20
1218.92689
 30
0.0
 11
3072.856538
 21
1154.34318
 31
0.0
  0
LINE
  5
3E7
330
6F
100
AcDbEntity
  8
3-0
  6
DASHED2
 62
     7
100
AcDbLine
 10
2935.034135859381
 20
1152.128414461611
 30
0.0
 11
3072.856538145843
 21
1152.128414461611
 31
0.0
  0
LINE
  5
3E8
330
6F
100
AcDbEntity
  8
3-0
  6
DASHED2
 62
     7
100
AcDbLine
 10
2935.034136
 20
1218.92689
 30
0.0
 11
3072.856538
 21
1218.92689
 31
0.0
  0
LINE
  5
3E9
330
6F
100
AcDbEntity
  8
3-0
  6
DASHED2
 62
     7
100
AcDbLine
 10
2916.192994
 20
1227.128414
 30
0.0
 11
2925.945337
 21
1227.128414
 31
0.0
  0
CIRCLE
  5
3EA
330
6F
100
AcDbEntity
  8
6-0
  6
Continuous
 62
     7
100
AcDbCircle
 10
3001.445337
 20
1246.128414
 30
0.0
 40
0.25
  0
CIRCLE
  5
3EB
330
6F
100
AcDbEntity
  8
6-0
  6
Continuous
 62
     7
100
AcDbCircle
 10
3001.445337
 20
1246.128414
 30
0.0
 40
0.1875
  0
CIRCLE
  5
3EC
330
6F
100
AcDbEntity
  8
6-0
  6
Continuous
 62
     7
100
AcDbCircle
 10
3001.445337
 20
1246.128414
 30
0.0
 40
0.125
  0
CIRCLE
  5
3ED
330
6F
100
AcDbEntity
  8
6-0
  6
Continuous
 62
     7
100
AcDbCircle
 10
3001.445337
 20
1246.128414
 30
0.0
 40
0.0625
  0
LINE
  5
3EE
330
6F
100
AcDbEntity
  8
3-0
  6
DASHED2
 62
     7
100
AcDbLine
 10
2925.945337
 20
1241.128414
 30
0.0
 11
2925.945337
 21
1223.92689
 31
0.0
  0
LINE
  5
3EF
330
6F
100
AcDbEntity
  8
3-0
  6
DASHED2
 62
     7
100
AcDbLine
 10
3081.945337
 20
1241.128414
 30
0.0
 11
3081.945337
 21
1223.92689
 31
0.0
  0
LINE
  5
3F0
330
6F
100
AcDbEntity
  8
3-0
  6
DASHED2
 62
     7
100
AcDbLine
 10
2925.945337
 20
1223.92689
 30
0.0
 11
3081.945337
 21
1223.92689
 31
0.0
  0
LINE
  5
3F1
330
6F
100
AcDbEntity
  8
3-0
  6
DASHED2
 62
     7
100
AcDbLine
 10
2913.945337
 20
1246.128414
 30
0.0
 11
2913.945337
 21
1241.128414
 31
0.0
  0
LINE
  5
3F2
330
6F
100
AcDbEntity
  8
3-0
  6
DASHED2
 62
     7
100
AcDbLine
 10
2916.192994
 20
1241.128414
 30
0.0
 11
2916.192994
 21
1227.128414
 31
0.0
  0
TEXT
  5
3F3
330
6F
100
AcDbEntity
  8
D-0
 62
     5
100
AcDbText
 10
3422.311
 20
1186.579
 30
0.0
 40
25.92
  1
水栓接続
100
AcDbText
  0
TEXT
  5
3F4
330
6F
100
AcDbEntity
  8
D-0
 62
     5
100
AcDbText
 10
3420.525
 20
1136.036
 30
0.0
 40
25.92
  1
参考位置
100
AcDbText
  0
TEXT
  5
3F5
330
6F
100
AcDbEntity
  8
D-0
 62
     5
100
AcDbText
 10
3245.542
 20
503.243
 30
0.0
 40
25.92
  1
排水穴 φ110 （工場加工）
100
AcDbText
  0
TEXT
  5
3F6
330
6F
100
AcDbEntity
  8
D-0
 62
     5
100
AcDbText
 10
3387.298
 20
458.422
 30
0.0
 40
25.92
  1
  （回転板付き）
100
AcDbText
  0
LINE
  5
3F7
330
6F
100
AcDbEntity
  8
3-0
  6
Continuous
 62
     7
100
AcDbLine
 10
2782.545337
 20
684.1284139999999
 30
0.0
 11
2766.945337000001
 21
684.1284139999999
 31
0.0
  0
LINE
  5
3F8
330
6F
100
AcDbEntity
  8
A-0
  6
Continuous
 62
     4
100
AcDbLine
 10
3308.945337372672
 20
564.128414
 30
0.0
 11
3308.945337372672
 21
344.128414
 31
0.0
  0
LINE
  5
3F9
330
6F
100
AcDbEntity
  8
A-0
  6
Continuous
 62
     4
100
AcDbLine
 10
2766.945337372672
 20
664.128414
 30
0.0
 11
2766.945337372672
 21
344.128414
 31
0.0
  0
TEXT
  5
3FA
330
6F
100
AcDbEntity
  8
A-0
 62
     4
100
AcDbText
 10
3007.168
 20
344.748
 30
0.0
 40
36.288
  1
542
100
AcDbText
  0
LINE
  5
3FB
330
6F
100
AcDbEntity
  8
A-0
  6
Continuous
 62
     4
100
AcDbLine
 10
2766.94533700261
 20
344.12841405775
 30
0.0
 11
3308.945337002614
 21
344.12841405775
 31
0.0
  0
CIRCLE
  5
3FC
330
6F
100
AcDbEntity
  8
A-0
  6
Continuous
 62
     4
100
AcDbCircle
 10
2766.94533700261
 20
344.12841405775
 30
0.0
 40
0.25
  0
CIRCLE
  5
3FD
330
6F
100
AcDbEntity
  8
A-0
  6
Continuous
 62
     4
100
AcDbCircle
 10
2766.94533700261
 20
344.12841405775
 30
0.0
 40
0.1875
  0
CIRCLE
  5
3FE
330
6F
100
AcDbEntity
  8
A-0
  6
Continuous
 62
     4
100
AcDbCircle
 10
2766.94533700261
 20
344.12841405775
 30
0.0
 40
0.125
  0
CIRCLE
  5
3FF
330
6F
100
AcDbEntity
  8
A-0
  6
Continuous
 62
     4
100
AcDbCircle
 10
2766.94533700261
 20
344.12841405775
 30
0.0
 40
0.0625
  0
CIRCLE
  5
400
330
6F
100
AcDbEntity
  8
A-0
  6
Continuous
 62
     4
100
AcDbCircle
 10
3308.945337002614
 20
344.12841405775
 30
0.0
 40
0.25
  0
CIRCLE
  5
401
330
6F
100
AcDbEntity
  8
A-0
  6
Continuous
 62
     4
100
AcDbCircle
 10
3308.945337002614
 20
344.12841405775
 30
0.0
 40
0.1875
  0
CIRCLE
  5
402
330
6F
100
AcDbEntity
  8
A-0
  6
Continuous
 62
     4
100
AcDbCircle
 10
3308.945337002614
 20
344.12841405775
 30
0.0
 40
0.125
  0
CIRCLE
  5
403
330
6F
100
AcDbEntity
  8
A-0
  6
Continuous
 62
     4
100
AcDbCircle
 10
3308.945337002614
 20
344.12841405775
 30
0.0
 40
0.0625
  0
LINE
  5
404
330
6F
100
AcDbEntity
  8
3-0
  6
Continuous
 62
     7
100
AcDbLine
 10
2766.945337000001
 20
684.1284139999999
 30
0.0
 11
2766.945337000001
 21
1336.128414
 31
0.0
  0
LINE
  5
405
330
6F
100
AcDbEntity
  8
3-0
  6
Continuous
 62
     7
100
AcDbLine
 10
2766.945337000001
 20
1306.343511
 30
0.0
 11
2766.945337000001
 21
1316.343511
 31
0.0
  0
LINE
  5
406
330
6F
100
AcDbEntity
  8
3-0
  6
Continuous
 62
     7
100
AcDbLine
 10
2766.945337000001
 20
1336.128414
 30
0.0
 11
2781.945337
 21
1336.128414
 31
0.0
  0
LINE
  5
407
330
6F
100
AcDbEntity
  8
3-0
  6
Continuous
 62
     7
100
AcDbLine
 10
2782.545337
 20
1336.128414
 30
0.0
 11
2766.945337000001
 21
1336.128414
 31
0.0
  0
LINE
  5
409
330
6F
100
AcDbEntity
  8
1-0
  6
Continuous
 62
     7
100
AcDbLine
 10
2782.545337
 20
1336.128414
 30
0.0
 11
2782.545337
 21
1321.128414
 31
0.0
  0
LINE
  5
40A
330
6F
100
AcDbEntity
  8
1-0
  6
Continuous
 62
     7
100
AcDbLine
 10
2766.945337000001
 20
1336.128414
 30
0.0
 11
2766.945337000001
 21
1329.928414
 31
0.0
  0
LINE
  5
40B
330
6F
100
AcDbEntity
  8
1-0
  6
Continuous
 62
     7
100
AcDbLine
 10
2782.545337
 20
1336.128414
 30
0.0
 11
2782.545337
 21
684.1284139999999
 31
0.0
  0
LINE
  5
40C
330
6F
100
AcDbEntity
  8
B-0
  6
CENTER
 62
     6
100
AcDbLine
 10
3437.77096
 20
994.128414
 30
0.0
 11
3223.945337
 21
994.128414
 31
0.0
  0
LINE
  5
40D
330
6F
100
AcDbEntity
  8
3-0
  6
CENTER
 62
     8
100
AcDbLine
 10
1249.020115630781
 20
1189.188512623663
 30
0.0
 11
854.520115630779
 21
939.188512623663
 31
0.0
  0
LINE
  5
40E
330
6F
100
AcDbEntity
  8
3-0
  6
CENTER
 62
     8
100
AcDbLine
 10
854.520115630779
 20
939.188512623663
 30
0.0
 11
1248.520115630778
 21
684.510889361968
 31
0.0
  0
LINE
  5
40F
330
6F
100
AcDbEntity
  8
3-0
  6
Continuous
 62
     7
100
AcDbLine
 10
1248.520115630778
 20
684.5108893619699
 30
0.0
 11
854.52011563078
 21
684.5108893619699
 31
0.0
  0
LINE
  5
410
330
6F
100
AcDbEntity
  8
3-0
  6
Continuous
 62
     7
100
AcDbLine
 10
854.52011563078
 20
684.5108893619699
 30
0.0
 11
854.520115630779
 21
1189.51088936197
 31
0.0
  0
LINE
  5
411
330
6F
100
AcDbEntity
  8
3-0
  6
Continuous
 62
     7
100
AcDbLine
 10
854.520115630779
 20
1189.51088936197
 30
0.0
 11
1248.520115630781
 21
1189.51088936197
 31
0.0
  0
LINE
  5
412
330
6F
100
AcDbEntity
  8
3-0
  6
Continuous
 62
     7
100
AcDbLine
 10
1248.520115630781
 20
1189.51088936197
 30
0.0
 11
1248.520115630778
 21
684.5108893619699
 31
0.0
  0
LINE
  5
413
330
6F
100
AcDbEntity
  8
3-0
  6
CENTER
 62
     8
100
AcDbLine
 10
1572.520115630774
 20
1359.51088936197
 30
0.0
 11
1890.520115630776
 21
1022.01088936197
 31
0.0
  0
LINE
  5
414
330
6F
100
AcDbEntity
  8
3-0
  6
CENTER
 62
     8
100
AcDbLine
 10
1890.520115630776
 20
1022.01088936197
 30
0.0
 11
1572.520115630777
 21
684.510889361968
 31
0.0
  0
LINE
  5
415
330
6F
100
AcDbEntity
  8
3-0
  6
Continuous
 62
     7
100
AcDbLine
 10
1572.520115630777
 20
684.5108893619699
 30
0.0
 11
1890.520115630776
 21
684.5108893619699
 31
0.0
  0
LINE
  5
416
330
6F
100
AcDbEntity
  8
3-0
  6
Continuous
 62
     7
100
AcDbLine
 10
1890.520115630776
 20
684.5108893619699
 30
0.0
 11
1890.520115630778
 21
1359.51088936197
 31
0.0
  0
LINE
  5
417
330
6F
100
AcDbEntity
  8
3-0
  6
Continuous
 62
     7
100
AcDbLine
 10
1890.520115630778
 20
1359.51088936197
 30
0.0
 11
1572.520115630774
 21
1359.51088936197
 31
0.0
  0
LINE
  5
418
330
6F
100
AcDbEntity
  8
3-0
  6
Continuous
 62
     7
100
AcDbLine
 10
1572.520115630774
 20
1359.51088936197
 30
0.0
 11
1572.520115630777
 21
684.5108893619699
 31
0.0
  0
LINE
  5
419
330
6F
100
AcDbEntity
  8
3-0
  6
CENTER
 62
     8
100
AcDbLine
 10
1571.520115630778
 20
1359.51088936197
 30
0.0
 11
1253.520115630776
 21
1024.510889361969
 31
0.0
  0
LINE
  5
41A
330
6F
100
AcDbEntity
  8
3-0
  6
CENTER
 62
     8
100
AcDbLine
 10
1253.520115630776
 20
1024.510889361969
 30
0.0
 11
1571.520115630778
 21
684.5108893619699
 31
0.0
  0
LINE
  5
41B
330
6F
100
AcDbEntity
  8
3-0
  6
Continuous
 62
     7
100
AcDbLine
 10
1571.520115630778
 20
684.5108893619699
 30
0.0
 11
1253.520115630776
 21
684.5108893619699
 31
0.0
  0
LINE
  5
41C
330
6F
100
AcDbEntity
  8
3-0
  6
Continuous
 62
     7
100
AcDbLine
 10
1253.520115630776
 20
684.5108893619699
 30
0.0
 11
1253.520115630776
 21
1359.51088936197
 31
0.0
  0
LINE
  5
41D
330
6F
100
AcDbEntity
  8
3-0
  6
Continuous
 62
     7
100
AcDbLine
 10
1253.520115630776
 20
1359.51088936197
 30
0.0
 11
1571.520115630778
 21
1359.51088936197
 31
0.0
  0
LINE
  5
41E
330
6F
100
AcDbEntity
  8
3-0
  6
Continuous
 62
     7
100
AcDbLine
 10
1571.520115630778
 20
1359.51088936197
 30
0.0
 11
1571.520115630778
 21
684.5108893619699
 31
0.0
  0
LINE
  5
41F
330
6F
100
AcDbEntity
  8
3-0
  6
DASHED2
 62
     7
100
AcDbLine
 10
1233.520115630779
 20
1209.51088936197
 30
0.0
 11
869.5201156307801
 21
1209.51088936197
 31
0.0
  0
LINE
  5
420
330
6F
100
AcDbEntity
  8
3-0
  6
DASHED2
 62
     7
100
AcDbLine
 10
869.5201156307801
 20
1209.51088936197
 30
0.0
 11
869.5201156307801
 21
1279.51088936197
 31
0.0
  0
LINE
  5
421
330
6F
100
AcDbEntity
  8
3-0
  6
DASHED2
 62
     7
100
AcDbLine
 10
869.5201156307801
 20
1279.51088936197
 30
0.0
 11
1233.520115630779
 21
1279.51088936197
 31
0.0
  0
LINE
  5
422
330
6F
100
AcDbEntity
  8
3-0
  6
DASHED2
 62
     7
100
AcDbLine
 10
1233.520115630779
 20
1279.51088936197
 30
0.0
 11
1233.520115630779
 21
1209.51088936197
 31
0.0
  0
LINE
  5
423
330
6F
100
AcDbEntity
  8
3-0
  6
CENTER
 62
     8
100
AcDbLine
 10
854.5201160000001
 20
1359.510889
 30
0.0
 11
1248.520116
 21
1194.510889
 31
0.0
  0
LINE
  5
424
330
6F
100
AcDbEntity
  8
3-0
  6
Continuous
 62
     7
100
AcDbLine
 10
1248.520115630781
 20
1194.51088936197
 30
0.0
 11
854.52011563078
 21
1194.51088936197
 31
0.0
  0
LINE
  5
425
330
6F
100
AcDbEntity
  8
3-0
  6
Continuous
 62
     7
100
AcDbLine
 10
854.52011563078
 20
1194.51088936197
 30
0.0
 11
854.52011563078
 21
1359.51088936197
 31
0.0
  0
LINE
  5
426
330
6F
100
AcDbEntity
  8
3-0
  6
Continuous
 62
     7
100
AcDbLine
 10
854.52011563078
 20
1359.51088936197
 30
0.0
 11
1248.520115630781
 21
1359.51088936197
 31
0.0
  0
LINE
  5
427
330
6F
100
AcDbEntity
  8
3-0
  6
Continuous
 62
     7
100
AcDbLine
 10
1248.520115630781
 20
1359.51088936197
 30
0.0
 11
1248.520115630781
 21
1194.51088936197
 31
0.0
  0
LINE
  5
428
330
6F
100
AcDbEntity
  8
3-0
  6
Continuous
 62
     7
100
AcDbLine
 10
1595.520116
 20
684.510889
 30
0.0
 11
851.520116
 21
684.510889
 31
0.0
  0
LINE
  5
429
330
6F
100
AcDbEntity
  8
4-0
  6
Continuous
 62
     7
100
AcDbLine
 10
1890.520116
 20
1352.510889
 30
0.0
 11
1572.520116
 21
1352.510889
 31
0.0
  0
LINE
  5
42A
330
6F
100
AcDbEntity
  8
4-0
  6
Continuous
 62
     7
100
AcDbLine
 10
1890.520116
 20
1332.810889
 30
0.0
 11
1572.520116
 21
1332.810889
 31
0.0
  0
LINE
  5
42B
330
6F
100
AcDbEntity
  8
4-0
  6
Continuous
 62
     7
100
AcDbLine
 10
1571.520116
 20
1352.510889
 30
0.0
 11
1253.520116
 21
1352.510889
 31
0.0
  0
LINE
  5
42C
330
6F
100
AcDbEntity
  8
4-0
  6
Continuous
 62
     7
100
AcDbLine
 10
1571.520116
 20
1332.810889
 30
0.0
 11
1253.520116
 21
1332.810889
 31
0.0
  0
LINE
  5
42D
330
6F
100
AcDbEntity
  8
4-0
  6
Continuous
 62
     7
100
AcDbLine
 10
1248.520116
 20
1352.510889
 30
0.0
 11
854.5201160000001
 21
1352.510889
 31
0.0
  0
LINE
  5
42E
330
6F
100
AcDbEntity
  8
4-0
  6
Continuous
 62
     7
100
AcDbLine
 10
1248.520116
 20
1332.810889
 30
0.0
 11
854.5201160000001
 21
1332.810889
 31
0.0
  0
LINE
  5
42F
330
6F
100
AcDbEntity
  8
4-0
  6
Continuous
 62
     7
100
AcDbLine
 10
1249.020116
 20
1182.188513
 30
0.0
 11
854.5201160000001
 21
1182.188513
 31
0.0
  0
LINE
  5
430
330
6F
100
AcDbEntity
  8
4-0
  6
Continuous
 62
     7
100
AcDbLine
 10
1249.020116
 20
1162.488513
 30
0.0
 11
854.5201160000001
 21
1162.488513
 31
0.0
  0
LINE
  5
431
330
6F
100
AcDbEntity
  8
4-0
  6
Continuous
 62
     7
100
AcDbLine
 10
1249.020116
 20
1156.288513
 30
0.0
 11
854.5201160000001
 21
1156.288513
 31
0.0
  0
LINE
  5
432
330
6F
100
AcDbEntity
  8
D-0
  6
Continuous
 62
     5
100
AcDbLine
 10
2664.939063
 20
2670.037911
 30
0.0
 11
3759.973455
 21
2670.037911
 31
0.0
  0
LINE
  5
433
330
6F
100
AcDbEntity
  8
D-0
  6
Continuous
 62
     5
100
AcDbLine
 10
2664.939063
 20
2620.037911
 30
0.0
 11
3759.973455
 21
2620.037911
 31
0.0
  0
LINE
  5
434
330
6F
100
AcDbEntity
  8
D-0
  6
Continuous
 62
     5
100
AcDbLine
 10
2664.939063
 20
2470.037911
 30
0.0
 11
3759.973455
 21
2470.037911
 31
0.0
  0
LINE
  5
435
330
6F
100
AcDbEntity
  8
D-0
  6
Continuous
 62
     5
100
AcDbLine
 10
2664.939063
 20
2720.037911
 30
0.0
 11
3759.973455
 21
2720.037911
 31
0.0
  0
TEXT
  5
436
330
6F
100
AcDbEntity
  8
D-0
 62
     5
100
AcDbText
 10
2704.53
 20
1956.266
 30
0.0
 40
25.92
  1
※　弊社製品はすべてF☆☆☆☆に対応しております。
100
AcDbText
  0
LINE
  5
437
330
6F
100
AcDbEntity
  8
D-0
  6
Continuous
 62
     5
100
AcDbLine
 10
2664.939063
 20
2020.037911
 30
0.0
 11
3759.973455
 21
2020.037911
 31
0.0
  0
LINE
  5
438
330
6F
100
AcDbEntity
  8
D-0
  6
Continuous
 62
     5
100
AcDbLine
 10
2664.939063
 20
2070.037911
 30
0.0
 11
3759.973455
 21
2070.037911
 31
0.0
  0
LINE
  5
439
330
6F
100
AcDbEntity
  8
D-0
  6
Continuous
 62
     5
100
AcDbLine
 10
2664.939063
 20
2120.037911
 30
0.0
 11
3759.973455
 21
2120.037911
 31
0.0
  0
LINE
  5
43A
330
6F
100
AcDbEntity
  8
D-0
  6
Continuous
 62
     5
100
AcDbLine
 10
2664.939063
 20
2170.037911
 30
0.0
 11
3759.973455
 21
2170.037911
 31
0.0
  0
LINE
  5
43B
330
6F
100
AcDbEntity
  8
D-0
  6
Continuous
 62
     5
100
AcDbLine
 10
2664.939063
 20
2220.037911
 30
0.0
 11
3759.973455
 21
2220.037911
 31
0.0
  0
TEXT
  5
43C
330
6F
100
AcDbEntity
  8
D-0
 62
     5
100
AcDbText
 10
2704.53
 20
2082.483
 30
0.0
 40
25.92
  1
ホース
100
AcDbText
  0
LINE
  5
43D
330
6F
100
AcDbEntity
  8
D-0
  6
Continuous
 62
     5
100
AcDbLine
 10
2664.939063
 20
2720.037911
 30
0.0
 11
2664.939063
 21
2020.037911
 31
0.0
  0
TEXT
  5
43E
330
6F
100
AcDbEntity
  8
D-0
 62
     5
100
AcDbText
 10
2704.53
 20
2032.483
 30
0.0
 40
25.92
  1
包丁差し
100
AcDbText
  0
TEXT
  5
43F
330
6F
100
AcDbEntity
  8
D-0
 62
     5
100
AcDbText
 10
2704.53
 20
2182.483
 30
0.0
 40
25.92
  1
丁番
100
AcDbText
  0
TEXT
  5
440
330
6F
100
AcDbEntity
  8
D-0
 62
     5
100
AcDbText
 10
2704.53
 20
2132.483
 30
0.0
 40
25.92
  1
排水金具
100
AcDbText
  0
TEXT
  5
441
330
6F
100
AcDbEntity
  8
D-0
 62
     5
100
AcDbText
 10
2704.53
 20
2432.483
 30
0.0
 40
25.92
  1
扉
100
AcDbText
  0
TEXT
  5
442
330
6F
100
AcDbEntity
  8
D-0
 62
     5
100
AcDbText
 10
2704.53
 20
2582.483
 30
0.0
 40
25.92
  1
木部本体
100
AcDbText
  0
TEXT
  5
443
330
6F
100
AcDbEntity
  8
D-0
 62
     5
100
AcDbText
 10
2704.53
 20
2632.483
 30
0.0
 40
25.92
  1
シンク
100
AcDbText
  0
TEXT
  5
444
330
6F
100
AcDbEntity
  8
D-0
 62
     5
100
AcDbText
 10
2704.53
 20
2682.483
 30
0.0
 40
25.92
  1
天板
100
AcDbText
  0
TEXT
  5
445
330
6F
100
AcDbEntity
  8
D-0
 62
     5
100
AcDbText
 10
3038.95
 20
2082.483
 30
0.0
 40
25.92
  1
塩化ビニール蛇腹30Φｘ80ｃｍ（回転板付）
100
AcDbText
  0
LINE
  5
446
330
6F
100
AcDbEntity
  8
D-0
  6
Continuous
 62
     5
100
AcDbLine
 10
3759.973455
 20
2720.037911
 30
0.0
 11
3759.973455
 21
2020.037911
 31
0.0
  0
LINE
  5
447
330
6F
100
AcDbEntity
  8
D-0
  6
Continuous
 62
     5
100
AcDbLine
 10
3008.822441
 20
2720.037911
 30
0.0
 11
3008.822441
 21
2020.037911
 31
0.0
  0
TEXT
  5
448
330
6F
100
AcDbEntity
  8
D-0
 62
     5
100
AcDbText
 10
3038.95
 20
2032.483
 30
0.0
 40
25.92
  1
塩化ビニール製　3本収納
100
AcDbText
  0
TEXT
  5
449
330
6F
100
AcDbEntity
  8
D-0
 62
     5
100
AcDbText
 10
3038.95
 20
2132.483
 30
0.0
 40
25.92
  1
180Φ大型排水トラップ付（\U+FF76
100
AcDbText
  0
TEXT
  5
44A
330
6F
100
AcDbEntity
  8
D-0
 62
     5
100
AcDbText
 10
2877.289000000001
 20
2332.483
 30
0.0
 40
25.92
  1
裏
100
AcDbText
  0
TEXT
  5
44B
330
6F
100
AcDbEntity
  8
D-0
 62
     5
100
AcDbText
 10
3038.95
 20
2332.483
 30
0.0
 40
25.92
  1
ウレタンコート化粧ボード（PB)
100
AcDbText
  0
LINE
  5
44C
330
6F
100
AcDbEntity
  8
D-0
  6
Continuous
 62
     5
100
AcDbLine
 10
2857.350015
 20
2620.037911
 30
0.0
 11
2857.350015
 21
2220.037911
 31
0.0
  0
TEXT
  5
44D
330
6F
100
AcDbEntity
  8
D-0
 62
     5
100
AcDbText
 10
3038.95
 20
2282.483
 30
0.0
 40
25.92
  1
木口テープ巻
100
AcDbText
  0
TEXT
  5
44E
330
6F
100
AcDbEntity
  8
D-0
 62
     5
100
AcDbText
 10
3038.95
 20
2182.483
 30
0.0
 40
25.92
  1
スライドヒンジ
100
AcDbText
  0
TEXT
  5
44F
330
6F
100
AcDbEntity
  8
D-0
 62
     5
100
AcDbText
 10
2877.289000000001
 20
2282.483
 30
0.0
 40
25.92
  1
木口
100
AcDbText
  0
TEXT
  5
450
330
6F
100
AcDbEntity
  8
D-0
 62
     5
100
AcDbText
 10
3038.95
 20
2532.483
 30
0.0
 40
25.92
  1
クリーンイーゴスMDF
100
AcDbText
  0
TEXT
  5
451
330
6F
100
AcDbEntity
  8
D-0
 62
     5
100
AcDbText
 10
3038.95
 20
2482.483
 30
0.0
 40
25.92
  1
EBコート化粧板
100
AcDbText
  0
TEXT
  5
452
330
6F
100
AcDbEntity
  8
D-0
 62
     5
100
AcDbText
 10
3038.95
 20
2432.483
 30
0.0
 40
25.92
  1
プレコート(PB)
100
AcDbText
  0
TEXT
  5
453
330
6F
100
AcDbEntity
  8
D-0
 62
     5
100
AcDbText
 10
3038.95
 20
2582.483
 30
0.0
 40
25.92
  1
ウレタンコート化粧ボード（PB)
100
AcDbText
  0
TEXT
  5
454
330
6F
100
AcDbEntity
  8
D-0
 62
     5
100
AcDbText
 10
2877.289000000001
 20
2482.483
 30
0.0
 40
25.92
  1
地板
100
AcDbText
  0
TEXT
  5
455
330
6F
100
AcDbEntity
  8
D-0
 62
     5
100
AcDbText
 10
2877.289000000001
 20
2432.483
 30
0.0
 40
25.92
  1
表
100
AcDbText
  0
TEXT
  5
456
330
6F
100
AcDbEntity
  8
D-0
 62
     5
100
AcDbText
 10
2877.289000000001
 20
2582.483
 30
0.0
 40
25.92
  1
側板
100
AcDbText
  0
TEXT
  5
457
330
6F
100
AcDbEntity
  8
D-0
 62
     5
100
AcDbText
 10
2877.289000000001
 20
2532.483
 30
0.0
 40
25.92
  1
背板
100
AcDbText
  0
TEXT
  5
458
330
6F
100
AcDbEntity
  8
D-0
 62
     5
100
AcDbText
 10
3038.95
 20
2682.483
 30
0.0
 40
25.92
  1
SUS-430 ステンレス0.4ｔ（エンボス仕上）
100
AcDbText
  0
TEXT
  5
459
330
6F
100
AcDbEntity
  8
D-0
 62
     5
100
AcDbText
 10
3038.95
 20
2632.483
 30
0.0
 40
25.92
  1
SUS-430 ステンレス0.4t　静音シンク
100
AcDbText
  0
TEXT
  5
45A
330
6F
100
AcDbEntity
  8
D-0
 62
     5
100
AcDbText
 10
2879.312
 20
2233.338
 30
0.0
 40
25.92
  1
取っ手
100
AcDbText
  0
TEXT
  5
45B
330
6F
100
AcDbEntity
  8
D-0
 62
     5
100
AcDbText
 10
2705.516
 20
1899.86
 30
0.0
 40
25.92
  1
※　左シンクは本図の左右対称です。
100
AcDbText
  0
TEXT
  5
45C
330
6F
100
AcDbEntity
  8
D-0
 62
     5
100
AcDbText
 10
3038.944000000001
 20
2237.908
 30
0.0
 40
25.92
  1
アルミ製　ラインハンドル
100
AcDbText
  0
TEXT
  5
45D
330
6F
100
AcDbEntity
  8
D-0
 62
     5
100
AcDbText
 10
3033.113
 20
2382.098
 30
0.0
 40
25.92
  1
(SW)は鏡面仕上げ
100
AcDbText
  0
LINE
  5
45E
330
6F
100
AcDbEntity
  8
3-0
  6
Continuous
 62
     7
100
AcDbLine
 10
1501.233319
 20
973.297686
 30
0.0
 11
1458.806912
 21
1015.724093
 31
0.0
  0
LINE
  5
45F
330
6F
100
AcDbEntity
  8
3-0
  6
Continuous
 62
     7
100
AcDbLine
 10
1458.806912
 20
973.297686
 30
0.0
 11
1501.233319
 21
1015.724093
 31
0.0
  0
LINE
  5
460
330
6F
100
AcDbEntity
  8
1-0
  6
Continuous
 62
     7
100
AcDbLine
 10
3164.715324
 20
300.0
 30
0.0
 11
3164.715324
 21
100.0
 31
0.0
  0
LINE
  5
461
330
6F
100
AcDbEntity
  8
5-0
  6
DASHED2
 62
     7
100
AcDbLine
 10
1308.520116
 20
819.510889
 30
0.0
 11
1552.520116
 21
819.510889
 31
0.0
  0
LINE
  5
462
330
6F
100
AcDbEntity
  8
5-0
  6
DASHED2
 62
     7
100
AcDbLine
 10
1300.520116
 20
827.510889
 30
0.0
 11
1300.520116
 21
1049.510889
 31
0.0
  0
LINE
  5
463
330
6F
100
AcDbEntity
  8
5-0
  6
DASHED2
 62
     7
100
AcDbLine
 10
1560.520116
 20
1049.510889
 30
0.0
 11
1560.520116
 21
827.510889
 31
0.0
  0
ARC
  5
464
330
6F
100
AcDbEntity
  8
5-0
  6
DOT
 62
     7
100
AcDbCircle
 10
1552.520116
 20
827.510889
 30
0.0
 40
8.0
100
AcDbArc
 50
270.0
 51
0.0
  0
ARC
  5
465
330
6F
100
AcDbEntity
  8
5-0
  6
DASHED2
 62
     7
100
AcDbCircle
 10
1559.520116
 20
1048.510889
 30
0.0
 40
1.0
100
AcDbArc
 50
0.0
 51
90.0
  0
ARC
  5
466
330
6F
100
AcDbEntity
  8
5-0
  6
DASHED2
 62
     7
100
AcDbCircle
 10
1555.520116
 20
854.5108889999999
 30
0.0
 40
7.0
100
AcDbArc
 50
90.0
 51
270.0
  0
LINE
  5
467
330
6F
100
AcDbEntity
  8
5-0
  6
DASHED2
 62
     7
100
AcDbLine
 10
1555.520116
 20
861.510889
 30
0.0
 11
1560.520116
 21
861.510889
 31
0.0
  0
LINE
  5
468
330
6F
100
AcDbEntity
  8
5-0
  6
DASHED2
 62
     7
100
AcDbLine
 10
1555.520116
 20
847.5108889999999
 30
0.0
 11
1560.520116
 21
847.5108889999999
 31
0.0
  0
CIRCLE
  5
469
330
6F
100
AcDbEntity
  8
5-0
  6
DASHED2
 62
     7
100
AcDbCircle
 10
1555.520116
 20
854.5108889999999
 30
0.0
 40
2.0
  0
ARC
  5
46A
330
6F
100
AcDbEntity
  8
5-0
  6
DASHED2
 62
     7
100
AcDbCircle
 10
1555.520116
 20
1014.510889
 30
0.0
 40
7.0
100
AcDbArc
 50
90.0
 51
270.0
  0
LINE
  5
46B
330
6F
100
AcDbEntity
  8
5-0
  6
DASHED2
 62
     7
100
AcDbLine
 10
1555.520116
 20
1021.510889
 30
0.0
 11
1560.520116
 21
1021.510889
 31
0.0
  0
LINE
  5
46C
330
6F
100
AcDbEntity
  8
5-0
  6
DASHED2
 62
     7
100
AcDbLine
 10
1555.520116
 20
1007.510889
 30
0.0
 11
1560.520116
 21
1007.510889
 31
0.0
  0
CIRCLE
  5
46D
330
6F
100
AcDbEntity
  8
5-0
  6
DASHED2
 62
     7
100
AcDbCircle
 10
1555.520116
 20
1014.510889
 30
0.0
 40
2.0
  0
ARC
  5
46E
330
6F
100
AcDbEntity
  8
5-0
  6
DASHED2
 62
     7
100
AcDbCircle
 10
1305.520116
 20
854.5108889999999
 30
0.0
 40
7.0
100
AcDbArc
 50
270.0
 51
90.0
  0
LINE
  5
46F
330
6F
100
AcDbEntity
  8
5-0
  6
DASHED2
 62
     7
100
AcDbLine
 10
1305.520116
 20
861.510889
 30
0.0
 11
1300.520116
 21
861.510889
 31
0.0
  0
LINE
  5
470
330
6F
100
AcDbEntity
  8
5-0
  6
DASHED2
 62
     7
100
AcDbLine
 10
1305.520116
 20
847.5108889999999
 30
0.0
 11
1300.520116
 21
847.5108889999999
 31
0.0
  0
CIRCLE
  5
471
330
6F
100
AcDbEntity
  8
5-0
  6
DASHED2
 62
     7
100
AcDbCircle
 10
1305.520116
 20
854.5108889999999
 30
0.0
 40
2.0
  0
ARC
  5
472
330
6F
100
AcDbEntity
  8
5-0
  6
DASHED2
 62
     7
100
AcDbCircle
 10
1305.520116
 20
1014.510889
 30
0.0
 40
7.0
100
AcDbArc
 50
270.0
 51
90.0
  0
LINE
  5
473
330
6F
100
AcDbEntity
  8
5-0
  6
DASHED2
 62
     7
100
AcDbLine
 10
1305.520116
 20
1021.510889
 30
0.0
 11
1300.520116
 21
1021.510889
 31
0.0
  0
LINE
  5
474
330
6F
100
AcDbEntity
  8
5-0
  6
DASHED2
 62
     7
100
AcDbLine
 10
1305.520116
 20
1007.510889
 30
0.0
 11
1300.520116
 21
1007.510889
 31
0.0
  0
CIRCLE
  5
475
330
6F
100
AcDbEntity
  8
5-0
  6
DASHED2
 62
     7
100
AcDbCircle
 10
1305.520116
 20
1014.510889
 30
0.0
 40
2.0
  0
LINE
  5
476
330
6F
100
AcDbEntity
  8
5-0
  6
DASHED2
 62
     7
100
AcDbLine
 10
1303.520116
 20
1052.510889
 30
0.0
 11
1557.520116
 21
1052.510889
 31
0.0
  0
ARC
  5
477
330
6F
100
AcDbEntity
  8
5-0
  6
DASHED2
 62
     7
100
AcDbCircle
 10
1557.520116
 20
1049.510889
 30
0.0
 40
3.0
100
AcDbArc
 50
0.0
 51
90.0
  0
ARC
  5
478
330
6F
100
AcDbEntity
  8
5-0
  6
DOT
 62
     7
100
AcDbCircle
 10
1308.520116
 20
827.510889
 30
0.0
 40
8.0
100
AcDbArc
 50
180.0
 51
270.0
  0
ARC
  5
479
330
6F
100
AcDbEntity
  8
5-0
  6
DASHED2
 62
     7
100
AcDbCircle
 10
1303.520116
 20
1049.510889
 30
0.0
 40
3.0
100
AcDbArc
 50
90.0
 51
180.0
  0
LINE
  5
47A
330
6F
100
AcDbEntity
  8
1-0
  6
Continuous
 62
     7
100
AcDbLine
 10
2782.545337
 20
1336.128414
 30
0.0
 11
2782.545337
 21
684.1284139999999
 31
0.0
  0
LINE
  5
47B
330
6F
100
AcDbEntity
  8
3-0
  6
DASHED2
 62
     7
100
AcDbLine
 10
2820.740869
 20
1049.128414
 30
0.0
 11
2784.545337
 21
1049.128414
 31
0.0
  0
ARC
  5
47C
330
6F
100
AcDbEntity
  8
3-0
  6
DASHED2
 62
     7
100
AcDbCircle
 10
2820.740869
 20
1048.128414
 30
0.0
 40
1.0
100
AcDbArc
 50
0.0
 51
90.0
  0
LINE
  5
47D
330
6F
100
AcDbEntity
  8
3-0
  6
DASHED2
 62
     7
100
AcDbLine
 10
2821.740869
 20
1030.128414
 30
0.0
 11
2821.740869
 21
1048.128414
 31
0.0
  0
LINE
  5
47E
330
6F
100
AcDbEntity
  8
3-0
  6
DASHED2
 62
     7
100
AcDbLine
 10
2821.684776
 20
1029.128414
 30
0.0
 11
2821.740869
 21
1029.128414
 31
0.0
  0
LINE
  5
47F
330
6F
100
AcDbEntity
  8
3-0
  6
DASHED2
 62
     7
100
AcDbLine
 10
2821.684776
 20
1029.798202
 30
0.0
 11
2821.684776
 21
827.128414
 31
0.0
  0
LINE
  5
480
330
6F
100
AcDbEntity
  8
3-0
  6
DASHED2
 62
     7
100
AcDbLine
 10
2813.740869
 20
819.128414
 30
0.0
 11
2782.545337
 21
819.128414
 31
0.0
  0
ARC
  5
481
330
6F
100
AcDbEntity
  8
3-0
  6
DASHED2
 62
     7
100
AcDbCircle
 10
2813.740869
 20
827.128414
 30
0.0
 40
8.0
100
AcDbArc
 50
270.0
 51
308.682
  0
ARC
  5
482
330
6F
100
AcDbEntity
  8
3-0
  6
DASHED2
 62
     7
100
AcDbCircle
 10
2813.684776
 20
827.128414
 30
0.0
 40
8.0
100
AcDbArc
 50
309.199
 51
0.0
  0
LINE
  5
483
330
6F
100
AcDbEntity
  8
3-0
  6
DASHED2
 62
     7
100
AcDbLine
 10
2803.798077
 20
1023.128414
 30
0.0
 11
2782.545337
 21
1023.128414
 31
0.0
  0
LINE
  5
484
330
6F
100
AcDbEntity
  8
3-0
  6
DASHED2
 62
     7
100
AcDbLine
 10
2803.798077
 20
1005.128414
 30
0.0
 11
2782.545337
 21
1005.128414
 31
0.0
  0
LINE
  5
485
330
6F
100
AcDbEntity
  8
3-0
  6
DASHED2
 62
     7
100
AcDbLine
 10
2803.798077
 20
863.1284139999999
 30
0.0
 11
2782.545337
 21
863.1284139999999
 31
0.0
  0
LINE
  5
486
330
6F
100
AcDbEntity
  8
3-0
  6
DASHED2
 62
     7
100
AcDbLine
 10
2803.798077
 20
845.128414
 30
0.0
 11
2782.545337
 21
845.128414
 31
0.0
  0
LINE
  5
487
330
6F
100
AcDbEntity
  8
1-0
  6
Continuous
 62
     7
100
AcDbLine
 10
0.0
 20
0.0
 30
0.0
 11
4200.000000000001
 21
0.0
 31
0.0
  0
LINE
  5
488
330
6F
100
AcDbEntity
  8
1-0
  6
Continuous
 62
     7
100
AcDbLine
 10
4200.000000000001
 20
0.0
 30
0.0
 11
4200.000000000001
 21
2970.0
 31
0.0
  0
LINE
  5
489
330
6F
100
AcDbEntity
  8
1-0
  6
Continuous
 62
     7
100
AcDbLine
 10
4200.000000000001
 20
2970.0
 30
0.0
 11
0.0
 21
2970.0
 31
0.0
  0
LINE
  5
48A
330
6F
100
AcDbEntity
  8
1-0
  6
Continuous
 62
     7
100
AcDbLine
 10
0.0
 20
2970.0
 30
0.0
 11
0.0
 21
0.0
 31
0.0
  0
LINE
  5
48B
330
6F
100
AcDbEntity
  8
9-0
  6
Continuous
 62
     7
100
AcDbLine
 10
100.0
 20
100.0
 30
0.0
 11
4100.0
 21
100.0
 31
0.0
  0
TEXT
  5
48C
330
6F
100
AcDbEntity
  8
D-0
 62
     5
100
AcDbText
 10
3977.866
 20
48.607
 30
0.0
 40
31.104
  1
2022.1
100
AcDbText
  0
LINE
  5
48D
330
6F
100
AcDbEntity
  8
1-0
  6
Continuous
 62
     7
100
AcDbLine
 10
4100.0
 20
300.0
 30
0.0
 11
4100.0
 21
100.0
 31
0.0
  0
LINE
  5
48E
330
6F
100
AcDbEntity
  8
1-0
  6
Continuous
 62
     7
100
AcDbLine
 10
2514.715324
 20
300.0
 30
0.0
 11
3164.715324
 21
300.0
 31
0.0
  0
ARC
  5
48F
330
6F
100
AcDbEntity
  8
9-0
  6
Continuous
 62
     7
100
AcDbCircle
 10
3264.28704
 20
191.240636
 30
0.0
 40
63.242781
100
AcDbArc
 50
319.753
 51
220.247
  0
CIRCLE
  5
490
330
6F
100
AcDbEntity
  8
9-0
  6
Continuous
 62
     7
100
AcDbCircle
 10
3264.28704
 20
191.240636
 30
0.0
 40
71.58304699999999
  0
CIRCLE
  5
491
330
6F
100
AcDbEntity
  8
9-0
  6
Continuous
 62
     7
100
AcDbCircle
 10
3264.28704
 20
191.240636
 30
0.0
 40
72.000061
  0
CIRCLE
  5
492
330
6F
100
AcDbEntity
  8
9-0
  6
Continuous
 62
     7
100
AcDbCircle
 10
3264.28704
 20
191.240636
 30
0.0
 40
72.417074
  0
CIRCLE
  5
493
330
6F
100
AcDbEntity
  8
9-0
  6
Continuous
 62
     7
100
AcDbCircle
 10
3264.28704
 20
191.240636
 30
0.0
 40
72.83408699999999
  0
CIRCLE
  5
494
330
6F
100
AcDbEntity
  8
9-0
  6
Continuous
 62
     7
100
AcDbCircle
 10
3264.28704
 20
191.240636
 30
0.0
 40
73.251101
  0
CIRCLE
  5
495
330
6F
100
AcDbEntity
  8
9-0
  6
Continuous
 62
     7
100
AcDbCircle
 10
3264.28704
 20
191.240636
 30
0.0
 40
73.459607
  0
CIRCLE
  5
496
330
6F
100
AcDbEntity
  8
9-0
  6
Continuous
 62
     7
100
AcDbCircle
 10
3264.28704
 20
191.240636
 30
0.0
 40
73.04259399999999
  0
CIRCLE
  5
497
330
6F
100
AcDbEntity
  8
9-0
  6
Continuous
 62
     7
100
AcDbCircle
 10
3264.28704
 20
191.240636
 30
0.0
 40
72.62558099999999
  0
CIRCLE
  5
498
330
6F
100
AcDbEntity
  8
9-0
  6
Continuous
 62
     7
100
AcDbCircle
 10
3264.28704
 20
191.240636
 30
0.0
 40
72.208567
  0
CIRCLE
  5
499
330
6F
100
AcDbEntity
  8
9-0
  6
Continuous
 62
     7
100
AcDbCircle
 10
3264.28704
 20
191.240636
 30
0.0
 40
71.791554
  0
CIRCLE
  5
49A
330
6F
100
AcDbEntity
  8
9-0
  6
Continuous
 62
     7
100
AcDbCircle
 10
3264.28704
 20
191.240636
 30
0.0
 40
71.791554
  0
ARC
  5
49B
330
6F
100
AcDbEntity
  8
9-0
  6
Continuous
 62
     7
100
AcDbCircle
 10
3264.28704
 20
191.240636
 30
0.0
 40
63.451288
100
AcDbArc
 50
319.753
 51
220.247
  0
CIRCLE
  5
49C
330
6F
100
AcDbEntity
  8
9-0
  6
Continuous
 62
     7
100
AcDbCircle
 10
3264.28704
 20
191.240636
 30
0.0
 40
71.37454099999999
  0
ARC
  5
49D
330
6F
100
AcDbEntity
  8
9-0
  6
Continuous
 62
     7
100
AcDbCircle
 10
3264.28704
 20
191.240636
 30
0.0
 40
63.034274
100
AcDbArc
 50
319.753
 51
220.247
  0
TEXT
  5
49E
330
6F
100
AcDbEntity
  8
9-0
 62
     7
100
AcDbText
 10
3225.082
 20
133.235
 30
0.0
 40
48.64
  1
A
100
AcDbText
  0
TEXT
  5
49F
330
6F
100
AcDbEntity
  8
9-0
 62
     7
100
AcDbText
 10
3263.412000000001
 20
133.338
 30
0.0
 40
48.64
  1
I
100
AcDbText
  0
TEXT
  5
4A0
330
6F
100
AcDbEntity
  8
9-0
 62
     7
100
AcDbText
 10
3277.970999999999
 20
133.303
 30
0.0
 40
48.64
  1
O
100
AcDbText
  0
LINE
  5
4A1
330
6F
100
AcDbEntity
  8
4-0
  6
Continuous
 62
     7
100
AcDbLine
 10
2767.815337
 20
1364.128414
 30
0.0
 11
2781.945337
 21
1364.128414
 31
0.0
  0
LINE
  5
4A2
330
6F
100
AcDbEntity
  8
4-0
  6
Continuous
 62
     7
100
AcDbLine
 10
2783.696051
 20
1364.128414
 30
0.0
 11
2766.76898
 21
1364.128414
 31
0.0
  0
LINE
  5
4A3
330
6F
100
AcDbEntity
  8
4-0
  6
Continuous
 62
     7
100
AcDbLine
 10
2777.095063
 20
1362.128414
 30
0.0
 11
2770.474561
 21
1362.128414
 31
0.0
  0
LINE
  5
4A4
330
6F
100
AcDbEntity
  8
4-0
  6
Continuous
 62
     7
100
AcDbLine
 10
2783.662445
 20
1318.528414
 30
0.0
 11
2782.545337
 21
1318.528414
 31
0.0
  0
LINE
  5
4A5
330
6F
100
AcDbEntity
  8
4-0
  6
Continuous
 62
     7
100
AcDbLine
 10
2784.545337
 20
1363.32368
 30
0.0
 11
2784.545337
 21
1319.302747
 31
0.0
  0
ARC
  5
4A6
330
6F
100
AcDbEntity
  8
4-0
  6
Continuous
 62
     7
100
AcDbCircle
 10
2783.644455000001
 20
1319.439428
 30
0.0
 40
0.9111909999999999
100
AcDbArc
 50
271.131
 51
351.373
  0
ARC
  5
4A7
330
6F
100
AcDbEntity
  8
4-0
  6
Continuous
 62
     7
100
AcDbCircle
 10
2783.664324
 20
1363.244411
 30
0.0
 40
0.884572
100
AcDbArc
 50
5.141
 51
92.055
  0
LINE
  5
4A8
330
6F
100
AcDbEntity
  8
4-0
  6
Continuous
 62
     7
100
AcDbLine
 10
2766.569341
 20
1363.948091
 30
0.0
 11
2765.809808
 21
1357.646741
 31
0.0
  0
LINE
  5
4A9
330
6F
100
AcDbEntity
  8
4-0
  6
Continuous
 62
     7
100
AcDbLine
 10
2769.970896
 20
1361.768847
 30
0.0
 11
2769.441256
 21
1357.477235
 31
0.0
  0
ARC
  5
4AA
330
6F
100
AcDbEntity
  8
4-0
  6
Continuous
 62
     7
100
AcDbCircle
 10
2768.746527
 20
1357.562973
 30
0.0
 40
0.7
100
AcDbArc
 50
270.0
 51
352.965
  0
ARC
  5
4AB
330
6F
100
AcDbEntity
  8
4-0
  6
Continuous
 62
     7
100
AcDbCircle
 10
2770.484552
 20
1361.581879
 30
0.0
 40
0.546626
100
AcDbArc
 50
91.04699999999999
 51
159.999
  0
ARC
  5
4AC
330
6F
100
AcDbEntity
  8
4-0
  6
Continuous
 62
     7
100
AcDbCircle
 10
2776.402045
 20
1356.739651
 30
0.0
 40
5.433143
100
AcDbArc
 50
4.102999999999999
 51
82.672
  0
LINE
  5
4AD
330
6F
100
AcDbEntity
  8
4-0
  6
Continuous
 62
     7
100
AcDbLine
 10
2781.821262
 20
1357.128414
 30
0.0
 11
2781.822915000001
 21
1342.808905
 31
0.0
  0
ARC
  5
4AE
330
6F
100
AcDbEntity
  8
4-0
  6
Continuous
 62
     7
100
AcDbCircle
 10
2766.82978
 20
1363.860428
 30
0.0
 40
0.274796
100
AcDbArc
 50
102.783
 51
161.397
  0
LINE
  5
4AF
330
6F
100
AcDbEntity
  8
4-0
  6
Continuous
 62
     7
100
AcDbLine
 10
2768.746527
 20
1356.862973
 30
0.0
 11
2766.504778
 21
1356.862973
 31
0.0
  0
ARC
  5
4B0
330
6F
100
AcDbEntity
  8
4-0
  6
Continuous
 62
     7
100
AcDbCircle
 10
2766.504778
 20
1357.562973
 30
0.0
 40
0.7
100
AcDbArc
 50
173.127
 51
270.0
  0
ARC
  5
4B1
330
6F
100
AcDbEntity
  8
4-0
  6
Continuous
 62
     7
100
AcDbCircle
 10
2776.162114
 20
1343.446976
 30
0.0
 40
5.7
100
AcDbArc
 50
283.824
 51
353.569
  0
ARC
  5
4B2
330
6F
100
AcDbEntity
  8
4-0
  6
Continuous
 62
     7
100
AcDbCircle
 10
2777.528657
 20
1335.915638
 30
0.0
 40
1.999706999999999
100
AcDbArc
 50
90.15399999999999
 51
173.892
  0
TEXT
  5
4B3
330
6F
100
AcDbEntity
  8
D-0
 62
     2
100
AcDbText
 10
3150.842
 20
449.318
 30
0.0
 40
25.92
  1
※
100
AcDbText
  0
TEXT
  5
4B4
330
6F
100
AcDbEntity
  8
D-0
 62
     2
100
AcDbText
 10
3418.555662
 20
337.492
 30
0.0
 40
25.92
  1
※巾木奥行(D)(M)(A)はD496
100
AcDbText
  0
ENDSEC
  0
SECTION
  2
OBJECTS
  0
DICTIONARY
  5
C
330
0
100
AcDbDictionary
281
     1
  3
ACAD_CIP_PREVIOUS_PRODUCT_INFO
350
4B6
  3
ACAD_COLOR
350
62
  3
ACAD_DETAILVIEWSTYLE
350
69
  3
ACAD_GROUP
350
D
  3
ACAD_LAYOUT
350
61
  3
ACAD_MATERIAL
350
10
  3
ACAD_MLEADERSTYLE
350
65
  3
ACAD_MLINESTYLE
350
5E
  3
ACAD_PLOTSETTINGS
350
60
  3
ACAD_PLOTSTYLENAME
350
E
  3
ACAD_SCALELIST
350
42
  3
ACAD_SECTIONVIEWSTYLE
350
67
  3
ACAD_TABLESTYLE
350
63
  3
ACAD_VISUALSTYLE
350
29
  3
ACDB_RECOMPOSE_DATA
350
4DE
  3
AcDbVariableDictionary
350
4D1
  3
DWGPROPS
350
4DF
  0
DICTIONARY
  5
4B7
330
54
100
AcDbDictionary
280
     1
281
     1
  3
ADSK_XREC_LAYER_RECONCILED
360
4B8
  0
DICTIONARY
  5
4B9
330
7F
100
AcDbDictionary
280
     1
281
     1
  3
ADSK_XREC_LAYER_RECONCILED
360
4BA
  0
DICTIONARY
  5
4BB
330
80
100
AcDbDictionary
280
     1
281
     1
  3
ADSK_XREC_LAYER_RECONCILED
360
4BC
  0
DICTIONARY
  5
4BD
330
81
100
AcDbDictionary
280
     1
281
     1
  3
ADSK_XREC_LAYER_RECONCILED
360
4BE
  0
DICTIONARY
  5
4BF
330
82
100
AcDbDictionary
280
     1
281
     1
  3
ADSK_XREC_LAYER_RECONCILED
360
4C0
  0
DICTIONARY
  5
4C1
330
83
100
AcDbDictionary
280
     1
281
     1
  3
ADSK_XREC_LAYER_RECONCILED
360
4C2
  0
DICTIONARY
  5
4C3
330
84
100
AcDbDictionary
280
     1
281
     1
  3
ADSK_XREC_LAYER_RECONCILED
360
4C4
  0
DICTIONARY
  5
4C5
330
85
100
AcDbDictionary
280
     1
281
     1
  3
ADSK_XREC_LAYER_RECONCILED
360
4C6
  0
DICTIONARY
  5
4C7
330
86
100
AcDbDictionary
280
     1
281
     1
  3
ADSK_XREC_LAYER_RECONCILED
360
4C8
  0
DICTIONARY
  5
4C9
330
87
100
AcDbDictionary
280
     1
281
     1
  3
ADSK_XREC_LAYER_RECONCILED
360
4CA
  0
DICTIONARY
  5
4CB
330
88
100
AcDbDictionary
280
     1
281
     1
  3
ADSK_XREC_LAYER_RECONCILED
360
4CC
  0
DICTIONARY
  5
4CD
330
89
100
AcDbDictionary
280
     1
281
     1
  3
ADSK_XREC_LAYER_RECONCILED
360
4CE
  0
DICTIONARY
  5
4CF
330
408
100
AcDbDictionary
280
     1
281
     1
  3
ADSK_XREC_LAYER_RECONCILED
360
4D0
  0
XRECORD
  5
4B6
102
{ACAD_REACTORS
330
C
102
}
330
C
100
AcDbXrecord
280
     1
300
ACDLT
300
2020
300

  0
DICTIONARY
  5
62
102
{ACAD_REACTORS
330
C
102
}
330
C
100
AcDbDictionary
281
     1
  0
DICTIONARY
  5
69
102
{ACAD_REACTORS
330
C
102
}
330
C
100
AcDbDictionary
281
     1
  3
Imperial24
350
6A
  0
DICTIONARY
  5
D
102
{ACAD_REACTORS
330
C
102
}
330
C
100
AcDbDictionary
281
     1
  0
DICTIONARY
  5
61
102
{ACAD_REACTORS
330
C
102
}
330
C
100
AcDbDictionary
281
     1
  3
Model
350
72
  3
レイアウト1
350
6E
  0
DICTIONARY
  5
10
102
{ACAD_REACTORS
330
C
102
}
330
C
100
AcDbDictionary
281
     1
  3
ByBlock
350
19
  3
ByLayer
350
11
  3
Global
350
21
  0
DICTIONARY
  5
65
102
{ACAD_REACTORS
330
C
102
}
330
C
100
AcDbDictionary
281
     1
  3
Standard
350
66
  0
DICTIONARY
  5
5E
102
{ACAD_REACTORS
330
C
102
}
330
C
100
AcDbDictionary
281
     1
  3
Standard
350
5F
  0
DICTIONARY
  5
60
102
{ACAD_REACTORS
330
C
102
}
330
C
100
AcDbDictionary
281
     1
  0
ACDBDICTIONARYWDFLT
  5
E
102
{ACAD_REACTORS
330
C
102
}
330
C
100
AcDbDictionary
281
     1
  3
Normal
350
F
100
AcDbDictionaryWithDefault
340
F
  0
DICTIONARY
  5
42
102
{ACAD_REACTORS
330
C
102
}
330
C
100
AcDbDictionary
281
     1
  3
A0
350
43
  3
A1
350
44
  3
A2
350
45
  3
A3
350
46
  3
A4
350
47
  3
A5
350
48
  3
A6
350
49
  3
A7
350
4A
  3
A8
350
4B
  3
A9
350
4C
  3
B0
350
4D
  3
B1
350
4E
  3
B2
350
4F
  3
B3
350
50
  3
B4
350
51
  3
B5
350
52
  3
B6
350
53
  0
DICTIONARY
  5
67
102
{ACAD_REACTORS
330
C
102
}
330
C
100
AcDbDictionary
281
     1
  3
Imperial24
350
68
  0
DICTIONARY
  5
63
102
{ACAD_REACTORS
330
C
102
}
330
C
100
AcDbDictionary
281
     1
  3
Standard
350
64
  0
DICTIONARY
  5
29
102
{ACAD_REACTORS
330
C
102
}
330
C
100
AcDbDictionary
281
     1
  3
2dWireframe
350
2F
  3
Basic
350
2E
  3
Brighten
350
35
  3
ColorChange
350
39
  3
Conceptual
350
32
  3
Dim
350
34
  3
EdgeColorOff
350
41
  3
Facepattern
350
38
  3
Flat
350
2A
  3
FlatWithEdges
350
2B
  3
Gouraud
350
2C
  3
GouraudWithEdges
350
2D
  3
Hidden
350
31
  3
JitterOff
350
3F
  3
Linepattern
350
37
  3
OverhangOff
350
40
  3
Realistic
350
33
  3
Shaded
350
3E
  3
Shaded with edges
350
3D
  3
Shades of Gray
350
3A
  3
Sketchy
350
3B
  3
Thicken
350
36
  3
Wireframe
350
30
  3
X-Ray
350
3C
  0
XRECORD
  5
4DE
102
{ACAD_REACTORS
330
C
102
}
330
C
100
AcDbXrecord
280
     1
 90
        1
330
64
  0
DICTIONARY
  5
4D1
102
{ACAD_REACTORS
330
C
102
}
330
C
100
AcDbDictionary
281
     1
  3
CANNOSCALE
350
4D6
  3
CMLEADERSTYLE
350
4D3
  3
CTABLESTYLE
350
4D2
  3
CVIEWDETAILSTYLE
350
4D4
  3
CVIEWSECTIONSTYLE
350
4D5
  3
DIMASSOC
350
4D9
  3
INDEXCTL
350
4D8
  3
SORTENTS
350
4D7
  3
XCLIPFRAME
350
4DA
  0
XRECORD
  5
4DF
102
{ACAD_REACTORS
330
C
102
}
330
C
100
AcDbXrecord
280
     1
  1
DWGPROPS COOKIE
  2

  3

  4

  6

  7

  8
suzuki
  9

300
=
301
=
302
=
303
=
304
=
305
=
306
=
307
=
308
=
309
=
 40
0.0004166666666667
 41
2459620.658668981
 42
2459620.659085648
  1

 90
        0
  0
XRECORD
  5
4B8
102
{ACAD_REACTORS
330
4B7
102
}
330
4B7
100
AcDbXrecord
280
     1
290
     1
  0
XRECORD
  5
4BA
102
{ACAD_REACTORS
330
4B9
102
}
330
4B9
100
AcDbXrecord
280
     1
290
     1
  0
XRECORD
  5
4BC
102
{ACAD_REACTORS
330
4BB
102
}
330
4BB
100
AcDbXrecord
280
     1
290
     1
  0
XRECORD
  5
4BE
102
{ACAD_REACTORS
330
4BD
102
}
330
4BD
100
AcDbXrecord
280
     1
290
     1
  0
XRECORD
  5
4C0
102
{ACAD_REACTORS
330
4BF
102
}
330
4BF
100
AcDbXrecord
280
     1
290
     1
  0
XRECORD
  5
4C2
102
{ACAD_REACTORS
330
4C1
102
}
330
4C1
100
AcDbXrecord
280
     1
290
     1
  0
XRECORD
  5
4C4
102
{ACAD_REACTORS
330
4C3
102
}
330
4C3
100
AcDbXrecord
280
     1
290
     1
  0
XRECORD
  5
4C6
102
{ACAD_REACTORS
330
4C5
102
}
330
4C5
100
AcDbXrecord
280
     1
290
     1
  0
XRECORD
  5
4C8
102
{ACAD_REACTORS
330
4C7
102
}
330
4C7
100
AcDbXrecord
280
     1
290
     1
  0
XRECORD
  5
4CA
102
{ACAD_REACTORS
330
4C9
102
}
330
4C9
100
AcDbXrecord
280
     1
290
     1
  0
XRECORD
  5
4CC
102
{ACAD_REACTORS
330
4CB
102
}
330
4CB
100
AcDbXrecord
280
     1
290
     1
  0
XRECORD
  5
4CE
102
{ACAD_REACTORS
330
4CD
102
}
330
4CD
100
AcDbXrecord
280
     1
290
     1
  0
XRECORD
  5
4D0
102
{ACAD_REACTORS
330
4CF
102
}
330
4CF
100
AcDbXrecord
280
     1
290
     1
  0
ACDBDETAILVIEWSTYLE
  5
6A
102
{ACAD_XDICTIONARY
360
517
102
}
102
{ACAD_REACTORS
330
69
102
}
330
69
100
AcDbModelDocViewStyle
 70
     0
  3
Imperial24
290
     0
100
AcDbDetailViewStyle
 70
     0
 71
     0
 90
        3
 71
     1
340
55
 40
0.24
340
0
 40
0.24
300

 40
0.36
280
     3
 71
     2
340
5C
 90
       25
 71
     3
340
55
 40
0.24
 90
        1
 40
0.75
 90
        1
300
%<\AcVar ViewType \f "%tc1">% %<\AcVar ViewDetailId>%\PSCALE %<\AcVar ViewScale \f "%sn">%
 71
     4
340
5C
 90
       25
340
5C
 90
       25
280
     0
  0
LAYOUT
  5
72
102
{ACAD_XDICTIONARY
360
51B
102
}
102
{ACAD_REACTORS
330
61
102
}
330
61
100
AcDbPlotSettings
  1

  2
DocuCentre-V 4070
  4

  6

 40
0.0
 41
0.0
 42
0.0
 43
0.0
 44
0.0
 45
0.0
 46
0.0
 47
0.0
 48
0.0
 49
0.0
140
0.0
141
0.0
142
1.0
143
1.0
 70
  1712
 72
     0
 73
     0
 74
     0
  7

 75
     0
147
1.0
148
0.0
149
0.0
100
AcDbLayout
  1
Model
 70
     1
 71
     0
 10
0.0
 20
0.0
 11
12.0
 21
9.0
 12
0.0
 22
0.0
 32
0.0
 14
0.0
 24
0.0
 34
0.0
 15
0.0
 25
0.0
 35
0.0
146
0.0
 13
0.0
 23
0.0
 33
0.0
 16
1.0
 26
0.0
 36
0.0
 17
0.0
 27
1.0
 37
0.0
 76
     0
330
6F
331
8E
  0
LAYOUT
  5
6E
102
{ACAD_XDICTIONARY
360
519
102
}
102
{ACAD_REACTORS
330
61
102
}
330
61
100
AcDbPlotSettings
  1

  2
DocuCentre-V 4070
  4

  6

 40
0.0
 41
0.0
 42
0.0
 43
0.0
 44
0.0
 45
0.0
 46
0.0
 47
0.0
 48
0.0
 49
0.0
140
0.0
141
0.0
142
1.0
143
1.0
 70
   688
 72
     0
 73
     0
 74
     5
  7

 75
    16
147
1.0
148
0.0
149
0.0
100
AcDbLayout
  1
レイアウト1
 70
     1
 71
     1
 10
0.0
 20
0.0
 11
12.0
 21
9.0
 12
0.0
 22
0.0
 32
0.0
 14
1.000000000000000E+20
 24
1.000000000000000E+20
 34
1.000000000000000E+20
 15
-1.000000000000000E+20
 25
-1.000000000000000E+20
 35
-1.000000000000000E+20
146
0.0
 13
0.0
 23
0.0
 33
0.0
 16
1.0
 26
0.0
 36
0.0
 17
0.0
 27
1.0
 37
0.0
 76
     0
330
6B
  0
MATERIAL
  5
19
102
{ACAD_XDICTIONARY
360
1A
102
}
102
{ACAD_REACTORS
330
10
102
}
330
10
100
AcDbMaterial
  1
ByBlock
 72
     0
 43
0.0208333333333333
 43
0.0
 43
0.0
 43
0.0
 43
0.0
 43
0.0208333333333333
 43
0.0
 43
0.0
 43
0.0
 43
0.0
 43
1.0
 43
0.0
 43
0.0
 43
0.0
 43
0.0
 43
1.0
 77
     0
 47
0.0208333333333333
 47
0.0
 47
0.0
 47
0.0
 47
0.0
 47
0.0208333333333333
 47
0.0
 47
0.0
 47
0.0
 47
0.0
 47
1.0
 47
0.0
 47
0.0
 47
0.0
 47
0.0
 47
1.0
171
     0
 49
0.0208333333333333
 49
0.0
 49
0.0
 49
0.0
 49
0.0
 49
0.0208333333333333
 49
0.0
 49
0.0
 49
0.0
 49
0.0
 49
1.0
 49
0.0
 49
0.0
 49
0.0
 49
0.0
 49
1.0
175
     0
142
0.0208333333333333
142
0.0
142
0.0
142
0.0
142
0.0
142
0.0208333333333333
142
0.0
142
0.0
142
0.0
142
0.0
142
1.0
142
0.0
142
0.0
142
0.0
142
0.0
142
1.0
179
     0
144
0.0208333333333333
144
0.0
144
0.0
144
0.0
144
0.0
144
0.0208333333333333
144
0.0
144
0.0
144
0.0
144
0.0
144
1.0
144
0.0
144
0.0
144
0.0
144
0.0
144
1.0
147
0.0208333333333333
147
0.0
147
0.0
147
0.0
147
0.0
147
0.0208333333333333
147
0.0
147
0.0
147
0.0
147
0.0
147
1.0
147
0.0
147
0.0
147
0.0
147
0.0
147
1.0
  0
MATERIAL
  5
11
102
{ACAD_XDICTIONARY
360
12
102
}
102
{ACAD_REACTORS
330
10
102
}
330
10
100
AcDbMaterial
  1
ByLayer
 72
     0
 43
0.0208333333333333
 43
0.0
 43
0.0
 43
0.0
 43
0.0
 43
0.0208333333333333
 43
0.0
 43
0.0
 43
0.0
 43
0.0
 43
1.0
 43
0.0
 43
0.0
 43
0.0
 43
0.0
 43
1.0
 77
     0
 47
0.0208333333333333
 47
0.0
 47
0.0
 47
0.0
 47
0.0
 47
0.0208333333333333
 47
0.0
 47
0.0
 47
0.0
 47
0.0
 47
1.0
 47
0.0
 47
0.0
 47
0.0
 47
0.0
 47
1.0
171
     0
 49
0.0208333333333333
 49
0.0
 49
0.0
 49
0.0
 49
0.0
 49
0.0208333333333333
 49
0.0
 49
0.0
 49
0.0
 49
0.0
 49
1.0
 49
0.0
 49
0.0
 49
0.0
 49
0.0
 49
1.0
175
     0
142
0.0208333333333333
142
0.0
142
0.0
142
0.0
142
0.0
142
0.0208333333333333
142
0.0
142
0.0
142
0.0
142
0.0
142
1.0
142
0.0
142
0.0
142
0.0
142
0.0
142
1.0
179
     0
144
0.0208333333333333
144
0.0
144
0.0
144
0.0
144
0.0
144
0.0208333333333333
144
0.0
144
0.0
144
0.0
144
0.0
144
1.0
144
0.0
144
0.0
144
0.0
144
0.0
144
1.0
147
0.0208333333333333
147
0.0
147
0.0
147
0.0
147
0.0
147
0.0208333333333333
147
0.0
147
0.0
147
0.0
147
0.0
147
1.0
147
0.0
147
0.0
147
0.0
147
0.0
147
1.0
  0
MATERIAL
  5
21
102
{ACAD_XDICTIONARY
360
22
102
}
102
{ACAD_REACTORS
330
10
102
}
330
10
100
AcDbMaterial
  1
Global
 72
     0
 43
0.0208333333333333
 43
0.0
 43
0.0
 43
0.0
 43
0.0
 43
0.0208333333333333
 43
0.0
 43
0.0
 43
0.0
 43
0.0
 43
1.0
 43
0.0
 43
0.0
 43
0.0
 43
0.0
 43
1.0
 77
     0
 47
0.0208333333333333
 47
0.0
 47
0.0
 47
0.0
 47
0.0
 47
0.0208333333333333
 47
0.0
 47
0.0
 47
0.0
 47
0.0
 47
1.0
 47
0.0
 47
0.0
 47
0.0
 47
0.0
 47
1.0
171
     0
 49
0.0208333333333333
 49
0.0
 49
0.0
 49
0.0
 49
0.0
 49
0.0208333333333333
 49
0.0
 49
0.0
 49
0.0
 49
0.0
 49
1.0
 49
0.0
 49
0.0
 49
0.0
 49
0.0
 49
1.0
175
     0
142
0.0208333333333333
142
0.0
142
0.0
142
0.0
142
0.0
142
0.0208333333333333
142
0.0
142
0.0
142
0.0
142
0.0
142
1.0
142
0.0
142
0.0
142
0.0
142
0.0
142
1.0
179
     0
144
0.0208333333333333
144
0.0
144
0.0
144
0.0
144
0.0
144
0.0208333333333333
144
0.0
144
0.0
144
0.0
144
0.0
144
1.0
144
0.0
144
0.0
144
0.0
144
0.0
144
1.0
147
0.0208333333333333
147
0.0
147
0.0
147
0.0
147
0.0
147
0.0208333333333333
147
0.0
147
0.0
147
0.0
147
0.0
147
1.0
147
0.0
147
0.0
147
0.0
147
0.0
147
1.0
  0
MLEADERSTYLE
  5
66
102
{ACAD_REACTORS
330
65
102
}
330
65
100
AcDbMLeaderStyle
170
     2
171
     1
172
     0
 90
        2
 40
0.0
 41
0.0
173
     1
 91
-1056964608
340
5A
 92
       -2
290
     1
 42
0.09
291
     1
 43
0.36
  3
Standard
 44
0.18
300

342
55
174
     1
178
     6
175
     1
176
     0
 93
-1056964608
 45
0.18
292
     0
297
     0
 46
0.18
 94
-1056964608
 47
1.0
 49
1.0
140
1.0
293
     1
141
0.0
294
     1
177
     0
142
1.0
295
     0
296
     0
143
0.125
1001
ACAD_MLEADERVER
1070
     2
  0
MLINESTYLE
  5
5F
102
{ACAD_REACTORS
330
5E
102
}
330
5E
100
AcDbMlineStyle
  2
STANDARD
 70
     0
  3

 62
   256
 51
90.0
 52
90.0
 71
     2
 49
0.5
 62
   256
  6
BYLAYER
 49
-0.5
 62
   256
  6
BYLAYER
  0
ACDBPLACEHOLDER
  5
F
102
{ACAD_REACTORS
330
E
102
}
330
E
  0
SCALE
  5
43
102
{ACAD_REACTORS
330
42
102
}
330
42
100
AcDbScale
 70
     0
300
1:1
140
1.0
141
1.0
290
     1
  0
SCALE
  5
44
102
{ACAD_REACTORS
330
42
102
}
330
42
100
AcDbScale
 70
     0
300
1/128" = 1'-0"
140
0.0078125
141
12.0
290
     0
  0
SCALE
  5
45
102
{ACAD_REACTORS
330
42
102
}
330
42
100
AcDbScale
 70
     0
300
1/64" = 1'-0"
140
0.015625
141
12.0
290
     0
  0
SCALE
  5
46
102
{ACAD_REACTORS
330
42
102
}
330
42
100
AcDbScale
 70
     0
300
1/32" = 1'-0"
140
0.03125
141
12.0
290
     0
  0
SCALE
  5
47
102
{ACAD_REACTORS
330
42
102
}
330
42
100
AcDbScale
 70
     0
300
1/16" = 1'-0"
140
0.0625
141
12.0
290
     0
  0
SCALE
  5
48
102
{ACAD_REACTORS
330
42
102
}
330
42
100
AcDbScale
 70
     0
300
3/32" = 1'-0"
140
0.09375
141
12.0
290
     0
  0
SCALE
  5
49
102
{ACAD_REACTORS
330
42
102
}
330
42
100
AcDbScale
 70
     0
300
1/8" = 1'-0"
140
0.125
141
12.0
290
     0
  0
SCALE
  5
4A
102
{ACAD_REACTORS
330
42
102
}
330
42
100
AcDbScale
 70
     0
300
3/16" = 1'-0"
140
0.1875
141
12.0
290
     0
  0
SCALE
  5
4B
102
{ACAD_REACTORS
330
42
102
}
330
42
100
AcDbScale
 70
     0
300
1/4" = 1'-0"
140
0.25
141
12.0
290
     0
  0
SCALE
  5
4C
102
{ACAD_REACTORS
330
42
102
}
330
42
100
AcDbScale
 70
     0
300
3/8" = 1'-0"
140
0.375
141
12.0
290
     0
  0
SCALE
  5
4D
102
{ACAD_REACTORS
330
42
102
}
330
42
100
AcDbScale
 70
     0
300
1/2" = 1'-0"
140
0.5
141
12.0
290
     0
  0
SCALE
  5
4E
102
{ACAD_REACTORS
330
42
102
}
330
42
100
AcDbScale
 70
     0
300
3/4" = 1'-0"
140
0.75
141
12.0
290
     0
  0
SCALE
  5
4F
102
{ACAD_REACTORS
330
42
102
}
330
42
100
AcDbScale
 70
     0
300
1" = 1'-0"
140
1.0
141
12.0
290
     0
  0
SCALE
  5
50
102
{ACAD_REACTORS
330
42
102
}
330
42
100
AcDbScale
 70
     0
300
1-1/2" = 1'-0"
140
1.5
141
12.0
290
     0
  0
SCALE
  5
51
102
{ACAD_REACTORS
330
42
102
}
330
42
100
AcDbScale
 70
     0
300
3" = 1'-0"
140
3.0
141
12.0
290
     0
  0
SCALE
  5
52
102
{ACAD_REACTORS
330
42
102
}
330
42
100
AcDbScale
 70
     0
300
6" = 1'-0"
140
6.0
141
12.0
290
     0
  0
SCALE
  5
53
102
{ACAD_REACTORS
330
42
102
}
330
42
100
AcDbScale
 70
     0
300
1'-0" = 1'-0"
140
12.0
141
12.0
290
     0
  0
ACDBSECTIONVIEWSTYLE
  5
68
102
{ACAD_XDICTIONARY
360
515
102
}
102
{ACAD_REACTORS
330
67
102
}
330
67
100
AcDbModelDocViewStyle
 70
     0
  3
Imperial24
290
     0
100
AcDbSectionViewStyle
 70
     0
 71
     0
 90
       78
 71
     1
340
55
 40
0.24
340
0
340
0
 40
0.24
300
I, O, Q, S, X, Z
 40
0.48
 90
        3
 40
0.18
 90
        1
 71
     2
340
5C
 90
       25
340
5C
 90
       50
 40
0.24
 40
0.0
 40
0.24
 71
     3
340
55
 40
0.24
 90
        1
 40
0.75
 90
        1
300
%<\AcVar ViewType \f "%tc1">% %<\AcVar ViewSectionStartId>%-%<\AcVar ViewSectionEndId>%\PSCALE %<\AcVar ViewScale \f "%sn">%
 71
     4
300
ANSI31
 40
1.0
 90
        0
290
     0
290
     0
 90
        6
 40
0.0
 40
1.570796326794896
 40
0.2617993877991494
 40
1.308996938995747
 40
-0.2617993877991494
 40
1.832595714594046
  0
TABLESTYLE
  5
64
102
{ACAD_XDICTIONARY
360
4DC
102
}
102
{ACAD_REACTORS
330
63
102
}
330
63
100
AcDbTableStyle
  3
Standard
 70
     0
 71
     0
 40
0.06
 41
0.06
280
     0
281
     0
  7
STANDARD
140
0.18
170
     2
 62
     0
 63
     7
283
     0
274
    -2
284
     1
 64
     0
275
    -2
285
     1
 65
     0
276
    -2
286
     1
 66
     0
277
    -2
287
     1
 67
     0
278
    -2
288
     1
 68
     0
279
    -2
289
     1
 69
     0
  7
STANDARD
140
0.25
170
     5
 62
     0
 63
     7
283
     0
274
    -2
284
     1
 64
     0
275
    -2
285
     1
 65
     0
276
    -2
286
     1
 66
     0
277
    -2
287
     1
 67
     0
278
    -2
288
     1
 68
     0
279
    -2
289
     1
 69
     0
  7
STANDARD
140
0.18
170
     5
 62
     0
 63
     7
283
     0
274
    -2
284
     1
 64
     0
275
    -2
285
     1
 65
     0
276
    -2
286
     1
 66
     0
277
    -2
287
     1
 67
     0
278
    -2
288
     1
 68
     0
279
    -2
289
     1
 69
     0
  0
VISUALSTYLE
  5
2F
102
{ACAD_XDICTIONARY
360
4ED
102
}
102
{ACAD_REACTORS
330
29
102
}
330
29
100
AcDbVisualStyle
  2
2dWireframe
 70
     4
 71
     0
 72
     2
 73
     0
 90
        0
 40
-0.6
 41
-30.0
 62
     5
 63
     7
 74
     1
 91
        4
 64
     7
 65
   257
 75
     1
175
     1
 42
1.0
 92
        0
 66
   257
 43
1.0
 76
     1
 77
     6
 78
     2
 67
     7
 79
     5
170
     0
171
     0
290
     0
174
     0
 93
        1
 44
0.0
173
     0
291
     0
 45
0.0
1001
ACAD
1000
AcDbSavedByObjectVersion
1070
     0
  0
VISUALSTYLE
  5
2E
102
{ACAD_XDICTIONARY
360
4EB
102
}
102
{ACAD_REACTORS
330
29
102
}
330
29
100
AcDbVisualStyle
  2
Basic
 70
     7
 71
     1
 72
     0
 73
     1
 90
        0
 40
-0.6
 41
-30.0
 62
     5
 63
     7
 74
     0
 91
        4
 64
     7
 65
   257
 75
     1
175
     1
 42
1.0
 92
        8
 66
     7
 43
1.0
 76
     1
 77
     6
 78
     2
 67
     7
 79
     5
170
     0
171
     0
290
     0
174
     0
 93
        1
 44
0.0
173
     0
291
     1
 45
0.0
1001
ACAD
1000
AcDbSavedByObjectVersion
1070
     0
  0
VISUALSTYLE
  5
35
102
{ACAD_XDICTIONARY
360
4F9
102
}
102
{ACAD_REACTORS
330
29
102
}
330
29
100
AcDbVisualStyle
  2
Brighten
 70
    12
 71
     2
 72
     2
 73
     0
 90
        0
 40
-0.6
 41
-30.0
 62
     5
 63
     7
 74
     1
 91
        4
 64
     7
 65
   257
 75
     1
175
     1
 42
1.0
 92
        8
 66
     7
 43
1.0
 76
     1
 77
     6
 78
     2
 67
     7
 79
     5
170
     0
171
     0
290
     0
174
     0
 93
        1
 44
50.0
173
     0
291
     1
 45
0.0
1001
ACAD
1000
AcDbSavedByObjectVersion
1070
     0
  0
VISUALSTYLE
  5
39
102
{ACAD_XDICTIONARY
360
501
102
}
102
{ACAD_REACTORS
330
29
102
}
330
29
100
AcDbVisualStyle
  2
ColorChange
 70
    16
 71
     2
 72
     2
 73
     3
 90
        0
 40
-0.6
 41
-30.0
 62
     5
 63
     8
 74
     1
 91
        4
 64
     7
 65
   257
 75
     1
175
     1
 42
1.0
 92
        8
 66
     8
 43
1.0
 76
     1
 77
     6
 78
     2
 67
     7
 79
     5
170
     0
171
     0
290
     0
174
     0
 93
        1
 44
0.0
173
     0
291
     1
 45
0.0
1001
ACAD
1000
AcDbSavedByObjectVersion
1070
     0
  0
VISUALSTYLE
  5
32
102
{ACAD_XDICTIONARY
360
4F3
102
}
102
{ACAD_REACTORS
330
29
102
}
330
29
100
AcDbVisualStyle
  2
Conceptual
 70
     9
 71
     3
 72
     2
 73
     0
 90
        0
 40
-0.6
 41
-30.0
 62
     5
 63
     7
 74
     2
 91
        2
 64
     7
 65
   257
 75
     1
175
     1
 42
179.0
 92
        8
 66
     7
 43
1.0
 76
     1
 77
     6
 78
     2
 67
     7
 79
     3
170
     0
171
     0
290
     0
174
     0
 93
        1
 44
0.0
173
     0
291
     0
 45
0.0
1001
ACAD
1000
AcDbSavedByObjectVersion
1070
     0
  0
VISUALSTYLE
  5
34
102
{ACAD_XDICTIONARY
360
4F7
102
}
102
{ACAD_REACTORS
330
29
102
}
330
29
100
AcDbVisualStyle
  2
Dim
 70
    11
 71
     2
 72
     2
 73
     0
 90
        0
 40
-0.6
 41
-30.0
 62
     5
 63
     7
 74
     1
 91
        4
 64
     7
 65
   257
 75
     1
175
     1
 42
1.0
 92
        8
 66
     7
 43
1.0
 76
     1
 77
     6
 78
     2
 67
     7
 79
     5
170
     0
171
     0
290
     0
174
     0
 93
        1
 44
-50.0
173
     0
291
     1
 45
0.0
1001
ACAD
1000
AcDbSavedByObjectVersion
1070
     0
  0
VISUALSTYLE
  5
41
102
{ACAD_XDICTIONARY
360
511
102
}
102
{ACAD_REACTORS
330
29
102
}
330
29
100
AcDbVisualStyle
  2
EdgeColorOff
 70
    22
 71
     2
 72
     2
 73
     0
 90
        0
 40
-0.6
 41
-30.0
 62
     5
 63
     7
 74
     1
 91
        4
 64
     7
 65
   257
 75
     1
175
     1
 42
1.0
 92
        8
 66
     7
 43
1.0
 76
     1
 77
     6
 78
     2
 67
     7
 79
     5
170
     0
171
     0
290
     0
174
     0
 93
        1
 44
0.0
173
     0
291
     1
 45
0.0
1001
ACAD
1000
AcDbSavedByObjectVersion
1070
     0
  0
VISUALSTYLE
  5
38
102
{ACAD_XDICTIONARY
360
4FF
102
}
102
{ACAD_REACTORS
330
29
102
}
330
29
100
AcDbVisualStyle
  2
Facepattern
 70
    15
 71
     2
 72
     2
 73
     0
 90
        0
 40
-0.6
 41
-30.0
 62
     5
 63
     7
 74
     1
 91
        4
 64
     7
 65
   257
 75
     1
175
     1
 42
1.0
 92
        8
 66
     7
 43
1.0
 76
     1
 77
     6
 78
     2
 67
     7
 79
     5
170
     0
171
     0
290
     0
174
     0
 93
        1
 44
0.0
173
     0
291
     1
 45
0.0
1001
ACAD
1000
AcDbSavedByObjectVersion
1070
     0
  0
VISUALSTYLE
  5
2A
102
{ACAD_XDICTIONARY
360
4E3
102
}
102
{ACAD_REACTORS
330
29
102
}
330
29
100
AcDbVisualStyle
  2
Flat
 70
     0
 71
     2
 72
     1
 73
     1
 90
        2
 40
-0.6
 41
30.0
 62
     5
 63
     7
 74
     0
 91
        0
 64
     7
 65
   257
 75
     1
175
     1
 42
1.0
 92
        8
 66
     7
 43
1.0
 76
     1
 77
     6
 78
     2
 67
     7
 79
     5
170
     0
171
     0
290
     0
174
     0
 93
       13
 44
0.0
173
     0
291
     1
 45
0.0
1001
ACAD
1000
AcDbSavedByObjectVersion
1070
     0
  0
VISUALSTYLE
  5
2B
102
{ACAD_XDICTIONARY
360
4E5
102
}
102
{ACAD_REACTORS
330
29
102
}
330
29
100
AcDbVisualStyle
  2
FlatWithEdges
 70
     1
 71
     2
 72
     1
 73
     1
 90
        2
 40
-0.6
 41
30.0
 62
     5
 63
     7
 74
     1
 91
        0
 64
     7
 65
   257
 75
     1
175
     1
 42
1.0
 92
        0
 66
   257
 43
1.0
 76
     1
 77
     6
 78
     2
 67
     7
 79
     5
170
     0
171
     0
290
     0
174
     0
 93
       13
 44
0.0
173
     0
291
     1
 45
0.0
1001
ACAD
1000
AcDbSavedByObjectVersion
1070
     0
  0
VISUALSTYLE
  5
2C
102
{ACAD_XDICTIONARY
360
4E7
102
}
102
{ACAD_REACTORS
330
29
102
}
330
29
100
AcDbVisualStyle
  2
Gouraud
 70
     2
 71
     2
 72
     2
 73
     1
 90
        2
 40
-0.6
 41
30.0
 62
     5
 63
     7
 74
     0
 91
        0
 64
     7
 65
   257
 75
     1
175
     1
 42
1.0
 92
        0
 66
     7
 43
1.0
 76
     1
 77
     6
 78
     2
 67
     7
 79
     5
170
     0
171
     0
290
     0
174
     0
 93
       13
 44
0.0
173
     0
291
     1
 45
0.0
1001
ACAD
1000
AcDbSavedByObjectVersion
1070
     0
  0
VISUALSTYLE
  5
2D
102
{ACAD_XDICTIONARY
360
4E9
102
}
102
{ACAD_REACTORS
330
29
102
}
330
29
100
AcDbVisualStyle
  2
GouraudWithEdges
 70
     3
 71
     2
 72
     2
 73
     1
 90
        2
 40
-0.6
 41
30.0
 62
     5
 63
     7
 74
     1
 91
        0
 64
     7
 65
   257
 75
     1
175
     1
 42
1.0
 92
        0
 66
   257
 43
1.0
 76
     1
 77
     6
 78
     2
 67
     7
 79
     5
170
     0
171
     0
290
     0
174
     0
 93
       13
 44
0.0
173
     0
291
     1
 45
0.0
1001
ACAD
1000
AcDbSavedByObjectVersion
1070
     0
  0
VISUALSTYLE
  5
31
102
{ACAD_XDICTIONARY
360
4F1
102
}
102
{ACAD_REACTORS
330
29
102
}
330
29
100
AcDbVisualStyle
  2
Hidden
 70
     6
 71
     1
 72
     2
 73
     2
 90
        0
 40
-0.6
 41
-30.0
 62
     5
 63
     7
 74
     2
 91
        2
 64
     7
 65
   257
 75
     2
175
     1
 42
40.0
 92
        0
 66
   257
 43
1.0
 76
     1
 77
     6
 78
     2
 67
     7
 79
     3
170
     0
171
     0
290
     0
174
     0
 93
        1
 44
0.0
173
     0
291
     0
 45
0.0
1001
ACAD
1000
AcDbSavedByObjectVersion
1070
     0
  0
VISUALSTYLE
  5
3F
102
{ACAD_XDICTIONARY
360
50D
102
}
102
{ACAD_REACTORS
330
29
102
}
330
29
100
AcDbVisualStyle
  2
JitterOff
 70
    20
 71
     2
 72
     2
 73
     0
 90
        0
 40
-0.6
 41
-30.0
 62
     5
 63
     7
 74
     1
 91
        4
 64
     7
 65
   257
 75
     1
175
     1
 42
1.0
 92
       10
 66
     7
 43
1.0
 76
     1
 77
     6
 78
     2
 67
     7
 79
     5
170
     0
171
     0
290
     0
174
     0
 93
        1
 44
0.0
173
     0
291
     1
 45
0.0
1001
ACAD
1000
AcDbSavedByObjectVersion
1070
     0
  0
VISUALSTYLE
  5
37
102
{ACAD_XDICTIONARY
360
4FD
102
}
102
{ACAD_REACTORS
330
29
102
}
330
29
100
AcDbVisualStyle
  2
Linepattern
 70
    14
 71
     2
 72
     2
 73
     0
 90
        0
 40
-0.6
 41
-30.0
 62
     5
 63
     7
 74
     1
 91
        4
 64
     7
 65
   257
 75
     7
175
     7
 42
1.0
 92
        8
 66
     7
 43
1.0
 76
     1
 77
     6
 78
     2
 67
     7
 79
     5
170
     0
171
     0
290
     0
174
     0
 93
        1
 44
0.0
173
     0
291
     1
 45
0.0
1001
ACAD
1000
AcDbSavedByObjectVersion
1070
     0
  0
VISUALSTYLE
  5
40
102
{ACAD_XDICTIONARY
360
50F
102
}
102
{ACAD_REACTORS
330
29
102
}
330
29
100
AcDbVisualStyle
  2
OverhangOff
 70
    21
 71
     2
 72
     2
 73
     0
 90
        0
 40
-0.6
 41
-30.0
 62
     5
 63
     7
 74
     1
 91
        4
 64
     7
 65
   257
 75
     1
175
     1
 42
1.0
 92
        9
 66
     7
 43
1.0
 76
     1
 77
     6
 78
     2
 67
     7
 79
     5
170
     0
171
     0
290
     0
174
     0
 93
        1
 44
0.0
173
     0
291
     1
 45
0.0
1001
ACAD
1000
AcDbSavedByObjectVersion
1070
     0
  0
VISUALSTYLE
  5
33
102
{ACAD_XDICTIONARY
360
4F5
102
}
102
{ACAD_REACTORS
330
29
102
}
330
29
100
AcDbVisualStyle
  2
Realistic
 70
     8
 71
     2
 72
     3
 73
     0
 90
        2
 40
-0.6
 41
30.0
 62
     5
 63
     7
 74
     0
 91
        0
 64
     7
 65
   257
 75
     1
175
     1
 42
1.0
 92
        8
 66
   257
 43
1.0
 76
     1
 77
     6
 78
     2
 67
     7
 79
     3
170
     0
171
     0
290
     0
174
     0
 93
       13
 44
0.0
173
     0
291
     0
 45
0.0
1001
ACAD
1000
AcDbSavedByObjectVersion
1070
     0
  0
VISUALSTYLE
  5
3E
102
{ACAD_XDICTIONARY
360
50B
102
}
102
{ACAD_REACTORS
330
29
102
}
330
29
100
AcDbVisualStyle
  2
Shaded
 70
    27
 71
     2
 72
     2
 73
     1
 90
        2
 40
-0.6
 41
30.0
 62
     5
 63
     7
 74
     0
 91
        4
 64
     7
 65
   257
 75
     1
175
     1
 42
1.0
 92
        8
 66
   257
 43
1.0
 76
     1
 77
     6
 78
     2
 67
     8
 79
     3
170
     0
171
     0
290
     0
174
     0
 93
        5
 44
0.0
173
     0
291
     0
 45
0.0
1001
ACAD
1000
AcDbSavedByObjectVersion
1070
     0
  0
VISUALSTYLE
  5
3D
102
{ACAD_XDICTIONARY
360
509
102
}
102
{ACAD_REACTORS
330
29
102
}
330
29
100
AcDbVisualStyle
  2
Shaded with edges
 70
    26
 71
     2
 72
     2
 73
     1
 90
        2
 40
-0.6
 41
30.0
 62
     5
 63
     7
 74
     1
 91
        2
 64
     7
 65
   257
 75
     2
175
     1
 42
1.0
 92
        8
 66
   257
 43
1.0
 76
     1
 77
     6
 78
     2
 67
     7
 79
     3
170
     0
171
     0
290
     0
174
     0
 93
        5
 44
0.0
173
     0
291
     0
 45
0.0
1001
ACAD
1000
AcDbSavedByObjectVersion
1070
     0
  0
VISUALSTYLE
  5
3A
102
{ACAD_XDICTIONARY
360
503
102
}
102
{ACAD_REACTORS
330
29
102
}
330
29
100
AcDbVisualStyle
  2
Shades of Gray
 70
    23
 71
     2
 72
     2
 73
     3
 90
        0
 40
-0.6
 41
-30.0
 62
     5
 63
     7
 74
     2
 91
        2
 64
     7
 65
     7
 75
     1
175
     1
 42
40.0
 92
        8
 66
     7
 43
1.0
 76
     1
 77
     6
 78
     2
 67
     7
 79
     3
170
     0
171
     0
290
     0
174
     0
 93
        1
 44
0.0
173
     0
291
     0
 45
0.0
1001
ACAD
1000
AcDbSavedByObjectVersion
1070
     0
  0
VISUALSTYLE
  5
3B
102
{ACAD_XDICTIONARY
360
505
102
}
102
{ACAD_REACTORS
330
29
102
}
330
29
100
AcDbVisualStyle
  2
Sketchy
 70
    24
 71
     1
 72
     2
 73
     2
 90
        0
 40
-0.6
 41
-30.0
 62
     5
 63
     7
 74
     2
 91
        2
 64
     7
 65
     7
 75
     1
175
     1
 42
40.0
 92
       11
 66
     7
 43
1.0
 76
     1
 77
     6
 78
     2
 67
     7
 79
     6
170
     0
171
     0
290
     0
174
     0
 93
        1
 44
0.0
173
     0
291
     0
 45
0.0
1001
ACAD
1000
AcDbSavedByObjectVersion
1070
     0
  0
VISUALSTYLE
  5
36
102
{ACAD_XDICTIONARY
360
4FB
102
}
102
{ACAD_REACTORS
330
29
102
}
330
29
100
AcDbVisualStyle
  2
Thicken
 70
    13
 71
     2
 72
     2
 73
     0
 90
        0
 40
-0.6
 41
-30.0
 62
     5
 63
     7
 74
     1
 91
        4
 64
     7
 65
   257
 75
     1
175
     1
 42
1.0
 92
       12
 66
     7
 43
1.0
 76
     1
 77
     6
 78
     2
 67
     7
 79
     5
170
     0
171
     0
290
     0
174
     0
 93
        1
 44
0.0
173
     0
291
     1
 45
0.0
1001
ACAD
1000
AcDbSavedByObjectVersion
1070
     0
  0
VISUALSTYLE
  5
30
102
{ACAD_XDICTIONARY
360
4EF
102
}
102
{ACAD_REACTORS
330
29
102
}
330
29
100
AcDbVisualStyle
  2
Wireframe
 70
     5
 71
     0
 72
     2
 73
     0
 90
        0
 40
-0.6
 41
-30.0
 62
     5
 63
     7
 74
     1
 91
        4
 64
     7
 65
   257
 75
     1
175
     1
 42
1.0
 92
        0
 66
   257
 43
1.0
 76
     1
 77
     6
 78
     2
 67
     7
 79
     3
170
     0
171
     0
290
     0
174
     0
 93
        1
 44
0.0
173
     0
291
     0
 45
0.0
1001
ACAD
1000
AcDbSavedByObjectVersion
1070
     0
  0
VISUALSTYLE
  5
3C
102
{ACAD_XDICTIONARY
360
507
102
}
102
{ACAD_REACTORS
330
29
102
}
330
29
100
AcDbVisualStyle
  2
X-Ray
 70
    25
 71
     2
 72
     2
 73
     1
 90
        1
 40
0.5
 41
-30.0
 62
     5
 63
     7
 74
     1
 91
        0
 64
     7
 65
   257
 75
     1
175
     1
 42
1.0
 92
        8
 66
     7
 43
1.0
 76
     1
 77
     6
 78
     2
 67
     7
 79
     3
170
     0
171
     0
290
     0
174
     0
 93
       13
 44
0.0
173
     0
291
     0
 45
0.0
1001
ACAD
1000
AcDbSavedByObjectVersion
1070
     0
  0
DICTIONARYVAR
  5
4D6
102
{ACAD_REACTORS
330
4D1
102
}
330
4D1
100
DictionaryVariables
280
     0
  1
1:1
  0
DICTIONARYVAR
  5
4D3
102
{ACAD_REACTORS
330
4D1
102
}
330
4D1
100
DictionaryVariables
280
     0
  1
STANDARD
  0
DICTIONARYVAR
  5
4D2
102
{ACAD_REACTORS
330
4D1
102
}
330
4D1
100
DictionaryVariables
280
     0
  1
STANDARD
  0
DICTIONARYVAR
  5
4D4
102
{ACAD_REACTORS
330
4D1
102
}
330
4D1
100
DictionaryVariables
280
     0
  1
Imperial24
  0
DICTIONARYVAR
  5
4D5
102
{ACAD_REACTORS
330
4D1
102
}
330
4D1
100
DictionaryVariables
280
     0
  1
Imperial24
  0
DICTIONARYVAR
  5
4D9
102
{ACAD_REACTORS
330
4D1
102
}
330
4D1
100
DictionaryVariables
280
     0
  1
1
  0
DICTIONARYVAR
  5
4D8
102
{ACAD_REACTORS
330
4D1
102
}
330
4D1
100
DictionaryVariables
280
     0
  1
0
  0
DICTIONARYVAR
  5
4D7
102
{ACAD_REACTORS
330
4D1
102
}
330
4D1
100
DictionaryVariables
280
     0
  1
127
  0
DICTIONARYVAR
  5
4DA
102
{ACAD_REACTORS
330
4D1
102
}
330
4D1
100
DictionaryVariables
280
     0
  1
2
  0
DICTIONARY
  5
517
330
6A
100
AcDbDictionary
280
     1
281
     1
  3
ACAD_XREC_ROUNDTRIP
360
518
  0
DICTIONARY
  5
51B
330
72
100
AcDbDictionary
280
     1
281
     1
  3
ACAD_XREC_ROUNDTRIP
360
51C
  0
DICTIONARY
  5
519
330
6E
100
AcDbDictionary
280
     1
281
     1
  3
ACAD_XREC_ROUNDTRIP
360
51A
  0
DICTIONARY
  5
1A
330
19
100
AcDbDictionary
280
     1
281
     1
  3
ACAD_XREC_ROUNDTRIP
360
4E1
  3
BUMPTILE
360
1C
  3
DIFFUSETILE
360
1B
  3
OPACITYTILE
360
1F
  3
REFLECTIONTILE
360
1E
  3
REFRACTIONTILE
360
20
  3
SPECULARTILE
360
1D
  0
DICTIONARY
  5
12
330
11
100
AcDbDictionary
280
     1
281
     1
  3
ACAD_XREC_ROUNDTRIP
360
4E0
  3
BUMPTILE
360
14
  3
DIFFUSETILE
360
13
  3
OPACITYTILE
360
17
  3
REFLECTIONTILE
360
16
  3
REFRACTIONTILE
360
18
  3
SPECULARTILE
360
15
  0
DICTIONARY
  5
22
330
21
100
AcDbDictionary
280
     1
281
     1
  3
ACAD_XREC_ROUNDTRIP
360
4E2
  3
BUMPTILE
360
24
  3
DIFFUSETILE
360
23
  3
OPACITYTILE
360
27
  3
REFLECTIONTILE
360
26
  3
REFRACTIONTILE
360
28
  3
SPECULARTILE
360
25
  0
DICTIONARY
  5
515
330
68
100
AcDbDictionary
280
     1
281
     1
  3
ACAD_XREC_ROUNDTRIP
360
516
  0
DICTIONARY
  5
4DC
330
64
100
AcDbDictionary
280
     1
281
     1
  3
ACAD_ROUNDTRIP_2008_TABLESTYLE_CELLSTYLEMAP
360
4DD
  3
ACAD_XREC_ROUNDTRIP
360
513
  0
DICTIONARY
  5
4ED
330
2F
100
AcDbDictionary
280
     1
281
     1
  3
ACAD_XREC_ROUNDTRIP
360
4EE
  0
DICTIONARY
  5
4EB
330
2E
100
AcDbDictionary
280
     1
281
     1
  3
ACAD_XREC_ROUNDTRIP
360
4EC
  0
DICTIONARY
  5
4F9
330
35
100
AcDbDictionary
280
     1
281
     1
  3
ACAD_XREC_ROUNDTRIP
360
4FA
  0
DICTIONARY
  5
501
330
39
100
AcDbDictionary
280
     1
281
     1
  3
ACAD_XREC_ROUNDTRIP
360
502
  0
DICTIONARY
  5
4F3
330
32
100
AcDbDictionary
280
     1
281
     1
  3
ACAD_XREC_ROUNDTRIP
360
4F4
  0
DICTIONARY
  5
4F7
330
34
100
AcDbDictionary
280
     1
281
     1
  3
ACAD_XREC_ROUNDTRIP
360
4F8
  0
DICTIONARY
  5
511
330
41
100
AcDbDictionary
280
     1
281
     1
  3
ACAD_XREC_ROUNDTRIP
360
512
  0
DICTIONARY
  5
4FF
330
38
100
AcDbDictionary
280
     1
281
     1
  3
ACAD_XREC_ROUNDTRIP
360
500
  0
DICTIONARY
  5
4E3
330
2A
100
AcDbDictionary
280
     1
281
     1
  3
ACAD_XREC_ROUNDTRIP
360
4E4
  0
DICTIONARY
  5
4E5
330
2B
100
AcDbDictionary
280
     1
281
     1
  3
ACAD_XREC_ROUNDTRIP
360
4E6
  0
DICTIONARY
  5
4E7
330
2C
100
AcDbDictionary
280
     1
281
     1
  3
ACAD_XREC_ROUNDTRIP
360
4E8
  0
DICTIONARY
  5
4E9
330
2D
100
AcDbDictionary
280
     1
281
     1
  3
ACAD_XREC_ROUNDTRIP
360
4EA
  0
DICTIONARY
  5
4F1
330
31
100
AcDbDictionary
280
     1
281
     1
  3
ACAD_XREC_ROUNDTRIP
360
4F2
  0
DICTIONARY
  5
50D
330
3F
100
AcDbDictionary
280
     1
281
     1
  3
ACAD_XREC_ROUNDTRIP
360
50E
  0
DICTIONARY
  5
4FD
330
37
100
AcDbDictionary
280
     1
281
     1
  3
ACAD_XREC_ROUNDTRIP
360
4FE
  0
DICTIONARY
  5
50F
330
40
100
AcDbDictionary
280
     1
281
     1
  3
ACAD_XREC_ROUNDTRIP
360
510
  0
DICTIONARY
  5
4F5
330
33
100
AcDbDictionary
280
     1
281
     1
  3
ACAD_XREC_ROUNDTRIP
360
4F6
  0
DICTIONARY
  5
50B
330
3E
100
AcDbDictionary
280
     1
281
     1
  3
ACAD_XREC_ROUNDTRIP
360
50C
  0
DICTIONARY
  5
509
330
3D
100
AcDbDictionary
280
     1
281
     1
  3
ACAD_XREC_ROUNDTRIP
360
50A
  0
DICTIONARY
  5
503
330
3A
100
AcDbDictionary
280
     1
281
     1
  3
ACAD_XREC_ROUNDTRIP
360
504
  0
DICTIONARY
  5
505
330
3B
100
AcDbDictionary
280
     1
281
     1
  3
ACAD_XREC_ROUNDTRIP
360
506
  0
DICTIONARY
  5
4FB
330
36
100
AcDbDictionary
280
     1
281
     1
  3
ACAD_XREC_ROUNDTRIP
360
4FC
  0
DICTIONARY
  5
4EF
330
30
100
AcDbDictionary
280
     1
281
     1
  3
ACAD_XREC_ROUNDTRIP
360
4F0
  0
DICTIONARY
  5
507
330
3C
100
AcDbDictionary
280
     1
281
     1
  3
ACAD_XREC_ROUNDTRIP
360
508
  0
XRECORD
  5
518
102
{ACAD_REACTORS
330
517
102
}
330
517
100
AcDbXrecord
280
     1
102
DISPLAYNAME
  1
Imperial24
102
FLAGS
 90
        0
  0
XRECORD
  5
51C
102
{ACAD_REACTORS
330
51B
102
}
330
51B
100
AcDbXrecord
280
     1
102
SHADEPLOT
 70
     0
102
SHADEPLOTRESLEVEL
 70
     2
102
SHADEPLOTCUSTOMDPI
 70
   300
  0
XRECORD
  5
51A
102
{ACAD_REACTORS
330
519
102
}
330
519
100
AcDbXrecord
280
     1
102
SHADEPLOT
 70
     0
102
SHADEPLOTRESLEVEL
 70
     2
102
SHADEPLOTCUSTOMDPI
 70
   300
  0
XRECORD
  5
4E1
102
{ACAD_REACTORS
330
1A
102
}
330
1A
100
AcDbXrecord
280
     1
102
MATERIAL
148
0.0
149
0.0
149
0.0
 93
        0
 94
      127
282
     0
 72
     0
 77
     0
171
     0
175
     0
179
     0
273
     0
  0
XRECORD
  5
1C
102
{ACAD_REACTORS
330
1A
102
}
330
1A
100
AcDbXrecord
280
     1
270
     1
271
     1
  0
XRECORD
  5
1B
102
{ACAD_REACTORS
330
1A
102
}
330
1A
100
AcDbXrecord
280
     1
270
     1
271
     1
  0
XRECORD
  5
1F
102
{ACAD_REACTORS
330
1A
102
}
330
1A
100
AcDbXrecord
280
     1
270
     1
271
     1
  0
XRECORD
  5
1E
102
{ACAD_REACTORS
330
1A
102
}
330
1A
100
AcDbXrecord
280
     1
270
     1
271
     1
  0
XRECORD
  5
20
102
{ACAD_REACTORS
330
1A
102
}
330
1A
100
AcDbXrecord
280
     1
270
     1
271
     1
  0
XRECORD
  5
1D
102
{ACAD_REACTORS
330
1A
102
}
330
1A
100
AcDbXrecord
280
     1
270
     1
271
     1
  0
XRECORD
  5
4E0
102
{ACAD_REACTORS
330
12
102
}
330
12
100
AcDbXrecord
280
     1
102
MATERIAL
148
0.0
149
0.0
149
0.0
 93
        0
 94
      127
282
     0
 72
     0
 77
     0
171
     0
175
     0
179
     0
273
     0
  0
XRECORD
  5
14
102
{ACAD_REACTORS
330
12
102
}
330
12
100
AcDbXrecord
280
     1
270
     1
271
     1
  0
XRECORD
  5
13
102
{ACAD_REACTORS
330
12
102
}
330
12
100
AcDbXrecord
280
     1
270
     1
271
     1
  0
XRECORD
  5
17
102
{ACAD_REACTORS
330
12
102
}
330
12
100
AcDbXrecord
280
     1
270
     1
271
     1
  0
XRECORD
  5
16
102
{ACAD_REACTORS
330
12
102
}
330
12
100
AcDbXrecord
280
     1
270
     1
271
     1
  0
XRECORD
  5
18
102
{ACAD_REACTORS
330
12
102
}
330
12
100
AcDbXrecord
280
     1
270
     1
271
     1
  0
XRECORD
  5
15
102
{ACAD_REACTORS
330
12
102
}
330
12
100
AcDbXrecord
280
     1
270
     1
271
     1
  0
XRECORD
  5
4E2
102
{ACAD_REACTORS
330
22
102
}
330
22
100
AcDbXrecord
280
     1
102
MATERIAL
148
0.0
149
0.0
149
0.0
 93
        0
 94
      127
282
     0
 72
     0
 77
     0
171
     0
175
     0
179
     0
273
     0
  0
XRECORD
  5
24
102
{ACAD_REACTORS
330
22
102
}
330
22
100
AcDbXrecord
280
     1
270
     1
271
     1
  0
XRECORD
  5
23
102
{ACAD_REACTORS
330
22
102
}
330
22
100
AcDbXrecord
280
     1
270
     1
271
     1
  0
XRECORD
  5
27
102
{ACAD_REACTORS
330
22
102
}
330
22
100
AcDbXrecord
280
     1
270
     1
271
     1
  0
XRECORD
  5
26
102
{ACAD_REACTORS
330
22
102
}
330
22
100
AcDbXrecord
280
     1
270
     1
271
     1
  0
XRECORD
  5
28
102
{ACAD_REACTORS
330
22
102
}
330
22
100
AcDbXrecord
280
     1
270
     1
271
     1
  0
XRECORD
  5
25
102
{ACAD_REACTORS
330
22
102
}
330
22
100
AcDbXrecord
280
     1
270
     1
271
     1
  0
XRECORD
  5
516
102
{ACAD_REACTORS
330
515
102
}
330
515
100
AcDbXrecord
280
     1
102
DISPLAYNAME
  1
Imperial24
102
FLAGS
 90
        0
  0
CELLSTYLEMAP
  5
4DD
102
{ACAD_REACTORS
330
4DC
102
}
330
4DC
100
AcDbCellStyleMap
 90
        3
300
CELLSTYLE
  1
TABLEFORMAT_BEGIN
 90
        5
170
     1
 91
        0
 92
    32768
 62
   257
 93
        1
300
CONTENTFORMAT
  1
CONTENTFORMAT_BEGIN
 90
        0
 91
        0
 92
      512
 93
        0
300

 40
0.0
140
1.0
 94
        5
 62
     0
340
55
144
0.25
309
CONTENTFORMAT_END
171
     0
 94
        0
309
TABLEFORMAT_END
  1
CELLSTYLE_BEGIN
 90
        1
 91
        1
300
_TITLE
309
CELLSTYLE_END
300
CELLSTYLE
  1
TABLEFORMAT_BEGIN
 90
        5
170
     1
 91
        0
 92
        0
 62
   257
 93
        1
300
CONTENTFORMAT
  1
CONTENTFORMAT_BEGIN
 90
        0
 91
        0
 92
      512
 93
        0
300

 40
0.0
140
1.0
 94
        5
 62
     0
340
55
144
0.18
309
CONTENTFORMAT_END
171
     0
 94
        0
309
TABLEFORMAT_END
  1
CELLSTYLE_BEGIN
 90
        2
 91
        1
300
_HEADER
309
CELLSTYLE_END
300
CELLSTYLE
  1
TABLEFORMAT_BEGIN
 90
        5
170
     1
 91
        0
 92
        0
 62
   257
 93
        1
300
CONTENTFORMAT
  1
CONTENTFORMAT_BEGIN
 90
        0
 91
        0
 92
      512
 93
        0
300

 40
0.0
140
1.0
 94
        2
 62
     0
340
55
144
0.18
309
CONTENTFORMAT_END
171
     0
 94
        0
309
TABLEFORMAT_END
  1
CELLSTYLE_BEGIN
 90
        3
 91
        2
300
_DATA
309
CELLSTYLE_END
  0
XRECORD
  5
513
102
{ACAD_REACTORS
330
4DC
102
}
330
4DC
100
AcDbXrecord
280
     1
102
ACAD_ROUNDTRIP_PRE2007_TABLESTYLE
 90
      512
 91
        0
  1

 92
      512
 93
        0
  2

 94
      512
 95
        0
  3

  0
XRECORD
  5
4EE
102
{ACAD_REACTORS
330
4ED
102
}
330
4ED
100
AcDbXrecord
280
     1
102
RTVSPost2010Prop28
280
     1
102
RTVSPost2010PropOp28
 70
     1
102
RTVSPost2010Prop29
280
     1
102
RTVSPost2010PropOp29
 70
     1
102
RTVSPost2010Prop30
280
     0
102
RTVSPost2010PropOp30
 70
     1
102
RTVSPost2010Prop31
280
     0
102
RTVSPost2010PropOp31
 70
     1
102
RTVSPost2010Prop32
280
     0
102
RTVSPost2010PropOp32
 70
     1
102
RTVSPost2010Prop33
280
     0
102
RTVSPost2010PropOp33
 70
     1
102
RTVSPost2010Prop34
280
     0
102
RTVSPost2010PropOp34
 70
     1
102
RTVSPost2010Prop35
280
     0
102
RTVSPost2010PropOp35
 70
     1
102
RTVSPost2010Prop36
280
     0
102
RTVSPost2010PropOp36
 70
     1
102
RTVSPost2010Prop37
 90
       50
102
RTVSPost2010PropOp37
 70
     1
102
RTVSPost2010Prop38
140
0.0
102
RTVSPost2010PropOp38
 70
     1
102
RTVSPost2010Prop39
140
1.0
102
RTVSPost2010PropOp39
 70
     1
102
RTVSPost2010Prop40
 90
        0
102
RTVSPost2010PropOp40
 70
     1
102
RTVSPost2010Prop41ColorIndex
 90
       18
102
RTVSPost2010Prop41ColorRGB
 90
        0
102
RTVSPost2010PropOp41
 70
     1
102
RTVSPost2010Prop42
 90
       50
102
RTVSPost2010PropOp42
 70
     1
102
RTVSPost2010Prop43
 90
        3
102
RTVSPost2010PropOp43
 70
     1
102
RTVSPost2010Prop44ColorIndex
 90
        5
102
RTVSPost2010Prop44ColorRGB
 90
      255
102
RTVSPost2010PropOp44
 70
     1
102
RTVSPost2010Prop45
280
     0
102
RTVSPost2010PropOp45
 70
     1
102
RTVSPost2010Prop46
 90
       50
102
RTVSPost2010PropOp46
 70
     1
102
RTVSPost2010Prop47
 90
       50
102
RTVSPost2010PropOp47
 70
     1
102
RTVSPost2010Prop48
 90
       50
102
RTVSPost2010PropOp48
 70
     1
102
RTVSPost2010Prop49
280
     0
102
RTVSPost2010PropOp49
 70
     1
102
RTVSPost2010Prop50
 90
       50
102
RTVSPost2010PropOp50
 70
     1
102
RTVSPost2010Prop51ColorIndex
 90
      256
102
RTVSPost2010Prop51ColorRGB
 90
-16777216
102
RTVSPost2010PropOp51
 70
     0
102
RTVSPost2010Prop52
140
1.0
102
RTVSPost2010PropOp52
 70
     0
102
RTVSPost2010Prop53
 90
        2
102
RTVSPost2010PropOp53
 70
     1
102
RTVSPost2010Prop54
  1
strokes_ogs.tif
102
RTVSPost2010PropOp54
 70
     1
102
RTVSPost2010Prop55
280
     0
102
RTVSPost2010PropOp55
 70
     1
102
RTVSPost2010Prop56
140
1.0
102
RTVSPost2010PropOp56
 70
     1
102
RTVSPost2010Prop57
140
1.0
102
RTVSPost2010PropOp57
 70
     1
102
RTVSPropertyOp0
 70
     1
102
RTVSPropertyOp1
 70
     1
102
RTVSPropertyOp2
 70
     1
102
RTVSPropertyOp3
 70
     1
102
RTVSPropertyOp4
 70
     1
102
RTVSPropertyOp5
 70
     1
102
RTVSPropertyOp6
 70
     1
102
RTVSPropertyOp7
 70
     1
102
RTVSPropertyOp8
 70
     1
102
RTVSPropertyOp9
 70
     1
102
RTVSPropertyOp10
 70
     1
102
RTVSPropertyOp11
 70
     1
102
RTVSPropertyOp12
 70
     1
102
RTVSPropertyOp13
 70
     1
102
RTVSPropertyOp14
 70
     1
102
RTVSPropertyOp15
 70
     1
102
RTVSPropertyOp16
 70
     1
102
RTVSPropertyOp17
 70
     1
102
RTVSPropertyOp18
 70
     1
102
RTVSPropertyOp19
 70
     1
102
RTVSPropertyOp20
 70
     1
102
RTVSPropertyOp21
 70
     1
102
RTVSPropertyOp22
 70
     1
102
RTVSPropertyOp23
 70
     1
102
RTVSPropertyOp24
 70
     1
102
RTVSPropertyOp25
 70
     1
102
RTVSPropertyOp26
 70
     1
102
RTVSPropertyOp27
 70
     1
102
RTVSPropertyOp28
 70
     1
102
RTVSPropertyOp29
 70
     1
102
RTVSPropertyOp30
 70
     1
102
RTVSPropertyOp31
 70
     1
102
RTVSPropertyOp32
 70
     1
102
RTVSPropertyOp33
 70
     1
102
RTVSPropertyOp34
 70
     1
102
RTVSPropertyOp35
 70
     1
102
RTVSPropertyOp36
 70
     1
102
RTVSPropertyOp37
 70
     1
102
RTVSPropertyOp38
 70
     1
102
RTVSPropertyOp39
 70
     1
102
RTVSPropertyOp40
 70
     1
102
RTVSPropertyOp41
 70
     1
102
RTVSPropertyOp42
 70
     1
102
RTVSPropertyOp43
 70
     1
102
RTVSPropertyOp44
 70
     1
102
RTVSPropertyOp45
 70
     1
102
RTVSPropertyOp46
 70
     1
102
RTVSPropertyOp47
 70
     1
102
RTVSPropertyOp48
 70
     1
102
RTVSPropertyOp49
 70
     1
102
RTVSPropertyOp50
 70
     1
102
RTVSPropertyOp51
 70
     0
102
RTVSPropertyOp52
 70
     0
102
RTVSPropertyOp53
 70
     1
102
RTVSPropertyOp54
 70
     1
102
RTVSPropertyOp55
 70
     1
102
RTVSPropertyOp56
 70
     1
102
RTVSPropertyOp57
 70
     1
102
RTVSPropertyOp58
 70
     1
102
RTVSPropertyOp59
 70
     1
102
RTVSPropertyOp60
 70
     1
102
RTVSPropertyOp61
 70
     1
102
RTVSPropertyOp62
 70
     1
  0
XRECORD
  5
4EC
102
{ACAD_REACTORS
330
4EB
102
}
330
4EB
100
AcDbXrecord
280
     1
102
RTVSPost2010Prop28
280
     0
102
RTVSPost2010PropOp28
 70
     1
102
RTVSPost2010Prop29
280
     1
102
RTVSPost2010PropOp29
 70
     1
102
RTVSPost2010Prop30
280
     1
102
RTVSPost2010PropOp30
 70
     1
102
RTVSPost2010Prop31
280
     0
102
RTVSPost2010PropOp31
 70
     1
102
RTVSPost2010Prop32
280
     0
102
RTVSPost2010PropOp32
 70
     1
102
RTVSPost2010Prop33
280
     0
102
RTVSPost2010PropOp33
 70
     1
102
RTVSPost2010Prop34
280
     0
102
RTVSPost2010PropOp34
 70
     1
102
RTVSPost2010Prop35
280
     0
102
RTVSPost2010PropOp35
 70
     1
102
RTVSPost2010Prop36
280
     0
102
RTVSPost2010PropOp36
 70
     1
102
RTVSPost2010Prop37
 90
       50
102
RTVSPost2010PropOp37
 70
     1
102
RTVSPost2010Prop38
140
0.0
102
RTVSPost2010PropOp38
 70
     1
102
RTVSPost2010Prop39
140
1.0
102
RTVSPost2010PropOp39
 70
     1
102
RTVSPost2010Prop40
 90
        0
102
RTVSPost2010PropOp40
 70
     1
102
RTVSPost2010Prop41ColorIndex
 90
       18
102
RTVSPost2010Prop41ColorRGB
 90
        0
102
RTVSPost2010PropOp41
 70
     1
102
RTVSPost2010Prop42
 90
       50
102
RTVSPost2010PropOp42
 70
     1
102
RTVSPost2010Prop43
 90
        3
102
RTVSPost2010PropOp43
 70
     1
102
RTVSPost2010Prop44ColorIndex
 90
        5
102
RTVSPost2010Prop44ColorRGB
 90
      255
102
RTVSPost2010PropOp44
 70
     1
102
RTVSPost2010Prop45
280
     0
102
RTVSPost2010PropOp45
 70
     1
102
RTVSPost2010Prop46
 90
       50
102
RTVSPost2010PropOp46
 70
     1
102
RTVSPost2010Prop47
 90
       50
102
RTVSPost2010PropOp47
 70
     1
102
RTVSPost2010Prop48
 90
       50
102
RTVSPost2010PropOp48
 70
     1
102
RTVSPost2010Prop49
280
     0
102
RTVSPost2010PropOp49
 70
     1
102
RTVSPost2010Prop50
 90
       50
102
RTVSPost2010PropOp50
 70
     1
102
RTVSPost2010Prop51ColorIndex
 90
      256
102
RTVSPost2010Prop51ColorRGB
 90
-16777216
102
RTVSPost2010PropOp51
 70
     0
102
RTVSPost2010Prop52
140
1.0
102
RTVSPost2010PropOp52
 70
     0
102
RTVSPost2010Prop53
 90
        2
102
RTVSPost2010PropOp53
 70
     1
102
RTVSPost2010Prop54
  1
strokes_ogs.tif
102
RTVSPost2010PropOp54
 70
     1
102
RTVSPost2010Prop55
280
     0
102
RTVSPost2010PropOp55
 70
     1
102
RTVSPost2010Prop56
140
1.0
102
RTVSPost2010PropOp56
 70
     1
102
RTVSPost2010Prop57
140
1.0
102
RTVSPost2010PropOp57
 70
     1
102
RTVSPropertyOp0
 70
     1
102
RTVSPropertyOp1
 70
     1
102
RTVSPropertyOp2
 70
     1
102
RTVSPropertyOp3
 70
     1
102
RTVSPropertyOp4
 70
     1
102
RTVSPropertyOp5
 70
     1
102
RTVSPropertyOp6
 70
     1
102
RTVSPropertyOp7
 70
     1
102
RTVSPropertyOp8
 70
     1
102
RTVSPropertyOp9
 70
     1
102
RTVSPropertyOp10
 70
     1
102
RTVSPropertyOp11
 70
     1
102
RTVSPropertyOp12
 70
     1
102
RTVSPropertyOp13
 70
     1
102
RTVSPropertyOp14
 70
     1
102
RTVSPropertyOp15
 70
     1
102
RTVSPropertyOp16
 70
     1
102
RTVSPropertyOp17
 70
     1
102
RTVSPropertyOp18
 70
     1
102
RTVSPropertyOp19
 70
     1
102
RTVSPropertyOp20
 70
     1
102
RTVSPropertyOp21
 70
     1
102
RTVSPropertyOp22
 70
     1
102
RTVSPropertyOp23
 70
     1
102
RTVSPropertyOp24
 70
     1
102
RTVSPropertyOp25
 70
     1
102
RTVSPropertyOp26
 70
     1
102
RTVSPropertyOp27
 70
     1
102
RTVSPropertyOp28
 70
     1
102
RTVSPropertyOp29
 70
     1
102
RTVSPropertyOp30
 70
     1
102
RTVSPropertyOp31
 70
     1
102
RTVSPropertyOp32
 70
     1
102
RTVSPropertyOp33
 70
     1
102
RTVSPropertyOp34
 70
     1
102
RTVSPropertyOp35
 70
     1
102
RTVSPropertyOp36
 70
     1
102
RTVSPropertyOp37
 70
     1
102
RTVSPropertyOp38
 70
     1
102
RTVSPropertyOp39
 70
     1
102
RTVSPropertyOp40
 70
     1
102
RTVSPropertyOp41
 70
     1
102
RTVSPropertyOp42
 70
     1
102
RTVSPropertyOp43
 70
     1
102
RTVSPropertyOp44
 70
     1
102
RTVSPropertyOp45
 70
     1
102
RTVSPropertyOp46
 70
     1
102
RTVSPropertyOp47
 70
     1
102
RTVSPropertyOp48
 70
     1
102
RTVSPropertyOp49
 70
     1
102
RTVSPropertyOp50
 70
     1
102
RTVSPropertyOp51
 70
     0
102
RTVSPropertyOp52
 70
     0
102
RTVSPropertyOp53
 70
     1
102
RTVSPropertyOp54
 70
     1
102
RTVSPropertyOp55
 70
     1
102
RTVSPropertyOp56
 70
     1
102
RTVSPropertyOp57
 70
     1
102
RTVSPropertyOp58
 70
     1
102
RTVSPropertyOp59
 70
     1
102
RTVSPropertyOp60
 70
     1
102
RTVSPropertyOp61
 70
     1
102
RTVSPropertyOp62
 70
     1
  0
XRECORD
  5
4FA
102
{ACAD_REACTORS
330
4F9
102
}
330
4F9
100
AcDbXrecord
280
     1
102
RTVSPost2010Prop28
280
     0
102
RTVSPost2010PropOp28
 70
     1
102
RTVSPost2010Prop29
280
     1
102
RTVSPost2010PropOp29
 70
     1
102
RTVSPost2010Prop30
280
     1
102
RTVSPost2010PropOp30
 70
     1
102
RTVSPost2010Prop31
280
     0
102
RTVSPost2010PropOp31
 70
     1
102
RTVSPost2010Prop32
280
     0
102
RTVSPost2010PropOp32
 70
     1
102
RTVSPost2010Prop33
280
     0
102
RTVSPost2010PropOp33
 70
     1
102
RTVSPost2010Prop34
280
     0
102
RTVSPost2010PropOp34
 70
     1
102
RTVSPost2010Prop35
280
     0
102
RTVSPost2010PropOp35
 70
     1
102
RTVSPost2010Prop36
280
     0
102
RTVSPost2010PropOp36
 70
     1
102
RTVSPost2010Prop37
 90
       50
102
RTVSPost2010PropOp37
 70
     1
102
RTVSPost2010Prop38
140
0.0
102
RTVSPost2010PropOp38
 70
     1
102
RTVSPost2010Prop39
140
1.0
102
RTVSPost2010PropOp39
 70
     1
102
RTVSPost2010Prop40
 90
        0
102
RTVSPost2010PropOp40
 70
     1
102
RTVSPost2010Prop41ColorIndex
 90
       18
102
RTVSPost2010Prop41ColorRGB
 90
        0
102
RTVSPost2010PropOp41
 70
     1
102
RTVSPost2010Prop42
 90
       50
102
RTVSPost2010PropOp42
 70
     1
102
RTVSPost2010Prop43
 90
        3
102
RTVSPost2010PropOp43
 70
     1
102
RTVSPost2010Prop44ColorIndex
 90
        5
102
RTVSPost2010Prop44ColorRGB
 90
      255
102
RTVSPost2010PropOp44
 70
     1
102
RTVSPost2010Prop45
280
     0
102
RTVSPost2010PropOp45
 70
     1
102
RTVSPost2010Prop46
 90
       50
102
RTVSPost2010PropOp46
 70
     1
102
RTVSPost2010Prop47
 90
       50
102
RTVSPost2010PropOp47
 70
     1
102
RTVSPost2010Prop48
 90
       50
102
RTVSPost2010PropOp48
 70
     1
102
RTVSPost2010Prop49
280
     0
102
RTVSPost2010PropOp49
 70
     1
102
RTVSPost2010Prop50
 90
       50
102
RTVSPost2010PropOp50
 70
     1
102
RTVSPost2010Prop51ColorIndex
 90
      256
102
RTVSPost2010Prop51ColorRGB
 90
-16777216
102
RTVSPost2010PropOp51
 70
     0
102
RTVSPost2010Prop52
140
1.0
102
RTVSPost2010PropOp52
 70
     0
102
RTVSPost2010Prop53
 90
        2
102
RTVSPost2010PropOp53
 70
     1
102
RTVSPost2010Prop54
  1
strokes_ogs.tif
102
RTVSPost2010PropOp54
 70
     1
102
RTVSPost2010Prop55
280
     0
102
RTVSPost2010PropOp55
 70
     1
102
RTVSPost2010Prop56
140
1.0
102
RTVSPost2010PropOp56
 70
     1
102
RTVSPost2010Prop57
140
1.0
102
RTVSPost2010PropOp57
 70
     1
102
RTVSPropertyOp0
 70
     1
102
RTVSPropertyOp1
 70
     1
102
RTVSPropertyOp2
 70
     1
102
RTVSPropertyOp3
 70
     1
102
RTVSPropertyOp4
 70
     1
102
RTVSPropertyOp5
 70
     1
102
RTVSPropertyOp6
 70
     1
102
RTVSPropertyOp7
 70
     1
102
RTVSPropertyOp8
 70
     1
102
RTVSPropertyOp9
 70
     1
102
RTVSPropertyOp10
 70
     1
102
RTVSPropertyOp11
 70
     1
102
RTVSPropertyOp12
 70
     1
102
RTVSPropertyOp13
 70
     1
102
RTVSPropertyOp14
 70
     1
102
RTVSPropertyOp15
 70
     1
102
RTVSPropertyOp16
 70
     1
102
RTVSPropertyOp17
 70
     1
102
RTVSPropertyOp18
 70
     1
102
RTVSPropertyOp19
 70
     1
102
RTVSPropertyOp20
 70
     1
102
RTVSPropertyOp21
 70
     1
102
RTVSPropertyOp22
 70
     1
102
RTVSPropertyOp23
 70
     1
102
RTVSPropertyOp24
 70
     1
102
RTVSPropertyOp25
 70
     1
102
RTVSPropertyOp26
 70
     1
102
RTVSPropertyOp27
 70
     1
102
RTVSPropertyOp28
 70
     1
102
RTVSPropertyOp29
 70
     1
102
RTVSPropertyOp30
 70
     1
102
RTVSPropertyOp31
 70
     1
102
RTVSPropertyOp32
 70
     1
102
RTVSPropertyOp33
 70
     1
102
RTVSPropertyOp34
 70
     1
102
RTVSPropertyOp35
 70
     1
102
RTVSPropertyOp36
 70
     1
102
RTVSPropertyOp37
 70
     1
102
RTVSPropertyOp38
 70
     1
102
RTVSPropertyOp39
 70
     1
102
RTVSPropertyOp40
 70
     1
102
RTVSPropertyOp41
 70
     1
102
RTVSPropertyOp42
 70
     1
102
RTVSPropertyOp43
 70
     1
102
RTVSPropertyOp44
 70
     1
102
RTVSPropertyOp45
 70
     1
102
RTVSPropertyOp46
 70
     1
102
RTVSPropertyOp47
 70
     1
102
RTVSPropertyOp48
 70
     1
102
RTVSPropertyOp49
 70
     1
102
RTVSPropertyOp50
 70
     1
102
RTVSPropertyOp51
 70
     0
102
RTVSPropertyOp52
 70
     0
102
RTVSPropertyOp53
 70
     1
102
RTVSPropertyOp54
 70
     1
102
RTVSPropertyOp55
 70
     1
102
RTVSPropertyOp56
 70
     1
102
RTVSPropertyOp57
 70
     1
102
RTVSPropertyOp58
 70
     1
102
RTVSPropertyOp59
 70
     1
102
RTVSPropertyOp60
 70
     1
102
RTVSPropertyOp61
 70
     1
102
RTVSPropertyOp62
 70
     1
  0
XRECORD
  5
502
102
{ACAD_REACTORS
330
501
102
}
330
501
100
AcDbXrecord
280
     1
102
RTVSPost2010Prop28
280
     0
102
RTVSPost2010PropOp28
 70
     1
102
RTVSPost2010Prop29
280
     1
102
RTVSPost2010PropOp29
 70
     1
102
RTVSPost2010Prop30
280
     1
102
RTVSPost2010PropOp30
 70
     1
102
RTVSPost2010Prop31
280
     0
102
RTVSPost2010PropOp31
 70
     1
102
RTVSPost2010Prop32
280
     0
102
RTVSPost2010PropOp32
 70
     1
102
RTVSPost2010Prop33
280
     0
102
RTVSPost2010PropOp33
 70
     1
102
RTVSPost2010Prop34
280
     0
102
RTVSPost2010PropOp34
 70
     1
102
RTVSPost2010Prop35
280
     0
102
RTVSPost2010PropOp35
 70
     1
102
RTVSPost2010Prop36
280
     0
102
RTVSPost2010PropOp36
 70
     1
102
RTVSPost2010Prop37
 90
       50
102
RTVSPost2010PropOp37
 70
     1
102
RTVSPost2010Prop38
140
0.0
102
RTVSPost2010PropOp38
 70
     1
102
RTVSPost2010Prop39
140
1.0
102
RTVSPost2010PropOp39
 70
     1
102
RTVSPost2010Prop40
 90
        0
102
RTVSPost2010PropOp40
 70
     1
102
RTVSPost2010Prop41ColorIndex
 90
       18
102
RTVSPost2010Prop41ColorRGB
 90
        0
102
RTVSPost2010PropOp41
 70
     1
102
RTVSPost2010Prop42
 90
       50
102
RTVSPost2010PropOp42
 70
     1
102
RTVSPost2010Prop43
 90
        3
102
RTVSPost2010PropOp43
 70
     1
102
RTVSPost2010Prop44ColorIndex
 90
        5
102
RTVSPost2010Prop44ColorRGB
 90
      255
102
RTVSPost2010PropOp44
 70
     1
102
RTVSPost2010Prop45
280
     0
102
RTVSPost2010PropOp45
 70
     1
102
RTVSPost2010Prop46
 90
       50
102
RTVSPost2010PropOp46
 70
     1
102
RTVSPost2010Prop47
 90
       50
102
RTVSPost2010PropOp47
 70
     1
102
RTVSPost2010Prop48
 90
       50
102
RTVSPost2010PropOp48
 70
     1
102
RTVSPost2010Prop49
280
     0
102
RTVSPost2010PropOp49
 70
     1
102
RTVSPost2010Prop50
 90
       50
102
RTVSPost2010PropOp50
 70
     1
102
RTVSPost2010Prop51ColorIndex
 90
      256
102
RTVSPost2010Prop51ColorRGB
 90
-16777216
102
RTVSPost2010PropOp51
 70
     0
102
RTVSPost2010Prop52
140
1.0
102
RTVSPost2010PropOp52
 70
     0
102
RTVSPost2010Prop53
 90
        2
102
RTVSPost2010PropOp53
 70
     1
102
RTVSPost2010Prop54
  1
strokes_ogs.tif
102
RTVSPost2010PropOp54
 70
     1
102
RTVSPost2010Prop55
280
     0
102
RTVSPost2010PropOp55
 70
     1
102
RTVSPost2010Prop56
140
1.0
102
RTVSPost2010PropOp56
 70
     1
102
RTVSPost2010Prop57
140
1.0
102
RTVSPost2010PropOp57
 70
     1
102
RTVSPropertyOp0
 70
     1
102
RTVSPropertyOp1
 70
     1
102
RTVSPropertyOp2
 70
     1
102
RTVSPropertyOp3
 70
     1
102
RTVSPropertyOp4
 70
     1
102
RTVSPropertyOp5
 70
     1
102
RTVSPropertyOp6
 70
     1
102
RTVSPropertyOp7
 70
     1
102
RTVSPropertyOp8
 70
     1
102
RTVSPropertyOp9
 70
     1
102
RTVSPropertyOp10
 70
     1
102
RTVSPropertyOp11
 70
     1
102
RTVSPropertyOp12
 70
     1
102
RTVSPropertyOp13
 70
     1
102
RTVSPropertyOp14
 70
     1
102
RTVSPropertyOp15
 70
     1
102
RTVSPropertyOp16
 70
     1
102
RTVSPropertyOp17
 70
     1
102
RTVSPropertyOp18
 70
     1
102
RTVSPropertyOp19
 70
     1
102
RTVSPropertyOp20
 70
     1
102
RTVSPropertyOp21
 70
     1
102
RTVSPropertyOp22
 70
     1
102
RTVSPropertyOp23
 70
     1
102
RTVSPropertyOp24
 70
     1
102
RTVSPropertyOp25
 70
     1
102
RTVSPropertyOp26
 70
     1
102
RTVSPropertyOp27
 70
     1
102
RTVSPropertyOp28
 70
     1
102
RTVSPropertyOp29
 70
     1
102
RTVSPropertyOp30
 70
     1
102
RTVSPropertyOp31
 70
     1
102
RTVSPropertyOp32
 70
     1
102
RTVSPropertyOp33
 70
     1
102
RTVSPropertyOp34
 70
     1
102
RTVSPropertyOp35
 70
     1
102
RTVSPropertyOp36
 70
     1
102
RTVSPropertyOp37
 70
     1
102
RTVSPropertyOp38
 70
     1
102
RTVSPropertyOp39
 70
     1
102
RTVSPropertyOp40
 70
     1
102
RTVSPropertyOp41
 70
     1
102
RTVSPropertyOp42
 70
     1
102
RTVSPropertyOp43
 70
     1
102
RTVSPropertyOp44
 70
     1
102
RTVSPropertyOp45
 70
     1
102
RTVSPropertyOp46
 70
     1
102
RTVSPropertyOp47
 70
     1
102
RTVSPropertyOp48
 70
     1
102
RTVSPropertyOp49
 70
     1
102
RTVSPropertyOp50
 70
     1
102
RTVSPropertyOp51
 70
     0
102
RTVSPropertyOp52
 70
     0
102
RTVSPropertyOp53
 70
     1
102
RTVSPropertyOp54
 70
     1
102
RTVSPropertyOp55
 70
     1
102
RTVSPropertyOp56
 70
     1
102
RTVSPropertyOp57
 70
     1
102
RTVSPropertyOp58
 70
     1
102
RTVSPropertyOp59
 70
     1
102
RTVSPropertyOp60
 70
     1
102
RTVSPropertyOp61
 70
     1
102
RTVSPropertyOp62
 70
     1
  0
XRECORD
  5
4F4
102
{ACAD_REACTORS
330
4F3
102
}
330
4F3
100
AcDbXrecord
280
     1
102
RTVSPost2010Prop28
280
     0
102
RTVSPost2010PropOp28
 70
     1
102
RTVSPost2010Prop29
280
     1
102
RTVSPost2010PropOp29
 70
     1
102
RTVSPost2010Prop30
280
     1
102
RTVSPost2010PropOp30
 70
     1
102
RTVSPost2010Prop31
280
     0
102
RTVSPost2010PropOp31
 70
     1
102
RTVSPost2010Prop32
280
     0
102
RTVSPost2010PropOp32
 70
     1
102
RTVSPost2010Prop33
280
     0
102
RTVSPost2010PropOp33
 70
     1
102
RTVSPost2010Prop34
280
     0
102
RTVSPost2010PropOp34
 70
     1
102
RTVSPost2010Prop35
280
     0
102
RTVSPost2010PropOp35
 70
     1
102
RTVSPost2010Prop36
280
     0
102
RTVSPost2010PropOp36
 70
     1
102
RTVSPost2010Prop37
 90
       50
102
RTVSPost2010PropOp37
 70
     1
102
RTVSPost2010Prop38
140
0.0
102
RTVSPost2010PropOp38
 70
     1
102
RTVSPost2010Prop39
140
1.0
102
RTVSPost2010PropOp39
 70
     1
102
RTVSPost2010Prop40
 90
        0
102
RTVSPost2010PropOp40
 70
     1
102
RTVSPost2010Prop41ColorIndex
 90
       18
102
RTVSPost2010Prop41ColorRGB
 90
        0
102
RTVSPost2010PropOp41
 70
     1
102
RTVSPost2010Prop42
 90
       50
102
RTVSPost2010PropOp42
 70
     1
102
RTVSPost2010Prop43
 90
        3
102
RTVSPost2010PropOp43
 70
     1
102
RTVSPost2010Prop44ColorIndex
 90
        5
102
RTVSPost2010Prop44ColorRGB
 90
      255
102
RTVSPost2010PropOp44
 70
     1
102
RTVSPost2010Prop45
280
     0
102
RTVSPost2010PropOp45
 70
     1
102
RTVSPost2010Prop46
 90
       50
102
RTVSPost2010PropOp46
 70
     1
102
RTVSPost2010Prop47
 90
       50
102
RTVSPost2010PropOp47
 70
     1
102
RTVSPost2010Prop48
 90
       50
102
RTVSPost2010PropOp48
 70
     1
102
RTVSPost2010Prop49
280
     0
102
RTVSPost2010PropOp49
 70
     1
102
RTVSPost2010Prop50
 90
       50
102
RTVSPost2010PropOp50
 70
     1
102
RTVSPost2010Prop51ColorIndex
 90
      256
102
RTVSPost2010Prop51ColorRGB
 90
-16777216
102
RTVSPost2010PropOp51
 70
     0
102
RTVSPost2010Prop52
140
1.0
102
RTVSPost2010PropOp52
 70
     0
102
RTVSPost2010Prop53
 90
        2
102
RTVSPost2010PropOp53
 70
     1
102
RTVSPost2010Prop54
  1
strokes_ogs.tif
102
RTVSPost2010PropOp54
 70
     1
102
RTVSPost2010Prop55
280
     0
102
RTVSPost2010PropOp55
 70
     1
102
RTVSPost2010Prop56
140
1.0
102
RTVSPost2010PropOp56
 70
     1
102
RTVSPost2010Prop57
140
1.0
102
RTVSPost2010PropOp57
 70
     1
102
RTVSPropertyOp0
 70
     1
102
RTVSPropertyOp1
 70
     1
102
RTVSPropertyOp2
 70
     1
102
RTVSPropertyOp3
 70
     1
102
RTVSPropertyOp4
 70
     1
102
RTVSPropertyOp5
 70
     1
102
RTVSPropertyOp6
 70
     1
102
RTVSPropertyOp7
 70
     1
102
RTVSPropertyOp8
 70
     1
102
RTVSPropertyOp9
 70
     1
102
RTVSPropertyOp10
 70
     1
102
RTVSPropertyOp11
 70
     1
102
RTVSPropertyOp12
 70
     1
102
RTVSPropertyOp13
 70
     1
102
RTVSPropertyOp14
 70
     1
102
RTVSPropertyOp15
 70
     1
102
RTVSPropertyOp16
 70
     1
102
RTVSPropertyOp17
 70
     1
102
RTVSPropertyOp18
 70
     1
102
RTVSPropertyOp19
 70
     1
102
RTVSPropertyOp20
 70
     1
102
RTVSPropertyOp21
 70
     1
102
RTVSPropertyOp22
 70
     1
102
RTVSPropertyOp23
 70
     1
102
RTVSPropertyOp24
 70
     1
102
RTVSPropertyOp25
 70
     1
102
RTVSPropertyOp26
 70
     1
102
RTVSPropertyOp27
 70
     1
102
RTVSPropertyOp28
 70
     1
102
RTVSPropertyOp29
 70
     1
102
RTVSPropertyOp30
 70
     1
102
RTVSPropertyOp31
 70
     1
102
RTVSPropertyOp32
 70
     1
102
RTVSPropertyOp33
 70
     1
102
RTVSPropertyOp34
 70
     1
102
RTVSPropertyOp35
 70
     1
102
RTVSPropertyOp36
 70
     1
102
RTVSPropertyOp37
 70
     1
102
RTVSPropertyOp38
 70
     1
102
RTVSPropertyOp39
 70
     1
102
RTVSPropertyOp40
 70
     1
102
RTVSPropertyOp41
 70
     1
102
RTVSPropertyOp42
 70
     1
102
RTVSPropertyOp43
 70
     1
102
RTVSPropertyOp44
 70
     1
102
RTVSPropertyOp45
 70
     1
102
RTVSPropertyOp46
 70
     1
102
RTVSPropertyOp47
 70
     1
102
RTVSPropertyOp48
 70
     1
102
RTVSPropertyOp49
 70
     1
102
RTVSPropertyOp50
 70
     1
102
RTVSPropertyOp51
 70
     0
102
RTVSPropertyOp52
 70
     0
102
RTVSPropertyOp53
 70
     1
102
RTVSPropertyOp54
 70
     1
102
RTVSPropertyOp55
 70
     1
102
RTVSPropertyOp56
 70
     1
102
RTVSPropertyOp57
 70
     1
102
RTVSPropertyOp58
 70
     1
102
RTVSPropertyOp59
 70
     1
102
RTVSPropertyOp60
 70
     1
102
RTVSPropertyOp61
 70
     1
102
RTVSPropertyOp62
 70
     1
  0
XRECORD
  5
4F8
102
{ACAD_REACTORS
330
4F7
102
}
330
4F7
100
AcDbXrecord
280
     1
102
RTVSPost2010Prop28
280
     0
102
RTVSPost2010PropOp28
 70
     1
102
RTVSPost2010Prop29
280
     1
102
RTVSPost2010PropOp29
 70
     1
102
RTVSPost2010Prop30
280
     1
102
RTVSPost2010PropOp30
 70
     1
102
RTVSPost2010Prop31
280
     0
102
RTVSPost2010PropOp31
 70
     1
102
RTVSPost2010Prop32
280
     0
102
RTVSPost2010PropOp32
 70
     1
102
RTVSPost2010Prop33
280
     0
102
RTVSPost2010PropOp33
 70
     1
102
RTVSPost2010Prop34
280
     0
102
RTVSPost2010PropOp34
 70
     1
102
RTVSPost2010Prop35
280
     0
102
RTVSPost2010PropOp35
 70
     1
102
RTVSPost2010Prop36
280
     0
102
RTVSPost2010PropOp36
 70
     1
102
RTVSPost2010Prop37
 90
       50
102
RTVSPost2010PropOp37
 70
     1
102
RTVSPost2010Prop38
140
0.0
102
RTVSPost2010PropOp38
 70
     1
102
RTVSPost2010Prop39
140
1.0
102
RTVSPost2010PropOp39
 70
     1
102
RTVSPost2010Prop40
 90
        0
102
RTVSPost2010PropOp40
 70
     1
102
RTVSPost2010Prop41ColorIndex
 90
       18
102
RTVSPost2010Prop41ColorRGB
 90
        0
102
RTVSPost2010PropOp41
 70
     1
102
RTVSPost2010Prop42
 90
       50
102
RTVSPost2010PropOp42
 70
     1
102
RTVSPost2010Prop43
 90
        3
102
RTVSPost2010PropOp43
 70
     1
102
RTVSPost2010Prop44ColorIndex
 90
        5
102
RTVSPost2010Prop44ColorRGB
 90
      255
102
RTVSPost2010PropOp44
 70
     1
102
RTVSPost2010Prop45
280
     0
102
RTVSPost2010PropOp45
 70
     1
102
RTVSPost2010Prop46
 90
       50
102
RTVSPost2010PropOp46
 70
     1
102
RTVSPost2010Prop47
 90
       50
102
RTVSPost2010PropOp47
 70
     1
102
RTVSPost2010Prop48
 90
       50
102
RTVSPost2010PropOp48
 70
     1
102
RTVSPost2010Prop49
280
     0
102
RTVSPost2010PropOp49
 70
     1
102
RTVSPost2010Prop50
 90
       50
102
RTVSPost2010PropOp50
 70
     1
102
RTVSPost2010Prop51ColorIndex
 90
      256
102
RTVSPost2010Prop51ColorRGB
 90
-16777216
102
RTVSPost2010PropOp51
 70
     0
102
RTVSPost2010Prop52
140
1.0
102
RTVSPost2010PropOp52
 70
     0
102
RTVSPost2010Prop53
 90
        2
102
RTVSPost2010PropOp53
 70
     1
102
RTVSPost2010Prop54
  1
strokes_ogs.tif
102
RTVSPost2010PropOp54
 70
     1
102
RTVSPost2010Prop55
280
     0
102
RTVSPost2010PropOp55
 70
     1
102
RTVSPost2010Prop56
140
1.0
102
RTVSPost2010PropOp56
 70
     1
102
RTVSPost2010Prop57
140
1.0
102
RTVSPost2010PropOp57
 70
     1
102
RTVSPropertyOp0
 70
     1
102
RTVSPropertyOp1
 70
     1
102
RTVSPropertyOp2
 70
     1
102
RTVSPropertyOp3
 70
     1
102
RTVSPropertyOp4
 70
     1
102
RTVSPropertyOp5
 70
     1
102
RTVSPropertyOp6
 70
     1
102
RTVSPropertyOp7
 70
     1
102
RTVSPropertyOp8
 70
     1
102
RTVSPropertyOp9
 70
     1
102
RTVSPropertyOp10
 70
     1
102
RTVSPropertyOp11
 70
     1
102
RTVSPropertyOp12
 70
     1
102
RTVSPropertyOp13
 70
     1
102
RTVSPropertyOp14
 70
     1
102
RTVSPropertyOp15
 70
     1
102
RTVSPropertyOp16
 70
     1
102
RTVSPropertyOp17
 70
     1
102
RTVSPropertyOp18
 70
     1
102
RTVSPropertyOp19
 70
     1
102
RTVSPropertyOp20
 70
     1
102
RTVSPropertyOp21
 70
     1
102
RTVSPropertyOp22
 70
     1
102
RTVSPropertyOp23
 70
     1
102
RTVSPropertyOp24
 70
     1
102
RTVSPropertyOp25
 70
     1
102
RTVSPropertyOp26
 70
     1
102
RTVSPropertyOp27
 70
     1
102
RTVSPropertyOp28
 70
     1
102
RTVSPropertyOp29
 70
     1
102
RTVSPropertyOp30
 70
     1
102
RTVSPropertyOp31
 70
     1
102
RTVSPropertyOp32
 70
     1
102
RTVSPropertyOp33
 70
     1
102
RTVSPropertyOp34
 70
     1
102
RTVSPropertyOp35
 70
     1
102
RTVSPropertyOp36
 70
     1
102
RTVSPropertyOp37
 70
     1
102
RTVSPropertyOp38
 70
     1
102
RTVSPropertyOp39
 70
     1
102
RTVSPropertyOp40
 70
     1
102
RTVSPropertyOp41
 70
     1
102
RTVSPropertyOp42
 70
     1
102
RTVSPropertyOp43
 70
     1
102
RTVSPropertyOp44
 70
     1
102
RTVSPropertyOp45
 70
     1
102
RTVSPropertyOp46
 70
     1
102
RTVSPropertyOp47
 70
     1
102
RTVSPropertyOp48
 70
     1
102
RTVSPropertyOp49
 70
     1
102
RTVSPropertyOp50
 70
     1
102
RTVSPropertyOp51
 70
     0
102
RTVSPropertyOp52
 70
     0
102
RTVSPropertyOp53
 70
     1
102
RTVSPropertyOp54
 70
     1
102
RTVSPropertyOp55
 70
     1
102
RTVSPropertyOp56
 70
     1
102
RTVSPropertyOp57
 70
     1
102
RTVSPropertyOp58
 70
     1
102
RTVSPropertyOp59
 70
     1
102
RTVSPropertyOp60
 70
     1
102
RTVSPropertyOp61
 70
     1
102
RTVSPropertyOp62
 70
     1
  0
XRECORD
  5
512
102
{ACAD_REACTORS
330
511
102
}
330
511
100
AcDbXrecord
280
     1
102
RTVSPost2010Prop28
280
     0
102
RTVSPost2010PropOp28
 70
     1
102
RTVSPost2010Prop29
280
     1
102
RTVSPost2010PropOp29
 70
     1
102
RTVSPost2010Prop30
280
     1
102
RTVSPost2010PropOp30
 70
     1
102
RTVSPost2010Prop31
280
     0
102
RTVSPost2010PropOp31
 70
     1
102
RTVSPost2010Prop32
280
     0
102
RTVSPost2010PropOp32
 70
     1
102
RTVSPost2010Prop33
280
     0
102
RTVSPost2010PropOp33
 70
     1
102
RTVSPost2010Prop34
280
     0
102
RTVSPost2010PropOp34
 70
     1
102
RTVSPost2010Prop35
280
     0
102
RTVSPost2010PropOp35
 70
     1
102
RTVSPost2010Prop36
280
     0
102
RTVSPost2010PropOp36
 70
     1
102
RTVSPost2010Prop37
 90
       50
102
RTVSPost2010PropOp37
 70
     0
102
RTVSPost2010Prop38
140
0.0
102
RTVSPost2010PropOp38
 70
     0
102
RTVSPost2010Prop39
140
1.0
102
RTVSPost2010PropOp39
 70
     0
102
RTVSPost2010Prop40
 90
        0
102
RTVSPost2010PropOp40
 70
     0
102
RTVSPost2010Prop41ColorIndex
 90
       18
102
RTVSPost2010Prop41ColorRGB
 90
        0
102
RTVSPost2010PropOp41
 70
     0
102
RTVSPost2010Prop42
 90
       50
102
RTVSPost2010PropOp42
 70
     0
102
RTVSPost2010Prop43
 90
        3
102
RTVSPost2010PropOp43
 70
     0
102
RTVSPost2010Prop44ColorIndex
 90
        5
102
RTVSPost2010Prop44ColorRGB
 90
      255
102
RTVSPost2010PropOp44
 70
     0
102
RTVSPost2010Prop45
280
     0
102
RTVSPost2010PropOp45
 70
     1
102
RTVSPost2010Prop46
 90
       50
102
RTVSPost2010PropOp46
 70
     0
102
RTVSPost2010Prop47
 90
       50
102
RTVSPost2010PropOp47
 70
     0
102
RTVSPost2010Prop48
 90
       50
102
RTVSPost2010PropOp48
 70
     0
102
RTVSPost2010Prop49
280
     0
102
RTVSPost2010PropOp49
 70
     1
102
RTVSPost2010Prop50
 90
       50
102
RTVSPost2010PropOp50
 70
     0
102
RTVSPost2010Prop51ColorIndex
 90
      256
102
RTVSPost2010Prop51ColorRGB
 90
-16777216
102
RTVSPost2010PropOp51
 70
     0
102
RTVSPost2010Prop52
140
1.0
102
RTVSPost2010PropOp52
 70
     0
102
RTVSPost2010Prop53
 90
        2
102
RTVSPost2010PropOp53
 70
     0
102
RTVSPost2010Prop54
  1
strokes_ogs.tif
102
RTVSPost2010PropOp54
 70
     0
102
RTVSPost2010Prop55
280
     0
102
RTVSPost2010PropOp55
 70
     1
102
RTVSPost2010Prop56
140
1.0
102
RTVSPost2010PropOp56
 70
     0
102
RTVSPost2010Prop57
140
1.0
102
RTVSPost2010PropOp57
 70
     0
102
RTVSPropertyOp0
 70
     0
102
RTVSPropertyOp1
 70
     0
102
RTVSPropertyOp2
 70
     0
102
RTVSPropertyOp3
 70
     0
102
RTVSPropertyOp4
 70
     0
102
RTVSPropertyOp5
 70
     0
102
RTVSPropertyOp6
 70
     0
102
RTVSPropertyOp7
 70
     0
102
RTVSPropertyOp8
 70
     0
102
RTVSPropertyOp9
 70
     0
102
RTVSPropertyOp10
 70
     0
102
RTVSPropertyOp11
 70
     0
102
RTVSPropertyOp12
 70
     0
102
RTVSPropertyOp13
 70
     0
102
RTVSPropertyOp14
 70
     2
102
RTVSPropertyOp15
 70
     0
102
RTVSPropertyOp16
 70
     0
102
RTVSPropertyOp17
 70
     0
102
RTVSPropertyOp18
 70
     0
102
RTVSPropertyOp19
 70
     0
102
RTVSPropertyOp20
 70
     0
102
RTVSPropertyOp21
 70
     0
102
RTVSPropertyOp22
 70
     0
102
RTVSPropertyOp23
 70
     0
102
RTVSPropertyOp24
 70
     0
102
RTVSPropertyOp25
 70
     0
102
RTVSPropertyOp26
 70
     0
102
RTVSPropertyOp27
 70
     0
102
RTVSPropertyOp28
 70
     1
102
RTVSPropertyOp29
 70
     1
102
RTVSPropertyOp30
 70
     1
102
RTVSPropertyOp31
 70
     1
102
RTVSPropertyOp32
 70
     1
102
RTVSPropertyOp33
 70
     1
102
RTVSPropertyOp34
 70
     1
102
RTVSPropertyOp35
 70
     1
102
RTVSPropertyOp36
 70
     1
102
RTVSPropertyOp37
 70
     0
102
RTVSPropertyOp38
 70
     0
102
RTVSPropertyOp39
 70
     0
102
RTVSPropertyOp40
 70
     0
102
RTVSPropertyOp41
 70
     0
102
RTVSPropertyOp42
 70
     0
102
RTVSPropertyOp43
 70
     0
102
RTVSPropertyOp44
 70
     0
102
RTVSPropertyOp45
 70
     1
102
RTVSPropertyOp46
 70
     0
102
RTVSPropertyOp47
 70
     0
102
RTVSPropertyOp48
 70
     0
102
RTVSPropertyOp49
 70
     1
102
RTVSPropertyOp50
 70
     0
102
RTVSPropertyOp51
 70
     0
102
RTVSPropertyOp52
 70
     0
102
RTVSPropertyOp53
 70
     0
102
RTVSPropertyOp54
 70
     0
102
RTVSPropertyOp55
 70
     1
102
RTVSPropertyOp56
 70
     0
102
RTVSPropertyOp57
 70
     0
102
RTVSPropertyOp58
 70
     0
102
RTVSPropertyOp59
 70
     0
102
RTVSPropertyOp60
 70
     0
102
RTVSPropertyOp61
 70
     0
102
RTVSPropertyOp62
 70
     0
  0
XRECORD
  5
500
102
{ACAD_REACTORS
330
4FF
102
}
330
4FF
100
AcDbXrecord
280
     1
102
RTVSPost2010Prop28
280
     0
102
RTVSPost2010PropOp28
 70
     1
102
RTVSPost2010Prop29
280
     1
102
RTVSPost2010PropOp29
 70
     1
102
RTVSPost2010Prop30
280
     1
102
RTVSPost2010PropOp30
 70
     1
102
RTVSPost2010Prop31
280
     0
102
RTVSPost2010PropOp31
 70
     1
102
RTVSPost2010Prop32
280
     0
102
RTVSPost2010PropOp32
 70
     1
102
RTVSPost2010Prop33
280
     0
102
RTVSPost2010PropOp33
 70
     1
102
RTVSPost2010Prop34
280
     0
102
RTVSPost2010PropOp34
 70
     1
102
RTVSPost2010Prop35
280
     0
102
RTVSPost2010PropOp35
 70
     1
102
RTVSPost2010Prop36
280
     0
102
RTVSPost2010PropOp36
 70
     1
102
RTVSPost2010Prop37
 90
       50
102
RTVSPost2010PropOp37
 70
     1
102
RTVSPost2010Prop38
140
0.0
102
RTVSPost2010PropOp38
 70
     1
102
RTVSPost2010Prop39
140
1.0
102
RTVSPost2010PropOp39
 70
     1
102
RTVSPost2010Prop40
 90
        0
102
RTVSPost2010PropOp40
 70
     1
102
RTVSPost2010Prop41ColorIndex
 90
       18
102
RTVSPost2010Prop41ColorRGB
 90
        0
102
RTVSPost2010PropOp41
 70
     1
102
RTVSPost2010Prop42
 90
       50
102
RTVSPost2010PropOp42
 70
     1
102
RTVSPost2010Prop43
 90
        3
102
RTVSPost2010PropOp43
 70
     1
102
RTVSPost2010Prop44ColorIndex
 90
        5
102
RTVSPost2010Prop44ColorRGB
 90
      255
102
RTVSPost2010PropOp44
 70
     1
102
RTVSPost2010Prop45
280
     0
102
RTVSPost2010PropOp45
 70
     1
102
RTVSPost2010Prop46
 90
       50
102
RTVSPost2010PropOp46
 70
     1
102
RTVSPost2010Prop47
 90
       50
102
RTVSPost2010PropOp47
 70
     1
102
RTVSPost2010Prop48
 90
       50
102
RTVSPost2010PropOp48
 70
     1
102
RTVSPost2010Prop49
280
     0
102
RTVSPost2010PropOp49
 70
     1
102
RTVSPost2010Prop50
 90
       50
102
RTVSPost2010PropOp50
 70
     1
102
RTVSPost2010Prop51ColorIndex
 90
      256
102
RTVSPost2010Prop51ColorRGB
 90
-16777216
102
RTVSPost2010PropOp51
 70
     0
102
RTVSPost2010Prop52
140
1.0
102
RTVSPost2010PropOp52
 70
     0
102
RTVSPost2010Prop53
 90
        2
102
RTVSPost2010PropOp53
 70
     1
102
RTVSPost2010Prop54
  1
strokes_ogs.tif
102
RTVSPost2010PropOp54
 70
     1
102
RTVSPost2010Prop55
280
     0
102
RTVSPost2010PropOp55
 70
     1
102
RTVSPost2010Prop56
140
1.0
102
RTVSPost2010PropOp56
 70
     1
102
RTVSPost2010Prop57
140
1.0
102
RTVSPost2010PropOp57
 70
     1
102
RTVSPropertyOp0
 70
     1
102
RTVSPropertyOp1
 70
     1
102
RTVSPropertyOp2
 70
     1
102
RTVSPropertyOp3
 70
     1
102
RTVSPropertyOp4
 70
     1
102
RTVSPropertyOp5
 70
     1
102
RTVSPropertyOp6
 70
     1
102
RTVSPropertyOp7
 70
     1
102
RTVSPropertyOp8
 70
     1
102
RTVSPropertyOp9
 70
     1
102
RTVSPropertyOp10
 70
     1
102
RTVSPropertyOp11
 70
     1
102
RTVSPropertyOp12
 70
     1
102
RTVSPropertyOp13
 70
     1
102
RTVSPropertyOp14
 70
     1
102
RTVSPropertyOp15
 70
     1
102
RTVSPropertyOp16
 70
     1
102
RTVSPropertyOp17
 70
     1
102
RTVSPropertyOp18
 70
     1
102
RTVSPropertyOp19
 70
     1
102
RTVSPropertyOp20
 70
     1
102
RTVSPropertyOp21
 70
     1
102
RTVSPropertyOp22
 70
     1
102
RTVSPropertyOp23
 70
     1
102
RTVSPropertyOp24
 70
     1
102
RTVSPropertyOp25
 70
     1
102
RTVSPropertyOp26
 70
     1
102
RTVSPropertyOp27
 70
     1
102
RTVSPropertyOp28
 70
     1
102
RTVSPropertyOp29
 70
     1
102
RTVSPropertyOp30
 70
     1
102
RTVSPropertyOp31
 70
     1
102
RTVSPropertyOp32
 70
     1
102
RTVSPropertyOp33
 70
     1
102
RTVSPropertyOp34
 70
     1
102
RTVSPropertyOp35
 70
     1
102
RTVSPropertyOp36
 70
     1
102
RTVSPropertyOp37
 70
     1
102
RTVSPropertyOp38
 70
     1
102
RTVSPropertyOp39
 70
     1
102
RTVSPropertyOp40
 70
     1
102
RTVSPropertyOp41
 70
     1
102
RTVSPropertyOp42
 70
     1
102
RTVSPropertyOp43
 70
     1
102
RTVSPropertyOp44
 70
     1
102
RTVSPropertyOp45
 70
     1
102
RTVSPropertyOp46
 70
     1
102
RTVSPropertyOp47
 70
     1
102
RTVSPropertyOp48
 70
     1
102
RTVSPropertyOp49
 70
     1
102
RTVSPropertyOp50
 70
     1
102
RTVSPropertyOp51
 70
     0
102
RTVSPropertyOp52
 70
     0
102
RTVSPropertyOp53
 70
     1
102
RTVSPropertyOp54
 70
     1
102
RTVSPropertyOp55
 70
     1
102
RTVSPropertyOp56
 70
     1
102
RTVSPropertyOp57
 70
     1
102
RTVSPropertyOp58
 70
     1
102
RTVSPropertyOp59
 70
     1
102
RTVSPropertyOp60
 70
     1
102
RTVSPropertyOp61
 70
     1
102
RTVSPropertyOp62
 70
     1
  0
XRECORD
  5
4E4
102
{ACAD_REACTORS
330
4E3
102
}
330
4E3
100
AcDbXrecord
280
     1
102
RTVSPost2010Prop28
280
     0
102
RTVSPost2010PropOp28
 70
     1
102
RTVSPost2010Prop29
280
     1
102
RTVSPost2010PropOp29
 70
     1
102
RTVSPost2010Prop30
280
     1
102
RTVSPost2010PropOp30
 70
     1
102
RTVSPost2010Prop31
280
     0
102
RTVSPost2010PropOp31
 70
     1
102
RTVSPost2010Prop32
280
     0
102
RTVSPost2010PropOp32
 70
     1
102
RTVSPost2010Prop33
280
     0
102
RTVSPost2010PropOp33
 70
     1
102
RTVSPost2010Prop34
280
     0
102
RTVSPost2010PropOp34
 70
     1
102
RTVSPost2010Prop35
280
     0
102
RTVSPost2010PropOp35
 70
     1
102
RTVSPost2010Prop36
280
     0
102
RTVSPost2010PropOp36
 70
     1
102
RTVSPost2010Prop37
 90
       50
102
RTVSPost2010PropOp37
 70
     1
102
RTVSPost2010Prop38
140
0.0
102
RTVSPost2010PropOp38
 70
     1
102
RTVSPost2010Prop39
140
1.0
102
RTVSPost2010PropOp39
 70
     1
102
RTVSPost2010Prop40
 90
        0
102
RTVSPost2010PropOp40
 70
     1
102
RTVSPost2010Prop41ColorIndex
 90
       18
102
RTVSPost2010Prop41ColorRGB
 90
        0
102
RTVSPost2010PropOp41
 70
     1
102
RTVSPost2010Prop42
 90
       50
102
RTVSPost2010PropOp42
 70
     1
102
RTVSPost2010Prop43
 90
        3
102
RTVSPost2010PropOp43
 70
     1
102
RTVSPost2010Prop44ColorIndex
 90
        5
102
RTVSPost2010Prop44ColorRGB
 90
      255
102
RTVSPost2010PropOp44
 70
     1
102
RTVSPost2010Prop45
280
     0
102
RTVSPost2010PropOp45
 70
     1
102
RTVSPost2010Prop46
 90
       50
102
RTVSPost2010PropOp46
 70
     1
102
RTVSPost2010Prop47
 90
       50
102
RTVSPost2010PropOp47
 70
     1
102
RTVSPost2010Prop48
 90
       50
102
RTVSPost2010PropOp48
 70
     1
102
RTVSPost2010Prop49
280
     0
102
RTVSPost2010PropOp49
 70
     1
102
RTVSPost2010Prop50
 90
       50
102
RTVSPost2010PropOp50
 70
     1
102
RTVSPost2010Prop51ColorIndex
 90
      256
102
RTVSPost2010Prop51ColorRGB
 90
-16777216
102
RTVSPost2010PropOp51
 70
     0
102
RTVSPost2010Prop52
140
1.0
102
RTVSPost2010PropOp52
 70
     0
102
RTVSPost2010Prop53
 90
        2
102
RTVSPost2010PropOp53
 70
     1
102
RTVSPost2010Prop54
  1
strokes_ogs.tif
102
RTVSPost2010PropOp54
 70
     1
102
RTVSPost2010Prop55
280
     0
102
RTVSPost2010PropOp55
 70
     1
102
RTVSPost2010Prop56
140
1.0
102
RTVSPost2010PropOp56
 70
     1
102
RTVSPost2010Prop57
140
1.0
102
RTVSPost2010PropOp57
 70
     1
102
RTVSPropertyOp0
 70
     1
102
RTVSPropertyOp1
 70
     1
102
RTVSPropertyOp2
 70
     1
102
RTVSPropertyOp3
 70
     1
102
RTVSPropertyOp4
 70
     1
102
RTVSPropertyOp5
 70
     1
102
RTVSPropertyOp6
 70
     1
102
RTVSPropertyOp7
 70
     1
102
RTVSPropertyOp8
 70
     1
102
RTVSPropertyOp9
 70
     1
102
RTVSPropertyOp10
 70
     1
102
RTVSPropertyOp11
 70
     1
102
RTVSPropertyOp12
 70
     1
102
RTVSPropertyOp13
 70
     1
102
RTVSPropertyOp14
 70
     1
102
RTVSPropertyOp15
 70
     1
102
RTVSPropertyOp16
 70
     1
102
RTVSPropertyOp17
 70
     1
102
RTVSPropertyOp18
 70
     1
102
RTVSPropertyOp19
 70
     1
102
RTVSPropertyOp20
 70
     1
102
RTVSPropertyOp21
 70
     1
102
RTVSPropertyOp22
 70
     1
102
RTVSPropertyOp23
 70
     1
102
RTVSPropertyOp24
 70
     1
102
RTVSPropertyOp25
 70
     1
102
RTVSPropertyOp26
 70
     1
102
RTVSPropertyOp27
 70
     1
102
RTVSPropertyOp28
 70
     1
102
RTVSPropertyOp29
 70
     1
102
RTVSPropertyOp30
 70
     1
102
RTVSPropertyOp31
 70
     1
102
RTVSPropertyOp32
 70
     1
102
RTVSPropertyOp33
 70
     1
102
RTVSPropertyOp34
 70
     1
102
RTVSPropertyOp35
 70
     1
102
RTVSPropertyOp36
 70
     1
102
RTVSPropertyOp37
 70
     1
102
RTVSPropertyOp38
 70
     1
102
RTVSPropertyOp39
 70
     1
102
RTVSPropertyOp40
 70
     1
102
RTVSPropertyOp41
 70
     1
102
RTVSPropertyOp42
 70
     1
102
RTVSPropertyOp43
 70
     1
102
RTVSPropertyOp44
 70
     1
102
RTVSPropertyOp45
 70
     1
102
RTVSPropertyOp46
 70
     1
102
RTVSPropertyOp47
 70
     1
102
RTVSPropertyOp48
 70
     1
102
RTVSPropertyOp49
 70
     1
102
RTVSPropertyOp50
 70
     1
102
RTVSPropertyOp51
 70
     0
102
RTVSPropertyOp52
 70
     0
102
RTVSPropertyOp53
 70
     1
102
RTVSPropertyOp54
 70
     1
102
RTVSPropertyOp55
 70
     1
102
RTVSPropertyOp56
 70
     1
102
RTVSPropertyOp57
 70
     1
102
RTVSPropertyOp58
 70
     1
102
RTVSPropertyOp59
 70
     1
102
RTVSPropertyOp60
 70
     1
102
RTVSPropertyOp61
 70
     1
102
RTVSPropertyOp62
 70
     1
  0
XRECORD
  5
4E6
102
{ACAD_REACTORS
330
4E5
102
}
330
4E5
100
AcDbXrecord
280
     1
102
RTVSPost2010Prop28
280
     0
102
RTVSPost2010PropOp28
 70
     1
102
RTVSPost2010Prop29
280
     1
102
RTVSPost2010PropOp29
 70
     1
102
RTVSPost2010Prop30
280
     1
102
RTVSPost2010PropOp30
 70
     1
102
RTVSPost2010Prop31
280
     0
102
RTVSPost2010PropOp31
 70
     1
102
RTVSPost2010Prop32
280
     0
102
RTVSPost2010PropOp32
 70
     1
102
RTVSPost2010Prop33
280
     0
102
RTVSPost2010PropOp33
 70
     1
102
RTVSPost2010Prop34
280
     0
102
RTVSPost2010PropOp34
 70
     1
102
RTVSPost2010Prop35
280
     0
102
RTVSPost2010PropOp35
 70
     1
102
RTVSPost2010Prop36
280
     0
102
RTVSPost2010PropOp36
 70
     1
102
RTVSPost2010Prop37
 90
       50
102
RTVSPost2010PropOp37
 70
     1
102
RTVSPost2010Prop38
140
0.0
102
RTVSPost2010PropOp38
 70
     1
102
RTVSPost2010Prop39
140
1.0
102
RTVSPost2010PropOp39
 70
     1
102
RTVSPost2010Prop40
 90
        0
102
RTVSPost2010PropOp40
 70
     1
102
RTVSPost2010Prop41ColorIndex
 90
       18
102
RTVSPost2010Prop41ColorRGB
 90
        0
102
RTVSPost2010PropOp41
 70
     1
102
RTVSPost2010Prop42
 90
       50
102
RTVSPost2010PropOp42
 70
     1
102
RTVSPost2010Prop43
 90
        3
102
RTVSPost2010PropOp43
 70
     1
102
RTVSPost2010Prop44ColorIndex
 90
        5
102
RTVSPost2010Prop44ColorRGB
 90
      255
102
RTVSPost2010PropOp44
 70
     1
102
RTVSPost2010Prop45
280
     0
102
RTVSPost2010PropOp45
 70
     1
102
RTVSPost2010Prop46
 90
       50
102
RTVSPost2010PropOp46
 70
     1
102
RTVSPost2010Prop47
 90
       50
102
RTVSPost2010PropOp47
 70
     1
102
RTVSPost2010Prop48
 90
       50
102
RTVSPost2010PropOp48
 70
     1
102
RTVSPost2010Prop49
280
     0
102
RTVSPost2010PropOp49
 70
     1
102
RTVSPost2010Prop50
 90
       50
102
RTVSPost2010PropOp50
 70
     1
102
RTVSPost2010Prop51ColorIndex
 90
      256
102
RTVSPost2010Prop51ColorRGB
 90
-16777216
102
RTVSPost2010PropOp51
 70
     0
102
RTVSPost2010Prop52
140
1.0
102
RTVSPost2010PropOp52
 70
     0
102
RTVSPost2010Prop53
 90
        2
102
RTVSPost2010PropOp53
 70
     1
102
RTVSPost2010Prop54
  1
strokes_ogs.tif
102
RTVSPost2010PropOp54
 70
     1
102
RTVSPost2010Prop55
280
     0
102
RTVSPost2010PropOp55
 70
     1
102
RTVSPost2010Prop56
140
1.0
102
RTVSPost2010PropOp56
 70
     1
102
RTVSPost2010Prop57
140
1.0
102
RTVSPost2010PropOp57
 70
     1
102
RTVSPropertyOp0
 70
     1
102
RTVSPropertyOp1
 70
     1
102
RTVSPropertyOp2
 70
     1
102
RTVSPropertyOp3
 70
     1
102
RTVSPropertyOp4
 70
     1
102
RTVSPropertyOp5
 70
     1
102
RTVSPropertyOp6
 70
     1
102
RTVSPropertyOp7
 70
     1
102
RTVSPropertyOp8
 70
     1
102
RTVSPropertyOp9
 70
     1
102
RTVSPropertyOp10
 70
     1
102
RTVSPropertyOp11
 70
     1
102
RTVSPropertyOp12
 70
     1
102
RTVSPropertyOp13
 70
     1
102
RTVSPropertyOp14
 70
     1
102
RTVSPropertyOp15
 70
     1
102
RTVSPropertyOp16
 70
     1
102
RTVSPropertyOp17
 70
     1
102
RTVSPropertyOp18
 70
     1
102
RTVSPropertyOp19
 70
     1
102
RTVSPropertyOp20
 70
     1
102
RTVSPropertyOp21
 70
     1
102
RTVSPropertyOp22
 70
     1
102
RTVSPropertyOp23
 70
     1
102
RTVSPropertyOp24
 70
     1
102
RTVSPropertyOp25
 70
     1
102
RTVSPropertyOp26
 70
     1
102
RTVSPropertyOp27
 70
     1
102
RTVSPropertyOp28
 70
     1
102
RTVSPropertyOp29
 70
     1
102
RTVSPropertyOp30
 70
     1
102
RTVSPropertyOp31
 70
     1
102
RTVSPropertyOp32
 70
     1
102
RTVSPropertyOp33
 70
     1
102
RTVSPropertyOp34
 70
     1
102
RTVSPropertyOp35
 70
     1
102
RTVSPropertyOp36
 70
     1
102
RTVSPropertyOp37
 70
     1
102
RTVSPropertyOp38
 70
     1
102
RTVSPropertyOp39
 70
     1
102
RTVSPropertyOp40
 70
     1
102
RTVSPropertyOp41
 70
     1
102
RTVSPropertyOp42
 70
     1
102
RTVSPropertyOp43
 70
     1
102
RTVSPropertyOp44
 70
     1
102
RTVSPropertyOp45
 70
     1
102
RTVSPropertyOp46
 70
     1
102
RTVSPropertyOp47
 70
     1
102
RTVSPropertyOp48
 70
     1
102
RTVSPropertyOp49
 70
     1
102
RTVSPropertyOp50
 70
     1
102
RTVSPropertyOp51
 70
     0
102
RTVSPropertyOp52
 70
     0
102
RTVSPropertyOp53
 70
     1
102
RTVSPropertyOp54
 70
     1
102
RTVSPropertyOp55
 70
     1
102
RTVSPropertyOp56
 70
     1
102
RTVSPropertyOp57
 70
     1
102
RTVSPropertyOp58
 70
     1
102
RTVSPropertyOp59
 70
     1
102
RTVSPropertyOp60
 70
     1
102
RTVSPropertyOp61
 70
     1
102
RTVSPropertyOp62
 70
     1
  0
XRECORD
  5
4E8
102
{ACAD_REACTORS
330
4E7
102
}
330
4E7
100
AcDbXrecord
280
     1
102
RTVSPost2010Prop28
280
     0
102
RTVSPost2010PropOp28
 70
     1
102
RTVSPost2010Prop29
280
     1
102
RTVSPost2010PropOp29
 70
     1
102
RTVSPost2010Prop30
280
     1
102
RTVSPost2010PropOp30
 70
     1
102
RTVSPost2010Prop31
280
     0
102
RTVSPost2010PropOp31
 70
     1
102
RTVSPost2010Prop32
280
     0
102
RTVSPost2010PropOp32
 70
     1
102
RTVSPost2010Prop33
280
     0
102
RTVSPost2010PropOp33
 70
     1
102
RTVSPost2010Prop34
280
     0
102
RTVSPost2010PropOp34
 70
     1
102
RTVSPost2010Prop35
280
     0
102
RTVSPost2010PropOp35
 70
     1
102
RTVSPost2010Prop36
280
     0
102
RTVSPost2010PropOp36
 70
     1
102
RTVSPost2010Prop37
 90
       50
102
RTVSPost2010PropOp37
 70
     1
102
RTVSPost2010Prop38
140
0.0
102
RTVSPost2010PropOp38
 70
     1
102
RTVSPost2010Prop39
140
1.0
102
RTVSPost2010PropOp39
 70
     1
102
RTVSPost2010Prop40
 90
        0
102
RTVSPost2010PropOp40
 70
     1
102
RTVSPost2010Prop41ColorIndex
 90
       18
102
RTVSPost2010Prop41ColorRGB
 90
        0
102
RTVSPost2010PropOp41
 70
     1
102
RTVSPost2010Prop42
 90
       50
102
RTVSPost2010PropOp42
 70
     1
102
RTVSPost2010Prop43
 90
        3
102
RTVSPost2010PropOp43
 70
     1
102
RTVSPost2010Prop44ColorIndex
 90
        5
102
RTVSPost2010Prop44ColorRGB
 90
      255
102
RTVSPost2010PropOp44
 70
     1
102
RTVSPost2010Prop45
280
     0
102
RTVSPost2010PropOp45
 70
     1
102
RTVSPost2010Prop46
 90
       50
102
RTVSPost2010PropOp46
 70
     1
102
RTVSPost2010Prop47
 90
       50
102
RTVSPost2010PropOp47
 70
     1
102
RTVSPost2010Prop48
 90
       50
102
RTVSPost2010PropOp48
 70
     1
102
RTVSPost2010Prop49
280
     0
102
RTVSPost2010PropOp49
 70
     1
102
RTVSPost2010Prop50
 90
       50
102
RTVSPost2010PropOp50
 70
     1
102
RTVSPost2010Prop51ColorIndex
 90
      256
102
RTVSPost2010Prop51ColorRGB
 90
-16777216
102
RTVSPost2010PropOp51
 70
     0
102
RTVSPost2010Prop52
140
1.0
102
RTVSPost2010PropOp52
 70
     0
102
RTVSPost2010Prop53
 90
        2
102
RTVSPost2010PropOp53
 70
     1
102
RTVSPost2010Prop54
  1
strokes_ogs.tif
102
RTVSPost2010PropOp54
 70
     1
102
RTVSPost2010Prop55
280
     0
102
RTVSPost2010PropOp55
 70
     1
102
RTVSPost2010Prop56
140
1.0
102
RTVSPost2010PropOp56
 70
     1
102
RTVSPost2010Prop57
140
1.0
102
RTVSPost2010PropOp57
 70
     1
102
RTVSPropertyOp0
 70
     1
102
RTVSPropertyOp1
 70
     1
102
RTVSPropertyOp2
 70
     1
102
RTVSPropertyOp3
 70
     1
102
RTVSPropertyOp4
 70
     1
102
RTVSPropertyOp5
 70
     1
102
RTVSPropertyOp6
 70
     1
102
RTVSPropertyOp7
 70
     1
102
RTVSPropertyOp8
 70
     1
102
RTVSPropertyOp9
 70
     1
102
RTVSPropertyOp10
 70
     1
102
RTVSPropertyOp11
 70
     1
102
RTVSPropertyOp12
 70
     1
102
RTVSPropertyOp13
 70
     1
102
RTVSPropertyOp14
 70
     1
102
RTVSPropertyOp15
 70
     1
102
RTVSPropertyOp16
 70
     1
102
RTVSPropertyOp17
 70
     1
102
RTVSPropertyOp18
 70
     1
102
RTVSPropertyOp19
 70
     1
102
RTVSPropertyOp20
 70
     1
102
RTVSPropertyOp21
 70
     1
102
RTVSPropertyOp22
 70
     1
102
RTVSPropertyOp23
 70
     1
102
RTVSPropertyOp24
 70
     1
102
RTVSPropertyOp25
 70
     1
102
RTVSPropertyOp26
 70
     1
102
RTVSPropertyOp27
 70
     1
102
RTVSPropertyOp28
 70
     1
102
RTVSPropertyOp29
 70
     1
102
RTVSPropertyOp30
 70
     1
102
RTVSPropertyOp31
 70
     1
102
RTVSPropertyOp32
 70
     1
102
RTVSPropertyOp33
 70
     1
102
RTVSPropertyOp34
 70
     1
102
RTVSPropertyOp35
 70
     1
102
RTVSPropertyOp36
 70
     1
102
RTVSPropertyOp37
 70
     1
102
RTVSPropertyOp38
 70
     1
102
RTVSPropertyOp39
 70
     1
102
RTVSPropertyOp40
 70
     1
102
RTVSPropertyOp41
 70
     1
102
RTVSPropertyOp42
 70
     1
102
RTVSPropertyOp43
 70
     1
102
RTVSPropertyOp44
 70
     1
102
RTVSPropertyOp45
 70
     1
102
RTVSPropertyOp46
 70
     1
102
RTVSPropertyOp47
 70
     1
102
RTVSPropertyOp48
 70
     1
102
RTVSPropertyOp49
 70
     1
102
RTVSPropertyOp50
 70
     1
102
RTVSPropertyOp51
 70
     0
102
RTVSPropertyOp52
 70
     0
102
RTVSPropertyOp53
 70
     1
102
RTVSPropertyOp54
 70
     1
102
RTVSPropertyOp55
 70
     1
102
RTVSPropertyOp56
 70
     1
102
RTVSPropertyOp57
 70
     1
102
RTVSPropertyOp58
 70
     1
102
RTVSPropertyOp59
 70
     1
102
RTVSPropertyOp60
 70
     1
102
RTVSPropertyOp61
 70
     1
102
RTVSPropertyOp62
 70
     1
  0
XRECORD
  5
4EA
102
{ACAD_REACTORS
330
4E9
102
}
330
4E9
100
AcDbXrecord
280
     1
102
RTVSPost2010Prop28
280
     0
102
RTVSPost2010PropOp28
 70
     1
102
RTVSPost2010Prop29
280
     1
102
RTVSPost2010PropOp29
 70
     1
102
RTVSPost2010Prop30
280
     1
102
RTVSPost2010PropOp30
 70
     1
102
RTVSPost2010Prop31
280
     0
102
RTVSPost2010PropOp31
 70
     1
102
RTVSPost2010Prop32
280
     0
102
RTVSPost2010PropOp32
 70
     1
102
RTVSPost2010Prop33
280
     0
102
RTVSPost2010PropOp33
 70
     1
102
RTVSPost2010Prop34
280
     0
102
RTVSPost2010PropOp34
 70
     1
102
RTVSPost2010Prop35
280
     0
102
RTVSPost2010PropOp35
 70
     1
102
RTVSPost2010Prop36
280
     0
102
RTVSPost2010PropOp36
 70
     1
102
RTVSPost2010Prop37
 90
       50
102
RTVSPost2010PropOp37
 70
     1
102
RTVSPost2010Prop38
140
0.0
102
RTVSPost2010PropOp38
 70
     1
102
RTVSPost2010Prop39
140
1.0
102
RTVSPost2010PropOp39
 70
     1
102
RTVSPost2010Prop40
 90
        0
102
RTVSPost2010PropOp40
 70
     1
102
RTVSPost2010Prop41ColorIndex
 90
       18
102
RTVSPost2010Prop41ColorRGB
 90
        0
102
RTVSPost2010PropOp41
 70
     1
102
RTVSPost2010Prop42
 90
       50
102
RTVSPost2010PropOp42
 70
     1
102
RTVSPost2010Prop43
 90
        3
102
RTVSPost2010PropOp43
 70
     1
102
RTVSPost2010Prop44ColorIndex
 90
        5
102
RTVSPost2010Prop44ColorRGB
 90
      255
102
RTVSPost2010PropOp44
 70
     1
102
RTVSPost2010Prop45
280
     0
102
RTVSPost2010PropOp45
 70
     1
102
RTVSPost2010Prop46
 90
       50
102
RTVSPost2010PropOp46
 70
     1
102
RTVSPost2010Prop47
 90
       50
102
RTVSPost2010PropOp47
 70
     1
102
RTVSPost2010Prop48
 90
       50
102
RTVSPost2010PropOp48
 70
     1
102
RTVSPost2010Prop49
280
     0
102
RTVSPost2010PropOp49
 70
     1
102
RTVSPost2010Prop50
 90
       50
102
RTVSPost2010PropOp50
 70
     1
102
RTVSPost2010Prop51ColorIndex
 90
      256
102
RTVSPost2010Prop51ColorRGB
 90
-16777216
102
RTVSPost2010PropOp51
 70
     0
102
RTVSPost2010Prop52
140
1.0
102
RTVSPost2010PropOp52
 70
     0
102
RTVSPost2010Prop53
 90
        2
102
RTVSPost2010PropOp53
 70
     1
102
RTVSPost2010Prop54
  1
strokes_ogs.tif
102
RTVSPost2010PropOp54
 70
     1
102
RTVSPost2010Prop55
280
     0
102
RTVSPost2010PropOp55
 70
     1
102
RTVSPost2010Prop56
140
1.0
102
RTVSPost2010PropOp56
 70
     1
102
RTVSPost2010Prop57
140
1.0
102
RTVSPost2010PropOp57
 70
     1
102
RTVSPropertyOp0
 70
     1
102
RTVSPropertyOp1
 70
     1
102
RTVSPropertyOp2
 70
     1
102
RTVSPropertyOp3
 70
     1
102
RTVSPropertyOp4
 70
     1
102
RTVSPropertyOp5
 70
     1
102
RTVSPropertyOp6
 70
     1
102
RTVSPropertyOp7
 70
     1
102
RTVSPropertyOp8
 70
     1
102
RTVSPropertyOp9
 70
     1
102
RTVSPropertyOp10
 70
     1
102
RTVSPropertyOp11
 70
     1
102
RTVSPropertyOp12
 70
     1
102
RTVSPropertyOp13
 70
     1
102
RTVSPropertyOp14
 70
     1
102
RTVSPropertyOp15
 70
     1
102
RTVSPropertyOp16
 70
     1
102
RTVSPropertyOp17
 70
     1
102
RTVSPropertyOp18
 70
     1
102
RTVSPropertyOp19
 70
     1
102
RTVSPropertyOp20
 70
     1
102
RTVSPropertyOp21
 70
     1
102
RTVSPropertyOp22
 70
     1
102
RTVSPropertyOp23
 70
     1
102
RTVSPropertyOp24
 70
     1
102
RTVSPropertyOp25
 70
     1
102
RTVSPropertyOp26
 70
     1
102
RTVSPropertyOp27
 70
     1
102
RTVSPropertyOp28
 70
     1
102
RTVSPropertyOp29
 70
     1
102
RTVSPropertyOp30
 70
     1
102
RTVSPropertyOp31
 70
     1
102
RTVSPropertyOp32
 70
     1
102
RTVSPropertyOp33
 70
     1
102
RTVSPropertyOp34
 70
     1
102
RTVSPropertyOp35
 70
     1
102
RTVSPropertyOp36
 70
     1
102
RTVSPropertyOp37
 70
     1
102
RTVSPropertyOp38
 70
     1
102
RTVSPropertyOp39
 70
     1
102
RTVSPropertyOp40
 70
     1
102
RTVSPropertyOp41
 70
     1
102
RTVSPropertyOp42
 70
     1
102
RTVSPropertyOp43
 70
     1
102
RTVSPropertyOp44
 70
     1
102
RTVSPropertyOp45
 70
     1
102
RTVSPropertyOp46
 70
     1
102
RTVSPropertyOp47
 70
     1
102
RTVSPropertyOp48
 70
     1
102
RTVSPropertyOp49
 70
     1
102
RTVSPropertyOp50
 70
     1
102
RTVSPropertyOp51
 70
     0
102
RTVSPropertyOp52
 70
     0
102
RTVSPropertyOp53
 70
     1
102
RTVSPropertyOp54
 70
     1
102
RTVSPropertyOp55
 70
     1
102
RTVSPropertyOp56
 70
     1
102
RTVSPropertyOp57
 70
     1
102
RTVSPropertyOp58
 70
     1
102
RTVSPropertyOp59
 70
     1
102
RTVSPropertyOp60
 70
     1
102
RTVSPropertyOp61
 70
     1
102
RTVSPropertyOp62
 70
     1
  0
XRECORD
  5
4F2
102
{ACAD_REACTORS
330
4F1
102
}
330
4F1
100
AcDbXrecord
280
     1
102
RTVSPost2010Prop28
280
     0
102
RTVSPost2010PropOp28
 70
     1
102
RTVSPost2010Prop29
280
     1
102
RTVSPost2010PropOp29
 70
     1
102
RTVSPost2010Prop30
280
     1
102
RTVSPost2010PropOp30
 70
     1
102
RTVSPost2010Prop31
280
     0
102
RTVSPost2010PropOp31
 70
     1
102
RTVSPost2010Prop32
280
     0
102
RTVSPost2010PropOp32
 70
     1
102
RTVSPost2010Prop33
280
     0
102
RTVSPost2010PropOp33
 70
     1
102
RTVSPost2010Prop34
280
     0
102
RTVSPost2010PropOp34
 70
     1
102
RTVSPost2010Prop35
280
     0
102
RTVSPost2010PropOp35
 70
     1
102
RTVSPost2010Prop36
280
     0
102
RTVSPost2010PropOp36
 70
     1
102
RTVSPost2010Prop37
 90
       50
102
RTVSPost2010PropOp37
 70
     1
102
RTVSPost2010Prop38
140
0.0
102
RTVSPost2010PropOp38
 70
     1
102
RTVSPost2010Prop39
140
1.0
102
RTVSPost2010PropOp39
 70
     1
102
RTVSPost2010Prop40
 90
        0
102
RTVSPost2010PropOp40
 70
     1
102
RTVSPost2010Prop41ColorIndex
 90
       18
102
RTVSPost2010Prop41ColorRGB
 90
        0
102
RTVSPost2010PropOp41
 70
     1
102
RTVSPost2010Prop42
 90
       50
102
RTVSPost2010PropOp42
 70
     1
102
RTVSPost2010Prop43
 90
        3
102
RTVSPost2010PropOp43
 70
     1
102
RTVSPost2010Prop44ColorIndex
 90
        5
102
RTVSPost2010Prop44ColorRGB
 90
      255
102
RTVSPost2010PropOp44
 70
     1
102
RTVSPost2010Prop45
280
     0
102
RTVSPost2010PropOp45
 70
     1
102
RTVSPost2010Prop46
 90
       50
102
RTVSPost2010PropOp46
 70
     1
102
RTVSPost2010Prop47
 90
       50
102
RTVSPost2010PropOp47
 70
     1
102
RTVSPost2010Prop48
 90
       50
102
RTVSPost2010PropOp48
 70
     1
102
RTVSPost2010Prop49
280
     0
102
RTVSPost2010PropOp49
 70
     1
102
RTVSPost2010Prop50
 90
       50
102
RTVSPost2010PropOp50
 70
     1
102
RTVSPost2010Prop51ColorIndex
 90
      256
102
RTVSPost2010Prop51ColorRGB
 90
-16777216
102
RTVSPost2010PropOp51
 70
     0
102
RTVSPost2010Prop52
140
1.0
102
RTVSPost2010PropOp52
 70
     0
102
RTVSPost2010Prop53
 90
        2
102
RTVSPost2010PropOp53
 70
     1
102
RTVSPost2010Prop54
  1
strokes_ogs.tif
102
RTVSPost2010PropOp54
 70
     1
102
RTVSPost2010Prop55
280
     0
102
RTVSPost2010PropOp55
 70
     1
102
RTVSPost2010Prop56
140
1.0
102
RTVSPost2010PropOp56
 70
     1
102
RTVSPost2010Prop57
140
1.0
102
RTVSPost2010PropOp57
 70
     1
102
RTVSPropertyOp0
 70
     1
102
RTVSPropertyOp1
 70
     1
102
RTVSPropertyOp2
 70
     1
102
RTVSPropertyOp3
 70
     1
102
RTVSPropertyOp4
 70
     1
102
RTVSPropertyOp5
 70
     1
102
RTVSPropertyOp6
 70
     1
102
RTVSPropertyOp7
 70
     1
102
RTVSPropertyOp8
 70
     1
102
RTVSPropertyOp9
 70
     1
102
RTVSPropertyOp10
 70
     1
102
RTVSPropertyOp11
 70
     1
102
RTVSPropertyOp12
 70
     1
102
RTVSPropertyOp13
 70
     1
102
RTVSPropertyOp14
 70
     1
102
RTVSPropertyOp15
 70
     1
102
RTVSPropertyOp16
 70
     1
102
RTVSPropertyOp17
 70
     1
102
RTVSPropertyOp18
 70
     1
102
RTVSPropertyOp19
 70
     1
102
RTVSPropertyOp20
 70
     1
102
RTVSPropertyOp21
 70
     1
102
RTVSPropertyOp22
 70
     1
102
RTVSPropertyOp23
 70
     1
102
RTVSPropertyOp24
 70
     1
102
RTVSPropertyOp25
 70
     1
102
RTVSPropertyOp26
 70
     1
102
RTVSPropertyOp27
 70
     1
102
RTVSPropertyOp28
 70
     1
102
RTVSPropertyOp29
 70
     1
102
RTVSPropertyOp30
 70
     1
102
RTVSPropertyOp31
 70
     1
102
RTVSPropertyOp32
 70
     1
102
RTVSPropertyOp33
 70
     1
102
RTVSPropertyOp34
 70
     1
102
RTVSPropertyOp35
 70
     1
102
RTVSPropertyOp36
 70
     1
102
RTVSPropertyOp37
 70
     1
102
RTVSPropertyOp38
 70
     1
102
RTVSPropertyOp39
 70
     1
102
RTVSPropertyOp40
 70
     1
102
RTVSPropertyOp41
 70
     1
102
RTVSPropertyOp42
 70
     1
102
RTVSPropertyOp43
 70
     1
102
RTVSPropertyOp44
 70
     1
102
RTVSPropertyOp45
 70
     1
102
RTVSPropertyOp46
 70
     1
102
RTVSPropertyOp47
 70
     1
102
RTVSPropertyOp48
 70
     1
102
RTVSPropertyOp49
 70
     1
102
RTVSPropertyOp50
 70
     1
102
RTVSPropertyOp51
 70
     0
102
RTVSPropertyOp52
 70
     0
102
RTVSPropertyOp53
 70
     1
102
RTVSPropertyOp54
 70
     1
102
RTVSPropertyOp55
 70
     1
102
RTVSPropertyOp56
 70
     1
102
RTVSPropertyOp57
 70
     1
102
RTVSPropertyOp58
 70
     1
102
RTVSPropertyOp59
 70
     1
102
RTVSPropertyOp60
 70
     1
102
RTVSPropertyOp61
 70
     1
102
RTVSPropertyOp62
 70
     1
  0
XRECORD
  5
50E
102
{ACAD_REACTORS
330
50D
102
}
330
50D
100
AcDbXrecord
280
     1
102
RTVSPost2010Prop28
280
     0
102
RTVSPost2010PropOp28
 70
     1
102
RTVSPost2010Prop29
280
     1
102
RTVSPost2010PropOp29
 70
     1
102
RTVSPost2010Prop30
280
     1
102
RTVSPost2010PropOp30
 70
     1
102
RTVSPost2010Prop31
280
     0
102
RTVSPost2010PropOp31
 70
     1
102
RTVSPost2010Prop32
280
     0
102
RTVSPost2010PropOp32
 70
     1
102
RTVSPost2010Prop33
280
     0
102
RTVSPost2010PropOp33
 70
     1
102
RTVSPost2010Prop34
280
     0
102
RTVSPost2010PropOp34
 70
     1
102
RTVSPost2010Prop35
280
     0
102
RTVSPost2010PropOp35
 70
     1
102
RTVSPost2010Prop36
280
     0
102
RTVSPost2010PropOp36
 70
     1
102
RTVSPost2010Prop37
 90
       50
102
RTVSPost2010PropOp37
 70
     0
102
RTVSPost2010Prop38
140
0.0
102
RTVSPost2010PropOp38
 70
     0
102
RTVSPost2010Prop39
140
1.0
102
RTVSPost2010PropOp39
 70
     0
102
RTVSPost2010Prop40
 90
        0
102
RTVSPost2010PropOp40
 70
     0
102
RTVSPost2010Prop41ColorIndex
 90
       18
102
RTVSPost2010Prop41ColorRGB
 90
        0
102
RTVSPost2010PropOp41
 70
     0
102
RTVSPost2010Prop42
 90
       50
102
RTVSPost2010PropOp42
 70
     0
102
RTVSPost2010Prop43
 90
        3
102
RTVSPost2010PropOp43
 70
     0
102
RTVSPost2010Prop44ColorIndex
 90
        5
102
RTVSPost2010Prop44ColorRGB
 90
      255
102
RTVSPost2010PropOp44
 70
     0
102
RTVSPost2010Prop45
280
     0
102
RTVSPost2010PropOp45
 70
     1
102
RTVSPost2010Prop46
 90
       50
102
RTVSPost2010PropOp46
 70
     0
102
RTVSPost2010Prop47
 90
       50
102
RTVSPost2010PropOp47
 70
     0
102
RTVSPost2010Prop48
 90
       50
102
RTVSPost2010PropOp48
 70
     0
102
RTVSPost2010Prop49
280
     0
102
RTVSPost2010PropOp49
 70
     1
102
RTVSPost2010Prop50
 90
       50
102
RTVSPost2010PropOp50
 70
     0
102
RTVSPost2010Prop51ColorIndex
 90
      256
102
RTVSPost2010Prop51ColorRGB
 90
-16777216
102
RTVSPost2010PropOp51
 70
     0
102
RTVSPost2010Prop52
140
1.0
102
RTVSPost2010PropOp52
 70
     0
102
RTVSPost2010Prop53
 90
        2
102
RTVSPost2010PropOp53
 70
     0
102
RTVSPost2010Prop54
  1
strokes_ogs.tif
102
RTVSPost2010PropOp54
 70
     0
102
RTVSPost2010Prop55
280
     0
102
RTVSPost2010PropOp55
 70
     1
102
RTVSPost2010Prop56
140
1.0
102
RTVSPost2010PropOp56
 70
     0
102
RTVSPost2010Prop57
140
1.0
102
RTVSPost2010PropOp57
 70
     0
102
RTVSPropertyOp0
 70
     0
102
RTVSPropertyOp1
 70
     0
102
RTVSPropertyOp2
 70
     0
102
RTVSPropertyOp3
 70
     0
102
RTVSPropertyOp4
 70
     0
102
RTVSPropertyOp5
 70
     0
102
RTVSPropertyOp6
 70
     0
102
RTVSPropertyOp7
 70
     0
102
RTVSPropertyOp8
 70
     0
102
RTVSPropertyOp9
 70
     0
102
RTVSPropertyOp10
 70
     0
102
RTVSPropertyOp11
 70
     0
102
RTVSPropertyOp12
 70
     0
102
RTVSPropertyOp13
 70
     0
102
RTVSPropertyOp14
 70
     2
102
RTVSPropertyOp15
 70
     0
102
RTVSPropertyOp16
 70
     0
102
RTVSPropertyOp17
 70
     0
102
RTVSPropertyOp18
 70
     0
102
RTVSPropertyOp19
 70
     0
102
RTVSPropertyOp20
 70
     0
102
RTVSPropertyOp21
 70
     0
102
RTVSPropertyOp22
 70
     0
102
RTVSPropertyOp23
 70
     0
102
RTVSPropertyOp24
 70
     0
102
RTVSPropertyOp25
 70
     0
102
RTVSPropertyOp26
 70
     0
102
RTVSPropertyOp27
 70
     0
102
RTVSPropertyOp28
 70
     1
102
RTVSPropertyOp29
 70
     1
102
RTVSPropertyOp30
 70
     1
102
RTVSPropertyOp31
 70
     1
102
RTVSPropertyOp32
 70
     1
102
RTVSPropertyOp33
 70
     1
102
RTVSPropertyOp34
 70
     1
102
RTVSPropertyOp35
 70
     1
102
RTVSPropertyOp36
 70
     1
102
RTVSPropertyOp37
 70
     0
102
RTVSPropertyOp38
 70
     0
102
RTVSPropertyOp39
 70
     0
102
RTVSPropertyOp40
 70
     0
102
RTVSPropertyOp41
 70
     0
102
RTVSPropertyOp42
 70
     0
102
RTVSPropertyOp43
 70
     0
102
RTVSPropertyOp44
 70
     0
102
RTVSPropertyOp45
 70
     1
102
RTVSPropertyOp46
 70
     0
102
RTVSPropertyOp47
 70
     0
102
RTVSPropertyOp48
 70
     0
102
RTVSPropertyOp49
 70
     1
102
RTVSPropertyOp50
 70
     0
102
RTVSPropertyOp51
 70
     0
102
RTVSPropertyOp52
 70
     0
102
RTVSPropertyOp53
 70
     0
102
RTVSPropertyOp54
 70
     0
102
RTVSPropertyOp55
 70
     1
102
RTVSPropertyOp56
 70
     0
102
RTVSPropertyOp57
 70
     0
102
RTVSPropertyOp58
 70
     0
102
RTVSPropertyOp59
 70
     0
102
RTVSPropertyOp60
 70
     0
102
RTVSPropertyOp61
 70
     0
102
RTVSPropertyOp62
 70
     0
  0
XRECORD
  5
4FE
102
{ACAD_REACTORS
330
4FD
102
}
330
4FD
100
AcDbXrecord
280
     1
102
RTVSPost2010Prop28
280
     0
102
RTVSPost2010PropOp28
 70
     1
102
RTVSPost2010Prop29
280
     1
102
RTVSPost2010PropOp29
 70
     1
102
RTVSPost2010Prop30
280
     1
102
RTVSPost2010PropOp30
 70
     1
102
RTVSPost2010Prop31
280
     0
102
RTVSPost2010PropOp31
 70
     1
102
RTVSPost2010Prop32
280
     0
102
RTVSPost2010PropOp32
 70
     1
102
RTVSPost2010Prop33
280
     0
102
RTVSPost2010PropOp33
 70
     1
102
RTVSPost2010Prop34
280
     0
102
RTVSPost2010PropOp34
 70
     1
102
RTVSPost2010Prop35
280
     0
102
RTVSPost2010PropOp35
 70
     1
102
RTVSPost2010Prop36
280
     0
102
RTVSPost2010PropOp36
 70
     1
102
RTVSPost2010Prop37
 90
       50
102
RTVSPost2010PropOp37
 70
     1
102
RTVSPost2010Prop38
140
0.0
102
RTVSPost2010PropOp38
 70
     1
102
RTVSPost2010Prop39
140
1.0
102
RTVSPost2010PropOp39
 70
     1
102
RTVSPost2010Prop40
 90
        0
102
RTVSPost2010PropOp40
 70
     1
102
RTVSPost2010Prop41ColorIndex
 90
       18
102
RTVSPost2010Prop41ColorRGB
 90
        0
102
RTVSPost2010PropOp41
 70
     1
102
RTVSPost2010Prop42
 90
       50
102
RTVSPost2010PropOp42
 70
     1
102
RTVSPost2010Prop43
 90
        3
102
RTVSPost2010PropOp43
 70
     1
102
RTVSPost2010Prop44ColorIndex
 90
        5
102
RTVSPost2010Prop44ColorRGB
 90
      255
102
RTVSPost2010PropOp44
 70
     1
102
RTVSPost2010Prop45
280
     0
102
RTVSPost2010PropOp45
 70
     1
102
RTVSPost2010Prop46
 90
       50
102
RTVSPost2010PropOp46
 70
     1
102
RTVSPost2010Prop47
 90
       50
102
RTVSPost2010PropOp47
 70
     1
102
RTVSPost2010Prop48
 90
       50
102
RTVSPost2010PropOp48
 70
     1
102
RTVSPost2010Prop49
280
     0
102
RTVSPost2010PropOp49
 70
     1
102
RTVSPost2010Prop50
 90
       50
102
RTVSPost2010PropOp50
 70
     1
102
RTVSPost2010Prop51ColorIndex
 90
      256
102
RTVSPost2010Prop51ColorRGB
 90
-16777216
102
RTVSPost2010PropOp51
 70
     0
102
RTVSPost2010Prop52
140
1.0
102
RTVSPost2010PropOp52
 70
     0
102
RTVSPost2010Prop53
 90
        2
102
RTVSPost2010PropOp53
 70
     1
102
RTVSPost2010Prop54
  1
strokes_ogs.tif
102
RTVSPost2010PropOp54
 70
     1
102
RTVSPost2010Prop55
280
     0
102
RTVSPost2010PropOp55
 70
     1
102
RTVSPost2010Prop56
140
1.0
102
RTVSPost2010PropOp56
 70
     1
102
RTVSPost2010Prop57
140
1.0
102
RTVSPost2010PropOp57
 70
     1
102
RTVSPropertyOp0
 70
     1
102
RTVSPropertyOp1
 70
     1
102
RTVSPropertyOp2
 70
     1
102
RTVSPropertyOp3
 70
     1
102
RTVSPropertyOp4
 70
     1
102
RTVSPropertyOp5
 70
     1
102
RTVSPropertyOp6
 70
     1
102
RTVSPropertyOp7
 70
     1
102
RTVSPropertyOp8
 70
     1
102
RTVSPropertyOp9
 70
     1
102
RTVSPropertyOp10
 70
     1
102
RTVSPropertyOp11
 70
     1
102
RTVSPropertyOp12
 70
     1
102
RTVSPropertyOp13
 70
     1
102
RTVSPropertyOp14
 70
     1
102
RTVSPropertyOp15
 70
     1
102
RTVSPropertyOp16
 70
     1
102
RTVSPropertyOp17
 70
     1
102
RTVSPropertyOp18
 70
     1
102
RTVSPropertyOp19
 70
     1
102
RTVSPropertyOp20
 70
     1
102
RTVSPropertyOp21
 70
     1
102
RTVSPropertyOp22
 70
     1
102
RTVSPropertyOp23
 70
     1
102
RTVSPropertyOp24
 70
     1
102
RTVSPropertyOp25
 70
     1
102
RTVSPropertyOp26
 70
     1
102
RTVSPropertyOp27
 70
     1
102
RTVSPropertyOp28
 70
     1
102
RTVSPropertyOp29
 70
     1
102
RTVSPropertyOp30
 70
     1
102
RTVSPropertyOp31
 70
     1
102
RTVSPropertyOp32
 70
     1
102
RTVSPropertyOp33
 70
     1
102
RTVSPropertyOp34
 70
     1
102
RTVSPropertyOp35
 70
     1
102
RTVSPropertyOp36
 70
     1
102
RTVSPropertyOp37
 70
     1
102
RTVSPropertyOp38
 70
     1
102
RTVSPropertyOp39
 70
     1
102
RTVSPropertyOp40
 70
     1
102
RTVSPropertyOp41
 70
     1
102
RTVSPropertyOp42
 70
     1
102
RTVSPropertyOp43
 70
     1
102
RTVSPropertyOp44
 70
     1
102
RTVSPropertyOp45
 70
     1
102
RTVSPropertyOp46
 70
     1
102
RTVSPropertyOp47
 70
     1
102
RTVSPropertyOp48
 70
     1
102
RTVSPropertyOp49
 70
     1
102
RTVSPropertyOp50
 70
     1
102
RTVSPropertyOp51
 70
     0
102
RTVSPropertyOp52
 70
     0
102
RTVSPropertyOp53
 70
     1
102
RTVSPropertyOp54
 70
     1
102
RTVSPropertyOp55
 70
     1
102
RTVSPropertyOp56
 70
     1
102
RTVSPropertyOp57
 70
     1
102
RTVSPropertyOp58
 70
     1
102
RTVSPropertyOp59
 70
     1
102
RTVSPropertyOp60
 70
     1
102
RTVSPropertyOp61
 70
     1
102
RTVSPropertyOp62
 70
     1
  0
XRECORD
  5
510
102
{ACAD_REACTORS
330
50F
102
}
330
50F
100
AcDbXrecord
280
     1
102
RTVSPost2010Prop28
280
     0
102
RTVSPost2010PropOp28
 70
     1
102
RTVSPost2010Prop29
280
     1
102
RTVSPost2010PropOp29
 70
     1
102
RTVSPost2010Prop30
280
     1
102
RTVSPost2010PropOp30
 70
     1
102
RTVSPost2010Prop31
280
     0
102
RTVSPost2010PropOp31
 70
     1
102
RTVSPost2010Prop32
280
     0
102
RTVSPost2010PropOp32
 70
     1
102
RTVSPost2010Prop33
280
     0
102
RTVSPost2010PropOp33
 70
     1
102
RTVSPost2010Prop34
280
     0
102
RTVSPost2010PropOp34
 70
     1
102
RTVSPost2010Prop35
280
     0
102
RTVSPost2010PropOp35
 70
     1
102
RTVSPost2010Prop36
280
     0
102
RTVSPost2010PropOp36
 70
     1
102
RTVSPost2010Prop37
 90
       50
102
RTVSPost2010PropOp37
 70
     0
102
RTVSPost2010Prop38
140
0.0
102
RTVSPost2010PropOp38
 70
     0
102
RTVSPost2010Prop39
140
1.0
102
RTVSPost2010PropOp39
 70
     0
102
RTVSPost2010Prop40
 90
        0
102
RTVSPost2010PropOp40
 70
     0
102
RTVSPost2010Prop41ColorIndex
 90
       18
102
RTVSPost2010Prop41ColorRGB
 90
        0
102
RTVSPost2010PropOp41
 70
     0
102
RTVSPost2010Prop42
 90
       50
102
RTVSPost2010PropOp42
 70
     0
102
RTVSPost2010Prop43
 90
        3
102
RTVSPost2010PropOp43
 70
     0
102
RTVSPost2010Prop44ColorIndex
 90
        5
102
RTVSPost2010Prop44ColorRGB
 90
      255
102
RTVSPost2010PropOp44
 70
     0
102
RTVSPost2010Prop45
280
     0
102
RTVSPost2010PropOp45
 70
     1
102
RTVSPost2010Prop46
 90
       50
102
RTVSPost2010PropOp46
 70
     0
102
RTVSPost2010Prop47
 90
       50
102
RTVSPost2010PropOp47
 70
     0
102
RTVSPost2010Prop48
 90
       50
102
RTVSPost2010PropOp48
 70
     0
102
RTVSPost2010Prop49
280
     0
102
RTVSPost2010PropOp49
 70
     1
102
RTVSPost2010Prop50
 90
       50
102
RTVSPost2010PropOp50
 70
     0
102
RTVSPost2010Prop51ColorIndex
 90
      256
102
RTVSPost2010Prop51ColorRGB
 90
-16777216
102
RTVSPost2010PropOp51
 70
     0
102
RTVSPost2010Prop52
140
1.0
102
RTVSPost2010PropOp52
 70
     0
102
RTVSPost2010Prop53
 90
        2
102
RTVSPost2010PropOp53
 70
     0
102
RTVSPost2010Prop54
  1
strokes_ogs.tif
102
RTVSPost2010PropOp54
 70
     0
102
RTVSPost2010Prop55
280
     0
102
RTVSPost2010PropOp55
 70
     1
102
RTVSPost2010Prop56
140
1.0
102
RTVSPost2010PropOp56
 70
     0
102
RTVSPost2010Prop57
140
1.0
102
RTVSPost2010PropOp57
 70
     0
102
RTVSPropertyOp0
 70
     0
102
RTVSPropertyOp1
 70
     0
102
RTVSPropertyOp2
 70
     0
102
RTVSPropertyOp3
 70
     0
102
RTVSPropertyOp4
 70
     0
102
RTVSPropertyOp5
 70
     0
102
RTVSPropertyOp6
 70
     0
102
RTVSPropertyOp7
 70
     0
102
RTVSPropertyOp8
 70
     0
102
RTVSPropertyOp9
 70
     0
102
RTVSPropertyOp10
 70
     0
102
RTVSPropertyOp11
 70
     0
102
RTVSPropertyOp12
 70
     0
102
RTVSPropertyOp13
 70
     0
102
RTVSPropertyOp14
 70
     2
102
RTVSPropertyOp15
 70
     0
102
RTVSPropertyOp16
 70
     0
102
RTVSPropertyOp17
 70
     0
102
RTVSPropertyOp18
 70
     0
102
RTVSPropertyOp19
 70
     0
102
RTVSPropertyOp20
 70
     0
102
RTVSPropertyOp21
 70
     0
102
RTVSPropertyOp22
 70
     0
102
RTVSPropertyOp23
 70
     0
102
RTVSPropertyOp24
 70
     0
102
RTVSPropertyOp25
 70
     0
102
RTVSPropertyOp26
 70
     0
102
RTVSPropertyOp27
 70
     0
102
RTVSPropertyOp28
 70
     1
102
RTVSPropertyOp29
 70
     1
102
RTVSPropertyOp30
 70
     1
102
RTVSPropertyOp31
 70
     1
102
RTVSPropertyOp32
 70
     1
102
RTVSPropertyOp33
 70
     1
102
RTVSPropertyOp34
 70
     1
102
RTVSPropertyOp35
 70
     1
102
RTVSPropertyOp36
 70
     1
102
RTVSPropertyOp37
 70
     0
102
RTVSPropertyOp38
 70
     0
102
RTVSPropertyOp39
 70
     0
102
RTVSPropertyOp40
 70
     0
102
RTVSPropertyOp41
 70
     0
102
RTVSPropertyOp42
 70
     0
102
RTVSPropertyOp43
 70
     0
102
RTVSPropertyOp44
 70
     0
102
RTVSPropertyOp45
 70
     1
102
RTVSPropertyOp46
 70
     0
102
RTVSPropertyOp47
 70
     0
102
RTVSPropertyOp48
 70
     0
102
RTVSPropertyOp49
 70
     1
102
RTVSPropertyOp50
 70
     0
102
RTVSPropertyOp51
 70
     0
102
RTVSPropertyOp52
 70
     0
102
RTVSPropertyOp53
 70
     0
102
RTVSPropertyOp54
 70
     0
102
RTVSPropertyOp55
 70
     1
102
RTVSPropertyOp56
 70
     0
102
RTVSPropertyOp57
 70
     0
102
RTVSPropertyOp58
 70
     0
102
RTVSPropertyOp59
 70
     0
102
RTVSPropertyOp60
 70
     0
102
RTVSPropertyOp61
 70
     0
102
RTVSPropertyOp62
 70
     0
  0
XRECORD
  5
4F6
102
{ACAD_REACTORS
330
4F5
102
}
330
4F5
100
AcDbXrecord
280
     1
102
RTVSPost2010Prop28
280
     0
102
RTVSPost2010PropOp28
 70
     1
102
RTVSPost2010Prop29
280
     1
102
RTVSPost2010PropOp29
 70
     1
102
RTVSPost2010Prop30
280
     1
102
RTVSPost2010PropOp30
 70
     1
102
RTVSPost2010Prop31
280
     0
102
RTVSPost2010PropOp31
 70
     1
102
RTVSPost2010Prop32
280
     0
102
RTVSPost2010PropOp32
 70
     1
102
RTVSPost2010Prop33
280
     0
102
RTVSPost2010PropOp33
 70
     1
102
RTVSPost2010Prop34
280
     0
102
RTVSPost2010PropOp34
 70
     1
102
RTVSPost2010Prop35
280
     0
102
RTVSPost2010PropOp35
 70
     1
102
RTVSPost2010Prop36
280
     0
102
RTVSPost2010PropOp36
 70
     1
102
RTVSPost2010Prop37
 90
       50
102
RTVSPost2010PropOp37
 70
     1
102
RTVSPost2010Prop38
140
0.0
102
RTVSPost2010PropOp38
 70
     1
102
RTVSPost2010Prop39
140
1.0
102
RTVSPost2010PropOp39
 70
     1
102
RTVSPost2010Prop40
 90
        0
102
RTVSPost2010PropOp40
 70
     1
102
RTVSPost2010Prop41ColorIndex
 90
       18
102
RTVSPost2010Prop41ColorRGB
 90
        0
102
RTVSPost2010PropOp41
 70
     1
102
RTVSPost2010Prop42
 90
       50
102
RTVSPost2010PropOp42
 70
     1
102
RTVSPost2010Prop43
 90
        3
102
RTVSPost2010PropOp43
 70
     1
102
RTVSPost2010Prop44ColorIndex
 90
        5
102
RTVSPost2010Prop44ColorRGB
 90
      255
102
RTVSPost2010PropOp44
 70
     1
102
RTVSPost2010Prop45
280
     0
102
RTVSPost2010PropOp45
 70
     1
102
RTVSPost2010Prop46
 90
       50
102
RTVSPost2010PropOp46
 70
     1
102
RTVSPost2010Prop47
 90
       50
102
RTVSPost2010PropOp47
 70
     1
102
RTVSPost2010Prop48
 90
       50
102
RTVSPost2010PropOp48
 70
     1
102
RTVSPost2010Prop49
280
     0
102
RTVSPost2010PropOp49
 70
     1
102
RTVSPost2010Prop50
 90
       50
102
RTVSPost2010PropOp50
 70
     1
102
RTVSPost2010Prop51ColorIndex
 90
      256
102
RTVSPost2010Prop51ColorRGB
 90
-16777216
102
RTVSPost2010PropOp51
 70
     0
102
RTVSPost2010Prop52
140
1.0
102
RTVSPost2010PropOp52
 70
     0
102
RTVSPost2010Prop53
 90
        2
102
RTVSPost2010PropOp53
 70
     1
102
RTVSPost2010Prop54
  1
strokes_ogs.tif
102
RTVSPost2010PropOp54
 70
     1
102
RTVSPost2010Prop55
280
     0
102
RTVSPost2010PropOp55
 70
     1
102
RTVSPost2010Prop56
140
1.0
102
RTVSPost2010PropOp56
 70
     1
102
RTVSPost2010Prop57
140
1.0
102
RTVSPost2010PropOp57
 70
     1
102
RTVSPropertyOp0
 70
     1
102
RTVSPropertyOp1
 70
     1
102
RTVSPropertyOp2
 70
     1
102
RTVSPropertyOp3
 70
     1
102
RTVSPropertyOp4
 70
     1
102
RTVSPropertyOp5
 70
     1
102
RTVSPropertyOp6
 70
     1
102
RTVSPropertyOp7
 70
     1
102
RTVSPropertyOp8
 70
     1
102
RTVSPropertyOp9
 70
     1
102
RTVSPropertyOp10
 70
     1
102
RTVSPropertyOp11
 70
     1
102
RTVSPropertyOp12
 70
     1
102
RTVSPropertyOp13
 70
     1
102
RTVSPropertyOp14
 70
     1
102
RTVSPropertyOp15
 70
     1
102
RTVSPropertyOp16
 70
     1
102
RTVSPropertyOp17
 70
     1
102
RTVSPropertyOp18
 70
     1
102
RTVSPropertyOp19
 70
     1
102
RTVSPropertyOp20
 70
     1
102
RTVSPropertyOp21
 70
     1
102
RTVSPropertyOp22
 70
     1
102
RTVSPropertyOp23
 70
     1
102
RTVSPropertyOp24
 70
     1
102
RTVSPropertyOp25
 70
     1
102
RTVSPropertyOp26
 70
     1
102
RTVSPropertyOp27
 70
     1
102
RTVSPropertyOp28
 70
     1
102
RTVSPropertyOp29
 70
     1
102
RTVSPropertyOp30
 70
     1
102
RTVSPropertyOp31
 70
     1
102
RTVSPropertyOp32
 70
     1
102
RTVSPropertyOp33
 70
     1
102
RTVSPropertyOp34
 70
     1
102
RTVSPropertyOp35
 70
     1
102
RTVSPropertyOp36
 70
     1
102
RTVSPropertyOp37
 70
     1
102
RTVSPropertyOp38
 70
     1
102
RTVSPropertyOp39
 70
     1
102
RTVSPropertyOp40
 70
     1
102
RTVSPropertyOp41
 70
     1
102
RTVSPropertyOp42
 70
     1
102
RTVSPropertyOp43
 70
     1
102
RTVSPropertyOp44
 70
     1
102
RTVSPropertyOp45
 70
     1
102
RTVSPropertyOp46
 70
     1
102
RTVSPropertyOp47
 70
     1
102
RTVSPropertyOp48
 70
     1
102
RTVSPropertyOp49
 70
     1
102
RTVSPropertyOp50
 70
     1
102
RTVSPropertyOp51
 70
     0
102
RTVSPropertyOp52
 70
     0
102
RTVSPropertyOp53
 70
     1
102
RTVSPropertyOp54
 70
     1
102
RTVSPropertyOp55
 70
     1
102
RTVSPropertyOp56
 70
     1
102
RTVSPropertyOp57
 70
     1
102
RTVSPropertyOp58
 70
     1
102
RTVSPropertyOp59
 70
     1
102
RTVSPropertyOp60
 70
     1
102
RTVSPropertyOp61
 70
     1
102
RTVSPropertyOp62
 70
     1
  0
XRECORD
  5
50C
102
{ACAD_REACTORS
330
50B
102
}
330
50B
100
AcDbXrecord
280
     1
102
RTVSPost2010Prop28
280
     0
102
RTVSPost2010PropOp28
 70
     1
102
RTVSPost2010Prop29
280
     1
102
RTVSPost2010PropOp29
 70
     1
102
RTVSPost2010Prop30
280
     1
102
RTVSPost2010PropOp30
 70
     1
102
RTVSPost2010Prop31
280
     0
102
RTVSPost2010PropOp31
 70
     1
102
RTVSPost2010Prop32
280
     0
102
RTVSPost2010PropOp32
 70
     1
102
RTVSPost2010Prop33
280
     0
102
RTVSPost2010PropOp33
 70
     1
102
RTVSPost2010Prop34
280
     0
102
RTVSPost2010PropOp34
 70
     1
102
RTVSPost2010Prop35
280
     0
102
RTVSPost2010PropOp35
 70
     1
102
RTVSPost2010Prop36
280
     0
102
RTVSPost2010PropOp36
 70
     1
102
RTVSPost2010Prop37
 90
       50
102
RTVSPost2010PropOp37
 70
     1
102
RTVSPost2010Prop38
140
0.0
102
RTVSPost2010PropOp38
 70
     1
102
RTVSPost2010Prop39
140
1.0
102
RTVSPost2010PropOp39
 70
     1
102
RTVSPost2010Prop40
 90
        0
102
RTVSPost2010PropOp40
 70
     1
102
RTVSPost2010Prop41ColorIndex
 90
       18
102
RTVSPost2010Prop41ColorRGB
 90
        0
102
RTVSPost2010PropOp41
 70
     1
102
RTVSPost2010Prop42
 90
       50
102
RTVSPost2010PropOp42
 70
     1
102
RTVSPost2010Prop43
 90
        3
102
RTVSPost2010PropOp43
 70
     1
102
RTVSPost2010Prop44ColorIndex
 90
        5
102
RTVSPost2010Prop44ColorRGB
 90
      255
102
RTVSPost2010PropOp44
 70
     1
102
RTVSPost2010Prop45
280
     0
102
RTVSPost2010PropOp45
 70
     1
102
RTVSPost2010Prop46
 90
       50
102
RTVSPost2010PropOp46
 70
     1
102
RTVSPost2010Prop47
 90
       50
102
RTVSPost2010PropOp47
 70
     1
102
RTVSPost2010Prop48
 90
       50
102
RTVSPost2010PropOp48
 70
     1
102
RTVSPost2010Prop49
280
     0
102
RTVSPost2010PropOp49
 70
     1
102
RTVSPost2010Prop50
 90
       50
102
RTVSPost2010PropOp50
 70
     1
102
RTVSPost2010Prop51ColorIndex
 90
      256
102
RTVSPost2010Prop51ColorRGB
 90
-16777216
102
RTVSPost2010PropOp51
 70
     0
102
RTVSPost2010Prop52
140
1.0
102
RTVSPost2010PropOp52
 70
     0
102
RTVSPost2010Prop53
 90
        2
102
RTVSPost2010PropOp53
 70
     1
102
RTVSPost2010Prop54
  1
strokes_ogs.tif
102
RTVSPost2010PropOp54
 70
     1
102
RTVSPost2010Prop55
280
     0
102
RTVSPost2010PropOp55
 70
     1
102
RTVSPost2010Prop56
140
1.0
102
RTVSPost2010PropOp56
 70
     1
102
RTVSPost2010Prop57
140
1.0
102
RTVSPost2010PropOp57
 70
     1
102
RTVSPropertyOp0
 70
     1
102
RTVSPropertyOp1
 70
     1
102
RTVSPropertyOp2
 70
     1
102
RTVSPropertyOp3
 70
     1
102
RTVSPropertyOp4
 70
     1
102
RTVSPropertyOp5
 70
     1
102
RTVSPropertyOp6
 70
     1
102
RTVSPropertyOp7
 70
     1
102
RTVSPropertyOp8
 70
     1
102
RTVSPropertyOp9
 70
     1
102
RTVSPropertyOp10
 70
     1
102
RTVSPropertyOp11
 70
     1
102
RTVSPropertyOp12
 70
     1
102
RTVSPropertyOp13
 70
     1
102
RTVSPropertyOp14
 70
     1
102
RTVSPropertyOp15
 70
     1
102
RTVSPropertyOp16
 70
     1
102
RTVSPropertyOp17
 70
     1
102
RTVSPropertyOp18
 70
     1
102
RTVSPropertyOp19
 70
     1
102
RTVSPropertyOp20
 70
     1
102
RTVSPropertyOp21
 70
     1
102
RTVSPropertyOp22
 70
     1
102
RTVSPropertyOp23
 70
     1
102
RTVSPropertyOp24
 70
     1
102
RTVSPropertyOp25
 70
     1
102
RTVSPropertyOp26
 70
     1
102
RTVSPropertyOp27
 70
     1
102
RTVSPropertyOp28
 70
     1
102
RTVSPropertyOp29
 70
     1
102
RTVSPropertyOp30
 70
     1
102
RTVSPropertyOp31
 70
     1
102
RTVSPropertyOp32
 70
     1
102
RTVSPropertyOp33
 70
     1
102
RTVSPropertyOp34
 70
     1
102
RTVSPropertyOp35
 70
     1
102
RTVSPropertyOp36
 70
     1
102
RTVSPropertyOp37
 70
     1
102
RTVSPropertyOp38
 70
     1
102
RTVSPropertyOp39
 70
     1
102
RTVSPropertyOp40
 70
     1
102
RTVSPropertyOp41
 70
     1
102
RTVSPropertyOp42
 70
     1
102
RTVSPropertyOp43
 70
     1
102
RTVSPropertyOp44
 70
     1
102
RTVSPropertyOp45
 70
     1
102
RTVSPropertyOp46
 70
     1
102
RTVSPropertyOp47
 70
     1
102
RTVSPropertyOp48
 70
     1
102
RTVSPropertyOp49
 70
     1
102
RTVSPropertyOp50
 70
     1
102
RTVSPropertyOp51
 70
     0
102
RTVSPropertyOp52
 70
     0
102
RTVSPropertyOp53
 70
     1
102
RTVSPropertyOp54
 70
     1
102
RTVSPropertyOp55
 70
     1
102
RTVSPropertyOp56
 70
     1
102
RTVSPropertyOp57
 70
     1
102
RTVSPropertyOp58
 70
     1
102
RTVSPropertyOp59
 70
     1
102
RTVSPropertyOp60
 70
     1
102
RTVSPropertyOp61
 70
     1
102
RTVSPropertyOp62
 70
     1
  0
XRECORD
  5
50A
102
{ACAD_REACTORS
330
509
102
}
330
509
100
AcDbXrecord
280
     1
102
RTVSPost2010Prop28
280
     0
102
RTVSPost2010PropOp28
 70
     1
102
RTVSPost2010Prop29
280
     1
102
RTVSPost2010PropOp29
 70
     1
102
RTVSPost2010Prop30
280
     1
102
RTVSPost2010PropOp30
 70
     1
102
RTVSPost2010Prop31
280
     0
102
RTVSPost2010PropOp31
 70
     1
102
RTVSPost2010Prop32
280
     0
102
RTVSPost2010PropOp32
 70
     1
102
RTVSPost2010Prop33
280
     0
102
RTVSPost2010PropOp33
 70
     1
102
RTVSPost2010Prop34
280
     0
102
RTVSPost2010PropOp34
 70
     1
102
RTVSPost2010Prop35
280
     0
102
RTVSPost2010PropOp35
 70
     1
102
RTVSPost2010Prop36
280
     0
102
RTVSPost2010PropOp36
 70
     1
102
RTVSPost2010Prop37
 90
       50
102
RTVSPost2010PropOp37
 70
     1
102
RTVSPost2010Prop38
140
0.0
102
RTVSPost2010PropOp38
 70
     1
102
RTVSPost2010Prop39
140
1.0
102
RTVSPost2010PropOp39
 70
     1
102
RTVSPost2010Prop40
 90
        0
102
RTVSPost2010PropOp40
 70
     1
102
RTVSPost2010Prop41ColorIndex
 90
       18
102
RTVSPost2010Prop41ColorRGB
 90
        0
102
RTVSPost2010PropOp41
 70
     1
102
RTVSPost2010Prop42
 90
       50
102
RTVSPost2010PropOp42
 70
     1
102
RTVSPost2010Prop43
 90
        3
102
RTVSPost2010PropOp43
 70
     1
102
RTVSPost2010Prop44ColorIndex
 90
        5
102
RTVSPost2010Prop44ColorRGB
 90
      255
102
RTVSPost2010PropOp44
 70
     1
102
RTVSPost2010Prop45
280
     0
102
RTVSPost2010PropOp45
 70
     1
102
RTVSPost2010Prop46
 90
       50
102
RTVSPost2010PropOp46
 70
     1
102
RTVSPost2010Prop47
 90
       50
102
RTVSPost2010PropOp47
 70
     1
102
RTVSPost2010Prop48
 90
       50
102
RTVSPost2010PropOp48
 70
     1
102
RTVSPost2010Prop49
280
     0
102
RTVSPost2010PropOp49
 70
     1
102
RTVSPost2010Prop50
 90
       50
102
RTVSPost2010PropOp50
 70
     1
102
RTVSPost2010Prop51ColorIndex
 90
      256
102
RTVSPost2010Prop51ColorRGB
 90
-16777216
102
RTVSPost2010PropOp51
 70
     0
102
RTVSPost2010Prop52
140
1.0
102
RTVSPost2010PropOp52
 70
     0
102
RTVSPost2010Prop53
 90
        2
102
RTVSPost2010PropOp53
 70
     1
102
RTVSPost2010Prop54
  1
strokes_ogs.tif
102
RTVSPost2010PropOp54
 70
     1
102
RTVSPost2010Prop55
280
     0
102
RTVSPost2010PropOp55
 70
     1
102
RTVSPost2010Prop56
140
1.0
102
RTVSPost2010PropOp56
 70
     1
102
RTVSPost2010Prop57
140
1.0
102
RTVSPost2010PropOp57
 70
     1
102
RTVSPropertyOp0
 70
     1
102
RTVSPropertyOp1
 70
     1
102
RTVSPropertyOp2
 70
     1
102
RTVSPropertyOp3
 70
     1
102
RTVSPropertyOp4
 70
     1
102
RTVSPropertyOp5
 70
     1
102
RTVSPropertyOp6
 70
     1
102
RTVSPropertyOp7
 70
     1
102
RTVSPropertyOp8
 70
     1
102
RTVSPropertyOp9
 70
     1
102
RTVSPropertyOp10
 70
     1
102
RTVSPropertyOp11
 70
     1
102
RTVSPropertyOp12
 70
     1
102
RTVSPropertyOp13
 70
     1
102
RTVSPropertyOp14
 70
     1
102
RTVSPropertyOp15
 70
     1
102
RTVSPropertyOp16
 70
     1
102
RTVSPropertyOp17
 70
     1
102
RTVSPropertyOp18
 70
     1
102
RTVSPropertyOp19
 70
     1
102
RTVSPropertyOp20
 70
     1
102
RTVSPropertyOp21
 70
     1
102
RTVSPropertyOp22
 70
     1
102
RTVSPropertyOp23
 70
     1
102
RTVSPropertyOp24
 70
     1
102
RTVSPropertyOp25
 70
     1
102
RTVSPropertyOp26
 70
     1
102
RTVSPropertyOp27
 70
     1
102
RTVSPropertyOp28
 70
     1
102
RTVSPropertyOp29
 70
     1
102
RTVSPropertyOp30
 70
     1
102
RTVSPropertyOp31
 70
     1
102
RTVSPropertyOp32
 70
     1
102
RTVSPropertyOp33
 70
     1
102
RTVSPropertyOp34
 70
     1
102
RTVSPropertyOp35
 70
     1
102
RTVSPropertyOp36
 70
     1
102
RTVSPropertyOp37
 70
     1
102
RTVSPropertyOp38
 70
     1
102
RTVSPropertyOp39
 70
     1
102
RTVSPropertyOp40
 70
     1
102
RTVSPropertyOp41
 70
     1
102
RTVSPropertyOp42
 70
     1
102
RTVSPropertyOp43
 70
     1
102
RTVSPropertyOp44
 70
     1
102
RTVSPropertyOp45
 70
     1
102
RTVSPropertyOp46
 70
     1
102
RTVSPropertyOp47
 70
     1
102
RTVSPropertyOp48
 70
     1
102
RTVSPropertyOp49
 70
     1
102
RTVSPropertyOp50
 70
     1
102
RTVSPropertyOp51
 70
     0
102
RTVSPropertyOp52
 70
     0
102
RTVSPropertyOp53
 70
     1
102
RTVSPropertyOp54
 70
     1
102
RTVSPropertyOp55
 70
     1
102
RTVSPropertyOp56
 70
     1
102
RTVSPropertyOp57
 70
     1
102
RTVSPropertyOp58
 70
     1
102
RTVSPropertyOp59
 70
     1
102
RTVSPropertyOp60
 70
     1
102
RTVSPropertyOp61
 70
     1
102
RTVSPropertyOp62
 70
     1
  0
XRECORD
  5
504
102
{ACAD_REACTORS
330
503
102
}
330
503
100
AcDbXrecord
280
     1
102
RTVSPost2010Prop28
280
     0
102
RTVSPost2010PropOp28
 70
     1
102
RTVSPost2010Prop29
280
     1
102
RTVSPost2010PropOp29
 70
     1
102
RTVSPost2010Prop30
280
     1
102
RTVSPost2010PropOp30
 70
     1
102
RTVSPost2010Prop31
280
     0
102
RTVSPost2010PropOp31
 70
     1
102
RTVSPost2010Prop32
280
     0
102
RTVSPost2010PropOp32
 70
     1
102
RTVSPost2010Prop33
280
     0
102
RTVSPost2010PropOp33
 70
     1
102
RTVSPost2010Prop34
280
     0
102
RTVSPost2010PropOp34
 70
     1
102
RTVSPost2010Prop35
280
     0
102
RTVSPost2010PropOp35
 70
     1
102
RTVSPost2010Prop36
280
     0
102
RTVSPost2010PropOp36
 70
     1
102
RTVSPost2010Prop37
 90
       50
102
RTVSPost2010PropOp37
 70
     1
102
RTVSPost2010Prop38
140
0.0
102
RTVSPost2010PropOp38
 70
     1
102
RTVSPost2010Prop39
140
1.0
102
RTVSPost2010PropOp39
 70
     1
102
RTVSPost2010Prop40
 90
        0
102
RTVSPost2010PropOp40
 70
     1
102
RTVSPost2010Prop41ColorIndex
 90
       18
102
RTVSPost2010Prop41ColorRGB
 90
        0
102
RTVSPost2010PropOp41
 70
     1
102
RTVSPost2010Prop42
 90
       50
102
RTVSPost2010PropOp42
 70
     1
102
RTVSPost2010Prop43
 90
        3
102
RTVSPost2010PropOp43
 70
     1
102
RTVSPost2010Prop44ColorIndex
 90
        5
102
RTVSPost2010Prop44ColorRGB
 90
      255
102
RTVSPost2010PropOp44
 70
     1
102
RTVSPost2010Prop45
280
     0
102
RTVSPost2010PropOp45
 70
     1
102
RTVSPost2010Prop46
 90
       50
102
RTVSPost2010PropOp46
 70
     1
102
RTVSPost2010Prop47
 90
       50
102
RTVSPost2010PropOp47
 70
     1
102
RTVSPost2010Prop48
 90
       50
102
RTVSPost2010PropOp48
 70
     1
102
RTVSPost2010Prop49
280
     0
102
RTVSPost2010PropOp49
 70
     1
102
RTVSPost2010Prop50
 90
       50
102
RTVSPost2010PropOp50
 70
     1
102
RTVSPost2010Prop51ColorIndex
 90
      256
102
RTVSPost2010Prop51ColorRGB
 90
-16777216
102
RTVSPost2010PropOp51
 70
     0
102
RTVSPost2010Prop52
140
1.0
102
RTVSPost2010PropOp52
 70
     0
102
RTVSPost2010Prop53
 90
        2
102
RTVSPost2010PropOp53
 70
     1
102
RTVSPost2010Prop54
  1
strokes_ogs.tif
102
RTVSPost2010PropOp54
 70
     1
102
RTVSPost2010Prop55
280
     0
102
RTVSPost2010PropOp55
 70
     1
102
RTVSPost2010Prop56
140
1.0
102
RTVSPost2010PropOp56
 70
     1
102
RTVSPost2010Prop57
140
1.0
102
RTVSPost2010PropOp57
 70
     1
102
RTVSPropertyOp0
 70
     1
102
RTVSPropertyOp1
 70
     1
102
RTVSPropertyOp2
 70
     1
102
RTVSPropertyOp3
 70
     1
102
RTVSPropertyOp4
 70
     1
102
RTVSPropertyOp5
 70
     1
102
RTVSPropertyOp6
 70
     1
102
RTVSPropertyOp7
 70
     1
102
RTVSPropertyOp8
 70
     1
102
RTVSPropertyOp9
 70
     1
102
RTVSPropertyOp10
 70
     1
102
RTVSPropertyOp11
 70
     1
102
RTVSPropertyOp12
 70
     1
102
RTVSPropertyOp13
 70
     1
102
RTVSPropertyOp14
 70
     1
102
RTVSPropertyOp15
 70
     1
102
RTVSPropertyOp16
 70
     1
102
RTVSPropertyOp17
 70
     1
102
RTVSPropertyOp18
 70
     1
102
RTVSPropertyOp19
 70
     1
102
RTVSPropertyOp20
 70
     1
102
RTVSPropertyOp21
 70
     1
102
RTVSPropertyOp22
 70
     1
102
RTVSPropertyOp23
 70
     1
102
RTVSPropertyOp24
 70
     1
102
RTVSPropertyOp25
 70
     1
102
RTVSPropertyOp26
 70
     1
102
RTVSPropertyOp27
 70
     1
102
RTVSPropertyOp28
 70
     1
102
RTVSPropertyOp29
 70
     1
102
RTVSPropertyOp30
 70
     1
102
RTVSPropertyOp31
 70
     1
102
RTVSPropertyOp32
 70
     1
102
RTVSPropertyOp33
 70
     1
102
RTVSPropertyOp34
 70
     1
102
RTVSPropertyOp35
 70
     1
102
RTVSPropertyOp36
 70
     1
102
RTVSPropertyOp37
 70
     1
102
RTVSPropertyOp38
 70
     1
102
RTVSPropertyOp39
 70
     1
102
RTVSPropertyOp40
 70
     1
102
RTVSPropertyOp41
 70
     1
102
RTVSPropertyOp42
 70
     1
102
RTVSPropertyOp43
 70
     1
102
RTVSPropertyOp44
 70
     1
102
RTVSPropertyOp45
 70
     1
102
RTVSPropertyOp46
 70
     1
102
RTVSPropertyOp47
 70
     1
102
RTVSPropertyOp48
 70
     1
102
RTVSPropertyOp49
 70
     1
102
RTVSPropertyOp50
 70
     1
102
RTVSPropertyOp51
 70
     0
102
RTVSPropertyOp52
 70
     0
102
RTVSPropertyOp53
 70
     1
102
RTVSPropertyOp54
 70
     1
102
RTVSPropertyOp55
 70
     1
102
RTVSPropertyOp56
 70
     1
102
RTVSPropertyOp57
 70
     1
102
RTVSPropertyOp58
 70
     1
102
RTVSPropertyOp59
 70
     1
102
RTVSPropertyOp60
 70
     1
102
RTVSPropertyOp61
 70
     1
102
RTVSPropertyOp62
 70
     1
  0
XRECORD
  5
506
102
{ACAD_REACTORS
330
505
102
}
330
505
100
AcDbXrecord
280
     1
102
RTVSPost2010Prop28
280
     0
102
RTVSPost2010PropOp28
 70
     1
102
RTVSPost2010Prop29
280
     1
102
RTVSPost2010PropOp29
 70
     1
102
RTVSPost2010Prop30
280
     1
102
RTVSPost2010PropOp30
 70
     1
102
RTVSPost2010Prop31
280
     0
102
RTVSPost2010PropOp31
 70
     1
102
RTVSPost2010Prop32
280
     0
102
RTVSPost2010PropOp32
 70
     1
102
RTVSPost2010Prop33
280
     0
102
RTVSPost2010PropOp33
 70
     1
102
RTVSPost2010Prop34
280
     0
102
RTVSPost2010PropOp34
 70
     1
102
RTVSPost2010Prop35
280
     0
102
RTVSPost2010PropOp35
 70
     1
102
RTVSPost2010Prop36
280
     0
102
RTVSPost2010PropOp36
 70
     1
102
RTVSPost2010Prop37
 90
       50
102
RTVSPost2010PropOp37
 70
     1
102
RTVSPost2010Prop38
140
0.0
102
RTVSPost2010PropOp38
 70
     1
102
RTVSPost2010Prop39
140
1.0
102
RTVSPost2010PropOp39
 70
     1
102
RTVSPost2010Prop40
 90
        0
102
RTVSPost2010PropOp40
 70
     1
102
RTVSPost2010Prop41ColorIndex
 90
       18
102
RTVSPost2010Prop41ColorRGB
 90
        0
102
RTVSPost2010PropOp41
 70
     1
102
RTVSPost2010Prop42
 90
       50
102
RTVSPost2010PropOp42
 70
     1
102
RTVSPost2010Prop43
 90
        3
102
RTVSPost2010PropOp43
 70
     1
102
RTVSPost2010Prop44ColorIndex
 90
        5
102
RTVSPost2010Prop44ColorRGB
 90
      255
102
RTVSPost2010PropOp44
 70
     1
102
RTVSPost2010Prop45
280
     0
102
RTVSPost2010PropOp45
 70
     1
102
RTVSPost2010Prop46
 90
       50
102
RTVSPost2010PropOp46
 70
     1
102
RTVSPost2010Prop47
 90
       50
102
RTVSPost2010PropOp47
 70
     1
102
RTVSPost2010Prop48
 90
       50
102
RTVSPost2010PropOp48
 70
     1
102
RTVSPost2010Prop49
280
     0
102
RTVSPost2010PropOp49
 70
     1
102
RTVSPost2010Prop50
 90
       50
102
RTVSPost2010PropOp50
 70
     1
102
RTVSPost2010Prop51ColorIndex
 90
      256
102
RTVSPost2010Prop51ColorRGB
 90
-16777216
102
RTVSPost2010PropOp51
 70
     0
102
RTVSPost2010Prop52
140
1.0
102
RTVSPost2010PropOp52
 70
     0
102
RTVSPost2010Prop53
 90
        2
102
RTVSPost2010PropOp53
 70
     1
102
RTVSPost2010Prop54
  1
strokes_ogs.tif
102
RTVSPost2010PropOp54
 70
     1
102
RTVSPost2010Prop55
280
     0
102
RTVSPost2010PropOp55
 70
     1
102
RTVSPost2010Prop56
140
1.0
102
RTVSPost2010PropOp56
 70
     1
102
RTVSPost2010Prop57
140
1.0
102
RTVSPost2010PropOp57
 70
     1
102
RTVSPropertyOp0
 70
     1
102
RTVSPropertyOp1
 70
     1
102
RTVSPropertyOp2
 70
     1
102
RTVSPropertyOp3
 70
     1
102
RTVSPropertyOp4
 70
     1
102
RTVSPropertyOp5
 70
     1
102
RTVSPropertyOp6
 70
     1
102
RTVSPropertyOp7
 70
     1
102
RTVSPropertyOp8
 70
     1
102
RTVSPropertyOp9
 70
     1
102
RTVSPropertyOp10
 70
     1
102
RTVSPropertyOp11
 70
     1
102
RTVSPropertyOp12
 70
     1
102
RTVSPropertyOp13
 70
     1
102
RTVSPropertyOp14
 70
     1
102
RTVSPropertyOp15
 70
     1
102
RTVSPropertyOp16
 70
     1
102
RTVSPropertyOp17
 70
     1
102
RTVSPropertyOp18
 70
     1
102
RTVSPropertyOp19
 70
     1
102
RTVSPropertyOp20
 70
     1
102
RTVSPropertyOp21
 70
     1
102
RTVSPropertyOp22
 70
     1
102
RTVSPropertyOp23
 70
     1
102
RTVSPropertyOp24
 70
     1
102
RTVSPropertyOp25
 70
     1
102
RTVSPropertyOp26
 70
     1
102
RTVSPropertyOp27
 70
     1
102
RTVSPropertyOp28
 70
     1
102
RTVSPropertyOp29
 70
     1
102
RTVSPropertyOp30
 70
     1
102
RTVSPropertyOp31
 70
     1
102
RTVSPropertyOp32
 70
     1
102
RTVSPropertyOp33
 70
     1
102
RTVSPropertyOp34
 70
     1
102
RTVSPropertyOp35
 70
     1
102
RTVSPropertyOp36
 70
     1
102
RTVSPropertyOp37
 70
     1
102
RTVSPropertyOp38
 70
     1
102
RTVSPropertyOp39
 70
     1
102
RTVSPropertyOp40
 70
     1
102
RTVSPropertyOp41
 70
     1
102
RTVSPropertyOp42
 70
     1
102
RTVSPropertyOp43
 70
     1
102
RTVSPropertyOp44
 70
     1
102
RTVSPropertyOp45
 70
     1
102
RTVSPropertyOp46
 70
     1
102
RTVSPropertyOp47
 70
     1
102
RTVSPropertyOp48
 70
     1
102
RTVSPropertyOp49
 70
     1
102
RTVSPropertyOp50
 70
     1
102
RTVSPropertyOp51
 70
     0
102
RTVSPropertyOp52
 70
     0
102
RTVSPropertyOp53
 70
     1
102
RTVSPropertyOp54
 70
     1
102
RTVSPropertyOp55
 70
     1
102
RTVSPropertyOp56
 70
     1
102
RTVSPropertyOp57
 70
     1
102
RTVSPropertyOp58
 70
     1
102
RTVSPropertyOp59
 70
     1
102
RTVSPropertyOp60
 70
     1
102
RTVSPropertyOp61
 70
     1
102
RTVSPropertyOp62
 70
     1
  0
XRECORD
  5
4FC
102
{ACAD_REACTORS
330
4FB
102
}
330
4FB
100
AcDbXrecord
280
     1
102
RTVSPost2010Prop28
280
     0
102
RTVSPost2010PropOp28
 70
     1
102
RTVSPost2010Prop29
280
     1
102
RTVSPost2010PropOp29
 70
     1
102
RTVSPost2010Prop30
280
     1
102
RTVSPost2010PropOp30
 70
     1
102
RTVSPost2010Prop31
280
     0
102
RTVSPost2010PropOp31
 70
     1
102
RTVSPost2010Prop32
280
     0
102
RTVSPost2010PropOp32
 70
     1
102
RTVSPost2010Prop33
280
     0
102
RTVSPost2010PropOp33
 70
     1
102
RTVSPost2010Prop34
280
     0
102
RTVSPost2010PropOp34
 70
     1
102
RTVSPost2010Prop35
280
     0
102
RTVSPost2010PropOp35
 70
     1
102
RTVSPost2010Prop36
280
     0
102
RTVSPost2010PropOp36
 70
     1
102
RTVSPost2010Prop37
 90
       50
102
RTVSPost2010PropOp37
 70
     1
102
RTVSPost2010Prop38
140
0.0
102
RTVSPost2010PropOp38
 70
     1
102
RTVSPost2010Prop39
140
1.0
102
RTVSPost2010PropOp39
 70
     1
102
RTVSPost2010Prop40
 90
        0
102
RTVSPost2010PropOp40
 70
     1
102
RTVSPost2010Prop41ColorIndex
 90
       18
102
RTVSPost2010Prop41ColorRGB
 90
        0
102
RTVSPost2010PropOp41
 70
     1
102
RTVSPost2010Prop42
 90
       50
102
RTVSPost2010PropOp42
 70
     1
102
RTVSPost2010Prop43
 90
        3
102
RTVSPost2010PropOp43
 70
     1
102
RTVSPost2010Prop44ColorIndex
 90
        5
102
RTVSPost2010Prop44ColorRGB
 90
      255
102
RTVSPost2010PropOp44
 70
     1
102
RTVSPost2010Prop45
280
     0
102
RTVSPost2010PropOp45
 70
     1
102
RTVSPost2010Prop46
 90
       50
102
RTVSPost2010PropOp46
 70
     1
102
RTVSPost2010Prop47
 90
       50
102
RTVSPost2010PropOp47
 70
     1
102
RTVSPost2010Prop48
 90
       50
102
RTVSPost2010PropOp48
 70
     1
102
RTVSPost2010Prop49
280
     0
102
RTVSPost2010PropOp49
 70
     1
102
RTVSPost2010Prop50
 90
       50
102
RTVSPost2010PropOp50
 70
     1
102
RTVSPost2010Prop51ColorIndex
 90
      256
102
RTVSPost2010Prop51ColorRGB
 90
-16777216
102
RTVSPost2010PropOp51
 70
     0
102
RTVSPost2010Prop52
140
1.0
102
RTVSPost2010PropOp52
 70
     0
102
RTVSPost2010Prop53
 90
        2
102
RTVSPost2010PropOp53
 70
     1
102
RTVSPost2010Prop54
  1
strokes_ogs.tif
102
RTVSPost2010PropOp54
 70
     1
102
RTVSPost2010Prop55
280
     0
102
RTVSPost2010PropOp55
 70
     1
102
RTVSPost2010Prop56
140
1.0
102
RTVSPost2010PropOp56
 70
     1
102
RTVSPost2010Prop57
140
1.0
102
RTVSPost2010PropOp57
 70
     1
102
RTVSPropertyOp0
 70
     1
102
RTVSPropertyOp1
 70
     1
102
RTVSPropertyOp2
 70
     1
102
RTVSPropertyOp3
 70
     1
102
RTVSPropertyOp4
 70
     1
102
RTVSPropertyOp5
 70
     1
102
RTVSPropertyOp6
 70
     1
102
RTVSPropertyOp7
 70
     1
102
RTVSPropertyOp8
 70
     1
102
RTVSPropertyOp9
 70
     1
102
RTVSPropertyOp10
 70
     1
102
RTVSPropertyOp11
 70
     1
102
RTVSPropertyOp12
 70
     1
102
RTVSPropertyOp13
 70
     1
102
RTVSPropertyOp14
 70
     1
102
RTVSPropertyOp15
 70
     1
102
RTVSPropertyOp16
 70
     1
102
RTVSPropertyOp17
 70
     1
102
RTVSPropertyOp18
 70
     1
102
RTVSPropertyOp19
 70
     1
102
RTVSPropertyOp20
 70
     1
102
RTVSPropertyOp21
 70
     1
102
RTVSPropertyOp22
 70
     1
102
RTVSPropertyOp23
 70
     1
102
RTVSPropertyOp24
 70
     1
102
RTVSPropertyOp25
 70
     1
102
RTVSPropertyOp26
 70
     1
102
RTVSPropertyOp27
 70
     1
102
RTVSPropertyOp28
 70
     1
102
RTVSPropertyOp29
 70
     1
102
RTVSPropertyOp30
 70
     1
102
RTVSPropertyOp31
 70
     1
102
RTVSPropertyOp32
 70
     1
102
RTVSPropertyOp33
 70
     1
102
RTVSPropertyOp34
 70
     1
102
RTVSPropertyOp35
 70
     1
102
RTVSPropertyOp36
 70
     1
102
RTVSPropertyOp37
 70
     1
102
RTVSPropertyOp38
 70
     1
102
RTVSPropertyOp39
 70
     1
102
RTVSPropertyOp40
 70
     1
102
RTVSPropertyOp41
 70
     1
102
RTVSPropertyOp42
 70
     1
102
RTVSPropertyOp43
 70
     1
102
RTVSPropertyOp44
 70
     1
102
RTVSPropertyOp45
 70
     1
102
RTVSPropertyOp46
 70
     1
102
RTVSPropertyOp47
 70
     1
102
RTVSPropertyOp48
 70
     1
102
RTVSPropertyOp49
 70
     1
102
RTVSPropertyOp50
 70
     1
102
RTVSPropertyOp51
 70
     0
102
RTVSPropertyOp52
 70
     0
102
RTVSPropertyOp53
 70
     1
102
RTVSPropertyOp54
 70
     1
102
RTVSPropertyOp55
 70
     1
102
RTVSPropertyOp56
 70
     1
102
RTVSPropertyOp57
 70
     1
102
RTVSPropertyOp58
 70
     1
102
RTVSPropertyOp59
 70
     1
102
RTVSPropertyOp60
 70
     1
102
RTVSPropertyOp61
 70
     1
102
RTVSPropertyOp62
 70
     1
  0
XRECORD
  5
4F0
102
{ACAD_REACTORS
330
4EF
102
}
330
4EF
100
AcDbXrecord
280
     1
102
RTVSPost2010Prop28
280
     0
102
RTVSPost2010PropOp28
 70
     1
102
RTVSPost2010Prop29
280
     1
102
RTVSPost2010PropOp29
 70
     1
102
RTVSPost2010Prop30
280
     1
102
RTVSPost2010PropOp30
 70
     1
102
RTVSPost2010Prop31
280
     0
102
RTVSPost2010PropOp31
 70
     1
102
RTVSPost2010Prop32
280
     0
102
RTVSPost2010PropOp32
 70
     1
102
RTVSPost2010Prop33
280
     0
102
RTVSPost2010PropOp33
 70
     1
102
RTVSPost2010Prop34
280
     0
102
RTVSPost2010PropOp34
 70
     1
102
RTVSPost2010Prop35
280
     0
102
RTVSPost2010PropOp35
 70
     1
102
RTVSPost2010Prop36
280
     0
102
RTVSPost2010PropOp36
 70
     1
102
RTVSPost2010Prop37
 90
       50
102
RTVSPost2010PropOp37
 70
     1
102
RTVSPost2010Prop38
140
0.0
102
RTVSPost2010PropOp38
 70
     1
102
RTVSPost2010Prop39
140
1.0
102
RTVSPost2010PropOp39
 70
     1
102
RTVSPost2010Prop40
 90
        0
102
RTVSPost2010PropOp40
 70
     1
102
RTVSPost2010Prop41ColorIndex
 90
       18
102
RTVSPost2010Prop41ColorRGB
 90
        0
102
RTVSPost2010PropOp41
 70
     1
102
RTVSPost2010Prop42
 90
       50
102
RTVSPost2010PropOp42
 70
     1
102
RTVSPost2010Prop43
 90
        3
102
RTVSPost2010PropOp43
 70
     1
102
RTVSPost2010Prop44ColorIndex
 90
        5
102
RTVSPost2010Prop44ColorRGB
 90
      255
102
RTVSPost2010PropOp44
 70
     1
102
RTVSPost2010Prop45
280
     0
102
RTVSPost2010PropOp45
 70
     1
102
RTVSPost2010Prop46
 90
       50
102
RTVSPost2010PropOp46
 70
     1
102
RTVSPost2010Prop47
 90
       50
102
RTVSPost2010PropOp47
 70
     1
102
RTVSPost2010Prop48
 90
       50
102
RTVSPost2010PropOp48
 70
     1
102
RTVSPost2010Prop49
280
     0
102
RTVSPost2010PropOp49
 70
     1
102
RTVSPost2010Prop50
 90
       50
102
RTVSPost2010PropOp50
 70
     1
102
RTVSPost2010Prop51ColorIndex
 90
      256
102
RTVSPost2010Prop51ColorRGB
 90
-16777216
102
RTVSPost2010PropOp51
 70
     0
102
RTVSPost2010Prop52
140
1.0
102
RTVSPost2010PropOp52
 70
     0
102
RTVSPost2010Prop53
 90
        2
102
RTVSPost2010PropOp53
 70
     1
102
RTVSPost2010Prop54
  1
strokes_ogs.tif
102
RTVSPost2010PropOp54
 70
     1
102
RTVSPost2010Prop55
280
     0
102
RTVSPost2010PropOp55
 70
     1
102
RTVSPost2010Prop56
140
1.0
102
RTVSPost2010PropOp56
 70
     1
102
RTVSPost2010Prop57
140
1.0
102
RTVSPost2010PropOp57
 70
     1
102
RTVSPropertyOp0
 70
     1
102
RTVSPropertyOp1
 70
     1
102
RTVSPropertyOp2
 70
     1
102
RTVSPropertyOp3
 70
     1
102
RTVSPropertyOp4
 70
     1
102
RTVSPropertyOp5
 70
     1
102
RTVSPropertyOp6
 70
     1
102
RTVSPropertyOp7
 70
     1
102
RTVSPropertyOp8
 70
     1
102
RTVSPropertyOp9
 70
     1
102
RTVSPropertyOp10
 70
     1
102
RTVSPropertyOp11
 70
     1
102
RTVSPropertyOp12
 70
     1
102
RTVSPropertyOp13
 70
     1
102
RTVSPropertyOp14
 70
     1
102
RTVSPropertyOp15
 70
     1
102
RTVSPropertyOp16
 70
     1
102
RTVSPropertyOp17
 70
     1
102
RTVSPropertyOp18
 70
     1
102
RTVSPropertyOp19
 70
     1
102
RTVSPropertyOp20
 70
     1
102
RTVSPropertyOp21
 70
     1
102
RTVSPropertyOp22
 70
     1
102
RTVSPropertyOp23
 70
     1
102
RTVSPropertyOp24
 70
     1
102
RTVSPropertyOp25
 70
     1
102
RTVSPropertyOp26
 70
     1
102
RTVSPropertyOp27
 70
     1
102
RTVSPropertyOp28
 70
     1
102
RTVSPropertyOp29
 70
     1
102
RTVSPropertyOp30
 70
     1
102
RTVSPropertyOp31
 70
     1
102
RTVSPropertyOp32
 70
     1
102
RTVSPropertyOp33
 70
     1
102
RTVSPropertyOp34
 70
     1
102
RTVSPropertyOp35
 70
     1
102
RTVSPropertyOp36
 70
     1
102
RTVSPropertyOp37
 70
     1
102
RTVSPropertyOp38
 70
     1
102
RTVSPropertyOp39
 70
     1
102
RTVSPropertyOp40
 70
     1
102
RTVSPropertyOp41
 70
     1
102
RTVSPropertyOp42
 70
     1
102
RTVSPropertyOp43
 70
     1
102
RTVSPropertyOp44
 70
     1
102
RTVSPropertyOp45
 70
     1
102
RTVSPropertyOp46
 70
     1
102
RTVSPropertyOp47
 70
     1
102
RTVSPropertyOp48
 70
     1
102
RTVSPropertyOp49
 70
     1
102
RTVSPropertyOp50
 70
     1
102
RTVSPropertyOp51
 70
     0
102
RTVSPropertyOp52
 70
     0
102
RTVSPropertyOp53
 70
     1
102
RTVSPropertyOp54
 70
     1
102
RTVSPropertyOp55
 70
     1
102
RTVSPropertyOp56
 70
     1
102
RTVSPropertyOp57
 70
     1
102
RTVSPropertyOp58
 70
     1
102
RTVSPropertyOp59
 70
     1
102
RTVSPropertyOp60
 70
     1
102
RTVSPropertyOp61
 70
     1
102
RTVSPropertyOp62
 70
     1
  0
XRECORD
  5
508
102
{ACAD_REACTORS
330
507
102
}
330
507
100
AcDbXrecord
280
     1
102
RTVSPost2010Prop28
280
     0
102
RTVSPost2010PropOp28
 70
     1
102
RTVSPost2010Prop29
280
     1
102
RTVSPost2010PropOp29
 70
     1
102
RTVSPost2010Prop30
280
     1
102
RTVSPost2010PropOp30
 70
     1
102
RTVSPost2010Prop31
280
     0
102
RTVSPost2010PropOp31
 70
     1
102
RTVSPost2010Prop32
280
     0
102
RTVSPost2010PropOp32
 70
     1
102
RTVSPost2010Prop33
280
     0
102
RTVSPost2010PropOp33
 70
     1
102
RTVSPost2010Prop34
280
     0
102
RTVSPost2010PropOp34
 70
     1
102
RTVSPost2010Prop35
280
     0
102
RTVSPost2010PropOp35
 70
     1
102
RTVSPost2010Prop36
280
     0
102
RTVSPost2010PropOp36
 70
     1
102
RTVSPost2010Prop37
 90
       50
102
RTVSPost2010PropOp37
 70
     1
102
RTVSPost2010Prop38
140
0.0
102
RTVSPost2010PropOp38
 70
     1
102
RTVSPost2010Prop39
140
1.0
102
RTVSPost2010PropOp39
 70
     1
102
RTVSPost2010Prop40
 90
        0
102
RTVSPost2010PropOp40
 70
     1
102
RTVSPost2010Prop41ColorIndex
 90
       18
102
RTVSPost2010Prop41ColorRGB
 90
        0
102
RTVSPost2010PropOp41
 70
     1
102
RTVSPost2010Prop42
 90
       50
102
RTVSPost2010PropOp42
 70
     1
102
RTVSPost2010Prop43
 90
        3
102
RTVSPost2010PropOp43
 70
     1
102
RTVSPost2010Prop44ColorIndex
 90
        5
102
RTVSPost2010Prop44ColorRGB
 90
      255
102
RTVSPost2010PropOp44
 70
     1
102
RTVSPost2010Prop45
280
     0
102
RTVSPost2010PropOp45
 70
     1
102
RTVSPost2010Prop46
 90
       50
102
RTVSPost2010PropOp46
 70
     1
102
RTVSPost2010Prop47
 90
       50
102
RTVSPost2010PropOp47
 70
     1
102
RTVSPost2010Prop48
 90
       50
102
RTVSPost2010PropOp48
 70
     1
102
RTVSPost2010Prop49
280
     0
102
RTVSPost2010PropOp49
 70
     1
102
RTVSPost2010Prop50
 90
       50
102
RTVSPost2010PropOp50
 70
     1
102
RTVSPost2010Prop51ColorIndex
 90
      256
102
RTVSPost2010Prop51ColorRGB
 90
-16777216
102
RTVSPost2010PropOp51
 70
     0
102
RTVSPost2010Prop52
140
1.0
102
RTVSPost2010PropOp52
 70
     0
102
RTVSPost2010Prop53
 90
        2
102
RTVSPost2010PropOp53
 70
     1
102
RTVSPost2010Prop54
  1
strokes_ogs.tif
102
RTVSPost2010PropOp54
 70
     1
102
RTVSPost2010Prop55
280
     0
102
RTVSPost2010PropOp55
 70
     1
102
RTVSPost2010Prop56
140
1.0
102
RTVSPost2010PropOp56
 70
     1
102
RTVSPost2010Prop57
140
1.0
102
RTVSPost2010PropOp57
 70
     1
102
RTVSPropertyOp0
 70
     1
102
RTVSPropertyOp1
 70
     1
102
RTVSPropertyOp2
 70
     1
102
RTVSPropertyOp3
 70
     1
102
RTVSPropertyOp4
 70
     1
102
RTVSPropertyOp5
 70
     1
102
RTVSPropertyOp6
 70
     1
102
RTVSPropertyOp7
 70
     1
102
RTVSPropertyOp8
 70
     1
102
RTVSPropertyOp9
 70
     1
102
RTVSPropertyOp10
 70
     1
102
RTVSPropertyOp11
 70
     1
102
RTVSPropertyOp12
 70
     1
102
RTVSPropertyOp13
 70
     1
102
RTVSPropertyOp14
 70
     1
102
RTVSPropertyOp15
 70
     1
102
RTVSPropertyOp16
 70
     1
102
RTVSPropertyOp17
 70
     1
102
RTVSPropertyOp18
 70
     1
102
RTVSPropertyOp19
 70
     1
102
RTVSPropertyOp20
 70
     1
102
RTVSPropertyOp21
 70
     1
102
RTVSPropertyOp22
 70
     1
102
RTVSPropertyOp23
 70
     1
102
RTVSPropertyOp24
 70
     1
102
RTVSPropertyOp25
 70
     1
102
RTVSPropertyOp26
 70
     1
102
RTVSPropertyOp27
 70
     1
102
RTVSPropertyOp28
 70
     1
102
RTVSPropertyOp29
 70
     1
102
RTVSPropertyOp30
 70
     1
102
RTVSPropertyOp31
 70
     1
102
RTVSPropertyOp32
 70
     1
102
RTVSPropertyOp33
 70
     1
102
RTVSPropertyOp34
 70
     1
102
RTVSPropertyOp35
 70
     1
102
RTVSPropertyOp36
 70
     1
102
RTVSPropertyOp37
 70
     1
102
RTVSPropertyOp38
 70
     1
102
RTVSPropertyOp39
 70
     1
102
RTVSPropertyOp40
 70
     1
102
RTVSPropertyOp41
 70
     1
102
RTVSPropertyOp42
 70
     1
102
RTVSPropertyOp43
 70
     1
102
RTVSPropertyOp44
 70
     1
102
RTVSPropertyOp45
 70
     1
102
RTVSPropertyOp46
 70
     1
102
RTVSPropertyOp47
 70
     1
102
RTVSPropertyOp48
 70
     1
102
RTVSPropertyOp49
 70
     1
102
RTVSPropertyOp50
 70
     1
102
RTVSPropertyOp51
 70
     0
102
RTVSPropertyOp52
 70
     0
102
RTVSPropertyOp53
 70
     1
102
RTVSPropertyOp54
 70
     1
102
RTVSPropertyOp55
 70
     1
102
RTVSPropertyOp56
 70
     1
102
RTVSPropertyOp57
 70
     1
102
RTVSPropertyOp58
 70
     1
102
RTVSPropertyOp59
 70
     1
102
RTVSPropertyOp60
 70
     1
102
RTVSPropertyOp61
 70
     1
102
RTVSPropertyOp62
 70
     1
  0
ENDSEC
  0
EOF
