  0
SECTION
  2
HEADER
  9
$ACADVER
  1
AC1015
  9
$ACADMAINTVER
 70
    20
  9
$DWGCODEPAGE
  3
ANSI_932
  9
$INSBASE
 10
0.0
 20
0.0
 30
0.0
  9
$EXTMIN
 10
0.0
 20
0.0
 30
0.0
  9
$EXTMAX
 10
4200.0
 20
2970.0
 30
0.0
  9
$LIMMIN
 10
0.0
 20
0.0
  9
$LIMMAX
 10
12.0
 20
9.0
  9
$ORTHOMODE
 70
     0
  9
$REGENMODE
 70
     1
  9
$FILLMODE
 70
     1
  9
$QTEXTMODE
 70
     0
  9
$MIRRTEXT
 70
     0
  9
$LTSCALE
 40
10.0
  9
$ATTMODE
 70
     1
  9
$TEXTSIZE
 40
0.0
  9
$TRACEWID
 40
0.05
  9
$TEXTSTYLE
  7
STANDARD
  9
$CLAYER
  8
0
  9
$CELTYPE
  6
CONTINUOUS
  9
$CECOLOR
 62
   256
  9
$CELTSCALE
 40
1.0
  9
$DISPSILH
 70
     0
  9
$DIMSCALE
 40
1.0
  9
$DIMASZ
 40
0.18
  9
$DIMEXO
 40
0.0625
  9
$DIMDLI
 40
0.38
  9
$DIMRND
 40
0.0
  9
$DIMDLE
 40
0.0
  9
$DIMEXE
 40
0.18
  9
$DIMTP
 40
0.0
  9
$DIMTM
 40
0.0
  9
$DIMTXT
 40
0.18
  9
$DIMCEN
 40
0.09
  9
$DIMTSZ
 40
0.0
  9
$DIMTOL
 70
     0
  9
$DIMLIM
 70
     0
  9
$DIMTIH
 70
     1
  9
$DIMTOH
 70
     1
  9
$DIMSE1
 70
     0
  9
$DIMSE2
 70
     0
  9
$DIMTAD
 70
     0
  9
$DIMZIN
 70
     0
  9
$DIMBLK
  1

  9
$DIMASO
 70
     1
  9
$DIMSHO
 70
     1
  9
$DIMPOST
  1

  9
$DIMAPOST
  1

  9
$DIMALT
 70
     0
  9
$DIMALTD
 70
     2
  9
$DIMALTF
 40
25.4
  9
$DIMLFAC
 40
1.0
  9
$DIMTOFL
 70
     0
  9
$DIMTVP
 40
0.0
  9
$DIMTIX
 70
     0
  9
$DIMSOXD
 70
     0
  9
$DIMSAH
 70
     0
  9
$DIMBLK1
  1

  9
$DIMBLK2
  1

  9
$DIMSTYLE
  2
Standard
  9
$DIMCLRD
 70
     0
  9
$DIMCLRE
 70
     0
  9
$DIMCLRT
 70
     0
  9
$DIMTFAC
 40
1.0
  9
$DIMGAP
 40
0.09
  9
$DIMJUST
 70
     0
  9
$DIMSD1
 70
     0
  9
$DIMSD2
 70
     0
  9
$DIMTOLJ
 70
     1
  9
$DIMTZIN
 70
     0
  9
$DIMALTZ
 70
     0
  9
$DIMALTTZ
 70
     0
  9
$DIMUPT
 70
     0
  9
$DIMDEC
 70
     4
  9
$DIMTDEC
 70
     4
  9
$DIMALTU
 70
     2
  9
$DIMALTTD
 70
     2
  9
$DIMTXSTY
  7
STANDARD
  9
$DIMAUNIT
 70
     0
  9
$DIMADEC
 70
     0
  9
$DIMALTRND
 40
0.0
  9
$DIMAZIN
 70
     0
  9
$DIMDSEP
 70
    46
  9
$DIMATFIT
 70
     3
  9
$DIMFRAC
 70
     0
  9
$DIMLDRBLK
  1

  9
$DIMLUNIT
 70
     2
  9
$DIMLWD
 70
    -2
  9
$DIMLWE
 70
    -2
  9
$DIMTMOVE
 70
     0
  9
$LUNITS
 70
     2
  9
$LUPREC
 70
     4
  9
$SKETCHINC
 40
0.1
  9
$FILLETRAD
 40
0.0
  9
$AUNITS
 70
     0
  9
$AUPREC
 70
     0
  9
$MENU
  1
.
  9
$ELEVATION
 40
0.0
  9
$PELEVATION
 40
0.0
  9
$THICKNESS
 40
0.0
  9
$LIMCHECK
 70
     0
  9
$CHAMFERA
 40
0.0
  9
$CHAMFERB
 40
0.0
  9
$CHAMFERC
 40
0.0
  9
$CHAMFERD
 40
0.0
  9
$SKPOLY
 70
     0
  9
$TDCREATE
 40
2459620.657685186
  9
$TDUCREATE
 40
2459620.282685186
  9
$TDUPDATE
 40
2459620.657986111
  9
$TDUUPDATE
 40
2459620.282986111
  9
$TDINDWG
 40
0.0003009259
  9
$TDUSRTIMER
 40
0.0003009259
  9
$USRTIMER
 70
     1
  9
$ANGBASE
 50
0.0
  9
$ANGDIR
 70
     0
  9
$PDMODE
 70
     0
  9
$PDSIZE
 40
5.0
  9
$PLINEWID
 40
0.0
  9
$SPLFRAME
 70
     0
  9
$SPLINETYPE
 70
     6
  9
$SPLINESEGS
 70
     8
  9
$HANDSEED
  5
535
  9
$SURFTAB1
 70
     6
  9
$SURFTAB2
 70
     6
  9
$SURFTYPE
 70
     6
  9
$SURFU
 70
     6
  9
$SURFV
 70
     6
  9
$UCSBASE
  2

  9
$UCSNAME
  2

  9
$UCSORG
 10
0.0
 20
0.0
 30
0.0
  9
$UCSXDIR
 10
1.0
 20
0.0
 30
0.0
  9
$UCSYDIR
 10
0.0
 20
1.0
 30
0.0
  9
$UCSORTHOREF
  2

  9
$UCSORTHOVIEW
 70
     0
  9
$UCSORGTOP
 10
0.0
 20
0.0
 30
0.0
  9
$UCSORGBOTTOM
 10
0.0
 20
0.0
 30
0.0
  9
$UCSORGLEFT
 10
0.0
 20
0.0
 30
0.0
  9
$UCSORGRIGHT
 10
0.0
 20
0.0
 30
0.0
  9
$UCSORGFRONT
 10
0.0
 20
0.0
 30
0.0
  9
$UCSORGBACK
 10
0.0
 20
0.0
 30
0.0
  9
$PUCSBASE
  2

  9
$PUCSNAME
  2

  9
$PUCSORG
 10
0.0
 20
0.0
 30
0.0
  9
$PUCSXDIR
 10
1.0
 20
0.0
 30
0.0
  9
$PUCSYDIR
 10
0.0
 20
1.0
 30
0.0
  9
$PUCSORTHOREF
  2

  9
$PUCSORTHOVIEW
 70
     0
  9
$PUCSORGTOP
 10
0.0
 20
0.0
 30
0.0
  9
$PUCSORGBOTTOM
 10
0.0
 20
0.0
 30
0.0
  9
$PUCSORGLEFT
 10
0.0
 20
0.0
 30
0.0
  9
$PUCSORGRIGHT
 10
0.0
 20
0.0
 30
0.0
  9
$PUCSORGFRONT
 10
0.0
 20
0.0
 30
0.0
  9
$PUCSORGBACK
 10
0.0
 20
0.0
 30
0.0
  9
$USERI1
 70
     0
  9
$USERI2
 70
     0
  9
$USERI3
 70
     0
  9
$USERI4
 70
     0
  9
$USERI5
 70
     0
  9
$USERR1
 40
0.0
  9
$USERR2
 40
0.0
  9
$USERR3
 40
0.0
  9
$USERR4
 40
0.0
  9
$USERR5
 40
0.0
  9
$WORLDVIEW
 70
     1
  9
$SHADEDGE
 70
     3
  9
$SHADEDIF
 70
    70
  9
$TILEMODE
 70
     1
  9
$MAXACTVP
 70
    64
  9
$PINSBASE
 10
0.0
 20
0.0
 30
0.0
  9
$PLIMCHECK
 70
     0
  9
$PEXTMIN
 10
1.000000000000000E+20
 20
1.000000000000000E+20
 30
1.000000000000000E+20
  9
$PEXTMAX
 10
-1.000000000000000E+20
 20
-1.000000000000000E+20
 30
-1.000000000000000E+20
  9
$PLIMMIN
 10
0.0
 20
0.0
  9
$PLIMMAX
 10
12.0
 20
9.0
  9
$UNITMODE
 70
     0
  9
$VISRETAIN
 70
     1
  9
$PLINEGEN
 70
     0
  9
$PSLTSCALE
 70
     1
  9
$TREEDEPTH
 70
  3020
  9
$CMLSTYLE
  2
Standard
  9
$CMLJUST
 70
     0
  9
$CMLSCALE
 40
1.0
  9
$PROXYGRAPHICS
 70
     1
  9
$MEASUREMENT
 70
     0
  9
$CELWEIGHT
370
    -1
  9
$ENDCAPS
280
     0
  9
$JOINSTYLE
280
     0
  9
$LWDISPLAY
290
     0
  9
$INSUNITS
 70
     0
  9
$HYPERLINKBASE
  1

  9
$STYLESHEET
  1

  9
$XEDIT
290
     1
  9
$CEPSNTYPE
380
     0
  9
$PSTYLEMODE
290
     1
  9
$FINGERPRINTGUID
  2
{30EFF3F4-0530-DF41-A274-CDCE35D0F21D}
  9
$VERSIONGUID
  2
{08DC4575-19E8-C442-A408-3F142986D0AB}
  9
$EXTNAMES
290
     1
  9
$PSVPSCALE
 40
0.0
  9
$OLESTARTUP
290
     0
  0
ENDSEC
  0
SECTION
  2
CLASSES
  0
CLASS
  1
ACDBDICTIONARYWDFLT
  2
AcDbDictionaryWithDefault
  3
ObjectDBX Classes
 90
        0
280
     0
281
     0
  0
CLASS
  1
MATERIAL
  2
AcDbMaterial
  3
ObjectDBX Classes
 90
     1153
280
     0
281
     0
  0
CLASS
  1
VISUALSTYLE
  2
AcDbVisualStyle
  3
ObjectDBX Classes
 90
     4095
280
     0
281
     0
  0
CLASS
  1
SCALE
  2
AcDbScale
  3
ObjectDBX Classes
 90
     1153
280
     0
281
     0
  0
CLASS
  1
TABLESTYLE
  2
AcDbTableStyle
  3
ObjectDBX Classes
 90
     4095
280
     0
281
     0
  0
CLASS
  1
MLEADERSTYLE
  2
AcDbMLeaderStyle
  3
ACDB_MLEADERSTYLE_CLASS
 90
     4095
280
     0
281
     0
  0
CLASS
  1
ACDBSECTIONVIEWSTYLE
  2
AcDbSectionViewStyle
  3
ObjectDBX Classes
 90
     1025
280
     0
281
     0
  0
CLASS
  1
ACDBDETAILVIEWSTYLE
  2
AcDbDetailViewStyle
  3
ObjectDBX Classes
 90
     1025
280
     0
281
     0
  0
CLASS
  1
DICTIONARYVAR
  2
AcDbDictionaryVar
  3
ObjectDBX Classes
 90
        0
280
     0
281
     0
  0
CLASS
  1
CELLSTYLEMAP
  2
AcDbCellStyleMap
  3
ObjectDBX Classes
 90
     1152
280
     0
281
     0
  0
CLASS
  1
ACDBPLACEHOLDER
  2
AcDbPlaceHolder
  3
ObjectDBX Classes
 90
        0
280
     0
281
     0
  0
CLASS
  1
LAYOUT
  2
AcDbLayout
  3
ObjectDBX Classes
 90
        0
280
     0
281
     0
  0
ENDSEC
  0
SECTION
  2
TABLES
  0
TABLE
  2
VPORT
  5
8
330
0
100
AcDbSymbolTable
 70
     1
  0
VPORT
  5
8E
330
8
100
AcDbSymbolTableRecord
100
AcDbViewportTableRecord
  2
*Active
 70
     0
 10
0.0
 20
0.0
 11
1.0
 21
1.0
 12
3698.649035284376
 22
1528.957404167046
 13
0.0
 23
0.0
 14
1.0
 24
1.0
 15
0.0
 25
0.0
 16
0.0
 26
0.0
 36
1.0
 17
0.0
 27
0.0
 37
0.0
 40
4030.83128437528
 41
2.289855072463768
 42
50.0
 43
0.0
 44
0.0
 50
0.0
 51
0.0
 71
     0
 72
   100
 73
     1
 74
     0
 75
     1
 76
     0
 77
     0
 78
     0
281
     0
 65
     1
110
0.0
120
0.0
130
0.0
111
1.0
121
0.0
131
0.0
112
0.0
122
1.0
132
0.0
 79
     0
146
0.0
1001
ACAD_NAV_VCDISPLAY
1070
     3
  0
ENDTAB
  0
TABLE
  2
LTYPE
  5
5
330
0
100
AcDbSymbolTable
 70
     9
  0
LTYPE
  5
5A
330
5
100
AcDbSymbolTableRecord
100
AcDbLinetypeTableRecord
  2
ByBlock
 70
     0
  3

 72
    65
 73
     0
 40
0.0
  0
LTYPE
  5
5B
330
5
100
AcDbSymbolTableRecord
100
AcDbLinetypeTableRecord
  2
ByLayer
 70
     0
  3

 72
    65
 73
     0
 40
0.0
  0
LTYPE
  5
5C
330
5
100
AcDbSymbolTableRecord
100
AcDbLinetypeTableRecord
  2
CONTINUOUS
 70
     0
  3
SolidLine
 72
    65
 73
     0
 40
0.0
  0
LTYPE
  5
73
330
5
100
AcDbSymbolTableRecord
100
AcDbLinetypeTableRecord
  2
DOT
 70
     0
  3
--  --  --  --  --  --  --  --     
 72
    65
 73
     2
 40
3.0
 49
1.0
 74
     0
 49
-2.0
 74
     0
  0
LTYPE
  5
74
330
5
100
AcDbSymbolTableRecord
100
AcDbLinetypeTableRecord
  2
DASHED
 70
     0
  3
----    ----    ----    ----    
 72
    65
 73
     2
 40
5.0
 49
2.0
 74
     0
 49
-3.0
 74
     0
  0
LTYPE
  5
75
330
5
100
AcDbSymbolTableRecord
100
AcDbLinetypeTableRecord
  2
DASHED2
 70
     0
  3
------  ------  ------  ------ 
 72
    65
 73
     2
 40
10.0
 49
4.0
 74
     0
 49
-6.0
 74
     0
  0
LTYPE
  5
76
330
5
100
AcDbSymbolTableRecord
100
AcDbLinetypeTableRecord
  2
CENTER
 70
     0
  3
----- - ----- - ----- - ----- - 
 72
    65
 73
     4
 40
10.0
 49
6.0
 74
     0
 49
-3.0
 74
     0
 49
1.0
 74
     0
 49
-3.0
 74
     0
  0
LTYPE
  5
77
330
5
100
AcDbSymbolTableRecord
100
AcDbLinetypeTableRecord
  2
CENTER2
 70
     0
  3
----------  --  ----------  -- 
 72
    65
 73
     4
 40
17.0
 49
12.0
 74
     0
 49
-5.0
 74
     0
 49
2.0
 74
     0
 49
-5.0
 74
     0
  0
LTYPE
  5
78
330
5
100
AcDbSymbolTableRecord
100
AcDbLinetypeTableRecord
  2
PHANTOM
 70
     0
  3
--- - - --- - - --- - - --- - -
 72
    65
 73
     6
 40
13.0
 49
5.0
 74
     0
 49
-3.0
 74
     0
 49
1.0
 74
     0
 49
-3.0
 74
     0
 49
1.0
 74
     0
 49
-3.0
 74
     0
  0
LTYPE
  5
79
330
5
100
AcDbSymbolTableRecord
100
AcDbLinetypeTableRecord
  2
PHANTOM2
 70
     0
  3
--------  -  -  --------  -  -
 72
    65
 73
     6
 40
20.0
 49
6.0
 74
     0
 49
-5.0
 74
     0
 49
2.0
 74
     0
 49
-5.0
 74
     0
 49
2.0
 74
     0
 49
-5.0
 74
     0
  0
LTYPE
  5
7A
330
5
100
AcDbSymbolTableRecord
100
AcDbLinetypeTableRecord
  2
HIDDEN
 70
     0
  3
-   -   -   -   -   -   -   -   
 72
    65
 73
     2
 40
3.0
 49
0.5
 74
     0
 49
-2.5
 74
     0
  0
ENDTAB
  0
TABLE
  2
LAYER
  5
2
330
0
100
AcDbSymbolTable
 70
    13
  0
LAYER
  5
54
102
{ACAD_XDICTIONARY
360
4CF
102
}
330
2
100
AcDbSymbolTableRecord
100
AcDbLayerTableRecord
  2
0
 70
     0
 62
     7
  6
CONTINUOUS
370
    -3
390
F
  0
LAYER
  5
7F
102
{ACAD_XDICTIONARY
360
4D1
102
}
330
2
100
AcDbSymbolTableRecord
100
AcDbLayerTableRecord
  2
2-0
 70
     0
 62
     3
  6
CONTINUOUS
370
    -3
390
F
  0
LAYER
  5
80
102
{ACAD_XDICTIONARY
360
4D3
102
}
330
2
100
AcDbSymbolTableRecord
100
AcDbLayerTableRecord
  2
3-0
 70
     0
 62
     7
  6
CONTINUOUS
370
    -3
390
F
  0
LAYER
  5
81
102
{ACAD_XDICTIONARY
360
4D5
102
}
330
2
100
AcDbSymbolTableRecord
100
AcDbLayerTableRecord
  2
4-0
 70
     0
 62
     7
  6
CONTINUOUS
370
    -3
390
F
  0
LAYER
  5
82
102
{ACAD_XDICTIONARY
360
4D7
102
}
330
2
100
AcDbSymbolTableRecord
100
AcDbLayerTableRecord
  2
5-0
 70
     0
 62
     7
  6
CONTINUOUS
370
    -3
390
F
  0
LAYER
  5
83
102
{ACAD_XDICTIONARY
360
4D9
102
}
330
2
100
AcDbSymbolTableRecord
100
AcDbLayerTableRecord
  2
6-0
 70
     0
 62
    -7
  6
CONTINUOUS
370
    -3
390
F
  0
LAYER
  5
84
102
{ACAD_XDICTIONARY
360
4DB
102
}
330
2
100
AcDbSymbolTableRecord
100
AcDbLayerTableRecord
  2
7-0
 70
     0
 62
    -7
  6
CONTINUOUS
370
    -3
390
F
  0
LAYER
  5
85
102
{ACAD_XDICTIONARY
360
4DD
102
}
330
2
100
AcDbSymbolTableRecord
100
AcDbLayerTableRecord
  2
8-0
 70
     0
 62
     7
  6
CONTINUOUS
370
    -3
390
F
  0
LAYER
  5
86
102
{ACAD_XDICTIONARY
360
4DF
102
}
330
2
100
AcDbSymbolTableRecord
100
AcDbLayerTableRecord
  2
9-0
 70
     0
 62
     7
  6
CONTINUOUS
370
    -3
390
F
  0
LAYER
  5
87
102
{ACAD_XDICTIONARY
360
4E1
102
}
330
2
100
AcDbSymbolTableRecord
100
AcDbLayerTableRecord
  2
A-0
 70
     0
 62
     1
  6
CONTINUOUS
370
    -3
390
F
  0
LAYER
  5
88
102
{ACAD_XDICTIONARY
360
4E3
102
}
330
2
100
AcDbSymbolTableRecord
100
AcDbLayerTableRecord
  2
B-0
 70
     0
 62
     6
  6
CENTER
370
    -3
390
F
  0
LAYER
  5
89
102
{ACAD_XDICTIONARY
360
4E5
102
}
330
2
100
AcDbSymbolTableRecord
100
AcDbLayerTableRecord
  2
D-0
 70
     0
 62
     5
  6
CONTINUOUS
370
    -3
390
F
  0
LAYER
  5
8F
102
{ACAD_XDICTIONARY
360
4E7
102
}
330
2
100
AcDbSymbolTableRecord
100
AcDbLayerTableRecord
  2
1-0
 70
     0
 62
     7
  6
CONTINUOUS
370
    -3
390
F
  0
ENDTAB
  0
TABLE
  2
STYLE
  5
3
330
0
100
AcDbSymbolTable
 70
     6
  0
STYLE
  5
55
330
3
100
AcDbSymbolTableRecord
100
AcDbTextStyleTableRecord
  2
STANDARD
 70
     0
 40
0.0
 41
1.0
 50
0.0
 71
     0
 42
0.0
  3
txt.shx
  4
extfont.shx
  0
STYLE
  5
59
330
3
100
AcDbSymbolTableRecord
100
AcDbTextStyleTableRecord
  2
Annotative
 70
     0
 40
0.0
 41
1.0
 50
0.0
 71
     0
 42
0.2
  3
txt
  4

1001
AcadAnnotative
1000
AnnotativeData
1002
{
1070
     1
1070
     1
1002
}
  0
STYLE
  5
7B
330
3
100
AcDbSymbolTableRecord
100
AcDbTextStyleTableRecord
  2
TATEGAKI
 70
     4
 40
0.0
 41
1.0
 50
0.0
 71
     0
 42
0.0
  3
txt.shx
  4
extfont.shx
  0
STYLE
  5
7C
330
3
100
AcDbSymbolTableRecord
100
AcDbTextStyleTableRecord
  2
DIM
 70
     0
 40
0.0
 41
0.75
 50
0.0
 71
     0
 42
0.0
  3
txt.shx
  4
extfont.shx
  0
STYLE
  5
7D
330
3
100
AcDbSymbolTableRecord
100
AcDbTextStyleTableRecord
  2
_GOTHIC__
 70
     0
 40
0.0
 41
1.0
 50
0.0
 71
     0
 42
0.0
  3
MS Gothic
  4

  0
STYLE
  5
7E
330
3
100
AcDbSymbolTableRecord
100
AcDbTextStyleTableRecord
  2
_TATEGOTHIC_
 70
     4
 40
0.0
 41
1.0
 50
0.0
 71
     0
 42
0.0
  3
@MS Gothic
  4

  0
ENDTAB
  0
TABLE
  2
VIEW
  5
6
330
0
100
AcDbSymbolTable
 70
     0
  0
ENDTAB
  0
TABLE
  2
UCS
  5
7
330
0
100
AcDbSymbolTable
 70
     0
  0
ENDTAB
  0
TABLE
  2
APPID
  5
9
330
0
100
AcDbSymbolTable
 70
     4
  0
APPID
  5
56
330
9
100
AcDbSymbolTableRecord
100
AcDbRegAppTableRecord
  2
ACAD
 70
     0
  0
APPID
  5
5D
330
9
100
AcDbSymbolTableRecord
100
AcDbRegAppTableRecord
  2
AcadAnnotative
 70
     0
  0
APPID
  5
4F3
330
9
100
AcDbSymbolTableRecord
100
AcDbRegAppTableRecord
  2
ACAD_NAV_VCDISPLAY
 70
     0
  0
APPID
  5
52C
330
9
100
AcDbSymbolTableRecord
100
AcDbRegAppTableRecord
  2
ACAD_MLEADERVER
 70
     0
  0
ENDTAB
  0
TABLE
  2
DIMSTYLE
  5
A
330
0
100
AcDbSymbolTable
 70
     2
100
AcDbDimStyleTable
 71
     0
  0
DIMSTYLE
105
57
330
A
100
AcDbSymbolTableRecord
100
AcDbDimStyleTableRecord
  2
Standard
 70
     0
340
55
  0
DIMSTYLE
105
58
330
A
100
AcDbSymbolTableRecord
100
AcDbDimStyleTableRecord
  2
Annotative
 70
     0
340
55
1001
AcadAnnotative
1000
AnnotativeData
1002
{
1070
     1
1070
     1
1002
}
  0
ENDTAB
  0
TABLE
  2
BLOCK_RECORD
  5
1
330
0
100
AcDbSymbolTable
 70
     0
  0
BLOCK_RECORD
  5
6F
330
1
100
AcDbSymbolTableRecord
100
AcDbBlockTableRecord
  2
*Model_Space
340
72
  0
BLOCK_RECORD
  5
6B
330
1
100
AcDbSymbolTableRecord
100
AcDbBlockTableRecord
  2
*Paper_Space
340
6E
  0
ENDTAB
  0
ENDSEC
  0
SECTION
  2
BLOCKS
  0
BLOCK
  5
70
330
6F
100
AcDbEntity
  8
0
100
AcDbBlockBegin
  2
*Model_Space
 70
     0
 10
0.0
 20
0.0
 30
0.0
  3
*Model_Space
  1

  0
ENDBLK
  5
71
330
6F
100
AcDbEntity
  8
0
100
AcDbBlockEnd
  0
BLOCK
  5
6C
330
6B
100
AcDbEntity
 67
     1
  8
0
100
AcDbBlockBegin
  2
*Paper_Space
 70
     0
 10
0.0
 20
0.0
 30
0.0
  3
*Paper_Space
  1

  0
ENDBLK
  5
6D
330
6B
100
AcDbEntity
 67
     1
  8
0
100
AcDbBlockEnd
  0
ENDSEC
  0
SECTION
  2
ENTITIES
  0
LINE
  5
90
330
6F
100
AcDbEntity
  8
1-0
  6
Continuous
 62
     7
100
AcDbLine
 10
0.0
 20
0.0
 30
0.0
 11
4200.0
 21
0.0
 31
0.0
  0
LINE
  5
91
330
6F
100
AcDbEntity
  8
1-0
  6
Continuous
 62
     7
100
AcDbLine
 10
4200.0
 20
0.0
 30
0.0
 11
4200.0
 21
2970.0
 31
0.0
  0
LINE
  5
92
330
6F
100
AcDbEntity
  8
1-0
  6
Continuous
 62
     7
100
AcDbLine
 10
4200.0
 20
2970.0
 30
0.0
 11
0.0
 21
2970.0
 31
0.0
  0
LINE
  5
93
330
6F
100
AcDbEntity
  8
1-0
  6
Continuous
 62
     7
100
AcDbLine
 10
0.0
 20
2970.0
 30
0.0
 11
0.0
 21
0.0
 31
0.0
  0
LINE
  5
94
330
6F
100
AcDbEntity
  8
9-0
  6
Continuous
 62
     7
100
AcDbLine
 10
100.0
 20
100.0
 30
0.0
 11
4100.0
 21
100.0
 31
0.0
  0
LINE
  5
95
330
6F
100
AcDbEntity
  8
9-0
  6
Continuous
 62
     7
100
AcDbLine
 10
2500.0
 20
300.0
 30
0.0
 11
4100.0
 21
300.0
 31
0.0
  0
LINE
  5
96
330
6F
100
AcDbEntity
  8
8-0
  6
Continuous
 62
     7
100
AcDbLine
 10
2500.0
 20
240.0
 30
0.0
 11
3150.0
 21
240.0
 31
0.0
  0
LINE
  5
97
330
6F
100
AcDbEntity
  8
9-0
  6
Continuous
 62
     7
100
AcDbLine
 10
4100.0
 20
100.0
 30
0.0
 11
4100.0
 21
2870.0
 31
0.0
  0
LINE
  5
98
330
6F
100
AcDbEntity
  8
9-0
  6
Continuous
 62
     7
100
AcDbLine
 10
4100.0
 20
2870.0
 30
0.0
 11
100.0
 21
2870.0
 31
0.0
  0
LINE
  5
99
330
6F
100
AcDbEntity
  8
9-0
  6
Continuous
 62
     7
100
AcDbLine
 10
100.0
 20
2870.0
 30
0.0
 11
100.0
 21
100.0
 31
0.0
  0
LINE
  5
9A
330
6F
100
AcDbEntity
  8
8-0
  6
Continuous
 62
     7
100
AcDbLine
 10
3150.0
 20
100.0
 30
0.0
 11
3150.0
 21
300.0
 31
0.0
  0
LINE
  5
9B
330
6F
100
AcDbEntity
  8
9-0
  6
Continuous
 62
     7
100
AcDbLine
 10
2500.0
 20
100.0
 30
0.0
 11
2500.0
 21
300.0
 31
0.0
  0
TEXT
  5
9C
330
6F
100
AcDbEntity
  8
D-0
 62
     5
100
AcDbText
 10
2788.434
 20
252.531
 30
0.0
 40
31.104
  1
品番
100
AcDbText
  0
TEXT
  5
9D
330
6F
100
AcDbEntity
  8
D-0
 62
     5
100
AcDbText
 10
2616.839000000001
 20
147.981
 30
0.0
 40
51.84000000000001
  1
KW-1000 R
100
AcDbText
  0
TEXT
  5
9E
330
6F
100
AcDbEntity
  8
D-0
 62
     5
100
AcDbText
 10
3353.56
 20
192.32
 30
0.0
 40
62.208
  1
アイオ産業株式会社
100
AcDbText
  0
TEXT
  5
9F
330
6F
100
AcDbEntity
  8
D-0
 62
     5
100
AcDbText
 10
3427.941
 20
124.513
 30
0.0
 40
31.104
  1
アイオシステムキッチン事業部
100
AcDbText
  0
ARC
  5
A0
330
6F
100
AcDbEntity
  8
3-0
  6
Continuous
 62
     7
100
AcDbCircle
 10
3255.659538175486
 20
200.204166274297
 30
0.0
 40
63.24278074506601
100
AcDbArc
 50
319.753
 51
220.247
  0
CIRCLE
  5
A1
330
6F
100
AcDbEntity
  8
3-0
  6
Continuous
 62
     7
100
AcDbCircle
 10
3255.659538175486
 20
200.204166274297
 30
0.0
 40
71.58304716886799
  0
CIRCLE
  5
A2
330
6F
100
AcDbEntity
  8
3-0
  6
Continuous
 62
     7
100
AcDbCircle
 10
3255.659538175486
 20
200.204166274297
 30
0.0
 40
72.000060490058
  0
CIRCLE
  5
A3
330
6F
100
AcDbEntity
  8
3-0
  6
Continuous
 62
     7
100
AcDbCircle
 10
3255.659538175486
 20
200.204166274297
 30
0.0
 40
72.417073811248
  0
CIRCLE
  5
A4
330
6F
100
AcDbEntity
  8
3-0
  6
Continuous
 62
     7
100
AcDbCircle
 10
3255.659538175486
 20
200.204166274297
 30
0.0
 40
72.834087132438
  0
CIRCLE
  5
A5
330
6F
100
AcDbEntity
  8
3-0
  6
Continuous
 62
     7
100
AcDbCircle
 10
3255.659538175486
 20
200.204166274297
 30
0.0
 40
73.251100453628
  0
CIRCLE
  5
A6
330
6F
100
AcDbEntity
  8
3-0
  6
Continuous
 62
     7
100
AcDbCircle
 10
3255.659538175486
 20
200.204166274297
 30
0.0
 40
73.459607114223
  0
CIRCLE
  5
A7
330
6F
100
AcDbEntity
  8
3-0
  6
Continuous
 62
     7
100
AcDbCircle
 10
3255.659538175486
 20
200.204166274297
 30
0.0
 40
73.04259379303299
  0
CIRCLE
  5
A8
330
6F
100
AcDbEntity
  8
3-0
  6
Continuous
 62
     7
100
AcDbCircle
 10
3255.659538175486
 20
200.204166274297
 30
0.0
 40
72.62558047184301
  0
CIRCLE
  5
A9
330
6F
100
AcDbEntity
  8
3-0
  6
Continuous
 62
     7
100
AcDbCircle
 10
3255.659538175486
 20
200.204166274297
 30
0.0
 40
72.20856715065299
  0
CIRCLE
  5
AA
330
6F
100
AcDbEntity
  8
3-0
  6
Continuous
 62
     7
100
AcDbCircle
 10
3255.659538175486
 20
200.204166274297
 30
0.0
 40
71.791553829463
  0
CIRCLE
  5
AB
330
6F
100
AcDbEntity
  8
3-0
  6
Continuous
 62
     7
100
AcDbCircle
 10
3255.659538175486
 20
200.204166274297
 30
0.0
 40
71.791553829463
  0
ARC
  5
AC
330
6F
100
AcDbEntity
  8
3-0
  6
Continuous
 62
     7
100
AcDbCircle
 10
3255.659538175486
 20
200.204166274297
 30
0.0
 40
63.45128740566099
100
AcDbArc
 50
319.753
 51
220.247
  0
CIRCLE
  5
AD
330
6F
100
AcDbEntity
  8
3-0
  6
Continuous
 62
     7
100
AcDbCircle
 10
3255.659538175486
 20
200.204166274297
 30
0.0
 40
71.374540508273
  0
ARC
  5
AE
330
6F
100
AcDbEntity
  8
3-0
  6
Continuous
 62
     7
100
AcDbCircle
 10
3255.659538175486
 20
200.204166274297
 30
0.0
 40
63.03427408447099
100
AcDbArc
 50
319.753
 51
220.247
  0
TEXT
  5
AF
330
6F
100
AcDbEntity
  8
3-0
 62
     7
100
AcDbText
 10
3216.455
 20
142.198
 30
0.0
 40
48.64
  1
A
100
AcDbText
  0
TEXT
  5
B0
330
6F
100
AcDbEntity
  8
3-0
 62
     7
100
AcDbText
 10
3258.946
 20
142.301
 30
0.0
 40
48.64
  1
I
100
AcDbText
  0
TEXT
  5
B1
330
6F
100
AcDbEntity
  8
3-0
 62
     7
100
AcDbText
 10
3269.344
 20
142.267
 30
0.0
 40
48.64
  1
O
100
AcDbText
  0
LINE
  5
B2
330
6F
100
AcDbEntity
  8
D-0
  6
Continuous
 62
     5
100
AcDbLine
 10
2845.780831
 20
2619.987907
 30
0.0
 11
3950.015223
 21
2619.987907
 31
0.0
  0
LINE
  5
B3
330
6F
100
AcDbEntity
  8
D-0
  6
Continuous
 62
     5
100
AcDbLine
 10
2845.780831
 20
2569.987907
 30
0.0
 11
3950.015223
 21
2569.987907
 31
0.0
  0
LINE
  5
B4
330
6F
100
AcDbEntity
  8
D-0
  6
Continuous
 62
     5
100
AcDbLine
 10
2845.780831
 20
2419.987907
 30
0.0
 11
3950.015223
 21
2419.987907
 31
0.0
  0
LINE
  5
B5
330
6F
100
AcDbEntity
  8
D-0
  6
Continuous
 62
     5
100
AcDbLine
 10
2845.780831
 20
2669.987907
 30
0.0
 11
3950.015223
 21
2669.987907
 31
0.0
  0
TEXT
  5
B6
330
6F
100
AcDbEntity
  8
D-0
 62
     5
100
AcDbText
 10
3219.792
 20
2632.433
 30
0.0
 40
25.92
  1
SUS-430 ステンレス0.5ｔ（エンボス仕上）
100
AcDbText
  0
LINE
  5
B7
330
6F
100
AcDbEntity
  8
D-0
  6
Continuous
 62
     5
100
AcDbLine
 10
2845.780831
 20
1969.987907
 30
0.0
 11
3950.015223
 21
1969.987907
 31
0.0
  0
LINE
  5
B8
330
6F
100
AcDbEntity
  8
D-0
  6
Continuous
 62
     5
100
AcDbLine
 10
2845.780831
 20
2019.987907
 30
0.0
 11
3950.015223
 21
2019.987907
 31
0.0
  0
LINE
  5
B9
330
6F
100
AcDbEntity
  8
D-0
  6
Continuous
 62
     5
100
AcDbLine
 10
2845.780831
 20
2069.987907
 30
0.0
 11
3950.015223
 21
2069.987907
 31
0.0
  0
LINE
  5
BA
330
6F
100
AcDbEntity
  8
D-0
  6
Continuous
 62
     5
100
AcDbLine
 10
2845.780831
 20
2119.987907
 30
0.0
 11
3950.015223
 21
2119.987907
 31
0.0
  0
LINE
  5
BB
330
6F
100
AcDbEntity
  8
D-0
  6
Continuous
 62
     5
100
AcDbLine
 10
2845.780831
 20
2169.987907
 30
0.0
 11
3950.015223
 21
2169.987907
 31
0.0
  0
TEXT
  5
BC
330
6F
100
AcDbEntity
  8
D-0
 62
     5
100
AcDbText
 10
3219.792
 20
2032.433
 30
0.0
 40
25.92
  1
塩化ビニール蛇腹30Φｘ80ｃｍ（回転板付）
100
AcDbText
  0
LINE
  5
BD
330
6F
100
AcDbEntity
  8
D-0
  6
Continuous
 62
     5
100
AcDbLine
 10
2845.780831
 20
2669.987907
 30
0.0
 11
2845.780831
 21
1969.987907
 31
0.0
  0
LINE
  5
BE
330
6F
100
AcDbEntity
  8
D-0
  6
Continuous
 62
     5
100
AcDbLine
 10
3038.191783
 20
2569.987907
 30
0.0
 11
3038.191783
 21
2169.987907
 31
0.0
  0
LINE
  5
BF
330
6F
100
AcDbEntity
  8
D-0
  6
Continuous
 62
     5
100
AcDbLine
 10
3189.664209
 20
2669.987907
 30
0.0
 11
3189.664209
 21
1969.987907
 31
0.0
  0
TEXT
  5
C0
330
6F
100
AcDbEntity
  8
D-0
 62
     5
100
AcDbText
 10
2885.372
 20
1899.882
 30
0.0
 40
25.92
  1
※　弊社製品はすべてF☆☆☆☆に対応しております。
100
AcDbText
  0
TEXT
  5
C1
330
6F
100
AcDbEntity
  8
D-0
 62
     5
100
AcDbText
 10
2885.372
 20
1982.433
 30
0.0
 40
25.92
  1
包丁差し
100
AcDbText
  0
TEXT
  5
C2
330
6F
100
AcDbEntity
  8
D-0
 62
     5
100
AcDbText
 10
2885.372
 20
2082.433
 30
0.0
 40
25.92
  1
排水金具
100
AcDbText
  0
TEXT
  5
C3
330
6F
100
AcDbEntity
  8
D-0
 62
     5
100
AcDbText
 10
2885.372
 20
2032.433
 30
0.0
 40
25.92
  1
ホース
100
AcDbText
  0
TEXT
  5
C4
330
6F
100
AcDbEntity
  8
D-0
 62
     5
100
AcDbText
 10
2885.372
 20
2132.433
 30
0.0
 40
25.92
  1
丁番
100
AcDbText
  0
TEXT
  5
C5
330
6F
100
AcDbEntity
  8
D-0
 62
     5
100
AcDbText
 10
3058.131
 20
2182.433
 30
0.0
 40
25.92
  1
取っ手
100
AcDbText
  0
TEXT
  5
C6
330
6F
100
AcDbEntity
  8
D-0
 62
     5
100
AcDbText
 10
3219.792
 20
2132.433
 30
0.0
 40
25.92
  1
スライドヒンジ
100
AcDbText
  0
TEXT
  5
C7
330
6F
100
AcDbEntity
  8
D-0
 62
     5
100
AcDbText
 10
2885.372
 20
2382.433
 30
0.0
 40
25.92
  1
扉
100
AcDbText
  0
TEXT
  5
C8
330
6F
100
AcDbEntity
  8
D-0
 62
     5
100
AcDbText
 10
3058.131
 20
2382.433
 30
0.0
 40
25.92
  1
表
100
AcDbText
  0
TEXT
  5
C9
330
6F
100
AcDbEntity
  8
D-0
 62
     5
100
AcDbText
 10
3058.131
 20
2282.433
 30
0.0
 40
25.92
  1
裏
100
AcDbText
  0
TEXT
  5
CA
330
6F
100
AcDbEntity
  8
D-0
 62
     5
100
AcDbText
 10
3058.131
 20
2232.433
 30
0.0
 40
25.92
  1
木口
100
AcDbText
  0
TEXT
  5
CB
330
6F
100
AcDbEntity
  8
D-0
 62
     5
100
AcDbText
 10
3058.131
 20
2482.433
 30
0.0
 40
25.92
  1
背板
100
AcDbText
  0
TEXT
  5
CC
330
6F
100
AcDbEntity
  8
D-0
 62
     5
100
AcDbText
 10
3058.131
 20
2432.433
 30
0.0
 40
25.92
  1
地板
100
AcDbText
  0
TEXT
  5
CD
330
6F
100
AcDbEntity
  8
D-0
 62
     5
100
AcDbText
 10
2885.372
 20
2632.433
 30
0.0
 40
25.92
  1
天板
100
AcDbText
  0
TEXT
  5
CE
330
6F
100
AcDbEntity
  8
D-0
 62
     5
100
AcDbText
 10
2885.372
 20
2532.433
 30
0.0
 40
25.92
  1
木部本体
100
AcDbText
  0
TEXT
  5
CF
330
6F
100
AcDbEntity
  8
D-0
 62
     5
100
AcDbText
 10
2885.372
 20
2582.433
 30
0.0
 40
25.92
  1
シンク
100
AcDbText
  0
TEXT
  5
D0
330
6F
100
AcDbEntity
  8
D-0
 62
     5
100
AcDbText
 10
3058.131
 20
2532.433
 30
0.0
 40
25.92
  1
側板
100
AcDbText
  0
TEXT
  5
D1
330
6F
100
AcDbEntity
  8
D-0
 62
     5
100
AcDbText
 10
3219.792
 20
2382.433
 30
0.0
 40
25.92
  1
プレコート（PB)
100
AcDbText
  0
TEXT
  5
D2
330
6F
100
AcDbEntity
  8
D-0
 62
     5
100
AcDbText
 10
3219.792
 20
2282.433
 30
0.0
 40
25.92
  1
ウレタンコート化粧ボード（PB)
100
AcDbText
  0
TEXT
  5
D3
330
6F
100
AcDbEntity
  8
D-0
 62
     5
100
AcDbText
 10
3219.792
 20
2232.433
 30
0.0
 40
25.92
  1
木口テープ巻
100
AcDbText
  0
TEXT
  5
D4
330
6F
100
AcDbEntity
  8
D-0
 62
     5
100
AcDbText
 10
3219.792
 20
2482.433
 30
0.0
 40
25.92
  1
クリーンイーゴスMDF
100
AcDbText
  0
TEXT
  5
D5
330
6F
100
AcDbEntity
  8
D-0
 62
     5
100
AcDbText
 10
3219.792
 20
2432.433
 30
0.0
 40
25.92
  1
EBコート化粧板
100
AcDbText
  0
TEXT
  5
D6
330
6F
100
AcDbEntity
  8
D-0
 62
     5
100
AcDbText
 10
3219.792
 20
2582.433
 30
0.0
 40
25.92
  1
SUS-430 ステンレス0.4ｔ　静音シンク
100
AcDbText
  0
TEXT
  5
D7
330
6F
100
AcDbEntity
  8
D-0
 62
     5
100
AcDbText
 10
3219.792
 20
2532.433
 30
0.0
 40
25.92
  1
ウレタンコート化粧ボード（PB)
100
AcDbText
  0
LINE
  5
D8
330
6F
100
AcDbEntity
  8
D-0
  6
Continuous
 62
     5
100
AcDbLine
 10
3950.015223
 20
2669.987907
 30
0.0
 11
3950.015223
 21
1969.987907
 31
0.0
  0
TEXT
  5
D9
330
6F
100
AcDbEntity
  8
D-0
 62
     5
100
AcDbText
 10
3218.933
 20
2187.421
 30
0.0
 40
25.92
  1
アルミ製　ラインハンドル
100
AcDbText
  0
TEXT
  5
DA
330
6F
100
AcDbEntity
  8
D-0
 62
     5
100
AcDbText
 10
2884.882
 20
1845.195
 30
0.0
 40
25.92
  1
※　左シンクは本図の左右対称です。
100
AcDbText
  0
TEXT
  5
DB
330
6F
100
AcDbEntity
  8
D-0
 62
     5
100
AcDbText
 10
3219.408
 20
2079.482
 30
0.0
 40
25.92
  1
180Φ大型排水トラップ付（\U+FF76
100
AcDbText
  0
LINE
  5
DC
330
6F
100
AcDbEntity
  8
A-0
  6
Continuous
 62
     4
100
AcDbLine
 10
2957.218398
 20
800.7100619999999
 30
0.0
 11
2957.218398
 21
790.887698
 31
0.0
  0
LINE
  5
DD
330
6F
100
AcDbEntity
  8
A-0
  6
Continuous
 62
     4
100
AcDbLine
 10
2652.218398
 20
969.7708
 30
0.0
 11
2652.218398
 21
790.887698
 31
0.0
  0
TEXT
  5
DE
330
6F
100
AcDbEntity
  8
A-0
 62
     4
100
AcDbText
 10
2773.941
 20
791.508
 30
0.0
 40
36.288
  1
305
100
AcDbText
  0
LINE
  5
DF
330
6F
100
AcDbEntity
  8
A-0
  6
Continuous
 62
     4
100
AcDbLine
 10
2652.218398188221
 20
790.887697646335
 30
0.0
 11
2957.218398188221
 21
790.887697646335
 31
0.0
  0
CIRCLE
  5
E0
330
6F
100
AcDbEntity
  8
A-0
  6
Continuous
 62
     4
100
AcDbCircle
 10
2652.218398188221
 20
790.887697646335
 30
0.0
 40
0.25
  0
CIRCLE
  5
E1
330
6F
100
AcDbEntity
  8
A-0
  6
Continuous
 62
     4
100
AcDbCircle
 10
2652.218398188221
 20
790.887697646335
 30
0.0
 40
0.1875
  0
CIRCLE
  5
E2
330
6F
100
AcDbEntity
  8
A-0
  6
Continuous
 62
     4
100
AcDbCircle
 10
2652.218398188221
 20
790.887697646335
 30
0.0
 40
0.125
  0
CIRCLE
  5
E3
330
6F
100
AcDbEntity
  8
A-0
  6
Continuous
 62
     4
100
AcDbCircle
 10
2652.218398188221
 20
790.887697646335
 30
0.0
 40
0.0625
  0
CIRCLE
  5
E4
330
6F
100
AcDbEntity
  8
A-0
  6
Continuous
 62
     4
100
AcDbCircle
 10
2957.218398188221
 20
790.887697646335
 30
0.0
 40
0.25
  0
CIRCLE
  5
E5
330
6F
100
AcDbEntity
  8
A-0
  6
Continuous
 62
     4
100
AcDbCircle
 10
2957.218398188221
 20
790.887697646335
 30
0.0
 40
0.1875
  0
CIRCLE
  5
E6
330
6F
100
AcDbEntity
  8
A-0
  6
Continuous
 62
     4
100
AcDbCircle
 10
2957.218398188221
 20
790.887697646335
 30
0.0
 40
0.125
  0
CIRCLE
  5
E7
330
6F
100
AcDbEntity
  8
A-0
  6
Continuous
 62
     4
100
AcDbCircle
 10
2957.218398188221
 20
790.887697646335
 30
0.0
 40
0.0625
  0
LINE
  5
E8
330
6F
100
AcDbEntity
  8
3-0
  6
DASHED2
 62
     7
100
AcDbLine
 10
2942.218398
 20
1048.960886
 30
0.0
 11
2942.218398
 21
584.960886
 31
0.0
  0
LINE
  5
E9
330
6F
100
AcDbEntity
  8
3-0
  6
DASHED2
 62
     7
100
AcDbLine
 10
2972.218398
 20
1048.960886
 30
0.0
 11
2972.218398
 21
584.960886
 31
0.0
  0
LINE
  5
EA
330
6F
100
AcDbEntity
  8
B-0
  6
CENTER
 62
     6
100
AcDbLine
 10
2957.218398
 20
1384.960886
 30
0.0
 11
2957.218398
 21
555.2071269999999
 31
0.0
  0
LINE
  5
EB
330
6F
100
AcDbEntity
  8
3-0
  6
DASHED2
 62
     7
100
AcDbLine
 10
2667.218398
 20
1359.960886
 30
0.0
 11
2667.218398
 21
584.960886
 31
0.0
  0
LINE
  5
EC
330
6F
100
AcDbEntity
  8
3-0
  6
Continuous
 62
     7
100
AcDbLine
 10
3173.218398
 20
1359.960886
 30
0.0
 11
3173.218398
 21
674.9608859999999
 31
0.0
  0
LINE
  5
ED
330
6F
100
AcDbEntity
  8
3-0
  6
Continuous
 62
     7
100
AcDbLine
 10
2652.218398
 20
1359.960886
 30
0.0
 11
2652.218398
 21
584.960886
 31
0.0
  0
LINE
  5
EE
330
6F
100
AcDbEntity
  8
A-0
  6
Continuous
 62
     4
100
AcDbLine
 10
3194.218398
 20
564.9608859999999
 30
0.0
 11
3194.218398
 21
334.960886
 31
0.0
  0
LINE
  5
EF
330
6F
100
AcDbEntity
  8
A-0
  6
Continuous
 62
     4
100
AcDbLine
 10
2652.218398
 20
564.9608859999999
 30
0.0
 11
2652.218398
 21
334.960886
 31
0.0
  0
TEXT
  5
F0
330
6F
100
AcDbEntity
  8
A-0
 62
     4
100
AcDbText
 10
2892.441
 20
335.5809999999999
 30
0.0
 40
36.288
  1
542
100
AcDbText
  0
LINE
  5
F1
330
6F
100
AcDbEntity
  8
A-0
  6
Continuous
 62
     4
100
AcDbLine
 10
2652.218398188221
 20
334.960885549904
 30
0.0
 11
3194.218398188218
 21
334.960885549904
 31
0.0
  0
CIRCLE
  5
F2
330
6F
100
AcDbEntity
  8
A-0
  6
Continuous
 62
     4
100
AcDbCircle
 10
2652.218398188221
 20
334.960885549904
 30
0.0
 40
0.25
  0
CIRCLE
  5
F3
330
6F
100
AcDbEntity
  8
A-0
  6
Continuous
 62
     4
100
AcDbCircle
 10
2652.218398188221
 20
334.960885549904
 30
0.0
 40
0.1875
  0
CIRCLE
  5
F4
330
6F
100
AcDbEntity
  8
A-0
  6
Continuous
 62
     4
100
AcDbCircle
 10
2652.218398188221
 20
334.960885549904
 30
0.0
 40
0.125
  0
CIRCLE
  5
F5
330
6F
100
AcDbEntity
  8
A-0
  6
Continuous
 62
     4
100
AcDbCircle
 10
2652.218398188221
 20
334.960885549904
 30
0.0
 40
0.0625
  0
CIRCLE
  5
F6
330
6F
100
AcDbEntity
  8
A-0
  6
Continuous
 62
     4
100
AcDbCircle
 10
3194.218398188218
 20
334.960885549904
 30
0.0
 40
0.25
  0
CIRCLE
  5
F7
330
6F
100
AcDbEntity
  8
A-0
  6
Continuous
 62
     4
100
AcDbCircle
 10
3194.218398188218
 20
334.960885549904
 30
0.0
 40
0.1875
  0
CIRCLE
  5
F8
330
6F
100
AcDbEntity
  8
A-0
  6
Continuous
 62
     4
100
AcDbCircle
 10
3194.218398188218
 20
334.960885549904
 30
0.0
 40
0.125
  0
CIRCLE
  5
F9
330
6F
100
AcDbEntity
  8
A-0
  6
Continuous
 62
     4
100
AcDbCircle
 10
3194.218398188218
 20
334.960885549904
 30
0.0
 40
0.0625
  0
LINE
  5
FA
330
6F
100
AcDbEntity
  8
3-0
  6
DASHED2
 62
     7
100
AcDbLine
 10
2667.218398
 20
689.9608859999999
 30
0.0
 11
3173.218398
 21
689.9608859999999
 31
0.0
  0
LINE
  5
FB
330
6F
100
AcDbEntity
  8
A-0
  6
Continuous
 62
     4
100
AcDbLine
 10
3142.218398
 20
564.9608859999999
 30
0.0
 11
3142.218398
 21
434.960886
 31
0.0
  0
LINE
  5
FC
330
6F
100
AcDbEntity
  8
A-0
  6
Continuous
 62
     4
100
AcDbLine
 10
2652.218398
 20
564.9608859999999
 30
0.0
 11
2652.218398
 21
434.960886
 31
0.0
  0
TEXT
  5
FD
330
6F
100
AcDbEntity
  8
A-0
 62
     4
100
AcDbText
 10
2866.441
 20
435.5809999999999
 30
0.0
 40
36.288
  1
490
100
AcDbText
  0
LINE
  5
FE
330
6F
100
AcDbEntity
  8
A-0
  6
Continuous
 62
     4
100
AcDbLine
 10
2652.218398188221
 20
434.960885549904
 30
0.0
 11
3142.218398188221
 21
434.960885549904
 31
0.0
  0
CIRCLE
  5
FF
330
6F
100
AcDbEntity
  8
A-0
  6
Continuous
 62
     4
100
AcDbCircle
 10
2652.218398188221
 20
434.960885549904
 30
0.0
 40
0.25
  0
CIRCLE
  5
100
330
6F
100
AcDbEntity
  8
A-0
  6
Continuous
 62
     4
100
AcDbCircle
 10
2652.218398188221
 20
434.960885549904
 30
0.0
 40
0.1875
  0
CIRCLE
  5
101
330
6F
100
AcDbEntity
  8
A-0
  6
Continuous
 62
     4
100
AcDbCircle
 10
2652.218398188221
 20
434.960885549904
 30
0.0
 40
0.125
  0
CIRCLE
  5
102
330
6F
100
AcDbEntity
  8
A-0
  6
Continuous
 62
     4
100
AcDbCircle
 10
2652.218398188221
 20
434.960885549904
 30
0.0
 40
0.0625
  0
CIRCLE
  5
103
330
6F
100
AcDbEntity
  8
A-0
  6
Continuous
 62
     4
100
AcDbCircle
 10
3142.218398188221
 20
434.960885549904
 30
0.0
 40
0.25
  0
CIRCLE
  5
104
330
6F
100
AcDbEntity
  8
A-0
  6
Continuous
 62
     4
100
AcDbCircle
 10
3142.218398188221
 20
434.960885549904
 30
0.0
 40
0.1875
  0
CIRCLE
  5
105
330
6F
100
AcDbEntity
  8
A-0
  6
Continuous
 62
     4
100
AcDbCircle
 10
3142.218398188221
 20
434.960885549904
 30
0.0
 40
0.125
  0
CIRCLE
  5
106
330
6F
100
AcDbEntity
  8
A-0
  6
Continuous
 62
     4
100
AcDbCircle
 10
3142.218398188221
 20
434.960885549904
 30
0.0
 40
0.0625
  0
LINE
  5
107
330
6F
100
AcDbEntity
  8
3-0
  6
Continuous
 62
     7
100
AcDbLine
 10
2652.218398
 20
584.960886
 30
0.0
 11
3142.218398
 21
584.960886
 31
0.0
  0
LINE
  5
108
330
6F
100
AcDbEntity
  8
3-0
  6
DASHED2
 62
     7
100
AcDbLine
 10
2667.218398
 20
674.9608859999999
 30
0.0
 11
3173.218398
 21
674.9608859999999
 31
0.0
  0
LINE
  5
109
330
6F
100
AcDbEntity
  8
3-0
  6
Continuous
 62
     7
100
AcDbLine
 10
2609.468529
 20
488.47316
 30
0.0
 11
2939.209629
 21
674.9608859999999
 31
0.0
  0
LINE
  5
10A
330
6F
100
AcDbEntity
  8
3-0
  6
Continuous
 62
     7
100
AcDbLine
 10
2204.258289
 20
488.47316
 30
0.0
 11
2609.468529
 21
488.47316
 31
0.0
  0
LINE
  5
10B
330
6F
100
AcDbEntity
  8
3-0
  6
DASHED2
 62
     7
100
AcDbLine
 10
2652.218398
 20
584.960886
 30
0.0
 11
2667.218398
 21
609.960886
 31
0.0
  0
LINE
  5
10C
330
6F
100
AcDbEntity
  8
3-0
  6
DASHED2
 62
     7
100
AcDbLine
 10
2652.218398
 20
584.960886
 30
0.0
 11
2667.218398
 21
584.960886
 31
0.0
  0
LINE
  5
10D
330
6F
100
AcDbEntity
  8
3-0
  6
Continuous
 62
     7
100
AcDbLine
 10
2939.209629
 20
674.9608859999999
 30
0.0
 11
2915.513957
 21
667.14502
 31
0.0
  0
LINE
  5
10E
330
6F
100
AcDbEntity
  8
3-0
  6
DASHED2
 62
     7
100
AcDbLine
 10
2888.86839818822
 20
694.632674223382
 30
0.0
 11
2936.968398188221
 21
694.632674223382
 31
0.0
  0
LINE
  5
10F
330
6F
100
AcDbEntity
  8
3-0
  6
DASHED2
 62
     7
100
AcDbLine
 10
2936.968398188221
 20
694.632674223382
 30
0.0
 11
2936.968398188221
 21
685.7386908230539
 31
0.0
  0
LINE
  5
110
330
6F
100
AcDbEntity
  8
3-0
  6
DASHED2
 62
     7
100
AcDbLine
 10
2936.968398188221
 20
685.7386908230539
 30
0.0
 11
2977.468398188221
 21
685.7386908230539
 31
0.0
  0
LINE
  5
111
330
6F
100
AcDbEntity
  8
3-0
  6
DASHED2
 62
     7
100
AcDbLine
 10
2977.468398188221
 20
685.7386908230539
 30
0.0
 11
2977.468398188221
 21
694.632674223382
 31
0.0
  0
LINE
  5
112
330
6F
100
AcDbEntity
  8
3-0
  6
DASHED2
 62
     7
100
AcDbLine
 10
2977.468398188221
 20
694.632674223382
 30
0.0
 11
3025.568398188222
 21
694.632674223382
 31
0.0
  0
LINE
  5
113
330
6F
100
AcDbEntity
  8
3-0
  6
DASHED2
 62
     7
100
AcDbLine
 10
3012.218398
 20
689.9608859999999
 30
0.0
 11
3012.218398
 21
674.9608859999999
 31
0.0
  0
LINE
  5
114
330
6F
100
AcDbEntity
  8
3-0
  6
DASHED2
 62
     7
100
AcDbLine
 10
2902.218398
 20
689.9608859999999
 30
0.0
 11
2902.218398
 21
674.9608859999999
 31
0.0
  0
LINE
  5
115
330
6F
100
AcDbEntity
  8
3-0
  6
DASHED2
 62
     7
100
AcDbLine
 10
2652.218398
 20
609.960886
 30
0.0
 11
2667.218398
 21
609.960886
 31
0.0
  0
LINE
  5
116
330
6F
100
AcDbEntity
  8
3-0
  6
Continuous
 62
     7
100
AcDbLine
 10
3143.218398
 20
674.9608859999999
 30
0.0
 11
3173.218398
 21
674.9608859999999
 31
0.0
  0
LINE
  5
117
330
6F
100
AcDbEntity
  8
3-0
  6
Continuous
 62
     7
100
AcDbLine
 10
3133.218398
 20
674.9608859999999
 30
0.0
 11
3133.218398
 21
584.960886
 31
0.0
  0
LINE
  5
118
330
6F
100
AcDbEntity
  8
3-0
  6
Continuous
 62
     7
100
AcDbLine
 10
3142.218398
 20
674.9608859999999
 30
0.0
 11
3142.218398
 21
584.960886
 31
0.0
  0
LINE
  5
119
330
6F
100
AcDbEntity
  8
B-0
  6
CENTER
 62
     6
100
AcDbLine
 10
2737.218398
 20
1555.060199
 30
0.0
 11
2737.218398
 21
984.960886
 31
0.0
  0
LINE
  5
11A
330
6F
100
AcDbEntity
  8
3-0
  6
DASHED2
 62
     7
100
AcDbLine
 10
3182.218398188219
 20
1384.960885549905
 30
0.0
 11
3182.218398188219
 21
1379.960885549905
 31
0.0
  0
LINE
  5
11B
330
6F
100
AcDbEntity
  8
3-0
  6
DASHED2
 62
     7
100
AcDbLine
 10
3182.218398188219
 20
1379.960885549905
 30
0.0
 11
3142.218398188219
 21
1379.960885549905
 31
0.0
  0
ARC
  5
11C
330
6F
100
AcDbEntity
  8
3-0
  6
DASHED2
 62
     7
100
AcDbCircle
 10
3142.218398
 20
1374.960886
 30
0.0
 40
5.0
100
AcDbArc
 50
90.0
 51
179.9999999997081
  0
LINE
  5
11D
330
6F
100
AcDbEntity
  8
3-0
  6
DASHED2
 62
     7
100
AcDbLine
 10
3137.218398188219
 20
1374.960885549905
 30
0.0
 11
3137.218398188219
 21
1266.960885549905
 31
0.0
  0
ARC
  5
11E
330
6F
100
AcDbEntity
  8
3-0
  6
DASHED2
 62
     7
100
AcDbCircle
 10
3107.218398
 20
1266.960886
 30
0.0
 40
30.0
100
AcDbArc
 50
270.0
 51
359.9999999997079
  0
LINE
  5
11F
330
6F
100
AcDbEntity
  8
3-0
  6
DASHED2
 62
     7
100
AcDbLine
 10
3107.218398188219
 20
1236.960885549905
 30
0.0
 11
2802.218398188219
 21
1236.960885549905
 31
0.0
  0
ARC
  5
120
330
6F
100
AcDbEntity
  8
3-0
  6
DASHED2
 62
     7
100
AcDbCircle
 10
2802.218398
 20
1266.960886
 30
0.0
 40
30.0
100
AcDbArc
 50
180.000000000292
 51
270.0
  0
LINE
  5
121
330
6F
100
AcDbEntity
  8
3-0
  6
DASHED2
 62
     7
100
AcDbLine
 10
2772.218398188219
 20
1266.960885549905
 30
0.0
 11
2772.218398188218
 21
1374.960885549905
 31
0.0
  0
ARC
  5
122
330
6F
100
AcDbEntity
  8
3-0
  6
DASHED2
 62
     7
100
AcDbCircle
 10
2767.218398
 20
1374.960886
 30
0.0
 40
5.0
100
AcDbArc
 50
0.0000000002920064
 51
90.0
  0
LINE
  5
123
330
6F
100
AcDbEntity
  8
3-0
  6
DASHED2
 62
     7
100
AcDbLine
 10
2767.218398188218
 20
1379.960885549905
 30
0.0
 11
2695.080383724904
 21
1379.960885549905
 31
0.0
  0
LINE
  5
124
330
6F
100
AcDbEntity
  8
3-0
  6
DASHED2
 62
     7
100
AcDbLine
 10
2695.080383724904
 20
1379.960885549905
 30
0.0
 11
2695.080383724904
 21
1384.960885549905
 31
0.0
  0
LINE
  5
125
330
6F
100
AcDbEntity
  8
A-0
  6
Continuous
 62
     4
100
AcDbLine
 10
2892.744414
 20
1236.960886
 30
0.0
 11
2898.317462
 21
1236.960886
 31
0.0
  0
LINE
  5
126
330
6F
100
AcDbEntity
  8
A-0
  6
Continuous
 62
     4
100
AcDbLine
 10
2892.744414
 20
1384.960886
 30
0.0
 11
2898.317462
 21
1384.960886
 31
0.0
  0
TEXT
  5
127
330
6F
100
AcDbEntity
  8
A-0
 62
     4
100
AcDbText
 10
2897.697
 20
1277.361
 30
0.0
 40
36.288
  1
148
 50
90.0
100
AcDbText
  0
LINE
  5
128
330
6F
100
AcDbEntity
  8
A-0
  6
Continuous
 62
     4
100
AcDbLine
 10
2898.317461916477
 20
1384.960885549905
 30
0.0
 11
2898.317461916477
 21
1236.960885549905
 31
0.0
  0
CIRCLE
  5
129
330
6F
100
AcDbEntity
  8
A-0
  6
Continuous
 62
     4
100
AcDbCircle
 10
2898.317461916477
 20
1384.960885549905
 30
0.0
 40
0.25
  0
CIRCLE
  5
12A
330
6F
100
AcDbEntity
  8
A-0
  6
Continuous
 62
     4
100
AcDbCircle
 10
2898.317461916477
 20
1384.960885549905
 30
0.0
 40
0.1875
  0
CIRCLE
  5
12B
330
6F
100
AcDbEntity
  8
A-0
  6
Continuous
 62
     4
100
AcDbCircle
 10
2898.317461916477
 20
1384.960885549905
 30
0.0
 40
0.125
  0
CIRCLE
  5
12C
330
6F
100
AcDbEntity
  8
A-0
  6
Continuous
 62
     4
100
AcDbCircle
 10
2898.317461916477
 20
1384.960885549905
 30
0.0
 40
0.0625
  0
CIRCLE
  5
12D
330
6F
100
AcDbEntity
  8
A-0
  6
Continuous
 62
     4
100
AcDbCircle
 10
2898.317461916477
 20
1236.960885549905
 30
0.0
 40
0.25
  0
CIRCLE
  5
12E
330
6F
100
AcDbEntity
  8
A-0
  6
Continuous
 62
     4
100
AcDbCircle
 10
2898.317461916477
 20
1236.960885549905
 30
0.0
 40
0.1875
  0
CIRCLE
  5
12F
330
6F
100
AcDbEntity
  8
A-0
  6
Continuous
 62
     4
100
AcDbCircle
 10
2898.317461916477
 20
1236.960885549905
 30
0.0
 40
0.125
  0
CIRCLE
  5
130
330
6F
100
AcDbEntity
  8
A-0
  6
Continuous
 62
     4
100
AcDbCircle
 10
2898.317461916477
 20
1236.960885549905
 30
0.0
 40
0.0625
  0
LINE
  5
131
330
6F
100
AcDbEntity
  8
3-0
  6
DASHED2
 62
     7
100
AcDbLine
 10
3161.218398
 20
1359.960886
 30
0.0
 11
3161.218398
 21
1199.960886
 31
0.0
  0
LINE
  5
132
330
6F
100
AcDbEntity
  8
3-0
  6
Continuous
 62
     7
100
AcDbLine
 10
2558.438944
 20
1121.914271
 30
0.0
 11
2652.218398
 21
984.960886
 31
0.0
  0
LINE
  5
133
330
6F
100
AcDbEntity
  8
3-0
  6
Continuous
 62
     7
100
AcDbLine
 10
2652.218398
 20
984.960886
 30
0.0
 11
2641.852197
 21
1015.776779
 31
0.0
  0
LINE
  5
134
330
6F
100
AcDbEntity
  8
3-0
  6
Continuous
 62
     7
100
AcDbLine
 10
2412.882232
 20
1121.914271
 30
0.0
 11
2558.438944
 21
1121.914271
 31
0.0
  0
LINE
  5
135
330
6F
100
AcDbEntity
  8
3-0
  6
DASHED2
 62
     7
100
AcDbLine
 10
3161.218398
 20
1199.960886
 30
0.0
 11
3173.218398
 21
1199.960886
 31
0.0
  0
LINE
  5
136
330
6F
100
AcDbEntity
  8
A-0
  6
Continuous
 62
     4
100
AcDbLine
 10
3202.218398
 20
1471.223377
 30
0.0
 11
3202.218398
 21
1601.223377
 31
0.0
  0
LINE
  5
137
330
6F
100
AcDbEntity
  8
A-0
  6
Continuous
 62
     4
100
AcDbLine
 10
2652.218398
 20
1471.223377
 30
0.0
 11
2652.218398
 21
1601.223377
 31
0.0
  0
TEXT
  5
138
330
6F
100
AcDbEntity
  8
A-0
 62
     4
100
AcDbText
 10
2896.441
 20
1601.843
 30
0.0
 40
36.288
  1
550
100
AcDbText
  0
LINE
  5
139
330
6F
100
AcDbEntity
  8
A-0
  6
Continuous
 62
     4
100
AcDbLine
 10
2652.218398188219
 20
1601.223377446768
 30
0.0
 11
3202.218398188227
 21
1601.223377446768
 31
0.0
  0
CIRCLE
  5
13A
330
6F
100
AcDbEntity
  8
A-0
  6
Continuous
 62
     4
100
AcDbCircle
 10
2652.218398188219
 20
1601.223377446768
 30
0.0
 40
0.25
  0
CIRCLE
  5
13B
330
6F
100
AcDbEntity
  8
A-0
  6
Continuous
 62
     4
100
AcDbCircle
 10
2652.218398188219
 20
1601.223377446768
 30
0.0
 40
0.1875
  0
CIRCLE
  5
13C
330
6F
100
AcDbEntity
  8
A-0
  6
Continuous
 62
     4
100
AcDbCircle
 10
2652.218398188219
 20
1601.223377446768
 30
0.0
 40
0.125
  0
CIRCLE
  5
13D
330
6F
100
AcDbEntity
  8
A-0
  6
Continuous
 62
     4
100
AcDbCircle
 10
2652.218398188219
 20
1601.223377446768
 30
0.0
 40
0.0625
  0
CIRCLE
  5
13E
330
6F
100
AcDbEntity
  8
A-0
  6
Continuous
 62
     4
100
AcDbCircle
 10
3202.218398188227
 20
1601.223377446768
 30
0.0
 40
0.25
  0
CIRCLE
  5
13F
330
6F
100
AcDbEntity
  8
A-0
  6
Continuous
 62
     4
100
AcDbCircle
 10
3202.218398188227
 20
1601.223377446768
 30
0.0
 40
0.1875
  0
CIRCLE
  5
140
330
6F
100
AcDbEntity
  8
A-0
  6
Continuous
 62
     4
100
AcDbCircle
 10
3202.218398188227
 20
1601.223377446768
 30
0.0
 40
0.125
  0
CIRCLE
  5
141
330
6F
100
AcDbEntity
  8
A-0
  6
Continuous
 62
     4
100
AcDbCircle
 10
3202.218398188227
 20
1601.223377446768
 30
0.0
 40
0.0625
  0
LINE
  5
142
330
6F
100
AcDbEntity
  8
3-0
  6
Continuous
 62
     7
100
AcDbLine
 10
2677.218398
 20
1384.960886
 30
0.0
 11
3200.218398
 21
1384.960886
 31
0.0
  0
LINE
  5
143
330
6F
100
AcDbEntity
  8
3-0
  6
Continuous
 62
     7
100
AcDbLine
 10
2652.218398
 20
1359.960886
 30
0.0
 11
3200.218398
 21
1359.960886
 31
0.0
  0
LINE
  5
144
330
6F
100
AcDbEntity
  8
3-0
  6
DASHED2
 62
     7
100
AcDbLine
 10
2764.718398188221
 20
1479.092509549904
 30
0.0
 11
2764.718398188221
 21
1485.356319549904
 31
0.0
  0
LINE
  5
145
330
6F
100
AcDbEntity
  8
3-0
  6
DASHED2
 62
     7
100
AcDbLine
 10
2709.718398188222
 20
1487.467483549903
 30
0.0
 11
2709.718398188222
 21
1479.092509549904
 31
0.0
  0
LINE
  5
146
330
6F
100
AcDbEntity
  8
3-0
  6
DASHED2
 62
     7
100
AcDbLine
 10
2764.718398188221
 20
1450.359295549904
 30
0.0
 11
2980.870923188221
 21
1558.607036549904
 31
0.0
  0
LINE
  5
147
330
6F
100
AcDbEntity
  8
3-0
  6
DASHED2
 62
     7
100
AcDbLine
 10
2764.718398188221
 20
1439.175405549904
 30
0.0
 11
2976.777194188221
 21
1545.373034549904
 31
0.0
  0
LINE
  5
148
330
6F
100
AcDbEntity
  8
3-0
  6
DASHED2
 62
     7
100
AcDbLine
 10
2764.718398188221
 20
1474.960885549904
 30
0.0
 11
2764.718398188221
 21
1384.960885549904
 31
0.0
  0
LINE
  5
149
330
6F
100
AcDbEntity
  8
3-0
  6
DASHED2
 62
     7
100
AcDbLine
 10
2709.718398188222
 20
1454.960885549904
 30
0.0
 11
2764.718398188221
 21
1454.960885549904
 31
0.0
  0
LINE
  5
14A
330
6F
100
AcDbEntity
  8
3-0
  6
DASHED2
 62
     7
100
AcDbLine
 10
2709.718398188222
 20
1474.960885549904
 30
0.0
 11
2764.718398188221
 21
1474.960885549904
 31
0.0
  0
LINE
  5
14B
330
6F
100
AcDbEntity
  8
3-0
  6
DASHED2
 62
     7
100
AcDbLine
 10
2709.718398188222
 20
1474.960885549904
 30
0.0
 11
2709.718398188222
 21
1384.960885549904
 31
0.0
  0
LINE
  5
14C
330
6F
100
AcDbEntity
  8
3-0
  6
DASHED2
 62
     7
100
AcDbLine
 10
2709.718398188222
 20
1479.092509549904
 30
0.0
 11
2764.718398188221
 21
1479.092509549904
 31
0.0
  0
LINE
  5
14D
330
6F
100
AcDbEntity
  8
3-0
  6
DASHED2
 62
     7
100
AcDbLine
 10
2709.718398188222
 20
1384.960885549904
 30
0.0
 11
2764.718398188221
 21
1384.960885549904
 31
0.0
  0
ARC
  5
14E
330
6F
100
AcDbEntity
  8
3-0
  6
DASHED2
 62
     7
100
AcDbCircle
 10
2823.770947188221
 20
1398.354665549904
 30
0.0
 40
115.364508
100
AcDbArc
 50
80.09600000000004
 51
114.174
  0
LINE
  5
14F
330
6F
100
AcDbEntity
  8
3-0
  6
DASHED2
 62
     7
100
AcDbLine
 10
2787.290490188221
 20
1520.214885549903
 30
0.0
 11
2856.179243188221
 21
1520.214885549903
 31
0.0
  0
LINE
  5
150
330
6F
100
AcDbEntity
  8
3-0
  6
DASHED2
 62
     7
100
AcDbLine
 10
2850.105061188221
 20
1510.882140549904
 30
0.0
 11
2843.612840188221
 21
1512.000030549904
 31
0.0
  0
ARC
  5
151
330
6F
100
AcDbEntity
  8
3-0
  6
DASHED2
 62
     7
100
AcDbCircle
 10
2851.801980188221
 20
1520.737111549904
 30
0.0
 40
10.0
100
AcDbArc
 50
260.23
 51
310.455
  0
ARC
  5
152
330
6F
100
AcDbEntity
  8
3-0
  6
DASHED2
 62
     7
100
AcDbCircle
 10
2856.179243188221
 20
1518.214885549904
 30
0.0
 40
2.0
100
AcDbArc
 50
70.295
 51
90.0
  0
LINE
  5
153
330
6F
100
AcDbEntity
  8
3-0
  6
DASHED2
 62
     7
100
AcDbLine
 10
2860.370770188221
 20
1518.838092549904
 30
0.0
 11
2856.853597188221
 21
1520.097767549904
 31
0.0
  0
LINE
  5
154
330
6F
100
AcDbEntity
  8
3-0
  6
DASHED2
 62
     7
100
AcDbLine
 10
2860.994110188221
 20
1515.433371549903
 30
0.0
 11
2858.290448188221
 21
1513.127920549904
 31
0.0
  0
ARC
  5
155
330
6F
100
AcDbEntity
  8
3-0
  6
DASHED2
 62
     7
100
AcDbCircle
 10
2859.696416188221
 20
1516.955210549904
 30
0.0
 40
2.0
100
AcDbArc
 50
310.455
 51
70.295
  0
LINE
  5
156
330
6F
100
AcDbEntity
  8
3-0
  6
DASHED2
 62
     7
100
AcDbLine
 10
3004.306108188221
 20
1541.960885549904
 30
0.0
 11
2990.130688188221
 21
1541.960885549904
 31
0.0
  0
LINE
  5
157
330
6F
100
AcDbEntity
  8
3-0
  6
DASHED2
 62
     7
100
AcDbLine
 10
2990.130688188221
 20
1546.960885549904
 30
0.0
 11
2990.130688188221
 21
1541.960885549904
 31
0.0
  0
LINE
  5
158
330
6F
100
AcDbEntity
  8
3-0
  6
DASHED2
 62
     7
100
AcDbLine
 10
3004.306108188221
 20
1546.960885549904
 30
0.0
 11
3004.306108188221
 21
1541.960885549904
 31
0.0
  0
LINE
  5
159
330
6F
100
AcDbEntity
  8
3-0
  6
DASHED2
 62
     7
100
AcDbLine
 10
3007.450608188221
 20
1555.194887549904
 30
0.0
 11
3007.450608188221
 21
1546.960885549904
 31
0.0
  0
ARC
  5
15A
330
6F
100
AcDbEntity
  8
3-0
  6
DASHED2
 62
     7
100
AcDbCircle
 10
3002.450608188221
 20
1555.194887549904
 30
0.0
 40
5.0
100
AcDbArc
 50
0.0
 51
90.0
  0
LINE
  5
15B
330
6F
100
AcDbEntity
  8
3-0
  6
DASHED2
 62
     7
100
AcDbLine
 10
3007.450608188221
 20
1546.960885549904
 30
0.0
 11
2983.493909188221
 21
1546.960885549904
 31
0.0
  0
ARC
  5
15C
330
6F
100
AcDbEntity
  8
3-0
  6
DASHED2
 62
     7
100
AcDbCircle
 10
2983.493909188221
 20
1531.960885549904
 30
0.0
 40
15.0
100
AcDbArc
 50
90.0
 51
116.6009999999999
  0
LINE
  5
15D
330
6F
100
AcDbEntity
  8
3-0
  6
DASHED2
 62
     7
100
AcDbLine
 10
3002.450608188221
 20
1560.194887549904
 30
0.0
 11
2987.587638188221
 21
1560.194887549904
 31
0.0
  0
ARC
  5
15E
330
6F
100
AcDbEntity
  8
3-0
  6
DASHED2
 62
     7
100
AcDbCircle
 10
2987.587638188221
 20
1545.194887549904
 30
0.0
 40
15.0
100
AcDbArc
 50
90.0
 51
116.6009999999999
  0
ARC
  5
15F
330
6F
100
AcDbEntity
  8
3-0
  6
DASHED2
 62
     7
100
AcDbCircle
 10
2788.845936188221
 20
1402.366601549904
 30
0.0
 40
117.858548
100
AcDbArc
 50
90.75599999999999
 51
131.058
  0
ARC
  5
160
330
6F
100
AcDbEntity
  8
3-0
  6
DASHED2
 62
     7
100
AcDbCircle
 10
2714.718398188221
 20
1487.467483549903
 30
0.0
 40
5.0
100
AcDbArc
 50
131.058
 51
180.0
  0
ARC
  5
161
330
6F
100
AcDbEntity
  8
3-0
  6
DASHED2
 62
     7
100
AcDbCircle
 10
2791.966703188221
 20
1480.664842549904
 30
0.0
 40
27.649233
100
AcDbArc
 50
123.943
 51
170.231
  0
LINE
  5
162
330
6F
100
AcDbEntity
  8
3-0
  6
Continuous
 62
     7
100
AcDbLine
 10
2677.218398
 20
1469.960886
 30
0.0
 11
2677.218398
 21
1384.960886
 31
0.0
  0
LINE
  5
163
330
6F
100
AcDbEntity
  8
3-0
  6
Continuous
 62
     7
100
AcDbLine
 10
2652.218398
 20
1474.960886
 30
0.0
 11
2652.218398
 21
1359.960886
 31
0.0
  0
LINE
  5
164
330
6F
100
AcDbEntity
  8
3-0
  6
DASHED2
 62
     7
100
AcDbLine
 10
2652.218398
 20
1334.960886
 30
0.0
 11
2667.218398
 21
1359.960886
 31
0.0
  0
LINE
  5
165
330
6F
100
AcDbEntity
  8
3-0
  6
DASHED2
 62
     7
100
AcDbLine
 10
2652.218398
 20
1334.960886
 30
0.0
 11
2667.218398
 21
1334.960886
 31
0.0
  0
ARC
  5
166
330
6F
100
AcDbEntity
  8
3-0
  6
Continuous
 62
     7
100
AcDbCircle
 10
2672.218398
 20
1469.960886
 30
0.0
 40
5.0
100
AcDbArc
 50
0.0
 51
90.0
  0
LINE
  5
167
330
6F
100
AcDbEntity
  8
3-0
  6
Continuous
 62
     7
100
AcDbLine
 10
2652.218398
 20
1474.960886
 30
0.0
 11
2672.218398
 21
1474.960886
 31
0.0
  0
ARC
  5
168
330
6F
100
AcDbEntity
  8
3-0
  6
Continuous
 62
     7
100
AcDbCircle
 10
3200.218398
 20
1361.960886
 30
0.0
 40
2.0
100
AcDbArc
 50
270.0
 51
0.0
  0
ARC
  5
169
330
6F
100
AcDbEntity
  8
3-0
  6
Continuous
 62
     7
100
AcDbCircle
 10
3200.218398
 20
1382.960886
 30
0.0
 40
2.0
100
AcDbArc
 50
0.0
 51
90.0
  0
LINE
  5
16A
330
6F
100
AcDbEntity
  8
3-0
  6
Continuous
 62
     7
100
AcDbLine
 10
3180.218398
 20
1359.960886
 30
0.0
 11
3195.218398
 21
1359.960886
 31
0.0
  0
LINE
  5
16B
330
6F
100
AcDbEntity
  8
3-0
  6
Continuous
 62
     7
100
AcDbLine
 10
3202.218398
 20
1382.960886
 30
0.0
 11
3202.218398
 21
1361.960886
 31
0.0
  0
LINE
  5
16C
330
6F
100
AcDbEntity
  8
3-0
  6
DASHED2
 62
     7
100
AcDbLine
 10
3047.218398
 20
1231.960886
 30
0.0
 11
2867.218398
 21
1231.960886
 31
0.0
  0
LINE
  5
16D
330
6F
100
AcDbEntity
  8
3-0
  6
DASHED2
 62
     7
100
AcDbLine
 10
2869.466055
 20
1217.960886
 30
0.0
 11
2879.218398
 21
1217.960886
 31
0.0
  0
LINE
  5
16E
330
6F
100
AcDbEntity
  8
3-0
  6
DASHED2
 62
     7
100
AcDbLine
 10
2869.466055
 20
1231.960886
 30
0.0
 11
2869.466055
 21
1217.960886
 31
0.0
  0
LINE
  5
16F
330
6F
100
AcDbEntity
  8
3-0
  6
DASHED2
 62
     7
100
AcDbLine
 10
2867.218398
 20
1236.960886
 30
0.0
 11
2867.218398
 21
1231.960886
 31
0.0
  0
LINE
  5
170
330
6F
100
AcDbEntity
  8
3-0
  6
DASHED2
 62
     7
100
AcDbLine
 10
3020.644741487995
 20
1142.960885953764
 30
0.0
 11
3020.644741487995
 21
1089.860885953765
 31
0.0
  0
ARC
  5
171
330
6F
100
AcDbEntity
  8
3-0
  6
DASHED2
 62
     7
100
AcDbCircle
 10
3010.644741
 20
1089.860886
 30
0.0
 40
10.0
100
AcDbArc
 50
270.0
 51
359.9999999997079
  0
LINE
  5
172
330
6F
100
AcDbEntity
  8
3-0
  6
DASHED2
 62
     7
100
AcDbLine
 10
3010.644741487995
 20
1079.860885953765
 30
0.0
 11
2903.792054888447
 21
1079.860885953765
 31
0.0
  0
ARC
  5
173
330
6F
100
AcDbEntity
  8
3-0
  6
DASHED2
 62
     7
100
AcDbCircle
 10
2903.792055
 20
1089.860886
 30
0.0
 40
10.0
100
AcDbArc
 50
180.000000000292
 51
270.0
  0
LINE
  5
174
330
6F
100
AcDbEntity
  8
3-0
  6
DASHED2
 62
     7
100
AcDbLine
 10
2893.792054888447
 20
1089.860885953765
 30
0.0
 11
2893.792054888447
 21
1142.960885953764
 31
0.0
  0
LINE
  5
175
330
6F
100
AcDbEntity
  8
3-0
  6
DASHED2
 62
     7
100
AcDbLine
 10
2927.218398188223
 20
1079.860885953765
 30
0.0
 11
2927.218398188221
 21
1048.960885549905
 31
0.0
  0
LINE
  5
176
330
6F
100
AcDbEntity
  8
3-0
  6
DASHED2
 62
     7
100
AcDbLine
 10
2927.218398188221
 20
1048.960885549905
 30
0.0
 11
2987.218398188223
 21
1048.960885549905
 31
0.0
  0
LINE
  5
177
330
6F
100
AcDbEntity
  8
3-0
  6
DASHED2
 62
     7
100
AcDbLine
 10
2987.218398188223
 20
1048.960885549905
 30
0.0
 11
2987.218398188223
 21
1079.860885953765
 31
0.0
  0
LINE
  5
178
330
6F
100
AcDbEntity
  8
3-0
  6
DASHED2
 62
     7
100
AcDbLine
 10
3035.218398
 20
1214.759362
 30
0.0
 11
3026.129599
 21
1209.759362
 31
0.0
  0
LINE
  5
179
330
6F
100
AcDbEntity
  8
3-0
  6
DASHED2
 62
     7
100
AcDbLine
 10
2879.218398
 20
1214.759362
 30
0.0
 11
2888.307197000001
 21
1209.759362
 31
0.0
  0
LINE
  5
17A
330
6F
100
AcDbEntity
  8
3-0
  6
DASHED2
 62
     7
100
AcDbLine
 10
3026.129599
 20
1209.759362
 30
0.0
 11
3026.129599
 21
1145.175652
 31
0.0
  0
LINE
  5
17B
330
6F
100
AcDbEntity
  8
3-0
  6
DASHED2
 62
     7
100
AcDbLine
 10
2888.307197000001
 20
1209.759362
 30
0.0
 11
2888.307197000001
 21
1145.175652
 31
0.0
  0
LINE
  5
17C
330
6F
100
AcDbEntity
  8
3-0
  6
DASHED2
 62
     7
100
AcDbLine
 10
3026.129599331453
 20
1142.960885953764
 30
0.0
 11
2888.307197044991
 21
1142.960885953764
 31
0.0
  0
LINE
  5
17D
330
6F
100
AcDbEntity
  8
3-0
  6
DASHED2
 62
     7
100
AcDbLine
 10
3026.129599
 20
1209.759362
 30
0.0
 11
2888.307197000001
 21
1209.759362
 31
0.0
  0
LINE
  5
17E
330
6F
100
AcDbEntity
  8
3-0
  6
DASHED2
 62
     7
100
AcDbLine
 10
3044.970742
 20
1217.960886
 30
0.0
 11
3035.218398
 21
1217.960886
 31
0.0
  0
CIRCLE
  5
17F
330
6F
100
AcDbEntity
  8
6-0
  6
Continuous
 62
     7
100
AcDbCircle
 10
2959.718398
 20
1236.960886
 30
0.0
 40
0.25
  0
CIRCLE
  5
180
330
6F
100
AcDbEntity
  8
6-0
  6
Continuous
 62
     7
100
AcDbCircle
 10
2959.718398
 20
1236.960886
 30
0.0
 40
0.1875
  0
CIRCLE
  5
181
330
6F
100
AcDbEntity
  8
6-0
  6
Continuous
 62
     7
100
AcDbCircle
 10
2959.718398
 20
1236.960886
 30
0.0
 40
0.125
  0
CIRCLE
  5
182
330
6F
100
AcDbEntity
  8
6-0
  6
Continuous
 62
     7
100
AcDbCircle
 10
2959.718398
 20
1236.960886
 30
0.0
 40
0.0625
  0
LINE
  5
183
330
6F
100
AcDbEntity
  8
3-0
  6
DASHED2
 62
     7
100
AcDbLine
 10
3035.218398
 20
1231.960886
 30
0.0
 11
3035.218398
 21
1214.759362
 31
0.0
  0
LINE
  5
184
330
6F
100
AcDbEntity
  8
3-0
  6
DASHED2
 62
     7
100
AcDbLine
 10
2879.218398
 20
1231.960886
 30
0.0
 11
2879.218398
 21
1214.759362
 31
0.0
  0
LINE
  5
185
330
6F
100
AcDbEntity
  8
3-0
  6
DASHED2
 62
     7
100
AcDbLine
 10
3035.218398
 20
1214.759362
 30
0.0
 11
2879.218398
 21
1214.759362
 31
0.0
  0
LINE
  5
186
330
6F
100
AcDbEntity
  8
3-0
  6
DASHED2
 62
     7
100
AcDbLine
 10
3047.218398
 20
1236.960886
 30
0.0
 11
3047.218398
 21
1231.960886
 31
0.0
  0
LINE
  5
187
330
6F
100
AcDbEntity
  8
3-0
  6
DASHED2
 62
     7
100
AcDbLine
 10
3044.970742
 20
1231.960886
 30
0.0
 11
3044.970742
 21
1217.960886
 31
0.0
  0
TEXT
  5
188
330
6F
100
AcDbEntity
  8
D-0
 62
     5
100
AcDbText
 10
2414.885
 20
1177.412
 30
0.0
 40
25.92
  1
水栓接続
100
AcDbText
  0
TEXT
  5
189
330
6F
100
AcDbEntity
  8
D-0
 62
     5
100
AcDbText
 10
2416.671
 20
1126.869
 30
0.0
 40
25.92
  1
参考位置
100
AcDbText
  0
TEXT
  5
18A
330
6F
100
AcDbEntity
  8
D-0
 62
     5
100
AcDbText
 10
2215.047
 20
494.076
 30
0.0
 40
25.92
  1
排水穴 φ110 （工場加工）
100
AcDbText
  0
TEXT
  5
18B
330
6F
100
AcDbEntity
  8
D-0
 62
     5
100
AcDbText
 10
2217.29
 20
449.2539999999999
 30
0.0
 40
25.92
  1
  （回転板付き）
100
AcDbText
  0
LINE
  5
18C
330
6F
100
AcDbEntity
  8
3-0
  6
Continuous
 62
     7
100
AcDbLine
 10
3178.618398
 20
674.9608859999999
 30
0.0
 11
3194.218398
 21
674.9608859999999
 31
0.0
  0
LINE
  5
18D
330
6F
100
AcDbEntity
  8
A-0
  6
Continuous
 62
     4
100
AcDbLine
 10
2652.218398
 20
554.9608859999999
 30
0.0
 11
2652.218398
 21
334.960886
 31
0.0
  0
LINE
  5
18E
330
6F
100
AcDbEntity
  8
A-0
  6
Continuous
 62
     4
100
AcDbLine
 10
3194.218398
 20
654.9608859999999
 30
0.0
 11
3194.218398
 21
334.960886
 31
0.0
  0
TEXT
  5
18F
330
6F
100
AcDbEntity
  8
A-0
 62
     4
100
AcDbText
 10
2892.441
 20
335.5809999999999
 30
0.0
 40
36.288
  1
542
100
AcDbText
  0
LINE
  5
190
330
6F
100
AcDbEntity
  8
A-0
  6
Continuous
 62
     4
100
AcDbLine
 10
3194.218398188221
 20
334.960885549904
 30
0.0
 11
2652.218398188221
 21
334.960885549904
 31
0.0
  0
CIRCLE
  5
191
330
6F
100
AcDbEntity
  8
A-0
  6
Continuous
 62
     4
100
AcDbCircle
 10
3194.218398188221
 20
334.960885549904
 30
0.0
 40
0.25
  0
CIRCLE
  5
192
330
6F
100
AcDbEntity
  8
A-0
  6
Continuous
 62
     4
100
AcDbCircle
 10
3194.218398188221
 20
334.960885549904
 30
0.0
 40
0.1875
  0
CIRCLE
  5
193
330
6F
100
AcDbEntity
  8
A-0
  6
Continuous
 62
     4
100
AcDbCircle
 10
3194.218398188221
 20
334.960885549904
 30
0.0
 40
0.125
  0
CIRCLE
  5
194
330
6F
100
AcDbEntity
  8
A-0
  6
Continuous
 62
     4
100
AcDbCircle
 10
3194.218398188221
 20
334.960885549904
 30
0.0
 40
0.0625
  0
CIRCLE
  5
195
330
6F
100
AcDbEntity
  8
A-0
  6
Continuous
 62
     4
100
AcDbCircle
 10
2652.218398188221
 20
334.960885549904
 30
0.0
 40
0.25
  0
CIRCLE
  5
196
330
6F
100
AcDbEntity
  8
A-0
  6
Continuous
 62
     4
100
AcDbCircle
 10
2652.218398188221
 20
334.960885549904
 30
0.0
 40
0.1875
  0
CIRCLE
  5
197
330
6F
100
AcDbEntity
  8
A-0
  6
Continuous
 62
     4
100
AcDbCircle
 10
2652.218398188221
 20
334.960885549904
 30
0.0
 40
0.125
  0
CIRCLE
  5
198
330
6F
100
AcDbEntity
  8
A-0
  6
Continuous
 62
     4
100
AcDbCircle
 10
2652.218398188221
 20
334.960885549904
 30
0.0
 40
0.0625
  0
LINE
  5
199
330
6F
100
AcDbEntity
  8
3-0
  6
Continuous
 62
     7
100
AcDbLine
 10
3194.218398
 20
674.9608859999999
 30
0.0
 11
3194.218398
 21
1326.960886
 31
0.0
  0
LINE
  5
19A
330
6F
100
AcDbEntity
  8
3-0
  6
Continuous
 62
     7
100
AcDbLine
 10
3194.218398
 20
1297.175983
 30
0.0
 11
3194.218398
 21
1307.175983
 31
0.0
  0
LINE
  5
19B
330
6F
100
AcDbEntity
  8
3-0
  6
Continuous
 62
     7
100
AcDbLine
 10
3194.218398
 20
1326.960886
 30
0.0
 11
3179.218398
 21
1326.960886
 31
0.0
  0
LINE
  5
19C
330
6F
100
AcDbEntity
  8
3-0
  6
Continuous
 62
     7
100
AcDbLine
 10
3178.618398
 20
1326.960886
 30
0.0
 11
3194.218398
 21
1326.960886
 31
0.0
  0
LINE
  5
19D
330
6F
100
AcDbEntity
  8
1-0
  6
Continuous
 62
     7
100
AcDbLine
 10
3178.618398
 20
1326.960886
 30
0.0
 11
3178.618398
 21
1311.960886
 31
0.0
  0
LINE
  5
19E
330
6F
100
AcDbEntity
  8
1-0
  6
Continuous
 62
     7
100
AcDbLine
 10
3194.218398
 20
1326.960886
 30
0.0
 11
3194.218398
 21
1320.760886
 31
0.0
  0
LINE
  5
19F
330
6F
100
AcDbEntity
  8
1-0
  6
Continuous
 62
     7
100
AcDbLine
 10
3178.618398
 20
1326.960886
 30
0.0
 11
3178.618398
 21
674.9608859999999
 31
0.0
  0
LINE
  5
1A0
330
6F
100
AcDbEntity
  8
B-0
  6
CENTER
 62
     6
100
AcDbLine
 10
2523.392775
 20
984.960886
 30
0.0
 11
2737.218398
 21
984.960886
 31
0.0
  0
TEXT
  5
1A1
330
6F
100
AcDbEntity
  8
D-0
 62
     5
100
AcDbText
 10
3219.428
 20
2334.923
 30
0.0
 40
25.92
  1
(SW)は鏡面仕上げ
100
AcDbText
  0
TEXT
  5
1A2
330
6F
100
AcDbEntity
  8
D-0
 62
     5
100
AcDbText
 10
3220.204000000001
 20
1980.501
 30
0.0
 40
25.92
  1
ポリプロピレン製　4本収納
100
AcDbText
  0
LINE
  5
1A3
330
6F
100
AcDbEntity
  8
3-0
  6
DASHED2
 62
     7
100
AcDbLine
 10
3140.422866
 20
1039.960886
 30
0.0
 11
3176.618398
 21
1039.960886
 31
0.0
  0
ARC
  5
1A4
330
6F
100
AcDbEntity
  8
3-0
  6
DASHED2
 62
     7
100
AcDbCircle
 10
3140.422866
 20
1038.960886
 30
0.0
 40
1.0
100
AcDbArc
 50
90.0
 51
180.0
  0
LINE
  5
1A5
330
6F
100
AcDbEntity
  8
3-0
  6
DASHED2
 62
     7
100
AcDbLine
 10
3139.422866
 20
1020.960886
 30
0.0
 11
3139.422866
 21
1038.960886
 31
0.0
  0
LINE
  5
1A6
330
6F
100
AcDbEntity
  8
3-0
  6
DASHED2
 62
     7
100
AcDbLine
 10
3139.47896
 20
1019.960886
 30
0.0
 11
3139.422866
 21
1019.960886
 31
0.0
  0
LINE
  5
1A7
330
6F
100
AcDbEntity
  8
3-0
  6
DASHED2
 62
     7
100
AcDbLine
 10
3139.47896
 20
1020.630674
 30
0.0
 11
3139.47896
 21
817.960886
 31
0.0
  0
LINE
  5
1A8
330
6F
100
AcDbEntity
  8
3-0
  6
DASHED2
 62
     7
100
AcDbLine
 10
3147.422866
 20
809.960886
 30
0.0
 11
3178.618398
 21
809.960886
 31
0.0
  0
ARC
  5
1A9
330
6F
100
AcDbEntity
  8
3-0
  6
DASHED2
 62
     7
100
AcDbCircle
 10
3147.422866
 20
817.960886
 30
0.0
 40
8.0
100
AcDbArc
 50
231.318
 51
270.0
  0
ARC
  5
1AA
330
6F
100
AcDbEntity
  8
3-0
  6
DASHED2
 62
     7
100
AcDbCircle
 10
3147.47896
 20
817.960886
 30
0.0
 40
8.0
100
AcDbArc
 50
180.0
 51
230.801
  0
LINE
  5
1AB
330
6F
100
AcDbEntity
  8
3-0
  6
DASHED2
 62
     7
100
AcDbLine
 10
3157.365658
 20
1013.960886
 30
0.0
 11
3178.618398
 21
1013.960886
 31
0.0
  0
LINE
  5
1AC
330
6F
100
AcDbEntity
  8
3-0
  6
DASHED2
 62
     7
100
AcDbLine
 10
3157.365658
 20
995.9608859999999
 30
0.0
 11
3178.618398
 21
995.9608859999999
 31
0.0
  0
LINE
  5
1AD
330
6F
100
AcDbEntity
  8
3-0
  6
DASHED2
 62
     7
100
AcDbLine
 10
3157.365658
 20
853.9608859999999
 30
0.0
 11
3178.618398
 21
853.9608859999999
 31
0.0
  0
LINE
  5
1AE
330
6F
100
AcDbEntity
  8
3-0
  6
DASHED2
 62
     7
100
AcDbLine
 10
3157.365658
 20
835.9608859999999
 30
0.0
 11
3178.618398
 21
835.9608859999999
 31
0.0
  0
LINE
  5
1AF
330
6F
100
AcDbEntity
  8
3-0
  6
DASHED2
 62
     7
100
AcDbLine
 10
1503.379816014854
 20
1479.092509549904
 30
0.0
 11
1503.379816014854
 21
1485.356319549904
 31
0.0
  0
LINE
  5
1B0
330
6F
100
AcDbEntity
  8
3-0
  6
DASHED2
 62
     7
100
AcDbLine
 10
1448.379816014854
 20
1487.467483549903
 30
0.0
 11
1448.379816014854
 21
1479.092509549904
 31
0.0
  0
LINE
  5
1B1
330
6F
100
AcDbEntity
  8
3-0
  6
DASHED2
 62
     7
100
AcDbLine
 10
1503.379816014854
 20
1450.359295549904
 30
0.0
 11
1719.532341014854
 21
1558.607036549904
 31
0.0
  0
LINE
  5
1B2
330
6F
100
AcDbEntity
  8
3-0
  6
DASHED2
 62
     7
100
AcDbLine
 10
1503.379816014854
 20
1439.175405549904
 30
0.0
 11
1715.438612014854
 21
1545.373034549904
 31
0.0
  0
LINE
  5
1B3
330
6F
100
AcDbEntity
  8
3-0
  6
DASHED2
 62
     7
100
AcDbLine
 10
1503.379816014854
 20
1474.960885549904
 30
0.0
 11
1503.379816014854
 21
1384.960885549904
 31
0.0
  0
LINE
  5
1B4
330
6F
100
AcDbEntity
  8
3-0
  6
DASHED2
 62
     7
100
AcDbLine
 10
1448.379816014854
 20
1454.960885549904
 30
0.0
 11
1503.379816014854
 21
1454.960885549904
 31
0.0
  0
LINE
  5
1B5
330
6F
100
AcDbEntity
  8
3-0
  6
DASHED2
 62
     7
100
AcDbLine
 10
1448.379816014854
 20
1474.960885549904
 30
0.0
 11
1503.379816014854
 21
1474.960885549904
 31
0.0
  0
LINE
  5
1B6
330
6F
100
AcDbEntity
  8
3-0
  6
DASHED2
 62
     7
100
AcDbLine
 10
1448.379816014854
 20
1474.960885549904
 30
0.0
 11
1448.379816014854
 21
1384.960885549904
 31
0.0
  0
LINE
  5
1B7
330
6F
100
AcDbEntity
  8
3-0
  6
DASHED2
 62
     7
100
AcDbLine
 10
1448.379816014854
 20
1479.092509549904
 30
0.0
 11
1503.379816014854
 21
1479.092509549904
 31
0.0
  0
LINE
  5
1B8
330
6F
100
AcDbEntity
  8
3-0
  6
DASHED2
 62
     7
100
AcDbLine
 10
1448.379816014854
 20
1384.960885549904
 30
0.0
 11
1503.379816014854
 21
1384.960885549904
 31
0.0
  0
ARC
  5
1B9
330
6F
100
AcDbEntity
  8
3-0
  6
DASHED2
 62
     7
100
AcDbCircle
 10
1562.432365014854
 20
1398.354665549904
 30
0.0
 40
115.364508
100
AcDbArc
 50
80.09600000000004
 51
114.174
  0
LINE
  5
1BA
330
6F
100
AcDbEntity
  8
3-0
  6
DASHED2
 62
     7
100
AcDbLine
 10
1525.951908014854
 20
1520.214885549903
 30
0.0
 11
1594.840661014854
 21
1520.214885549903
 31
0.0
  0
LINE
  5
1BB
330
6F
100
AcDbEntity
  8
3-0
  6
DASHED2
 62
     7
100
AcDbLine
 10
1588.766479014854
 20
1510.882140549904
 30
0.0
 11
1582.274258014854
 21
1512.000030549904
 31
0.0
  0
ARC
  5
1BC
330
6F
100
AcDbEntity
  8
3-0
  6
DASHED2
 62
     7
100
AcDbCircle
 10
1590.463398014854
 20
1520.737111549904
 30
0.0
 40
10.0
100
AcDbArc
 50
260.23
 51
310.455
  0
ARC
  5
1BD
330
6F
100
AcDbEntity
  8
3-0
  6
DASHED2
 62
     7
100
AcDbCircle
 10
1594.840661014854
 20
1518.214885549904
 30
0.0
 40
2.0
100
AcDbArc
 50
70.295
 51
90.0
  0
LINE
  5
1BE
330
6F
100
AcDbEntity
  8
3-0
  6
DASHED2
 62
     7
100
AcDbLine
 10
1599.032188014854
 20
1518.838092549904
 30
0.0
 11
1595.515015014854
 21
1520.097767549904
 31
0.0
  0
LINE
  5
1BF
330
6F
100
AcDbEntity
  8
3-0
  6
DASHED2
 62
     7
100
AcDbLine
 10
1599.655528014854
 20
1515.433371549903
 30
0.0
 11
1596.951866014854
 21
1513.127920549904
 31
0.0
  0
ARC
  5
1C0
330
6F
100
AcDbEntity
  8
3-0
  6
DASHED2
 62
     7
100
AcDbCircle
 10
1598.357834014854
 20
1516.955210549904
 30
0.0
 40
2.0
100
AcDbArc
 50
310.455
 51
70.295
  0
LINE
  5
1C1
330
6F
100
AcDbEntity
  8
3-0
  6
DASHED2
 62
     7
100
AcDbLine
 10
1742.967526014854
 20
1541.960885549904
 30
0.0
 11
1728.792106014854
 21
1541.960885549904
 31
0.0
  0
LINE
  5
1C2
330
6F
100
AcDbEntity
  8
3-0
  6
DASHED2
 62
     7
100
AcDbLine
 10
1728.792106014854
 20
1546.960885549904
 30
0.0
 11
1728.792106014854
 21
1541.960885549904
 31
0.0
  0
LINE
  5
1C3
330
6F
100
AcDbEntity
  8
3-0
  6
DASHED2
 62
     7
100
AcDbLine
 10
1742.967526014854
 20
1546.960885549904
 30
0.0
 11
1742.967526014854
 21
1541.960885549904
 31
0.0
  0
LINE
  5
1C4
330
6F
100
AcDbEntity
  8
3-0
  6
DASHED2
 62
     7
100
AcDbLine
 10
1746.112026014854
 20
1555.194887549904
 30
0.0
 11
1746.112026014854
 21
1546.960885549904
 31
0.0
  0
ARC
  5
1C5
330
6F
100
AcDbEntity
  8
3-0
  6
DASHED2
 62
     7
100
AcDbCircle
 10
1741.112026014854
 20
1555.194887549904
 30
0.0
 40
5.0
100
AcDbArc
 50
0.0
 51
90.0
  0
LINE
  5
1C6
330
6F
100
AcDbEntity
  8
3-0
  6
DASHED2
 62
     7
100
AcDbLine
 10
1746.112026014854
 20
1546.960885549904
 30
0.0
 11
1722.155327014854
 21
1546.960885549904
 31
0.0
  0
ARC
  5
1C7
330
6F
100
AcDbEntity
  8
3-0
  6
DASHED2
 62
     7
100
AcDbCircle
 10
1722.155327014854
 20
1531.960885549904
 30
0.0
 40
15.0
100
AcDbArc
 50
90.0
 51
116.6009999999999
  0
LINE
  5
1C8
330
6F
100
AcDbEntity
  8
3-0
  6
DASHED2
 62
     7
100
AcDbLine
 10
1741.112026014854
 20
1560.194887549904
 30
0.0
 11
1726.249056014854
 21
1560.194887549904
 31
0.0
  0
ARC
  5
1C9
330
6F
100
AcDbEntity
  8
3-0
  6
DASHED2
 62
     7
100
AcDbCircle
 10
1726.249056014854
 20
1545.194887549904
 30
0.0
 40
15.0
100
AcDbArc
 50
90.0
 51
116.6009999999999
  0
ARC
  5
1CA
330
6F
100
AcDbEntity
  8
3-0
  6
DASHED2
 62
     7
100
AcDbCircle
 10
1527.507354014854
 20
1402.366601549904
 30
0.0
 40
117.858548
100
AcDbArc
 50
90.75599999999999
 51
131.058
  0
ARC
  5
1CB
330
6F
100
AcDbEntity
  8
3-0
  6
DASHED2
 62
     7
100
AcDbCircle
 10
1453.379816014854
 20
1487.467483549903
 30
0.0
 40
5.0
100
AcDbArc
 50
131.058
 51
180.0
  0
ARC
  5
1CC
330
6F
100
AcDbEntity
  8
3-0
  6
DASHED2
 62
     7
100
AcDbCircle
 10
1530.628121014854
 20
1480.664842549904
 30
0.0
 40
27.649233
100
AcDbArc
 50
123.943
 51
170.231
  0
LINE
  5
1CD
330
6F
100
AcDbEntity
  8
B-0
  6
CENTER
 62
     6
100
AcDbLine
 10
1475.879816
 20
1576.998274
 30
0.0
 11
1475.879816
 21
980.204059
 31
0.0
  0
LINE
  5
1CE
330
6F
100
AcDbEntity
  8
A-0
  6
Continuous
 62
     4
100
AcDbLine
 10
1810.879816
 20
1359.960886
 30
0.0
 11
1940.879816
 21
1359.960886
 31
0.0
  0
LINE
  5
1CF
330
6F
100
AcDbEntity
  8
A-0
  6
Continuous
 62
     4
100
AcDbLine
 10
1810.879816
 20
1384.960886
 30
0.0
 11
1940.879816
 21
1384.960886
 31
0.0
  0
LINE
  5
1D0
330
6F
100
AcDbEntity
  8
A-0
  6
Continuous
 62
     4
100
AcDbLine
 10
1940.879816
 20
1349.960886
 30
0.0
 11
1940.879816
 21
1339.960886
 31
0.0
  0
LINE
  5
1D1
330
6F
100
AcDbEntity
  8
A-0
  6
Continuous
 62
     4
100
AcDbLine
 10
1940.879816
 20
1394.960886
 30
0.0
 11
1940.879816
 21
1404.960886
 31
0.0
  0
LINE
  5
1D2
330
6F
100
AcDbEntity
  8
A-0
  6
Continuous
 62
     4
100
AcDbLine
 10
1940.879816
 20
1372.460886
 30
0.0
 11
1873.965968
 21
1399.314154
 31
0.0
  0
LINE
  5
1D3
330
6F
100
AcDbEntity
  8
A-0
  6
Continuous
 62
     4
100
AcDbLine
 10
1873.965968
 20
1399.314154
 30
0.0
 11
1873.965968
 21
1459.999433
 31
0.0
  0
TEXT
  5
1D4
330
6F
100
AcDbEntity
  8
A-0
 62
     4
100
AcDbText
 10
1873.346
 20
1407.257
 30
0.0
 40
36.288
  1
25
 50
90.0
100
AcDbText
  0
LINE
  5
1D5
330
6F
100
AcDbEntity
  8
A-0
  6
Continuous
 62
     4
100
AcDbLine
 10
1940.879816
 20
1359.960886
 30
0.0
 11
1940.879816
 21
1384.960886
 31
0.0
  0
LINE
  5
1D6
330
6F
100
AcDbEntity
  8
A-0
  6
Continuous
 62
     4
100
AcDbLine
 10
1940.879816
 20
1359.960886
 30
0.0
 11
1940.879816
 21
1384.960886
 31
0.0
  0
CIRCLE
  5
1D7
330
6F
100
AcDbEntity
  8
A-0
  6
Continuous
 62
     4
100
AcDbCircle
 10
1940.879816014855
 20
1359.960885549904
 30
0.0
 40
0.25
  0
CIRCLE
  5
1D8
330
6F
100
AcDbEntity
  8
A-0
  6
Continuous
 62
     4
100
AcDbCircle
 10
1940.879816014855
 20
1359.960885549904
 30
0.0
 40
0.1875
  0
CIRCLE
  5
1D9
330
6F
100
AcDbEntity
  8
A-0
  6
Continuous
 62
     4
100
AcDbCircle
 10
1940.879816014855
 20
1359.960885549904
 30
0.0
 40
0.125
  0
CIRCLE
  5
1DA
330
6F
100
AcDbEntity
  8
A-0
  6
Continuous
 62
     4
100
AcDbCircle
 10
1940.879816014855
 20
1359.960885549904
 30
0.0
 40
0.0625
  0
ARC
  5
1DB
330
6F
100
AcDbEntity
  8
A-0
 62
     4
100
AcDbCircle
 10
1940.874816014855
 20
1359.960885549904
 30
0.0
 40
2.5
100
AcDbArc
 50
90.11459140653
 51
270.114591405945
  0
LINE
  5
1DC
330
6F
100
AcDbEntity
  8
A-0
 62
     4
100
AcDbLine
 10
1940.87981601488
 20
1354.960885549904
 30
0.0
 11
1940.879816014906
 21
1349.960885549904
 31
0.0
  0
CIRCLE
  5
1DD
330
6F
100
AcDbEntity
  8
A-0
  6
Continuous
 62
     4
100
AcDbCircle
 10
1940.879816014855
 20
1384.960885549904
 30
0.0
 40
0.25
  0
CIRCLE
  5
1DE
330
6F
100
AcDbEntity
  8
A-0
  6
Continuous
 62
     4
100
AcDbCircle
 10
1940.879816014855
 20
1384.960885549904
 30
0.0
 40
0.1875
  0
CIRCLE
  5
1DF
330
6F
100
AcDbEntity
  8
A-0
  6
Continuous
 62
     4
100
AcDbCircle
 10
1940.879816014855
 20
1384.960885549904
 30
0.0
 40
0.125
  0
CIRCLE
  5
1E0
330
6F
100
AcDbEntity
  8
A-0
  6
Continuous
 62
     4
100
AcDbCircle
 10
1940.879816014855
 20
1384.960885549904
 30
0.0
 40
0.0625
  0
ARC
  5
1E1
330
6F
100
AcDbEntity
  8
A-0
 62
     4
100
AcDbCircle
 10
1940.884816014855
 20
1384.960885549904
 30
0.0
 40
2.5
100
AcDbArc
 50
270.1145914065301
 51
90.11459140594496
  0
LINE
  5
1E2
330
6F
100
AcDbEntity
  8
A-0
 62
     4
100
AcDbLine
 10
1940.879816014778
 20
1389.960885549904
 30
0.0
 11
1940.879816014702
 21
1394.960885549904
 31
0.0
  0
LINE
  5
1E3
330
6F
100
AcDbEntity
  8
3-0
  6
Continuous
 62
     7
100
AcDbLine
 10
1793.379816
 20
1359.960886
 30
0.0
 11
1793.379816
 21
1474.960886
 31
0.0
  0
LINE
  5
1E4
330
6F
100
AcDbEntity
  8
3-0
  6
Continuous
 62
     7
100
AcDbLine
 10
793.379816
 20
1474.960886
 30
0.0
 11
793.379816
 21
1359.960886
 31
0.0
  0
LINE
  5
1E5
330
6F
100
AcDbEntity
  8
A-0
  6
Continuous
 62
     4
100
AcDbLine
 10
1910.879816
 20
1384.960886
 30
0.0
 11
2040.879816
 21
1384.960886
 31
0.0
  0
LINE
  5
1E6
330
6F
100
AcDbEntity
  8
A-0
  6
Continuous
 62
     4
100
AcDbLine
 10
1810.879816
 20
1474.960886
 30
0.0
 11
2040.879816
 21
1474.960886
 31
0.0
  0
TEXT
  5
1E7
330
6F
100
AcDbEntity
  8
A-0
 62
     4
100
AcDbText
 10
2040.26
 20
1407.561
 30
0.0
 40
36.288
  1
90
 50
90.0
100
AcDbText
  0
LINE
  5
1E8
330
6F
100
AcDbEntity
  8
A-0
  6
Continuous
 62
     4
100
AcDbLine
 10
2040.879816014856
 20
1474.960885549904
 30
0.0
 11
2040.879816014856
 21
1384.960885549904
 31
0.0
  0
CIRCLE
  5
1E9
330
6F
100
AcDbEntity
  8
A-0
  6
Continuous
 62
     4
100
AcDbCircle
 10
2040.879816014856
 20
1474.960885549904
 30
0.0
 40
0.25
  0
CIRCLE
  5
1EA
330
6F
100
AcDbEntity
  8
A-0
  6
Continuous
 62
     4
100
AcDbCircle
 10
2040.879816014856
 20
1474.960885549904
 30
0.0
 40
0.1875
  0
CIRCLE
  5
1EB
330
6F
100
AcDbEntity
  8
A-0
  6
Continuous
 62
     4
100
AcDbCircle
 10
2040.879816014856
 20
1474.960885549904
 30
0.0
 40
0.125
  0
CIRCLE
  5
1EC
330
6F
100
AcDbEntity
  8
A-0
  6
Continuous
 62
     4
100
AcDbCircle
 10
2040.879816014856
 20
1474.960885549904
 30
0.0
 40
0.0625
  0
CIRCLE
  5
1ED
330
6F
100
AcDbEntity
  8
A-0
  6
Continuous
 62
     4
100
AcDbCircle
 10
2040.879816014856
 20
1384.960885549904
 30
0.0
 40
0.25
  0
CIRCLE
  5
1EE
330
6F
100
AcDbEntity
  8
A-0
  6
Continuous
 62
     4
100
AcDbCircle
 10
2040.879816014856
 20
1384.960885549904
 30
0.0
 40
0.1875
  0
CIRCLE
  5
1EF
330
6F
100
AcDbEntity
  8
A-0
  6
Continuous
 62
     4
100
AcDbCircle
 10
2040.879816014856
 20
1384.960885549904
 30
0.0
 40
0.125
  0
CIRCLE
  5
1F0
330
6F
100
AcDbEntity
  8
A-0
  6
Continuous
 62
     4
100
AcDbCircle
 10
2040.879816014856
 20
1384.960885549904
 30
0.0
 40
0.0625
  0
LINE
  5
1F1
330
6F
100
AcDbEntity
  8
A-0
  6
Continuous
 62
     4
100
AcDbLine
 10
1785.879816
 20
564.9608859999999
 30
0.0
 11
1785.879816
 21
434.960886
 31
0.0
  0
LINE
  5
1F2
330
6F
100
AcDbEntity
  8
A-0
  6
Continuous
 62
     4
100
AcDbLine
 10
1790.879816
 20
564.9608859999999
 30
0.0
 11
1790.879816
 21
434.960886
 31
0.0
  0
LINE
  5
1F3
330
6F
100
AcDbEntity
  8
A-0
  6
Continuous
 62
     4
100
AcDbLine
 10
1775.879815999999
 20
434.960886
 30
0.0
 11
1765.879816
 21
434.960886
 31
0.0
  0
LINE
  5
1F4
330
6F
100
AcDbEntity
  8
A-0
  6
Continuous
 62
     4
100
AcDbLine
 10
1800.879816
 20
434.960886
 30
0.0
 11
1810.879816
 21
434.960886
 31
0.0
  0
LINE
  5
1F5
330
6F
100
AcDbEntity
  8
A-0
  6
Continuous
 62
     4
100
AcDbLine
 10
1788.379816
 20
434.960886
 30
0.0
 11
1762.132072
 21
374.960886
 31
0.0
  0
LINE
  5
1F6
330
6F
100
AcDbEntity
  8
A-0
  6
Continuous
 62
     4
100
AcDbLine
 10
1762.132072
 20
374.960886
 30
0.0
 11
1724.010244
 21
374.960886
 31
0.0
  0
TEXT
  5
1F7
330
6F
100
AcDbEntity
  8
A-0
 62
     4
100
AcDbText
 10
1734.694
 20
375.581
 30
0.0
 40
36.288
  1
5
100
AcDbText
  0
LINE
  5
1F8
330
6F
100
AcDbEntity
  8
A-0
  6
Continuous
 62
     4
100
AcDbLine
 10
1785.879816
 20
434.960886
 30
0.0
 11
1790.879816
 21
434.960886
 31
0.0
  0
LINE
  5
1F9
330
6F
100
AcDbEntity
  8
A-0
  6
Continuous
 62
     4
100
AcDbLine
 10
1785.879816
 20
434.960886
 30
0.0
 11
1790.879816
 21
434.960886
 31
0.0
  0
CIRCLE
  5
1FA
330
6F
100
AcDbEntity
  8
A-0
  6
Continuous
 62
     4
100
AcDbCircle
 10
1785.879816014854
 20
434.960885549903
 30
0.0
 40
0.25
  0
CIRCLE
  5
1FB
330
6F
100
AcDbEntity
  8
A-0
  6
Continuous
 62
     4
100
AcDbCircle
 10
1785.879816014854
 20
434.960885549903
 30
0.0
 40
0.1875
  0
CIRCLE
  5
1FC
330
6F
100
AcDbEntity
  8
A-0
  6
Continuous
 62
     4
100
AcDbCircle
 10
1785.879816014854
 20
434.960885549903
 30
0.0
 40
0.125
  0
CIRCLE
  5
1FD
330
6F
100
AcDbEntity
  8
A-0
  6
Continuous
 62
     4
100
AcDbCircle
 10
1785.879816014854
 20
434.960885549903
 30
0.0
 40
0.0625
  0
ARC
  5
1FE
330
6F
100
AcDbEntity
  8
A-0
 62
     4
100
AcDbCircle
 10
1785.879816014854
 20
434.965885549903
 30
0.0
 40
2.5
100
AcDbArc
 50
0.1145914065300158
 51
180.114591405945
  0
LINE
  5
1FF
330
6F
100
AcDbEntity
  8
A-0
 62
     4
100
AcDbLine
 10
1780.879816014854
 20
434.960885549903
 30
0.0
 11
1775.879816014854
 21
434.960885549903
 31
0.0
  0
CIRCLE
  5
200
330
6F
100
AcDbEntity
  8
A-0
  6
Continuous
 62
     4
100
AcDbCircle
 10
1790.879816014854
 20
434.960885549903
 30
0.0
 40
0.25
  0
CIRCLE
  5
201
330
6F
100
AcDbEntity
  8
A-0
  6
Continuous
 62
     4
100
AcDbCircle
 10
1790.879816014854
 20
434.960885549903
 30
0.0
 40
0.1875
  0
CIRCLE
  5
202
330
6F
100
AcDbEntity
  8
A-0
  6
Continuous
 62
     4
100
AcDbCircle
 10
1790.879816014854
 20
434.960885549903
 30
0.0
 40
0.125
  0
CIRCLE
  5
203
330
6F
100
AcDbEntity
  8
A-0
  6
Continuous
 62
     4
100
AcDbCircle
 10
1790.879816014854
 20
434.960885549903
 30
0.0
 40
0.0625
  0
ARC
  5
204
330
6F
100
AcDbEntity
  8
A-0
 62
     4
100
AcDbCircle
 10
1790.879816014854
 20
434.955885549903
 30
0.0
 40
2.5
100
AcDbArc
 50
180.1145914065301
 51
0.1145914059449637
  0
LINE
  5
205
330
6F
100
AcDbEntity
  8
A-0
 62
     4
100
AcDbLine
 10
1795.879816014854
 20
434.960885549955
 30
0.0
 11
1800.879816014854
 21
434.960885550006
 31
0.0
  0
LINE
  5
206
330
6F
100
AcDbEntity
  8
A-0
  6
Continuous
 62
     4
100
AcDbLine
 10
1785.879816
 20
564.9608859999999
 30
0.0
 11
1785.879816
 21
434.960886
 31
0.0
  0
LINE
  5
207
330
6F
100
AcDbEntity
  8
A-0
  6
Continuous
 62
     4
100
AcDbLine
 10
1493.879816
 20
564.9608859999999
 30
0.0
 11
1493.879816
 21
434.960886
 31
0.0
  0
TEXT
  5
208
330
6F
100
AcDbEntity
  8
A-0
 62
     4
100
AcDbText
 10
1609.102
 20
435.5809999999999
 30
0.0
 40
36.288
  1
292
100
AcDbText
  0
LINE
  5
209
330
6F
100
AcDbEntity
  8
A-0
  6
Continuous
 62
     4
100
AcDbLine
 10
1493.879816014854
 20
434.960885549903
 30
0.0
 11
1785.879816014854
 21
434.960885549903
 31
0.0
  0
CIRCLE
  5
20A
330
6F
100
AcDbEntity
  8
A-0
  6
Continuous
 62
     4
100
AcDbCircle
 10
1493.879816014854
 20
434.960885549903
 30
0.0
 40
0.25
  0
CIRCLE
  5
20B
330
6F
100
AcDbEntity
  8
A-0
  6
Continuous
 62
     4
100
AcDbCircle
 10
1493.879816014854
 20
434.960885549903
 30
0.0
 40
0.1875
  0
CIRCLE
  5
20C
330
6F
100
AcDbEntity
  8
A-0
  6
Continuous
 62
     4
100
AcDbCircle
 10
1493.879816014854
 20
434.960885549903
 30
0.0
 40
0.125
  0
CIRCLE
  5
20D
330
6F
100
AcDbEntity
  8
A-0
  6
Continuous
 62
     4
100
AcDbCircle
 10
1493.879816014854
 20
434.960885549903
 30
0.0
 40
0.0625
  0
CIRCLE
  5
20E
330
6F
100
AcDbEntity
  8
A-0
  6
Continuous
 62
     4
100
AcDbCircle
 10
1785.879816014854
 20
434.960885549903
 30
0.0
 40
0.25
  0
CIRCLE
  5
20F
330
6F
100
AcDbEntity
  8
A-0
  6
Continuous
 62
     4
100
AcDbCircle
 10
1785.879816014854
 20
434.960885549903
 30
0.0
 40
0.1875
  0
CIRCLE
  5
210
330
6F
100
AcDbEntity
  8
A-0
  6
Continuous
 62
     4
100
AcDbCircle
 10
1785.879816014854
 20
434.960885549903
 30
0.0
 40
0.125
  0
CIRCLE
  5
211
330
6F
100
AcDbEntity
  8
A-0
  6
Continuous
 62
     4
100
AcDbCircle
 10
1785.879816014854
 20
434.960885549903
 30
0.0
 40
0.0625
  0
LINE
  5
212
330
6F
100
AcDbEntity
  8
A-0
  6
Continuous
 62
     4
100
AcDbLine
 10
1492.879816
 20
564.9608859999999
 30
0.0
 11
1492.879816
 21
434.960886
 31
0.0
  0
LINE
  5
213
330
6F
100
AcDbEntity
  8
A-0
  6
Continuous
 62
     4
100
AcDbLine
 10
1493.879816
 20
564.9608859999999
 30
0.0
 11
1493.879816
 21
434.960886
 31
0.0
  0
LINE
  5
214
330
6F
100
AcDbEntity
  8
A-0
  6
Continuous
 62
     4
100
AcDbLine
 10
1482.879816
 20
434.960886
 30
0.0
 11
1472.879816
 21
434.960886
 31
0.0
  0
LINE
  5
215
330
6F
100
AcDbEntity
  8
A-0
  6
Continuous
 62
     4
100
AcDbLine
 10
1503.879816
 20
434.960886
 30
0.0
 11
1513.879816
 21
434.960886
 31
0.0
  0
LINE
  5
216
330
6F
100
AcDbEntity
  8
A-0
  6
Continuous
 62
     4
100
AcDbLine
 10
1493.379816
 20
434.960886
 30
0.0
 11
1468.132072
 21
374.960886
 31
0.0
  0
LINE
  5
217
330
6F
100
AcDbEntity
  8
A-0
  6
Continuous
 62
     4
100
AcDbLine
 10
1468.132072
 20
374.960886
 30
0.0
 11
1438.715828
 21
374.960886
 31
0.0
  0
TEXT
  5
218
330
6F
100
AcDbEntity
  8
A-0
 62
     4
100
AcDbText
 10
1445.046
 20
375.581
 30
0.0
 40
36.288
  1
1
100
AcDbText
  0
LINE
  5
219
330
6F
100
AcDbEntity
  8
A-0
  6
Continuous
 62
     4
100
AcDbLine
 10
1492.879816
 20
434.960886
 30
0.0
 11
1493.879816
 21
434.960886
 31
0.0
  0
LINE
  5
21A
330
6F
100
AcDbEntity
  8
A-0
  6
Continuous
 62
     4
100
AcDbLine
 10
1492.879816
 20
434.960886
 30
0.0
 11
1493.879816
 21
434.960886
 31
0.0
  0
CIRCLE
  5
21B
330
6F
100
AcDbEntity
  8
A-0
  6
Continuous
 62
     4
100
AcDbCircle
 10
1492.879816014854
 20
434.960885549903
 30
0.0
 40
0.25
  0
CIRCLE
  5
21C
330
6F
100
AcDbEntity
  8
A-0
  6
Continuous
 62
     4
100
AcDbCircle
 10
1492.879816014854
 20
434.960885549903
 30
0.0
 40
0.1875
  0
CIRCLE
  5
21D
330
6F
100
AcDbEntity
  8
A-0
  6
Continuous
 62
     4
100
AcDbCircle
 10
1492.879816014854
 20
434.960885549903
 30
0.0
 40
0.125
  0
CIRCLE
  5
21E
330
6F
100
AcDbEntity
  8
A-0
  6
Continuous
 62
     4
100
AcDbCircle
 10
1492.879816014854
 20
434.960885549903
 30
0.0
 40
0.0625
  0
ARC
  5
21F
330
6F
100
AcDbEntity
  8
A-0
 62
     4
100
AcDbCircle
 10
1492.879816014854
 20
434.965885549903
 30
0.0
 40
2.5
100
AcDbArc
 50
0.1145914065300158
 51
180.114591405945
  0
LINE
  5
220
330
6F
100
AcDbEntity
  8
A-0
 62
     4
100
AcDbLine
 10
1487.879816014854
 20
434.960885549903
 30
0.0
 11
1482.879816014854
 21
434.960885549903
 31
0.0
  0
CIRCLE
  5
221
330
6F
100
AcDbEntity
  8
A-0
  6
Continuous
 62
     4
100
AcDbCircle
 10
1493.879816014854
 20
434.960885549903
 30
0.0
 40
0.25
  0
CIRCLE
  5
222
330
6F
100
AcDbEntity
  8
A-0
  6
Continuous
 62
     4
100
AcDbCircle
 10
1493.879816014854
 20
434.960885549903
 30
0.0
 40
0.1875
  0
CIRCLE
  5
223
330
6F
100
AcDbEntity
  8
A-0
  6
Continuous
 62
     4
100
AcDbCircle
 10
1493.879816014854
 20
434.960885549903
 30
0.0
 40
0.125
  0
CIRCLE
  5
224
330
6F
100
AcDbEntity
  8
A-0
  6
Continuous
 62
     4
100
AcDbCircle
 10
1493.879816014854
 20
434.960885549903
 30
0.0
 40
0.0625
  0
ARC
  5
225
330
6F
100
AcDbEntity
  8
A-0
 62
     4
100
AcDbCircle
 10
1493.879816014854
 20
434.955885549903
 30
0.0
 40
2.5
100
AcDbArc
 50
180.1145914065301
 51
0.1145914059449637
  0
LINE
  5
226
330
6F
100
AcDbEntity
  8
A-0
 62
     4
100
AcDbLine
 10
1498.879816014854
 20
434.960885549955
 30
0.0
 11
1503.879816014854
 21
434.960885550006
 31
0.0
  0
LINE
  5
227
330
6F
100
AcDbEntity
  8
A-0
  6
Continuous
 62
     4
100
AcDbLine
 10
1200.879816
 20
564.9608859999999
 30
0.0
 11
1200.879816
 21
434.960886
 31
0.0
  0
LINE
  5
228
330
6F
100
AcDbEntity
  8
A-0
  6
Continuous
 62
     4
100
AcDbLine
 10
1492.879816
 20
564.9608859999999
 30
0.0
 11
1492.879816
 21
434.960886
 31
0.0
  0
TEXT
  5
229
330
6F
100
AcDbEntity
  8
A-0
 62
     4
100
AcDbText
 10
1316.102
 20
435.5809999999999
 30
0.0
 40
36.288
  1
292
100
AcDbText
  0
LINE
  5
22A
330
6F
100
AcDbEntity
  8
A-0
  6
Continuous
 62
     4
100
AcDbLine
 10
1492.879816014854
 20
434.960885549903
 30
0.0
 11
1200.879816014854
 21
434.960885549903
 31
0.0
  0
CIRCLE
  5
22B
330
6F
100
AcDbEntity
  8
A-0
  6
Continuous
 62
     4
100
AcDbCircle
 10
1492.879816014854
 20
434.960885549903
 30
0.0
 40
0.25
  0
CIRCLE
  5
22C
330
6F
100
AcDbEntity
  8
A-0
  6
Continuous
 62
     4
100
AcDbCircle
 10
1492.879816014854
 20
434.960885549903
 30
0.0
 40
0.1875
  0
CIRCLE
  5
22D
330
6F
100
AcDbEntity
  8
A-0
  6
Continuous
 62
     4
100
AcDbCircle
 10
1492.879816014854
 20
434.960885549903
 30
0.0
 40
0.125
  0
CIRCLE
  5
22E
330
6F
100
AcDbEntity
  8
A-0
  6
Continuous
 62
     4
100
AcDbCircle
 10
1492.879816014854
 20
434.960885549903
 30
0.0
 40
0.0625
  0
CIRCLE
  5
22F
330
6F
100
AcDbEntity
  8
A-0
  6
Continuous
 62
     4
100
AcDbCircle
 10
1200.879816014854
 20
434.960885549903
 30
0.0
 40
0.25
  0
CIRCLE
  5
230
330
6F
100
AcDbEntity
  8
A-0
  6
Continuous
 62
     4
100
AcDbCircle
 10
1200.879816014854
 20
434.960885549903
 30
0.0
 40
0.1875
  0
CIRCLE
  5
231
330
6F
100
AcDbEntity
  8
A-0
  6
Continuous
 62
     4
100
AcDbCircle
 10
1200.879816014854
 20
434.960885549903
 30
0.0
 40
0.125
  0
CIRCLE
  5
232
330
6F
100
AcDbEntity
  8
A-0
  6
Continuous
 62
     4
100
AcDbCircle
 10
1200.879816014854
 20
434.960885549903
 30
0.0
 40
0.0625
  0
LINE
  5
233
330
6F
100
AcDbEntity
  8
A-0
  6
Continuous
 62
     4
100
AcDbLine
 10
795.879816
 20
464.9608859999999
 30
0.0
 11
795.879816
 21
334.960886
 31
0.0
  0
LINE
  5
234
330
6F
100
AcDbEntity
  8
A-0
  6
Continuous
 62
     4
100
AcDbLine
 10
1790.879816
 20
464.9608859999999
 30
0.0
 11
1790.879816
 21
334.960886
 31
0.0
  0
TEXT
  5
235
330
6F
100
AcDbEntity
  8
A-0
 62
     4
100
AcDbText
 10
1262.602
 20
335.5809999999999
 30
0.0
 40
36.288
  1
995
100
AcDbText
  0
LINE
  5
236
330
6F
100
AcDbEntity
  8
A-0
  6
Continuous
 62
     4
100
AcDbLine
 10
1790.879816014854
 20
334.960885549903
 30
0.0
 11
795.879816014862
 21
334.960885549903
 31
0.0
  0
CIRCLE
  5
237
330
6F
100
AcDbEntity
  8
A-0
  6
Continuous
 62
     4
100
AcDbCircle
 10
1790.879816014854
 20
334.960885549903
 30
0.0
 40
0.25
  0
CIRCLE
  5
238
330
6F
100
AcDbEntity
  8
A-0
  6
Continuous
 62
     4
100
AcDbCircle
 10
1790.879816014854
 20
334.960885549903
 30
0.0
 40
0.1875
  0
CIRCLE
  5
239
330
6F
100
AcDbEntity
  8
A-0
  6
Continuous
 62
     4
100
AcDbCircle
 10
1790.879816014854
 20
334.960885549903
 30
0.0
 40
0.125
  0
CIRCLE
  5
23A
330
6F
100
AcDbEntity
  8
A-0
  6
Continuous
 62
     4
100
AcDbCircle
 10
1790.879816014854
 20
334.960885549903
 30
0.0
 40
0.0625
  0
CIRCLE
  5
23B
330
6F
100
AcDbEntity
  8
A-0
  6
Continuous
 62
     4
100
AcDbCircle
 10
795.879816014862
 20
334.960885549903
 30
0.0
 40
0.25
  0
CIRCLE
  5
23C
330
6F
100
AcDbEntity
  8
A-0
  6
Continuous
 62
     4
100
AcDbCircle
 10
795.879816014862
 20
334.960885549903
 30
0.0
 40
0.1875
  0
CIRCLE
  5
23D
330
6F
100
AcDbEntity
  8
A-0
  6
Continuous
 62
     4
100
AcDbCircle
 10
795.879816014862
 20
334.960885549903
 30
0.0
 40
0.125
  0
CIRCLE
  5
23E
330
6F
100
AcDbEntity
  8
A-0
  6
Continuous
 62
     4
100
AcDbCircle
 10
795.879816014862
 20
334.960885549903
 30
0.0
 40
0.0625
  0
LINE
  5
23F
330
6F
100
AcDbEntity
  8
A-0
  6
Continuous
 62
     4
100
AcDbLine
 10
1195.879816
 20
564.9608859999999
 30
0.0
 11
1195.879816
 21
434.960886
 31
0.0
  0
LINE
  5
240
330
6F
100
AcDbEntity
  8
A-0
  6
Continuous
 62
     4
100
AcDbLine
 10
1200.879816
 20
564.9608859999999
 30
0.0
 11
1200.879816
 21
434.960886
 31
0.0
  0
LINE
  5
241
330
6F
100
AcDbEntity
  8
A-0
  6
Continuous
 62
     4
100
AcDbLine
 10
1185.879816
 20
434.960886
 30
0.0
 11
1175.879816
 21
434.960886
 31
0.0
  0
LINE
  5
242
330
6F
100
AcDbEntity
  8
A-0
  6
Continuous
 62
     4
100
AcDbLine
 10
1210.879816
 20
434.960886
 30
0.0
 11
1220.879816
 21
434.960886
 31
0.0
  0
LINE
  5
243
330
6F
100
AcDbEntity
  8
A-0
  6
Continuous
 62
     4
100
AcDbLine
 10
1198.379816
 20
434.960886
 30
0.0
 11
1175.132072
 21
374.960886
 31
0.0
  0
LINE
  5
244
330
6F
100
AcDbEntity
  8
A-0
  6
Continuous
 62
     4
100
AcDbLine
 10
1175.132072
 20
374.960886
 30
0.0
 11
1137.010244
 21
374.960886
 31
0.0
  0
TEXT
  5
245
330
6F
100
AcDbEntity
  8
A-0
 62
     4
100
AcDbText
 10
1147.694
 20
375.581
 30
0.0
 40
36.288
  1
5
100
AcDbText
  0
LINE
  5
246
330
6F
100
AcDbEntity
  8
A-0
  6
Continuous
 62
     4
100
AcDbLine
 10
1195.879816
 20
434.960886
 30
0.0
 11
1200.879816
 21
434.960886
 31
0.0
  0
LINE
  5
247
330
6F
100
AcDbEntity
  8
A-0
  6
Continuous
 62
     4
100
AcDbLine
 10
1195.879816
 20
434.960886
 30
0.0
 11
1200.879816
 21
434.960886
 31
0.0
  0
CIRCLE
  5
248
330
6F
100
AcDbEntity
  8
A-0
  6
Continuous
 62
     4
100
AcDbCircle
 10
1195.879816014854
 20
434.960885549903
 30
0.0
 40
0.25
  0
CIRCLE
  5
249
330
6F
100
AcDbEntity
  8
A-0
  6
Continuous
 62
     4
100
AcDbCircle
 10
1195.879816014854
 20
434.960885549903
 30
0.0
 40
0.1875
  0
CIRCLE
  5
24A
330
6F
100
AcDbEntity
  8
A-0
  6
Continuous
 62
     4
100
AcDbCircle
 10
1195.879816014854
 20
434.960885549903
 30
0.0
 40
0.125
  0
CIRCLE
  5
24B
330
6F
100
AcDbEntity
  8
A-0
  6
Continuous
 62
     4
100
AcDbCircle
 10
1195.879816014854
 20
434.960885549903
 30
0.0
 40
0.0625
  0
ARC
  5
24C
330
6F
100
AcDbEntity
  8
A-0
 62
     4
100
AcDbCircle
 10
1195.879816014854
 20
434.965885549903
 30
0.0
 40
2.5
100
AcDbArc
 50
0.1145914065300158
 51
180.114591405945
  0
LINE
  5
24D
330
6F
100
AcDbEntity
  8
A-0
 62
     4
100
AcDbLine
 10
1190.879816014854
 20
434.960885549903
 30
0.0
 11
1185.879816014854
 21
434.960885549903
 31
0.0
  0
CIRCLE
  5
24E
330
6F
100
AcDbEntity
  8
A-0
  6
Continuous
 62
     4
100
AcDbCircle
 10
1200.879816014854
 20
434.960885549903
 30
0.0
 40
0.25
  0
CIRCLE
  5
24F
330
6F
100
AcDbEntity
  8
A-0
  6
Continuous
 62
     4
100
AcDbCircle
 10
1200.879816014854
 20
434.960885549903
 30
0.0
 40
0.1875
  0
CIRCLE
  5
250
330
6F
100
AcDbEntity
  8
A-0
  6
Continuous
 62
     4
100
AcDbCircle
 10
1200.879816014854
 20
434.960885549903
 30
0.0
 40
0.125
  0
CIRCLE
  5
251
330
6F
100
AcDbEntity
  8
A-0
  6
Continuous
 62
     4
100
AcDbCircle
 10
1200.879816014854
 20
434.960885549903
 30
0.0
 40
0.0625
  0
ARC
  5
252
330
6F
100
AcDbEntity
  8
A-0
 62
     4
100
AcDbCircle
 10
1200.879816014854
 20
434.955885549903
 30
0.0
 40
2.5
100
AcDbArc
 50
180.1145914065301
 51
0.1145914059449637
  0
LINE
  5
253
330
6F
100
AcDbEntity
  8
A-0
 62
     4
100
AcDbLine
 10
1205.879816014854
 20
434.960885549955
 30
0.0
 11
1210.879816014854
 21
434.960885550006
 31
0.0
  0
LINE
  5
254
330
6F
100
AcDbEntity
  8
A-0
  6
Continuous
 62
     4
100
AcDbLine
 10
1195.879816
 20
564.9608859999999
 30
0.0
 11
1195.879816
 21
434.960886
 31
0.0
  0
LINE
  5
255
330
6F
100
AcDbEntity
  8
A-0
  6
Continuous
 62
     4
100
AcDbLine
 10
800.8798159999999
 20
564.9608859999999
 30
0.0
 11
800.8798159999999
 21
434.960886
 31
0.0
  0
TEXT
  5
256
330
6F
100
AcDbEntity
  8
A-0
 62
     4
100
AcDbText
 10
967.6019999999999
 20
435.5809999999999
 30
0.0
 40
36.288
  1
395
100
AcDbText
  0
LINE
  5
257
330
6F
100
AcDbEntity
  8
A-0
  6
Continuous
 62
     4
100
AcDbLine
 10
800.8798160148579
 20
434.960885549903
 30
0.0
 11
1195.879816014854
 21
434.960885549903
 31
0.0
  0
CIRCLE
  5
258
330
6F
100
AcDbEntity
  8
A-0
  6
Continuous
 62
     4
100
AcDbCircle
 10
800.8798160148579
 20
434.960885549903
 30
0.0
 40
0.25
  0
CIRCLE
  5
259
330
6F
100
AcDbEntity
  8
A-0
  6
Continuous
 62
     4
100
AcDbCircle
 10
800.8798160148579
 20
434.960885549903
 30
0.0
 40
0.1875
  0
CIRCLE
  5
25A
330
6F
100
AcDbEntity
  8
A-0
  6
Continuous
 62
     4
100
AcDbCircle
 10
800.8798160148579
 20
434.960885549903
 30
0.0
 40
0.125
  0
CIRCLE
  5
25B
330
6F
100
AcDbEntity
  8
A-0
  6
Continuous
 62
     4
100
AcDbCircle
 10
800.8798160148579
 20
434.960885549903
 30
0.0
 40
0.0625
  0
CIRCLE
  5
25C
330
6F
100
AcDbEntity
  8
A-0
  6
Continuous
 62
     4
100
AcDbCircle
 10
1195.879816014854
 20
434.960885549903
 30
0.0
 40
0.25
  0
CIRCLE
  5
25D
330
6F
100
AcDbEntity
  8
A-0
  6
Continuous
 62
     4
100
AcDbCircle
 10
1195.879816014854
 20
434.960885549903
 30
0.0
 40
0.1875
  0
CIRCLE
  5
25E
330
6F
100
AcDbEntity
  8
A-0
  6
Continuous
 62
     4
100
AcDbCircle
 10
1195.879816014854
 20
434.960885549903
 30
0.0
 40
0.125
  0
CIRCLE
  5
25F
330
6F
100
AcDbEntity
  8
A-0
  6
Continuous
 62
     4
100
AcDbCircle
 10
1195.879816014854
 20
434.960885549903
 30
0.0
 40
0.0625
  0
LINE
  5
260
330
6F
100
AcDbEntity
  8
A-0
  6
Continuous
 62
     4
100
AcDbLine
 10
800.8798159999999
 20
564.9608859999999
 30
0.0
 11
800.8798159999999
 21
434.960886
 31
0.0
  0
LINE
  5
261
330
6F
100
AcDbEntity
  8
A-0
  6
Continuous
 62
     4
100
AcDbLine
 10
795.879816
 20
564.9608859999999
 30
0.0
 11
795.879816
 21
434.960886
 31
0.0
  0
LINE
  5
262
330
6F
100
AcDbEntity
  8
A-0
  6
Continuous
 62
     4
100
AcDbLine
 10
810.879816
 20
434.960886
 30
0.0
 11
820.879816
 21
434.960886
 31
0.0
  0
LINE
  5
263
330
6F
100
AcDbEntity
  8
A-0
  6
Continuous
 62
     4
100
AcDbLine
 10
785.879816
 20
434.960886
 30
0.0
 11
775.879816
 21
434.960886
 31
0.0
  0
LINE
  5
264
330
6F
100
AcDbEntity
  8
A-0
  6
Continuous
 62
     4
100
AcDbLine
 10
798.379816
 20
434.960886
 30
0.0
 11
824.6275609999999
 21
374.960886
 31
0.0
  0
LINE
  5
265
330
6F
100
AcDbEntity
  8
A-0
  6
Continuous
 62
     4
100
AcDbLine
 10
824.6275609999999
 20
374.960886
 30
0.0
 11
862.7493879999999
 21
374.960886
 31
0.0
  0
TEXT
  5
266
330
6F
100
AcDbEntity
  8
A-0
 62
     4
100
AcDbText
 10
835.311
 20
375.581
 30
0.0
 40
36.288
  1
5
100
AcDbText
  0
LINE
  5
267
330
6F
100
AcDbEntity
  8
A-0
  6
Continuous
 62
     4
100
AcDbLine
 10
800.8798159999999
 20
434.960886
 30
0.0
 11
795.879816
 21
434.960886
 31
0.0
  0
LINE
  5
268
330
6F
100
AcDbEntity
  8
A-0
  6
Continuous
 62
     4
100
AcDbLine
 10
800.8798159999999
 20
434.960886
 30
0.0
 11
795.879816
 21
434.960886
 31
0.0
  0
CIRCLE
  5
269
330
6F
100
AcDbEntity
  8
A-0
  6
Continuous
 62
     4
100
AcDbCircle
 10
800.8798160148579
 20
434.960885549903
 30
0.0
 40
0.25
  0
CIRCLE
  5
26A
330
6F
100
AcDbEntity
  8
A-0
  6
Continuous
 62
     4
100
AcDbCircle
 10
800.8798160148579
 20
434.960885549903
 30
0.0
 40
0.1875
  0
CIRCLE
  5
26B
330
6F
100
AcDbEntity
  8
A-0
  6
Continuous
 62
     4
100
AcDbCircle
 10
800.8798160148579
 20
434.960885549903
 30
0.0
 40
0.125
  0
CIRCLE
  5
26C
330
6F
100
AcDbEntity
  8
A-0
  6
Continuous
 62
     4
100
AcDbCircle
 10
800.8798160148579
 20
434.960885549903
 30
0.0
 40
0.0625
  0
ARC
  5
26D
330
6F
100
AcDbEntity
  8
A-0
 62
     4
100
AcDbCircle
 10
800.8798160148579
 20
434.955885549903
 30
0.0
 40
2.5
100
AcDbArc
 50
180.1145914065301
 51
0.1145914059449637
  0
LINE
  5
26E
330
6F
100
AcDbEntity
  8
A-0
 62
     4
100
AcDbLine
 10
805.879816014858
 20
434.960885549955
 30
0.0
 11
810.8798160148579
 21
434.960885550006
 31
0.0
  0
CIRCLE
  5
26F
330
6F
100
AcDbEntity
  8
A-0
  6
Continuous
 62
     4
100
AcDbCircle
 10
795.879816014862
 20
434.960885549903
 30
0.0
 40
0.25
  0
CIRCLE
  5
270
330
6F
100
AcDbEntity
  8
A-0
  6
Continuous
 62
     4
100
AcDbCircle
 10
795.879816014862
 20
434.960885549903
 30
0.0
 40
0.1875
  0
CIRCLE
  5
271
330
6F
100
AcDbEntity
  8
A-0
  6
Continuous
 62
     4
100
AcDbCircle
 10
795.879816014862
 20
434.960885549903
 30
0.0
 40
0.125
  0
CIRCLE
  5
272
330
6F
100
AcDbEntity
  8
A-0
  6
Continuous
 62
     4
100
AcDbCircle
 10
795.879816014862
 20
434.960885549903
 30
0.0
 40
0.0625
  0
ARC
  5
273
330
6F
100
AcDbEntity
  8
A-0
 62
     4
100
AcDbCircle
 10
795.879816014862
 20
434.965885549903
 30
0.0
 40
2.5
100
AcDbArc
 50
0.1145914065300158
 51
180.114591405945
  0
LINE
  5
274
330
6F
100
AcDbEntity
  8
A-0
 62
     4
100
AcDbLine
 10
790.879816014862
 20
434.960885549903
 30
0.0
 11
785.879816014862
 21
434.960885549903
 31
0.0
  0
LINE
  5
275
330
6F
100
AcDbEntity
  8
3-0
  6
DASHED2
 62
     7
100
AcDbLine
 10
818.3798160148539
 20
1384.960885549904
 30
0.0
 11
818.3798160148539
 21
1379.960885549903
 31
0.0
  0
LINE
  5
276
330
6F
100
AcDbEntity
  8
3-0
  6
DASHED2
 62
     7
100
AcDbLine
 10
818.3798160148539
 20
1379.960885549903
 30
0.0
 11
1203.379816014854
 21
1379.960885549903
 31
0.0
  0
ARC
  5
277
330
6F
100
AcDbEntity
  8
3-0
  6
DASHED2
 62
     7
100
AcDbCircle
 10
1203.379816
 20
1374.960886
 30
0.0
 40
5.0
100
AcDbArc
 50
0.0000000002990408
 51
90.00000000000696
  0
LINE
  5
278
330
6F
100
AcDbEntity
  8
3-0
  6
DASHED2
 62
     7
100
AcDbLine
 10
1208.379816014854
 20
1374.960885549904
 30
0.0
 11
1208.379816014854
 21
1256.960885549904
 31
0.0
  0
ARC
  5
279
330
6F
100
AcDbEntity
  8
3-0
  6
DASHED2
 62
     7
100
AcDbCircle
 10
1228.379816
 20
1256.960886
 30
0.0
 40
20.0
100
AcDbArc
 50
180.0000000002909
 51
269.999999999998
  0
LINE
  5
27A
330
6F
100
AcDbEntity
  8
3-0
  6
DASHED2
 62
     7
100
AcDbLine
 10
1228.379816014854
 20
1236.960885549903
 30
0.0
 11
1723.379816014854
 21
1236.960885549903
 31
0.0
  0
ARC
  5
27B
330
6F
100
AcDbEntity
  8
3-0
  6
DASHED2
 62
     7
100
AcDbCircle
 10
1723.379816
 20
1256.960886
 30
0.0
 40
20.0
100
AcDbArc
 50
270.0000000000009
 51
359.999999999712
  0
LINE
  5
27C
330
6F
100
AcDbEntity
  8
3-0
  6
DASHED2
 62
     7
100
AcDbLine
 10
1743.379816014854
 20
1256.960885549905
 30
0.0
 11
1743.379816014847
 21
1374.960885549904
 31
0.0
  0
ARC
  5
27D
330
6F
100
AcDbEntity
  8
3-0
  6
DASHED2
 62
     7
100
AcDbCircle
 10
1748.379816
 20
1374.960886
 30
0.0
 40
5.0
100
AcDbArc
 50
89.99999999999202
 51
179.999999999702
  0
LINE
  5
27E
330
6F
100
AcDbEntity
  8
3-0
  6
DASHED2
 62
     7
100
AcDbLine
 10
1748.379816014847
 20
1379.960885549903
 30
0.0
 11
1768.379816014862
 21
1379.960885549903
 31
0.0
  0
LINE
  5
27F
330
6F
100
AcDbEntity
  8
3-0
  6
DASHED2
 62
     7
100
AcDbLine
 10
1768.379816014862
 20
1379.960885549903
 30
0.0
 11
1768.379816014862
 21
1384.960885549904
 31
0.0
  0
LINE
  5
280
330
6F
100
AcDbEntity
  8
3-0
  6
Continuous
 62
     7
100
AcDbLine
 10
1793.379816
 20
1359.960886
 30
0.0
 11
793.379816
 21
1359.960886
 31
0.0
  0
LINE
  5
281
330
6F
100
AcDbEntity
  8
3-0
  6
Continuous
 62
     7
100
AcDbLine
 10
1793.379816
 20
1384.960886
 30
0.0
 11
793.379816
 21
1384.960886
 31
0.0
  0
LINE
  5
282
330
6F
100
AcDbEntity
  8
3-0
  6
DASHED2
 62
     7
100
AcDbLine
 10
1775.879815999999
 20
689.9608859999999
 30
0.0
 11
811.3798159999999
 21
689.9608859999999
 31
0.0
  0
LINE
  5
283
330
6F
100
AcDbEntity
  8
3-0
  6
Continuous
 62
     7
100
AcDbLine
 10
1790.879816
 20
584.960886
 30
0.0
 11
795.879816
 21
584.960886
 31
0.0
  0
LINE
  5
284
330
6F
100
AcDbEntity
  8
3-0
  6
Continuous
 62
     7
100
AcDbLine
 10
1790.879816
 20
674.9608859999999
 30
0.0
 11
795.879816
 21
674.9608859999999
 31
0.0
  0
LINE
  5
285
330
6F
100
AcDbEntity
  8
A-0
  6
Continuous
 62
     4
100
AcDbLine
 10
1455.879816
 20
984.960886
 30
0.0
 11
1442.630012
 21
984.960886
 31
0.0
  0
LINE
  5
286
330
6F
100
AcDbEntity
  8
A-0
  6
Continuous
 62
     4
100
AcDbLine
 10
1450.535852
 20
584.960886
 30
0.0
 11
1442.630012
 21
584.960886
 31
0.0
  0
TEXT
  5
287
330
6F
100
AcDbEntity
  8
A-0
 62
     4
100
AcDbText
 10
1439.079
 20
728.961
 30
0.0
 40
36.288
  1
(400)
 50
90.0
100
AcDbText
  0
LINE
  5
288
330
6F
100
AcDbEntity
  8
A-0
  6
Continuous
 62
     4
100
AcDbLine
 10
1442.630012360912
 20
584.960885549904
 30
0.0
 11
1442.630012360912
 21
984.9608855498999
 31
0.0
  0
CIRCLE
  5
289
330
6F
100
AcDbEntity
  8
A-0
  6
Continuous
 62
     4
100
AcDbCircle
 10
1442.630012360912
 20
584.960885549904
 30
0.0
 40
0.25
  0
CIRCLE
  5
28A
330
6F
100
AcDbEntity
  8
A-0
  6
Continuous
 62
     4
100
AcDbCircle
 10
1442.630012360912
 20
584.960885549904
 30
0.0
 40
0.1875
  0
CIRCLE
  5
28B
330
6F
100
AcDbEntity
  8
A-0
  6
Continuous
 62
     4
100
AcDbCircle
 10
1442.630012360912
 20
584.960885549904
 30
0.0
 40
0.125
  0
CIRCLE
  5
28C
330
6F
100
AcDbEntity
  8
A-0
  6
Continuous
 62
     4
100
AcDbCircle
 10
1442.630012360912
 20
584.960885549904
 30
0.0
 40
0.0625
  0
CIRCLE
  5
28D
330
6F
100
AcDbEntity
  8
A-0
  6
Continuous
 62
     4
100
AcDbCircle
 10
1442.630012360912
 20
984.9608855498999
 30
0.0
 40
0.25
  0
CIRCLE
  5
28E
330
6F
100
AcDbEntity
  8
A-0
  6
Continuous
 62
     4
100
AcDbCircle
 10
1442.630012360912
 20
984.9608855498999
 30
0.0
 40
0.1875
  0
CIRCLE
  5
28F
330
6F
100
AcDbEntity
  8
A-0
  6
Continuous
 62
     4
100
AcDbCircle
 10
1442.630012360912
 20
984.9608855498999
 30
0.0
 40
0.125
  0
CIRCLE
  5
290
330
6F
100
AcDbEntity
  8
A-0
  6
Continuous
 62
     4
100
AcDbCircle
 10
1442.630012360912
 20
984.9608855498999
 30
0.0
 40
0.0625
  0
LINE
  5
291
330
6F
100
AcDbEntity
  8
3-0
  6
DASHED2
 62
     7
100
AcDbLine
 10
1578.379816
 20
1048.960886
 30
0.0
 11
1578.379816
 21
584.960886
 31
0.0
  0
LINE
  5
292
330
6F
100
AcDbEntity
  8
3-0
  6
DASHED2
 62
     7
100
AcDbLine
 10
1608.379816
 20
1048.960886
 30
0.0
 11
1608.379816
 21
584.960886
 31
0.0
  0
LINE
  5
293
330
6F
100
AcDbEntity
  8
A-0
  6
Continuous
 62
     4
100
AcDbLine
 10
1810.879816
 20
1349.960886
 30
0.0
 11
1940.879816
 21
1349.960886
 31
0.0
  0
LINE
  5
294
330
6F
100
AcDbEntity
  8
A-0
  6
Continuous
 62
     4
100
AcDbLine
 10
1810.879816
 20
674.9608859999999
 30
0.0
 11
1940.879816
 21
674.9608859999999
 31
0.0
  0
TEXT
  5
295
330
6F
100
AcDbEntity
  8
A-0
 62
     4
100
AcDbText
 10
1940.26
 20
978.8610000000002
 30
0.0
 40
36.288
  1
675
 50
90.0
100
AcDbText
  0
LINE
  5
296
330
6F
100
AcDbEntity
  8
A-0
  6
Continuous
 62
     4
100
AcDbLine
 10
1940.879816014855
 20
674.9608855499039
 30
0.0
 11
1940.879816014855
 21
1349.960885549904
 31
0.0
  0
CIRCLE
  5
297
330
6F
100
AcDbEntity
  8
A-0
  6
Continuous
 62
     4
100
AcDbCircle
 10
1940.879816014855
 20
674.9608855499039
 30
0.0
 40
0.25
  0
CIRCLE
  5
298
330
6F
100
AcDbEntity
  8
A-0
  6
Continuous
 62
     4
100
AcDbCircle
 10
1940.879816014855
 20
674.9608855499039
 30
0.0
 40
0.1875
  0
CIRCLE
  5
299
330
6F
100
AcDbEntity
  8
A-0
  6
Continuous
 62
     4
100
AcDbCircle
 10
1940.879816014855
 20
674.9608855499039
 30
0.0
 40
0.125
  0
CIRCLE
  5
29A
330
6F
100
AcDbEntity
  8
A-0
  6
Continuous
 62
     4
100
AcDbCircle
 10
1940.879816014855
 20
674.9608855499039
 30
0.0
 40
0.0625
  0
CIRCLE
  5
29B
330
6F
100
AcDbEntity
  8
A-0
  6
Continuous
 62
     4
100
AcDbCircle
 10
1940.879816014855
 20
1349.960885549904
 30
0.0
 40
0.25
  0
CIRCLE
  5
29C
330
6F
100
AcDbEntity
  8
A-0
  6
Continuous
 62
     4
100
AcDbCircle
 10
1940.879816014855
 20
1349.960885549904
 30
0.0
 40
0.1875
  0
CIRCLE
  5
29D
330
6F
100
AcDbEntity
  8
A-0
  6
Continuous
 62
     4
100
AcDbCircle
 10
1940.879816014855
 20
1349.960885549904
 30
0.0
 40
0.125
  0
CIRCLE
  5
29E
330
6F
100
AcDbEntity
  8
A-0
  6
Continuous
 62
     4
100
AcDbCircle
 10
1940.879816014855
 20
1349.960885549904
 30
0.0
 40
0.0625
  0
LINE
  5
29F
330
6F
100
AcDbEntity
  8
3-0
  6
Continuous
 62
     7
100
AcDbLine
 10
1790.879816
 20
1359.960886
 30
0.0
 11
1790.879816
 21
584.960886
 31
0.0
  0
LINE
  5
2A0
330
6F
100
AcDbEntity
  8
A-0
  6
Continuous
 62
     4
100
AcDbLine
 10
1910.879816
 20
1384.960886
 30
0.0
 11
2040.879816
 21
1384.960886
 31
0.0
  0
LINE
  5
2A1
330
6F
100
AcDbEntity
  8
A-0
  6
Continuous
 62
     4
100
AcDbLine
 10
1910.879816
 20
584.960886
 30
0.0
 11
2040.879816
 21
584.960886
 31
0.0
  0
TEXT
  5
2A2
330
6F
100
AcDbEntity
  8
A-0
 62
     4
100
AcDbText
 10
2040.26
 20
951.3610000000001
 30
0.0
 40
36.288
  1
800
 50
90.0
100
AcDbText
  0
LINE
  5
2A3
330
6F
100
AcDbEntity
  8
A-0
  6
Continuous
 62
     4
100
AcDbLine
 10
2040.879816014856
 20
584.960885549904
 30
0.0
 11
2040.879816014856
 21
1384.960885549904
 31
0.0
  0
CIRCLE
  5
2A4
330
6F
100
AcDbEntity
  8
A-0
  6
Continuous
 62
     4
100
AcDbCircle
 10
2040.879816014856
 20
584.960885549904
 30
0.0
 40
0.25
  0
CIRCLE
  5
2A5
330
6F
100
AcDbEntity
  8
A-0
  6
Continuous
 62
     4
100
AcDbCircle
 10
2040.879816014856
 20
584.960885549904
 30
0.0
 40
0.1875
  0
CIRCLE
  5
2A6
330
6F
100
AcDbEntity
  8
A-0
  6
Continuous
 62
     4
100
AcDbCircle
 10
2040.879816014856
 20
584.960885549904
 30
0.0
 40
0.125
  0
CIRCLE
  5
2A7
330
6F
100
AcDbEntity
  8
A-0
  6
Continuous
 62
     4
100
AcDbCircle
 10
2040.879816014856
 20
584.960885549904
 30
0.0
 40
0.0625
  0
CIRCLE
  5
2A8
330
6F
100
AcDbEntity
  8
A-0
  6
Continuous
 62
     4
100
AcDbCircle
 10
2040.879816014856
 20
1384.960885549904
 30
0.0
 40
0.25
  0
CIRCLE
  5
2A9
330
6F
100
AcDbEntity
  8
A-0
  6
Continuous
 62
     4
100
AcDbCircle
 10
2040.879816014856
 20
1384.960885549904
 30
0.0
 40
0.1875
  0
CIRCLE
  5
2AA
330
6F
100
AcDbEntity
  8
A-0
  6
Continuous
 62
     4
100
AcDbCircle
 10
2040.879816014856
 20
1384.960885549904
 30
0.0
 40
0.125
  0
CIRCLE
  5
2AB
330
6F
100
AcDbEntity
  8
A-0
  6
Continuous
 62
     4
100
AcDbCircle
 10
2040.879816014856
 20
1384.960885549904
 30
0.0
 40
0.0625
  0
LINE
  5
2AC
330
6F
100
AcDbEntity
  8
3-0
  6
DASHED2
 62
     7
100
AcDbLine
 10
1775.879815999999
 20
689.9608859999999
 30
0.0
 11
1775.879815999999
 21
811.792746
 31
0.0
  0
LINE
  5
2AD
330
6F
100
AcDbEntity
  8
A-0
  6
Continuous
 62
     4
100
AcDbLine
 10
1810.879816
 20
674.9608859999999
 30
0.0
 11
1940.879816
 21
674.9608859999999
 31
0.0
  0
LINE
  5
2AE
330
6F
100
AcDbEntity
  8
A-0
  6
Continuous
 62
     4
100
AcDbLine
 10
1810.879816
 20
584.960886
 30
0.0
 11
1940.879816
 21
584.960886
 31
0.0
  0
TEXT
  5
2AF
330
6F
100
AcDbEntity
  8
A-0
 62
     4
100
AcDbText
 10
1940.26
 20
607.561
 30
0.0
 40
36.288
  1
90
 50
90.0
100
AcDbText
  0
LINE
  5
2B0
330
6F
100
AcDbEntity
  8
A-0
  6
Continuous
 62
     4
100
AcDbLine
 10
1940.879816014855
 20
584.960885549904
 30
0.0
 11
1940.879816014855
 21
674.9608855499039
 31
0.0
  0
CIRCLE
  5
2B1
330
6F
100
AcDbEntity
  8
A-0
  6
Continuous
 62
     4
100
AcDbCircle
 10
1940.879816014855
 20
584.960885549904
 30
0.0
 40
0.25
  0
CIRCLE
  5
2B2
330
6F
100
AcDbEntity
  8
A-0
  6
Continuous
 62
     4
100
AcDbCircle
 10
1940.879816014855
 20
584.960885549904
 30
0.0
 40
0.1875
  0
CIRCLE
  5
2B3
330
6F
100
AcDbEntity
  8
A-0
  6
Continuous
 62
     4
100
AcDbCircle
 10
1940.879816014855
 20
584.960885549904
 30
0.0
 40
0.125
  0
CIRCLE
  5
2B4
330
6F
100
AcDbEntity
  8
A-0
  6
Continuous
 62
     4
100
AcDbCircle
 10
1940.879816014855
 20
584.960885549904
 30
0.0
 40
0.0625
  0
CIRCLE
  5
2B5
330
6F
100
AcDbEntity
  8
A-0
  6
Continuous
 62
     4
100
AcDbCircle
 10
1940.879816014855
 20
674.9608855499039
 30
0.0
 40
0.25
  0
CIRCLE
  5
2B6
330
6F
100
AcDbEntity
  8
A-0
  6
Continuous
 62
     4
100
AcDbCircle
 10
1940.879816014855
 20
674.9608855499039
 30
0.0
 40
0.1875
  0
CIRCLE
  5
2B7
330
6F
100
AcDbEntity
  8
A-0
  6
Continuous
 62
     4
100
AcDbCircle
 10
1940.879816014855
 20
674.9608855499039
 30
0.0
 40
0.125
  0
CIRCLE
  5
2B8
330
6F
100
AcDbEntity
  8
A-0
  6
Continuous
 62
     4
100
AcDbCircle
 10
1940.879816014855
 20
674.9608855499039
 30
0.0
 40
0.0625
  0
LINE
  5
2B9
330
6F
100
AcDbEntity
  8
3-0
  6
DASHED2
 62
     7
100
AcDbLine
 10
1207.379816
 20
689.9608859999999
 30
0.0
 11
1207.379816
 21
811.792746
 31
0.0
  0
LINE
  5
2BA
330
6F
100
AcDbEntity
  8
3-0
  6
DASHED2
 62
     7
100
AcDbLine
 10
1189.879816
 20
689.9608859999999
 30
0.0
 11
1189.879816
 21
811.792746
 31
0.0
  0
LINE
  5
2BB
330
6F
100
AcDbEntity
  8
A-0
  6
Continuous
 62
     4
100
AcDbLine
 10
1810.879816
 20
1359.960886
 30
0.0
 11
1940.879816
 21
1359.960886
 31
0.0
  0
LINE
  5
2BC
330
6F
100
AcDbEntity
  8
A-0
  6
Continuous
 62
     4
100
AcDbLine
 10
1810.879816
 20
1349.960886
 30
0.0
 11
1940.879816
 21
1349.960886
 31
0.0
  0
LINE
  5
2BD
330
6F
100
AcDbEntity
  8
A-0
  6
Continuous
 62
     4
100
AcDbLine
 10
1940.879816
 20
1369.960886
 30
0.0
 11
1940.879816
 21
1379.960886
 31
0.0
  0
LINE
  5
2BE
330
6F
100
AcDbEntity
  8
A-0
  6
Continuous
 62
     4
100
AcDbLine
 10
1940.879816
 20
1339.960886
 30
0.0
 11
1940.879816
 21
1329.960886
 31
0.0
  0
LINE
  5
2BF
330
6F
100
AcDbEntity
  8
A-0
  6
Continuous
 62
     4
100
AcDbLine
 10
1940.879816
 20
1354.960886
 30
0.0
 11
1989.812229
 21
1327.678514
 31
0.0
  0
LINE
  5
2C0
330
6F
100
AcDbEntity
  8
A-0
  6
Continuous
 62
     4
100
AcDbLine
 10
1989.812229
 20
1327.678514
 30
0.0
 11
1989.812229
 21
1268.414554
 31
0.0
  0
TEXT
  5
2C1
330
6F
100
AcDbEntity
  8
A-0
 62
     4
100
AcDbText
 10
1989.192
 20
1275.647
 30
0.0
 40
36.288
  1
10
 50
90.0
100
AcDbText
  0
LINE
  5
2C2
330
6F
100
AcDbEntity
  8
A-0
  6
Continuous
 62
     4
100
AcDbLine
 10
1940.879816
 20
1359.960886
 30
0.0
 11
1940.879816
 21
1349.960886
 31
0.0
  0
LINE
  5
2C3
330
6F
100
AcDbEntity
  8
A-0
  6
Continuous
 62
     4
100
AcDbLine
 10
1940.879816
 20
1359.960886
 30
0.0
 11
1940.879816
 21
1349.960886
 31
0.0
  0
CIRCLE
  5
2C4
330
6F
100
AcDbEntity
  8
A-0
  6
Continuous
 62
     4
100
AcDbCircle
 10
1940.879816014856
 20
1359.960885549904
 30
0.0
 40
0.25
  0
CIRCLE
  5
2C5
330
6F
100
AcDbEntity
  8
A-0
  6
Continuous
 62
     4
100
AcDbCircle
 10
1940.879816014856
 20
1359.960885549904
 30
0.0
 40
0.1875
  0
CIRCLE
  5
2C6
330
6F
100
AcDbEntity
  8
A-0
  6
Continuous
 62
     4
100
AcDbCircle
 10
1940.879816014856
 20
1359.960885549904
 30
0.0
 40
0.125
  0
CIRCLE
  5
2C7
330
6F
100
AcDbEntity
  8
A-0
  6
Continuous
 62
     4
100
AcDbCircle
 10
1940.879816014856
 20
1359.960885549904
 30
0.0
 40
0.0625
  0
ARC
  5
2C8
330
6F
100
AcDbEntity
  8
A-0
 62
     4
100
AcDbCircle
 10
1940.884816014856
 20
1359.960885549904
 30
0.0
 40
2.5
100
AcDbArc
 50
270.1145914065301
 51
90.11459140594496
  0
LINE
  5
2C9
330
6F
100
AcDbEntity
  8
A-0
 62
     4
100
AcDbLine
 10
1940.879816014779
 20
1364.960885549904
 30
0.0
 11
1940.879816014703
 21
1369.960885549904
 31
0.0
  0
CIRCLE
  5
2CA
330
6F
100
AcDbEntity
  8
A-0
  6
Continuous
 62
     4
100
AcDbCircle
 10
1940.879816014856
 20
1349.960885549904
 30
0.0
 40
0.25
  0
CIRCLE
  5
2CB
330
6F
100
AcDbEntity
  8
A-0
  6
Continuous
 62
     4
100
AcDbCircle
 10
1940.879816014856
 20
1349.960885549904
 30
0.0
 40
0.1875
  0
CIRCLE
  5
2CC
330
6F
100
AcDbEntity
  8
A-0
  6
Continuous
 62
     4
100
AcDbCircle
 10
1940.879816014856
 20
1349.960885549904
 30
0.0
 40
0.125
  0
CIRCLE
  5
2CD
330
6F
100
AcDbEntity
  8
A-0
  6
Continuous
 62
     4
100
AcDbCircle
 10
1940.879816014856
 20
1349.960885549904
 30
0.0
 40
0.0625
  0
ARC
  5
2CE
330
6F
100
AcDbEntity
  8
A-0
 62
     4
100
AcDbCircle
 10
1940.874816014856
 20
1349.960885549904
 30
0.0
 40
2.5
100
AcDbArc
 50
90.11459140653
 51
270.114591405945
  0
LINE
  5
2CF
330
6F
100
AcDbEntity
  8
A-0
 62
     4
100
AcDbLine
 10
1940.879816014882
 20
1344.960885549904
 30
0.0
 11
1940.879816014907
 21
1339.960885549904
 31
0.0
  0
LINE
  5
2D0
330
6F
100
AcDbEntity
  8
A-0
  6
Continuous
 62
     4
100
AcDbLine
 10
1793.379816
 20
1355.323972
 30
0.0
 11
1793.379816
 21
1225.323972
 31
0.0
  0
LINE
  5
2D1
330
6F
100
AcDbEntity
  8
A-0
  6
Continuous
 62
     4
100
AcDbLine
 10
1790.879816
 20
1355.323972
 30
0.0
 11
1790.879816
 21
1225.323972
 31
0.0
  0
LINE
  5
2D2
330
6F
100
AcDbEntity
  8
A-0
  6
Continuous
 62
     4
100
AcDbLine
 10
1803.379816
 20
1225.323972
 30
0.0
 11
1813.379816
 21
1225.323972
 31
0.0
  0
LINE
  5
2D3
330
6F
100
AcDbEntity
  8
A-0
  6
Continuous
 62
     4
100
AcDbLine
 10
1780.879816
 20
1225.323972
 30
0.0
 11
1770.879816
 21
1225.323972
 31
0.0
  0
LINE
  5
2D4
330
6F
100
AcDbEntity
  8
A-0
  6
Continuous
 62
     4
100
AcDbLine
 10
1792.129816
 20
1225.323972
 30
0.0
 11
1817.989668
 21
1165.323972
 31
0.0
  0
LINE
  5
2D5
330
6F
100
AcDbEntity
  8
A-0
  6
Continuous
 62
     4
100
AcDbLine
 10
1817.989668
 20
1165.323972
 30
0.0
 11
1901.416064
 21
1165.323972
 31
0.0
  0
TEXT
  5
2D6
330
6F
100
AcDbEntity
  8
A-0
 62
     4
100
AcDbText
 10
1828.925
 20
1165.944
 30
0.0
 40
36.288
  1
2.5
100
AcDbText
  0
LINE
  5
2D7
330
6F
100
AcDbEntity
  8
A-0
  6
Continuous
 62
     4
100
AcDbLine
 10
1793.379816
 20
1225.323972
 30
0.0
 11
1790.879816
 21
1225.323972
 31
0.0
  0
LINE
  5
2D8
330
6F
100
AcDbEntity
  8
A-0
  6
Continuous
 62
     4
100
AcDbLine
 10
1793.379816
 20
1225.323972
 30
0.0
 11
1790.879816
 21
1225.323972
 31
0.0
  0
CIRCLE
  5
2D9
330
6F
100
AcDbEntity
  8
A-0
  6
Continuous
 62
     4
100
AcDbCircle
 10
1793.379816014854
 20
1225.323971695842
 30
0.0
 40
0.25
  0
CIRCLE
  5
2DA
330
6F
100
AcDbEntity
  8
A-0
  6
Continuous
 62
     4
100
AcDbCircle
 10
1793.379816014854
 20
1225.323971695842
 30
0.0
 40
0.1875
  0
CIRCLE
  5
2DB
330
6F
100
AcDbEntity
  8
A-0
  6
Continuous
 62
     4
100
AcDbCircle
 10
1793.379816014854
 20
1225.323971695842
 30
0.0
 40
0.125
  0
CIRCLE
  5
2DC
330
6F
100
AcDbEntity
  8
A-0
  6
Continuous
 62
     4
100
AcDbCircle
 10
1793.379816014854
 20
1225.323971695842
 30
0.0
 40
0.0625
  0
ARC
  5
2DD
330
6F
100
AcDbEntity
  8
A-0
 62
     4
100
AcDbCircle
 10
1793.379816014854
 20
1225.318971695842
 30
0.0
 40
2.5
100
AcDbArc
 50
180.1145914065301
 51
0.1145914059449637
  0
LINE
  5
2DE
330
6F
100
AcDbEntity
  8
A-0
 62
     4
100
AcDbLine
 10
1798.379816014854
 20
1225.323971695893
 30
0.0
 11
1803.379816014854
 21
1225.323971695944
 31
0.0
  0
CIRCLE
  5
2DF
330
6F
100
AcDbEntity
  8
A-0
  6
Continuous
 62
     4
100
AcDbCircle
 10
1790.879816014854
 20
1225.323971695842
 30
0.0
 40
0.25
  0
CIRCLE
  5
2E0
330
6F
100
AcDbEntity
  8
A-0
  6
Continuous
 62
     4
100
AcDbCircle
 10
1790.879816014854
 20
1225.323971695842
 30
0.0
 40
0.1875
  0
CIRCLE
  5
2E1
330
6F
100
AcDbEntity
  8
A-0
  6
Continuous
 62
     4
100
AcDbCircle
 10
1790.879816014854
 20
1225.323971695842
 30
0.0
 40
0.125
  0
CIRCLE
  5
2E2
330
6F
100
AcDbEntity
  8
A-0
  6
Continuous
 62
     4
100
AcDbCircle
 10
1790.879816014854
 20
1225.323971695842
 30
0.0
 40
0.0625
  0
ARC
  5
2E3
330
6F
100
AcDbEntity
  8
A-0
 62
     4
100
AcDbCircle
 10
1790.879816014854
 20
1225.328971695842
 30
0.0
 40
2.5
100
AcDbArc
 50
0.1145914065300158
 51
180.114591405945
  0
LINE
  5
2E4
330
6F
100
AcDbEntity
  8
A-0
 62
     4
100
AcDbLine
 10
1785.879816014854
 20
1225.323971695842
 30
0.0
 11
1780.879816014854
 21
1225.323971695842
 31
0.0
  0
LINE
  5
2E5
330
6F
100
AcDbEntity
  8
A-0
  6
Continuous
 62
     4
100
AcDbLine
 10
1475.879816
 20
1148.679626
 30
0.0
 11
1475.879816
 21
1144.04167
 31
0.0
  0
LINE
  5
2E6
330
6F
100
AcDbEntity
  8
A-0
  6
Continuous
 62
     4
100
AcDbLine
 10
1375.879816
 20
1111.433514
 30
0.0
 11
1375.879816
 21
1144.04167
 31
0.0
  0
TEXT
  5
2E7
330
6F
100
AcDbEntity
  8
A-0
 62
     4
100
AcDbText
 10
1395.102
 20
1144.662
 30
0.0
 40
36.288
  1
100
100
AcDbText
  0
LINE
  5
2E8
330
6F
100
AcDbEntity
  8
A-0
  6
Continuous
 62
     4
100
AcDbLine
 10
1375.879816014854
 20
1144.041669690022
 30
0.0
 11
1475.879816014854
 21
1144.041669690022
 31
0.0
  0
CIRCLE
  5
2E9
330
6F
100
AcDbEntity
  8
A-0
  6
Continuous
 62
     4
100
AcDbCircle
 10
1375.879816014854
 20
1144.041669690022
 30
0.0
 40
0.25
  0
CIRCLE
  5
2EA
330
6F
100
AcDbEntity
  8
A-0
  6
Continuous
 62
     4
100
AcDbCircle
 10
1375.879816014854
 20
1144.041669690022
 30
0.0
 40
0.1875
  0
CIRCLE
  5
2EB
330
6F
100
AcDbEntity
  8
A-0
  6
Continuous
 62
     4
100
AcDbCircle
 10
1375.879816014854
 20
1144.041669690022
 30
0.0
 40
0.125
  0
CIRCLE
  5
2EC
330
6F
100
AcDbEntity
  8
A-0
  6
Continuous
 62
     4
100
AcDbCircle
 10
1375.879816014854
 20
1144.041669690022
 30
0.0
 40
0.0625
  0
CIRCLE
  5
2ED
330
6F
100
AcDbEntity
  8
A-0
  6
Continuous
 62
     4
100
AcDbCircle
 10
1475.879816014854
 20
1144.041669690022
 30
0.0
 40
0.25
  0
CIRCLE
  5
2EE
330
6F
100
AcDbEntity
  8
A-0
  6
Continuous
 62
     4
100
AcDbCircle
 10
1475.879816014854
 20
1144.041669690022
 30
0.0
 40
0.1875
  0
CIRCLE
  5
2EF
330
6F
100
AcDbEntity
  8
A-0
  6
Continuous
 62
     4
100
AcDbCircle
 10
1475.879816014854
 20
1144.041669690022
 30
0.0
 40
0.125
  0
CIRCLE
  5
2F0
330
6F
100
AcDbEntity
  8
A-0
  6
Continuous
 62
     4
100
AcDbCircle
 10
1475.879816014854
 20
1144.041669690022
 30
0.0
 40
0.0625
  0
LINE
  5
2F1
330
6F
100
AcDbEntity
  8
A-0
  6
Continuous
 62
     4
100
AcDbLine
 10
1475.879816
 20
1148.679626
 30
0.0
 11
1475.879816
 21
1144.04167
 31
0.0
  0
LINE
  5
2F2
330
6F
100
AcDbEntity
  8
A-0
  6
Continuous
 62
     4
100
AcDbLine
 10
1575.879816
 20
1111.433514
 30
0.0
 11
1575.879816
 21
1144.04167
 31
0.0
  0
TEXT
  5
2F3
330
6F
100
AcDbEntity
  8
A-0
 62
     4
100
AcDbText
 10
1495.102
 20
1144.662
 30
0.0
 40
36.288
  1
100
100
AcDbText
  0
LINE
  5
2F4
330
6F
100
AcDbEntity
  8
A-0
  6
Continuous
 62
     4
100
AcDbLine
 10
1575.879816014854
 20
1144.041669690022
 30
0.0
 11
1475.879816014854
 21
1144.041669690022
 31
0.0
  0
CIRCLE
  5
2F5
330
6F
100
AcDbEntity
  8
A-0
  6
Continuous
 62
     4
100
AcDbCircle
 10
1575.879816014854
 20
1144.041669690022
 30
0.0
 40
0.25
  0
CIRCLE
  5
2F6
330
6F
100
AcDbEntity
  8
A-0
  6
Continuous
 62
     4
100
AcDbCircle
 10
1575.879816014854
 20
1144.041669690022
 30
0.0
 40
0.1875
  0
CIRCLE
  5
2F7
330
6F
100
AcDbEntity
  8
A-0
  6
Continuous
 62
     4
100
AcDbCircle
 10
1575.879816014854
 20
1144.041669690022
 30
0.0
 40
0.125
  0
CIRCLE
  5
2F8
330
6F
100
AcDbEntity
  8
A-0
  6
Continuous
 62
     4
100
AcDbCircle
 10
1575.879816014854
 20
1144.041669690022
 30
0.0
 40
0.0625
  0
CIRCLE
  5
2F9
330
6F
100
AcDbEntity
  8
A-0
  6
Continuous
 62
     4
100
AcDbCircle
 10
1475.879816014854
 20
1144.041669690022
 30
0.0
 40
0.25
  0
CIRCLE
  5
2FA
330
6F
100
AcDbEntity
  8
A-0
  6
Continuous
 62
     4
100
AcDbCircle
 10
1475.879816014854
 20
1144.041669690022
 30
0.0
 40
0.1875
  0
CIRCLE
  5
2FB
330
6F
100
AcDbEntity
  8
A-0
  6
Continuous
 62
     4
100
AcDbCircle
 10
1475.879816014854
 20
1144.041669690022
 30
0.0
 40
0.125
  0
CIRCLE
  5
2FC
330
6F
100
AcDbEntity
  8
A-0
  6
Continuous
 62
     4
100
AcDbCircle
 10
1475.879816014854
 20
1144.041669690022
 30
0.0
 40
0.0625
  0
LINE
  5
2FD
330
6F
100
AcDbEntity
  8
B-0
  6
CENTER
 62
     6
100
AcDbLine
 10
1433.035852
 20
984.960886
 30
0.0
 11
1375.879816
 21
984.960886
 31
0.0
  0
LINE
  5
2FE
330
6F
100
AcDbEntity
  8
B-0
  6
CENTER
 62
     6
100
AcDbLine
 10
1375.879816
 20
1144.04167
 30
0.0
 11
1375.879816
 21
985.9089049999999
 31
0.0
  0
LINE
  5
2FF
330
6F
100
AcDbEntity
  8
B-0
  6
CENTER
 62
     6
100
AcDbLine
 10
1575.879816
 20
1144.04167
 30
0.0
 11
1575.879816
 21
984.960886
 31
0.0
  0
LINE
  5
300
330
6F
100
AcDbEntity
  8
3-0
  6
Continuous
 62
     7
100
AcDbLine
 10
1397.093019
 20
1006.174089
 30
0.0
 11
1390.021952
 21
999.1030209999999
 31
0.0
  0
LINE
  5
301
330
6F
100
AcDbEntity
  8
3-0
  6
Continuous
 62
     7
100
AcDbLine
 10
1397.093019
 20
963.7476820000001
 30
0.0
 11
1390.021952
 21
970.8187500000001
 31
0.0
  0
CIRCLE
  5
302
330
6F
100
AcDbEntity
  8
3-0
  6
Continuous
 62
     7
100
AcDbCircle
 10
1375.879816
 20
984.960886
 30
0.0
 40
20.0
  0
LINE
  5
303
330
6F
100
AcDbEntity
  8
3-0
  6
Continuous
 62
     7
100
AcDbLine
 10
1554.666613
 20
963.7476820000001
 30
0.0
 11
1561.73768
 21
970.8187500000001
 31
0.0
  0
LINE
  5
304
330
6F
100
AcDbEntity
  8
3-0
  6
Continuous
 62
     7
100
AcDbLine
 10
1597.093019
 20
963.7476820000001
 30
0.0
 11
1590.021952
 21
970.8187500000001
 31
0.0
  0
CIRCLE
  5
305
330
6F
100
AcDbEntity
  8
3-0
  6
Continuous
 62
     7
100
AcDbCircle
 10
1575.879816
 20
984.960886
 30
0.0
 40
20.0
  0
LINE
  5
306
330
6F
100
AcDbEntity
  8
3-0
  6
Continuous
 62
     7
100
AcDbLine
 10
1354.666613
 20
1006.174089
 30
0.0
 11
1361.73768
 21
999.1030209999999
 31
0.0
  0
LINE
  5
307
330
6F
100
AcDbEntity
  8
3-0
  6
Continuous
 62
     7
100
AcDbLine
 10
1354.666613
 20
963.7476820000001
 30
0.0
 11
1361.73768
 21
970.8187500000001
 31
0.0
  0
LINE
  5
308
330
6F
100
AcDbEntity
  8
3-0
  6
Continuous
 62
     7
100
AcDbLine
 10
795.879816
 20
1359.960886
 30
0.0
 11
795.879816
 21
584.960886
 31
0.0
  0
LINE
  5
309
330
6F
100
AcDbEntity
  8
3-0
  6
DASHED2
 62
     7
100
AcDbLine
 10
811.3798159999999
 20
689.9608859999999
 30
0.0
 11
811.3798159999999
 21
811.792746
 31
0.0
  0
LINE
  5
30A
330
6F
100
AcDbEntity
  8
A-0
  6
Continuous
 62
     4
100
AcDbLine
 10
793.379816
 20
1355.323972
 30
0.0
 11
793.379816
 21
1225.323972
 31
0.0
  0
LINE
  5
30B
330
6F
100
AcDbEntity
  8
A-0
  6
Continuous
 62
     4
100
AcDbLine
 10
795.879816
 20
1355.323972
 30
0.0
 11
795.879816
 21
1225.323972
 31
0.0
  0
LINE
  5
30C
330
6F
100
AcDbEntity
  8
A-0
  6
Continuous
 62
     4
100
AcDbLine
 10
783.379816
 20
1225.323972
 30
0.0
 11
773.379816
 21
1225.323972
 31
0.0
  0
LINE
  5
30D
330
6F
100
AcDbEntity
  8
A-0
  6
Continuous
 62
     4
100
AcDbLine
 10
805.879816
 20
1225.323972
 30
0.0
 11
815.8798159999999
 21
1225.323972
 31
0.0
  0
LINE
  5
30E
330
6F
100
AcDbEntity
  8
A-0
  6
Continuous
 62
     4
100
AcDbLine
 10
794.629816
 20
1225.323972
 30
0.0
 11
768.7699639999999
 21
1165.323972
 31
0.0
  0
LINE
  5
30F
330
6F
100
AcDbEntity
  8
A-0
  6
Continuous
 62
     4
100
AcDbLine
 10
768.7699639999999
 20
1165.323972
 30
0.0
 11
685.343568
 21
1165.323972
 31
0.0
  0
TEXT
  5
310
330
6F
100
AcDbEntity
  8
A-0
 62
     4
100
AcDbText
 10
696.279
 20
1165.944
 30
0.0
 40
36.288
  1
2.5
100
AcDbText
  0
LINE
  5
311
330
6F
100
AcDbEntity
  8
A-0
  6
Continuous
 62
     4
100
AcDbLine
 10
793.379816
 20
1225.323972
 30
0.0
 11
795.879816
 21
1225.323972
 31
0.0
  0
LINE
  5
312
330
6F
100
AcDbEntity
  8
A-0
  6
Continuous
 62
     4
100
AcDbLine
 10
793.379816
 20
1225.323972
 30
0.0
 11
795.879816
 21
1225.323972
 31
0.0
  0
CIRCLE
  5
313
330
6F
100
AcDbEntity
  8
A-0
  6
Continuous
 62
     4
100
AcDbCircle
 10
793.379816014858
 20
1225.323971695844
 30
0.0
 40
0.25
  0
CIRCLE
  5
314
330
6F
100
AcDbEntity
  8
A-0
  6
Continuous
 62
     4
100
AcDbCircle
 10
793.379816014858
 20
1225.323971695844
 30
0.0
 40
0.1875
  0
CIRCLE
  5
315
330
6F
100
AcDbEntity
  8
A-0
  6
Continuous
 62
     4
100
AcDbCircle
 10
793.379816014858
 20
1225.323971695844
 30
0.0
 40
0.125
  0
CIRCLE
  5
316
330
6F
100
AcDbEntity
  8
A-0
  6
Continuous
 62
     4
100
AcDbCircle
 10
793.379816014858
 20
1225.323971695844
 30
0.0
 40
0.0625
  0
ARC
  5
317
330
6F
100
AcDbEntity
  8
A-0
 62
     4
100
AcDbCircle
 10
793.379816014858
 20
1225.328971695844
 30
0.0
 40
2.5
100
AcDbArc
 50
0.1145914065300158
 51
180.114591405945
  0
LINE
  5
318
330
6F
100
AcDbEntity
  8
A-0
 62
     4
100
AcDbLine
 10
788.379816014858
 20
1225.323971695844
 30
0.0
 11
783.3798160148579
 21
1225.323971695844
 31
0.0
  0
CIRCLE
  5
319
330
6F
100
AcDbEntity
  8
A-0
  6
Continuous
 62
     4
100
AcDbCircle
 10
795.8798160148579
 20
1225.323971695844
 30
0.0
 40
0.25
  0
CIRCLE
  5
31A
330
6F
100
AcDbEntity
  8
A-0
  6
Continuous
 62
     4
100
AcDbCircle
 10
795.8798160148579
 20
1225.323971695844
 30
0.0
 40
0.1875
  0
CIRCLE
  5
31B
330
6F
100
AcDbEntity
  8
A-0
  6
Continuous
 62
     4
100
AcDbCircle
 10
795.8798160148579
 20
1225.323971695844
 30
0.0
 40
0.125
  0
CIRCLE
  5
31C
330
6F
100
AcDbEntity
  8
A-0
  6
Continuous
 62
     4
100
AcDbCircle
 10
795.8798160148579
 20
1225.323971695844
 30
0.0
 40
0.0625
  0
ARC
  5
31D
330
6F
100
AcDbEntity
  8
A-0
 62
     4
100
AcDbCircle
 10
795.8798160148579
 20
1225.318971695844
 30
0.0
 40
2.5
100
AcDbArc
 50
180.1145914065301
 51
0.1145914059449637
  0
LINE
  5
31E
330
6F
100
AcDbEntity
  8
A-0
 62
     4
100
AcDbLine
 10
800.8798160148579
 20
1225.323971695895
 30
0.0
 11
805.879816014858
 21
1225.323971695946
 31
0.0
  0
ARC
  5
31F
330
6F
100
AcDbEntity
  8
3-0
  6
Continuous
 62
     7
100
AcDbCircle
 10
838.3798159999999
 20
2568.214475
 30
0.0
 40
25.0
100
AcDbArc
 50
89.99999999999905
 51
179.9999999997069
  0
LINE
  5
320
330
6F
100
AcDbEntity
  8
3-0
  6
Continuous
 62
     7
100
AcDbLine
 10
838.379816014854
 20
2593.214474833207
 30
0.0
 11
1748.379816014854
 21
2593.214474833207
 31
0.0
  0
ARC
  5
321
330
6F
100
AcDbEntity
  8
3-0
  6
Continuous
 62
     7
100
AcDbCircle
 10
1748.379816
 20
2568.214475
 30
0.0
 40
25.0
100
AcDbArc
 50
0.0000000002940048
 51
90.00000000000095
  0
LINE
  5
322
330
6F
100
AcDbEntity
  8
3-0
  6
Continuous
 62
     7
100
AcDbLine
 10
1773.379816014854
 20
2568.214474833208
 30
0.0
 11
1773.379816014858
 21
2128.214474833208
 31
0.0
  0
ARC
  5
323
330
6F
100
AcDbEntity
  8
3-0
  6
Continuous
 62
     7
100
AcDbCircle
 10
1748.379816
 20
2128.214475
 30
0.0
 40
25.0
100
AcDbArc
 50
270.0
 51
359.9999999997079
  0
LINE
  5
324
330
6F
100
AcDbEntity
  8
3-0
  6
Continuous
 62
     7
100
AcDbLine
 10
1748.379816014858
 20
2103.214474833208
 30
0.0
 11
838.379816014854
 21
2103.214474833208
 31
0.0
  0
ARC
  5
325
330
6F
100
AcDbEntity
  8
3-0
  6
Continuous
 62
     7
100
AcDbCircle
 10
838.3798159999999
 20
2128.214475
 30
0.0
 40
25.0
100
AcDbArc
 50
180.000000000292
 51
270.0
  0
LINE
  5
326
330
6F
100
AcDbEntity
  8
3-0
  6
Continuous
 62
     7
100
AcDbLine
 10
813.379816014854
 20
2128.214474833208
 30
0.0
 11
813.379816014854
 21
2568.214474833208
 31
0.0
  0
ARC
  5
327
330
6F
100
AcDbEntity
  8
3-0
  6
Continuous
 62
     7
100
AcDbCircle
 10
838.3798159999999
 20
2568.214475
 30
0.0
 40
20.0
100
AcDbArc
 50
90.0
 51
179.9999999997081
  0
LINE
  5
328
330
6F
100
AcDbEntity
  8
3-0
  6
Continuous
 62
     7
100
AcDbLine
 10
838.379816014854
 20
2588.214474833208
 30
0.0
 11
1748.379816014854
 21
2588.214474833208
 31
0.0
  0
ARC
  5
329
330
6F
100
AcDbEntity
  8
3-0
  6
Continuous
 62
     7
100
AcDbCircle
 10
1748.379816
 20
2568.214475
 30
0.0
 40
20.0
100
AcDbArc
 50
0.0000000002929657
 51
90.0
  0
LINE
  5
32A
330
6F
100
AcDbEntity
  8
3-0
  6
Continuous
 62
     7
100
AcDbLine
 10
1768.379816014854
 20
2568.214474833208
 30
0.0
 11
1768.379816014858
 21
2128.214474833208
 31
0.0
  0
ARC
  5
32B
330
6F
100
AcDbEntity
  8
3-0
  6
Continuous
 62
     7
100
AcDbCircle
 10
1748.379816
 20
2128.214475
 30
0.0
 40
20.0
100
AcDbArc
 50
270.0
 51
359.9999999997079
  0
LINE
  5
32C
330
6F
100
AcDbEntity
  8
3-0
  6
Continuous
 62
     7
100
AcDbLine
 10
1748.379816014858
 20
2108.214474833208
 30
0.0
 11
838.379816014854
 21
2108.214474833208
 31
0.0
  0
ARC
  5
32D
330
6F
100
AcDbEntity
  8
3-0
  6
Continuous
 62
     7
100
AcDbCircle
 10
838.3798159999999
 20
2128.214475
 30
0.0
 40
20.0
100
AcDbArc
 50
180.000000000292
 51
270.0
  0
LINE
  5
32E
330
6F
100
AcDbEntity
  8
3-0
  6
Continuous
 62
     7
100
AcDbLine
 10
818.3798160148539
 20
2128.214474833208
 30
0.0
 11
818.3798160148539
 21
2568.214474833208
 31
0.0
  0
LINE
  5
32F
330
6F
100
AcDbEntity
  8
3-0
  6
Continuous
 62
     7
100
AcDbLine
 10
793.379816
 20
2083.214475
 30
0.0
 11
793.379816
 21
2633.214475
 31
0.0
  0
LINE
  5
330
330
6F
100
AcDbEntity
  8
A-0
  6
Continuous
 62
     4
100
AcDbLine
 10
1813.379816
 20
2143.214475
 30
0.0
 11
1943.379816
 21
2143.214475
 31
0.0
  0
LINE
  5
331
330
6F
100
AcDbEntity
  8
A-0
  6
Continuous
 62
     4
100
AcDbLine
 10
1813.379816
 20
2513.214475
 30
0.0
 11
1943.379816
 21
2513.214475
 31
0.0
  0
TEXT
  5
332
330
6F
100
AcDbEntity
  8
A-0
 62
     4
100
AcDbText
 10
1942.76
 20
2294.614
 30
0.0
 40
36.288
  1
370
 50
90.0
100
AcDbText
  0
LINE
  5
333
330
6F
100
AcDbEntity
  8
A-0
  6
Continuous
 62
     4
100
AcDbLine
 10
1943.379816014855
 20
2513.214474833209
 30
0.0
 11
1943.379816014855
 21
2143.214474833209
 31
0.0
  0
CIRCLE
  5
334
330
6F
100
AcDbEntity
  8
A-0
  6
Continuous
 62
     4
100
AcDbCircle
 10
1943.379816014855
 20
2513.214474833209
 30
0.0
 40
0.25
  0
CIRCLE
  5
335
330
6F
100
AcDbEntity
  8
A-0
  6
Continuous
 62
     4
100
AcDbCircle
 10
1943.379816014855
 20
2513.214474833209
 30
0.0
 40
0.1875
  0
CIRCLE
  5
336
330
6F
100
AcDbEntity
  8
A-0
  6
Continuous
 62
     4
100
AcDbCircle
 10
1943.379816014855
 20
2513.214474833209
 30
0.0
 40
0.125
  0
CIRCLE
  5
337
330
6F
100
AcDbEntity
  8
A-0
  6
Continuous
 62
     4
100
AcDbCircle
 10
1943.379816014855
 20
2513.214474833209
 30
0.0
 40
0.0625
  0
CIRCLE
  5
338
330
6F
100
AcDbEntity
  8
A-0
  6
Continuous
 62
     4
100
AcDbCircle
 10
1943.379816014855
 20
2143.214474833209
 30
0.0
 40
0.25
  0
CIRCLE
  5
339
330
6F
100
AcDbEntity
  8
A-0
  6
Continuous
 62
     4
100
AcDbCircle
 10
1943.379816014855
 20
2143.214474833209
 30
0.0
 40
0.1875
  0
CIRCLE
  5
33A
330
6F
100
AcDbEntity
  8
A-0
  6
Continuous
 62
     4
100
AcDbCircle
 10
1943.379816014855
 20
2143.214474833209
 30
0.0
 40
0.125
  0
CIRCLE
  5
33B
330
6F
100
AcDbEntity
  8
A-0
  6
Continuous
 62
     4
100
AcDbCircle
 10
1943.379816014855
 20
2143.214474833209
 30
0.0
 40
0.0625
  0
ARC
  5
33C
330
6F
100
AcDbEntity
  8
3-0
  6
Continuous
 62
     7
100
AcDbCircle
 10
1158.379816
 20
2328.214475000001
 30
0.0
 40
5.0
100
AcDbArc
 50
0.0000000002920064
 51
90.0
  0
LINE
  5
33D
330
6F
100
AcDbEntity
  8
3-0
  6
Continuous
 62
     7
100
AcDbLine
 10
1163.379816014854
 20
2328.214474833208
 30
0.0
 11
1163.379816014854
 21
2288.214474833208
 31
0.0
  0
ARC
  5
33E
330
6F
100
AcDbEntity
  8
3-0
  6
Continuous
 62
     7
100
AcDbCircle
 10
1158.379816
 20
2288.214475
 30
0.0
 40
5.0
100
AcDbArc
 50
270.0
 51
359.9999999997079
  0
LINE
  5
33F
330
6F
100
AcDbEntity
  8
3-0
  6
Continuous
 62
     7
100
AcDbLine
 10
1158.379816014854
 20
2283.214474833208
 30
0.0
 11
843.3798160148539
 21
2283.214474833208
 31
0.0
  0
ARC
  5
340
330
6F
100
AcDbEntity
  8
3-0
  6
Continuous
 62
     7
100
AcDbCircle
 10
843.379816
 20
2288.214475
 30
0.0
 40
5.0
100
AcDbArc
 50
180.000000000295
 51
269.9999999999981
  0
LINE
  5
341
330
6F
100
AcDbEntity
  8
3-0
  6
Continuous
 62
     7
100
AcDbLine
 10
838.379816014854
 20
2288.214474833208
 30
0.0
 11
838.379816014854
 21
2328.214474833208
 31
0.0
  0
ARC
  5
342
330
6F
100
AcDbEntity
  8
3-0
  6
Continuous
 62
     7
100
AcDbCircle
 10
843.379816
 20
2328.214475000001
 30
0.0
 40
5.0
100
AcDbArc
 50
89.99999999999799
 51
179.9999999997081
  0
LINE
  5
343
330
6F
100
AcDbEntity
  8
3-0
  6
Continuous
 62
     7
100
AcDbLine
 10
843.3798160148539
 20
2333.214474833208
 30
0.0
 11
1158.379816014854
 21
2333.214474833208
 31
0.0
  0
LINE
  5
344
330
6F
100
AcDbEntity
  8
3-0
  6
Continuous
 62
     7
100
AcDbLine
 10
1793.379816
 20
2633.214475
 30
0.0
 11
1793.379816
 21
2083.214475
 31
0.0
  0
LINE
  5
345
330
6F
100
AcDbEntity
  8
B-0
  6
CENTER
 62
     6
100
AcDbLine
 10
1475.879816
 20
2429.546166
 30
0.0
 11
1475.879816
 21
2772.158832000001
 31
0.0
  0
LINE
  5
346
330
6F
100
AcDbEntity
  8
3-0
  6
Continuous
 62
     7
100
AcDbLine
 10
1487.879816
 20
2504.657576
 30
0.0
 11
1487.879816
 21
2307.214475
 31
0.0
  0
LINE
  5
347
330
6F
100
AcDbEntity
  8
3-0
  6
Continuous
 62
     7
100
AcDbLine
 10
1463.879816
 20
2504.657576
 30
0.0
 11
1463.879816
 21
2307.214475
 31
0.0
  0
ARC
  5
348
330
6F
100
AcDbEntity
  8
3-0
  6
Continuous
 62
     7
100
AcDbCircle
 10
1762.53207
 20
2325.717301
 30
0.0
 40
554.1743109999999
100
AcDbArc
 50
169.9665707535219
 51
190.034022662316
  0
ARC
  5
349
330
6F
100
AcDbEntity
  8
3-0
  6
Continuous
 62
     7
100
AcDbCircle
 10
1315.142484
 20
2403.956547
 30
0.0
 40
100.0
100
AcDbArc
 50
96.59280351782101
 51
169.44931976035
  0
ARC
  5
34A
330
6F
100
AcDbEntity
  8
3-0
  6
Continuous
 62
     7
100
AcDbCircle
 10
1475.87549
 20
1013.214975
 30
0.0
 40
1500.0
100
AcDbArc
 50
83.40703013606697
 51
96.59263717170606
  0
ARC
  5
34B
330
6F
100
AcDbEntity
  8
3-0
  6
Continuous
 62
     7
100
AcDbCircle
 10
1636.617148
 20
2403.956547
 30
0.0
 40
100.0
100
AcDbArc
 50
10.55068023965106
 51
83.40719648218003
  0
ARC
  5
34C
330
6F
100
AcDbEntity
  8
3-0
  6
Continuous
 62
     7
100
AcDbCircle
 10
1189.228562
 20
2325.717301
 30
0.0
 40
554.1743109999999
100
AcDbArc
 50
349.9659773376839
 51
10.03342924647798
  0
ARC
  5
34D
330
6F
100
AcDbEntity
  8
3-0
  6
Continuous
 62
     7
100
AcDbCircle
 10
1641.817289
 20
2247.902181
 30
0.0
 40
94.97641900000001
100
AcDbArc
 50
273.7919219537059
 51
348.619994280083
  0
ARC
  5
34E
330
6F
100
AcDbEntity
  8
3-0
  6
Continuous
 62
     7
100
AcDbCircle
 10
1475.87549
 20
3643.214975
 30
0.0
 40
1500.0
100
AcDbArc
 50
263.407362828294
 51
276.592969863933
  0
ARC
  5
34F
330
6F
100
AcDbEntity
  8
3-0
  6
Continuous
 62
     7
100
AcDbCircle
 10
1309.942343
 20
2247.902181
 30
0.0
 40
94.97641900000001
100
AcDbArc
 50
191.3800057199159
 51
266.2080780462931
  0
CIRCLE
  5
350
330
6F
100
AcDbEntity
  8
3-0
  6
Continuous
 62
     7
100
AcDbCircle
 10
1593.379816
 20
2328.214475000001
 30
0.0
 40
90.0
  0
CIRCLE
  5
351
330
6F
100
AcDbEntity
  8
3-0
  6
Continuous
 62
     7
100
AcDbCircle
 10
1593.379816
 20
2328.214475000001
 30
0.0
 40
80.0
  0
ARC
  5
352
330
6F
100
AcDbEntity
  8
3-0
  6
DASHED2
 62
     7
100
AcDbCircle
 10
1475.879816
 20
2555.214475
 30
0.0
 40
260.0
100
AcDbArc
 50
190.538
 51
349.462
  0
LINE
  5
353
330
6F
100
AcDbEntity
  8
A-0
  6
Continuous
 62
     4
100
AcDbLine
 10
1892.963149
 20
2633.214475
 30
0.0
 11
2043.379816
 21
2633.214475
 31
0.0
  0
LINE
  5
354
330
6F
100
AcDbEntity
  8
A-0
  6
Continuous
 62
     4
100
AcDbLine
 10
1915.879816
 20
2083.214475
 30
0.0
 11
2043.379816
 21
2083.214475
 31
0.0
  0
TEXT
  5
355
330
6F
100
AcDbEntity
  8
A-0
 62
     4
100
AcDbText
 10
2042.76
 20
2324.614
 30
0.0
 40
36.288
  1
550
 50
90.0
100
AcDbText
  0
LINE
  5
356
330
6F
100
AcDbEntity
  8
A-0
  6
Continuous
 62
     4
100
AcDbLine
 10
2043.379816014855
 20
2083.214474833209
 30
0.0
 11
2043.379816014855
 21
2633.214474833208
 31
0.0
  0
CIRCLE
  5
357
330
6F
100
AcDbEntity
  8
A-0
  6
Continuous
 62
     4
100
AcDbCircle
 10
2043.379816014855
 20
2083.214474833209
 30
0.0
 40
0.25
  0
CIRCLE
  5
358
330
6F
100
AcDbEntity
  8
A-0
  6
Continuous
 62
     4
100
AcDbCircle
 10
2043.379816014855
 20
2083.214474833209
 30
0.0
 40
0.1875
  0
CIRCLE
  5
359
330
6F
100
AcDbEntity
  8
A-0
  6
Continuous
 62
     4
100
AcDbCircle
 10
2043.379816014855
 20
2083.214474833209
 30
0.0
 40
0.125
  0
CIRCLE
  5
35A
330
6F
100
AcDbEntity
  8
A-0
  6
Continuous
 62
     4
100
AcDbCircle
 10
2043.379816014855
 20
2083.214474833209
 30
0.0
 40
0.0625
  0
CIRCLE
  5
35B
330
6F
100
AcDbEntity
  8
A-0
  6
Continuous
 62
     4
100
AcDbCircle
 10
2043.379816014855
 20
2633.214474833208
 30
0.0
 40
0.25
  0
CIRCLE
  5
35C
330
6F
100
AcDbEntity
  8
A-0
  6
Continuous
 62
     4
100
AcDbCircle
 10
2043.379816014855
 20
2633.214474833208
 30
0.0
 40
0.1875
  0
CIRCLE
  5
35D
330
6F
100
AcDbEntity
  8
A-0
  6
Continuous
 62
     4
100
AcDbCircle
 10
2043.379816014855
 20
2633.214474833208
 30
0.0
 40
0.125
  0
CIRCLE
  5
35E
330
6F
100
AcDbEntity
  8
A-0
  6
Continuous
 62
     4
100
AcDbCircle
 10
2043.379816014855
 20
2633.214474833208
 30
0.0
 40
0.0625
  0
LINE
  5
35F
330
6F
100
AcDbEntity
  8
A-0
  6
Continuous
 62
     4
100
AcDbLine
 10
1793.379816
 20
1494.960886
 30
0.0
 11
1793.379816
 21
1724.960886
 31
0.0
  0
LINE
  5
360
330
6F
100
AcDbEntity
  8
A-0
  6
Continuous
 62
     4
100
AcDbLine
 10
793.379816
 20
1494.960886
 30
0.0
 11
793.379816
 21
1724.960886
 31
0.0
  0
TEXT
  5
361
330
6F
100
AcDbEntity
  8
A-0
 62
     4
100
AcDbText
 10
1251.402
 20
1725.581
 30
0.0
 40
36.288
  1
1000
100
AcDbText
  0
LINE
  5
362
330
6F
100
AcDbEntity
  8
A-0
  6
Continuous
 62
     4
100
AcDbLine
 10
793.379816014854
 20
1724.960885549913
 30
0.0
 11
1793.379816014854
 21
1724.960885549913
 31
0.0
  0
CIRCLE
  5
363
330
6F
100
AcDbEntity
  8
A-0
  6
Continuous
 62
     4
100
AcDbCircle
 10
793.379816014854
 20
1724.960885549913
 30
0.0
 40
0.25
  0
CIRCLE
  5
364
330
6F
100
AcDbEntity
  8
A-0
  6
Continuous
 62
     4
100
AcDbCircle
 10
793.379816014854
 20
1724.960885549913
 30
0.0
 40
0.1875
  0
CIRCLE
  5
365
330
6F
100
AcDbEntity
  8
A-0
  6
Continuous
 62
     4
100
AcDbCircle
 10
793.379816014854
 20
1724.960885549913
 30
0.0
 40
0.125
  0
CIRCLE
  5
366
330
6F
100
AcDbEntity
  8
A-0
  6
Continuous
 62
     4
100
AcDbCircle
 10
793.379816014854
 20
1724.960885549913
 30
0.0
 40
0.0625
  0
CIRCLE
  5
367
330
6F
100
AcDbEntity
  8
A-0
  6
Continuous
 62
     4
100
AcDbCircle
 10
1793.379816014854
 20
1724.960885549913
 30
0.0
 40
0.25
  0
CIRCLE
  5
368
330
6F
100
AcDbEntity
  8
A-0
  6
Continuous
 62
     4
100
AcDbCircle
 10
1793.379816014854
 20
1724.960885549913
 30
0.0
 40
0.1875
  0
CIRCLE
  5
369
330
6F
100
AcDbEntity
  8
A-0
  6
Continuous
 62
     4
100
AcDbCircle
 10
1793.379816014854
 20
1724.960885549913
 30
0.0
 40
0.125
  0
CIRCLE
  5
36A
330
6F
100
AcDbEntity
  8
A-0
  6
Continuous
 62
     4
100
AcDbCircle
 10
1793.379816014854
 20
1724.960885549913
 30
0.0
 40
0.0625
  0
LINE
  5
36B
330
6F
100
AcDbEntity
  8
A-0
  6
Continuous
 62
     4
100
AcDbLine
 10
793.379816
 20
1577.000905
 30
0.0
 11
793.379816
 21
1624.960886
 31
0.0
  0
LINE
  5
36C
330
6F
100
AcDbEntity
  8
A-0
  6
Continuous
 62
     4
100
AcDbLine
 10
1178.379816
 20
1610.455341
 30
0.0
 11
1178.379816
 21
1624.960886
 31
0.0
  0
TEXT
  5
36D
330
6F
100
AcDbEntity
  8
A-0
 62
     4
100
AcDbText
 10
955.1019999999999
 20
1625.581
 30
0.0
 40
36.288
  1
385
100
AcDbText
  0
LINE
  5
36E
330
6F
100
AcDbEntity
  8
A-0
  6
Continuous
 62
     4
100
AcDbLine
 10
1178.379816014854
 20
1624.960885549912
 30
0.0
 11
793.379816014854
 21
1624.960885549912
 31
0.0
  0
CIRCLE
  5
36F
330
6F
100
AcDbEntity
  8
A-0
  6
Continuous
 62
     4
100
AcDbCircle
 10
1178.379816014854
 20
1624.960885549912
 30
0.0
 40
0.25
  0
CIRCLE
  5
370
330
6F
100
AcDbEntity
  8
A-0
  6
Continuous
 62
     4
100
AcDbCircle
 10
1178.379816014854
 20
1624.960885549912
 30
0.0
 40
0.1875
  0
CIRCLE
  5
371
330
6F
100
AcDbEntity
  8
A-0
  6
Continuous
 62
     4
100
AcDbCircle
 10
1178.379816014854
 20
1624.960885549912
 30
0.0
 40
0.125
  0
CIRCLE
  5
372
330
6F
100
AcDbEntity
  8
A-0
  6
Continuous
 62
     4
100
AcDbCircle
 10
1178.379816014854
 20
1624.960885549912
 30
0.0
 40
0.0625
  0
CIRCLE
  5
373
330
6F
100
AcDbEntity
  8
A-0
  6
Continuous
 62
     4
100
AcDbCircle
 10
793.379816014854
 20
1624.960885549912
 30
0.0
 40
0.25
  0
CIRCLE
  5
374
330
6F
100
AcDbEntity
  8
A-0
  6
Continuous
 62
     4
100
AcDbCircle
 10
793.379816014854
 20
1624.960885549912
 30
0.0
 40
0.1875
  0
CIRCLE
  5
375
330
6F
100
AcDbEntity
  8
A-0
  6
Continuous
 62
     4
100
AcDbCircle
 10
793.379816014854
 20
1624.960885549912
 30
0.0
 40
0.125
  0
CIRCLE
  5
376
330
6F
100
AcDbEntity
  8
A-0
  6
Continuous
 62
     4
100
AcDbCircle
 10
793.379816014854
 20
1624.960885549912
 30
0.0
 40
0.0625
  0
LINE
  5
377
330
6F
100
AcDbEntity
  8
A-0
  6
Continuous
 62
     4
100
AcDbLine
 10
1208.379816
 20
2063.214475
 30
0.0
 11
1208.379816
 21
1933.214475
 31
0.0
  0
LINE
  5
378
330
6F
100
AcDbEntity
  8
A-0
  6
Continuous
 62
     4
100
AcDbLine
 10
793.379816
 20
2063.214475
 30
0.0
 11
793.379816
 21
1933.214475
 31
0.0
  0
TEXT
  5
379
330
6F
100
AcDbEntity
  8
A-0
 62
     4
100
AcDbText
 10
970.1019999999999
 20
1933.834
 30
0.0
 40
36.288
  1
415
100
AcDbText
  0
LINE
  5
37A
330
6F
100
AcDbEntity
  8
A-0
  6
Continuous
 62
     4
100
AcDbLine
 10
793.379816014854
 20
1933.214474833198
 30
0.0
 11
1208.379816014854
 21
1933.214474833198
 31
0.0
  0
CIRCLE
  5
37B
330
6F
100
AcDbEntity
  8
A-0
  6
Continuous
 62
     4
100
AcDbCircle
 10
793.379816014854
 20
1933.214474833198
 30
0.0
 40
0.25
  0
CIRCLE
  5
37C
330
6F
100
AcDbEntity
  8
A-0
  6
Continuous
 62
     4
100
AcDbCircle
 10
793.379816014854
 20
1933.214474833198
 30
0.0
 40
0.1875
  0
CIRCLE
  5
37D
330
6F
100
AcDbEntity
  8
A-0
  6
Continuous
 62
     4
100
AcDbCircle
 10
793.379816014854
 20
1933.214474833198
 30
0.0
 40
0.125
  0
CIRCLE
  5
37E
330
6F
100
AcDbEntity
  8
A-0
  6
Continuous
 62
     4
100
AcDbCircle
 10
793.379816014854
 20
1933.214474833198
 30
0.0
 40
0.0625
  0
CIRCLE
  5
37F
330
6F
100
AcDbEntity
  8
A-0
  6
Continuous
 62
     4
100
AcDbCircle
 10
1208.379816014854
 20
1933.214474833198
 30
0.0
 40
0.25
  0
CIRCLE
  5
380
330
6F
100
AcDbEntity
  8
A-0
  6
Continuous
 62
     4
100
AcDbCircle
 10
1208.379816014854
 20
1933.214474833198
 30
0.0
 40
0.1875
  0
CIRCLE
  5
381
330
6F
100
AcDbEntity
  8
A-0
  6
Continuous
 62
     4
100
AcDbCircle
 10
1208.379816014854
 20
1933.214474833198
 30
0.0
 40
0.125
  0
CIRCLE
  5
382
330
6F
100
AcDbEntity
  8
A-0
  6
Continuous
 62
     4
100
AcDbCircle
 10
1208.379816014854
 20
1933.214474833198
 30
0.0
 40
0.0625
  0
LINE
  5
383
330
6F
100
AcDbEntity
  8
3-0
  6
Continuous
 62
     7
100
AcDbLine
 10
1793.379816
 20
2083.214475
 30
0.0
 11
793.379816
 21
2083.214475
 31
0.0
  0
LINE
  5
384
330
6F
100
AcDbEntity
  8
A-0
  6
Continuous
 62
     4
100
AcDbLine
 10
793.379816
 20
1963.214475
 30
0.0
 11
793.379816
 21
1833.214475
 31
0.0
  0
LINE
  5
385
330
6F
100
AcDbEntity
  8
A-0
  6
Continuous
 62
     4
100
AcDbLine
 10
1793.379816
 20
1963.214475
 30
0.0
 11
1793.379816
 21
1833.214475
 31
0.0
  0
TEXT
  5
386
330
6F
100
AcDbEntity
  8
A-0
 62
     4
100
AcDbText
 10
1251.402
 20
1833.834
 30
0.0
 40
36.288
  1
1000
100
AcDbText
  0
LINE
  5
387
330
6F
100
AcDbEntity
  8
A-0
  6
Continuous
 62
     4
100
AcDbLine
 10
1793.379816014854
 20
1833.214474833198
 30
0.0
 11
793.379816014854
 21
1833.214474833198
 31
0.0
  0
CIRCLE
  5
388
330
6F
100
AcDbEntity
  8
A-0
  6
Continuous
 62
     4
100
AcDbCircle
 10
1793.379816014854
 20
1833.214474833198
 30
0.0
 40
0.25
  0
CIRCLE
  5
389
330
6F
100
AcDbEntity
  8
A-0
  6
Continuous
 62
     4
100
AcDbCircle
 10
1793.379816014854
 20
1833.214474833198
 30
0.0
 40
0.1875
  0
CIRCLE
  5
38A
330
6F
100
AcDbEntity
  8
A-0
  6
Continuous
 62
     4
100
AcDbCircle
 10
1793.379816014854
 20
1833.214474833198
 30
0.0
 40
0.125
  0
CIRCLE
  5
38B
330
6F
100
AcDbEntity
  8
A-0
  6
Continuous
 62
     4
100
AcDbCircle
 10
1793.379816014854
 20
1833.214474833198
 30
0.0
 40
0.0625
  0
CIRCLE
  5
38C
330
6F
100
AcDbEntity
  8
A-0
  6
Continuous
 62
     4
100
AcDbCircle
 10
793.379816014854
 20
1833.214474833198
 30
0.0
 40
0.25
  0
CIRCLE
  5
38D
330
6F
100
AcDbEntity
  8
A-0
  6
Continuous
 62
     4
100
AcDbCircle
 10
793.379816014854
 20
1833.214474833198
 30
0.0
 40
0.1875
  0
CIRCLE
  5
38E
330
6F
100
AcDbEntity
  8
A-0
  6
Continuous
 62
     4
100
AcDbCircle
 10
793.379816014854
 20
1833.214474833198
 30
0.0
 40
0.125
  0
CIRCLE
  5
38F
330
6F
100
AcDbEntity
  8
A-0
  6
Continuous
 62
     4
100
AcDbCircle
 10
793.379816014854
 20
1833.214474833198
 30
0.0
 40
0.0625
  0
LINE
  5
390
330
6F
100
AcDbEntity
  8
3-0
  6
Continuous
 62
     7
100
AcDbLine
 10
1793.379816
 20
1474.960886
 30
0.0
 11
793.379816
 21
1474.960886
 31
0.0
  0
LINE
  5
391
330
6F
100
AcDbEntity
  8
3-0
  6
Continuous
 62
     7
100
AcDbLine
 10
1653.324578
 20
1611.914271
 30
0.0
 11
1297.745902
 21
1611.914271
 31
0.0
  0
TEXT
  5
392
330
6F
100
AcDbEntity
  8
D-0
 62
     5
100
AcDbText
 10
1296.026
 20
1623.236
 30
0.0
 40
25.92
  1
背面桟木位置(配管注意）
100
AcDbText
  0
LINE
  5
393
330
6F
100
AcDbEntity
  8
3-0
  6
Continuous
 62
     7
100
AcDbLine
 10
1297.745902
 20
1611.914271
 30
0.0
 11
1178.379816
 21
1474.960886
 31
0.0
  0
LINE
  5
394
330
6F
100
AcDbEntity
  8
3-0
  6
DASHED2
 62
     7
100
AcDbLine
 10
1160.879816
 20
1498.701017
 30
0.0
 11
1160.879816
 21
1576.083931
 31
0.0
  0
LINE
  5
395
330
6F
100
AcDbEntity
  8
3-0
  6
DASHED2
 62
     7
100
AcDbLine
 10
1195.879816
 20
1498.701017
 30
0.0
 11
1195.879816
 21
1576.083931
 31
0.0
  0
LINE
  5
396
330
6F
100
AcDbEntity
  8
B-0
  6
CENTER
 62
     6
100
AcDbLine
 10
1178.379816
 20
1615.767382
 30
0.0
 11
1178.379816
 21
1432.24766
 31
0.0
  0
LINE
  5
397
330
6F
100
AcDbEntity
  8
3-0
  6
Continuous
 62
     7
100
AcDbLine
 10
1178.379816
 20
1474.960886
 30
0.0
 11
1188.746018
 21
1505.776779
 31
0.0
  0
LINE
  5
398
330
6F
100
AcDbEntity
  8
3-0
  6
DASHED2
 62
     7
100
AcDbLine
 10
1195.879816
 20
1576.083931
 30
0.0
 11
1160.879816
 21
1576.083931
 31
0.0
  0
LINE
  5
399
330
6F
100
AcDbEntity
  8
B-0
  6
CENTER
 62
     6
100
AcDbLine
 10
1513.379816
 20
2328.214475000001
 30
0.0
 11
1673.379816
 21
2328.214475000001
 31
0.0
  0
LINE
  5
39A
330
6F
100
AcDbEntity
  8
A-0
  6
Continuous
 62
     4
100
AcDbLine
 10
1208.379816
 20
2063.214475
 30
0.0
 11
1208.379816
 21
1933.214475
 31
0.0
  0
LINE
  5
39B
330
6F
100
AcDbEntity
  8
A-0
  6
Continuous
 62
     4
100
AcDbLine
 10
1743.379816
 20
2063.214475
 30
0.0
 11
1743.379816
 21
1933.214475
 31
0.0
  0
TEXT
  5
39C
330
6F
100
AcDbEntity
  8
A-0
 62
     4
100
AcDbText
 10
1445.102
 20
1933.834
 30
0.0
 40
36.288
  1
535
100
AcDbText
  0
LINE
  5
39D
330
6F
100
AcDbEntity
  8
A-0
  6
Continuous
 62
     4
100
AcDbLine
 10
1743.379816014858
 20
1933.214474833198
 30
0.0
 11
1208.379816014854
 21
1933.214474833198
 31
0.0
  0
CIRCLE
  5
39E
330
6F
100
AcDbEntity
  8
A-0
  6
Continuous
 62
     4
100
AcDbCircle
 10
1743.379816014858
 20
1933.214474833198
 30
0.0
 40
0.25
  0
CIRCLE
  5
39F
330
6F
100
AcDbEntity
  8
A-0
  6
Continuous
 62
     4
100
AcDbCircle
 10
1743.379816014858
 20
1933.214474833198
 30
0.0
 40
0.1875
  0
CIRCLE
  5
3A0
330
6F
100
AcDbEntity
  8
A-0
  6
Continuous
 62
     4
100
AcDbCircle
 10
1743.379816014858
 20
1933.214474833198
 30
0.0
 40
0.125
  0
CIRCLE
  5
3A1
330
6F
100
AcDbEntity
  8
A-0
  6
Continuous
 62
     4
100
AcDbCircle
 10
1743.379816014858
 20
1933.214474833198
 30
0.0
 40
0.0625
  0
CIRCLE
  5
3A2
330
6F
100
AcDbEntity
  8
A-0
  6
Continuous
 62
     4
100
AcDbCircle
 10
1208.379816014854
 20
1933.214474833198
 30
0.0
 40
0.25
  0
CIRCLE
  5
3A3
330
6F
100
AcDbEntity
  8
A-0
  6
Continuous
 62
     4
100
AcDbCircle
 10
1208.379816014854
 20
1933.214474833198
 30
0.0
 40
0.1875
  0
CIRCLE
  5
3A4
330
6F
100
AcDbEntity
  8
A-0
  6
Continuous
 62
     4
100
AcDbCircle
 10
1208.379816014854
 20
1933.214474833198
 30
0.0
 40
0.125
  0
CIRCLE
  5
3A5
330
6F
100
AcDbEntity
  8
A-0
  6
Continuous
 62
     4
100
AcDbCircle
 10
1208.379816014854
 20
1933.214474833198
 30
0.0
 40
0.0625
  0
LINE
  5
3A6
330
6F
100
AcDbEntity
  8
A-0
  6
Continuous
 62
     4
100
AcDbLine
 10
1813.379816
 20
2143.214475
 30
0.0
 11
1943.379816
 21
2143.214475
 31
0.0
  0
LINE
  5
3A7
330
6F
100
AcDbEntity
  8
A-0
  6
Continuous
 62
     4
100
AcDbLine
 10
1815.879816
 20
2083.214475
 30
0.0
 11
1943.379816
 21
2083.214475
 31
0.0
  0
TEXT
  5
3A8
330
6F
100
AcDbEntity
  8
A-0
 62
     4
100
AcDbText
 10
2010.26
 20
2141.674
 30
0.0
 40
36.288
  1
60
 50
90.0
100
AcDbText
  0
LINE
  5
3A9
330
6F
100
AcDbEntity
  8
A-0
  6
Continuous
 62
     4
100
AcDbLine
 10
1943.379816014855
 20
2083.214474833209
 30
0.0
 11
1943.379816014855
 21
2143.214474833209
 31
0.0
  0
CIRCLE
  5
3AA
330
6F
100
AcDbEntity
  8
A-0
  6
Continuous
 62
     4
100
AcDbCircle
 10
1943.379816014855
 20
2083.214474833209
 30
0.0
 40
0.25
  0
CIRCLE
  5
3AB
330
6F
100
AcDbEntity
  8
A-0
  6
Continuous
 62
     4
100
AcDbCircle
 10
1943.379816014855
 20
2083.214474833209
 30
0.0
 40
0.1875
  0
CIRCLE
  5
3AC
330
6F
100
AcDbEntity
  8
A-0
  6
Continuous
 62
     4
100
AcDbCircle
 10
1943.379816014855
 20
2083.214474833209
 30
0.0
 40
0.125
  0
CIRCLE
  5
3AD
330
6F
100
AcDbEntity
  8
A-0
  6
Continuous
 62
     4
100
AcDbCircle
 10
1943.379816014855
 20
2083.214474833209
 30
0.0
 40
0.0625
  0
CIRCLE
  5
3AE
330
6F
100
AcDbEntity
  8
A-0
  6
Continuous
 62
     4
100
AcDbCircle
 10
1943.379816014855
 20
2143.214474833209
 30
0.0
 40
0.25
  0
CIRCLE
  5
3AF
330
6F
100
AcDbEntity
  8
A-0
  6
Continuous
 62
     4
100
AcDbCircle
 10
1943.379816014855
 20
2143.214474833209
 30
0.0
 40
0.1875
  0
CIRCLE
  5
3B0
330
6F
100
AcDbEntity
  8
A-0
  6
Continuous
 62
     4
100
AcDbCircle
 10
1943.379816014855
 20
2143.214474833209
 30
0.0
 40
0.125
  0
CIRCLE
  5
3B1
330
6F
100
AcDbEntity
  8
A-0
  6
Continuous
 62
     4
100
AcDbCircle
 10
1943.379816014855
 20
2143.214474833209
 30
0.0
 40
0.0625
  0
LINE
  5
3B2
330
6F
100
AcDbEntity
  8
A-0
  6
Continuous
 62
     4
100
AcDbLine
 10
1793.379816
 20
2063.214475
 30
0.0
 11
1793.379816
 21
1933.214475
 31
0.0
  0
LINE
  5
3B3
330
6F
100
AcDbEntity
  8
A-0
  6
Continuous
 62
     4
100
AcDbLine
 10
1743.379816
 20
2063.214475
 30
0.0
 11
1743.379816
 21
1933.214475
 31
0.0
  0
LINE
  5
3B4
330
6F
100
AcDbEntity
  8
A-0
  6
Continuous
 62
     4
100
AcDbLine
 10
1783.379816
 20
1933.214475
 30
0.0
 11
1753.379816
 21
1933.214475
 31
0.0
  0
LINE
  5
3B5
330
6F
100
AcDbEntity
  8
A-0
  6
Continuous
 62
     4
100
AcDbLine
 10
1768.379816
 20
1933.214475
 30
0.0
 11
1744.025098
 21
1873.214475
 31
0.0
  0
LINE
  5
3B6
330
6F
100
AcDbEntity
  8
A-0
  6
Continuous
 62
     4
100
AcDbLine
 10
1744.025098
 20
1873.214475
 30
0.0
 11
1682.273829
 21
1873.214475
 31
0.0
  0
TEXT
  5
3B7
330
6F
100
AcDbEntity
  8
A-0
 62
     4
100
AcDbText
 10
1693.572
 20
1873.834
 30
0.0
 40
36.288
  1
50
100
AcDbText
  0
CIRCLE
  5
3B8
330
6F
100
AcDbEntity
  8
A-0
  6
Continuous
 62
     4
100
AcDbCircle
 10
1793.379816014854
 20
1933.214474833198
 30
0.0
 40
0.25
  0
CIRCLE
  5
3B9
330
6F
100
AcDbEntity
  8
A-0
  6
Continuous
 62
     4
100
AcDbCircle
 10
1793.379816014854
 20
1933.214474833198
 30
0.0
 40
0.1875
  0
CIRCLE
  5
3BA
330
6F
100
AcDbEntity
  8
A-0
  6
Continuous
 62
     4
100
AcDbCircle
 10
1793.379816014854
 20
1933.214474833198
 30
0.0
 40
0.125
  0
CIRCLE
  5
3BB
330
6F
100
AcDbEntity
  8
A-0
  6
Continuous
 62
     4
100
AcDbCircle
 10
1793.379816014854
 20
1933.214474833198
 30
0.0
 40
0.0625
  0
ARC
  5
3BC
330
6F
100
AcDbEntity
  8
A-0
 62
     4
100
AcDbCircle
 10
1793.379816014854
 20
1933.219474833198
 30
0.0
 40
2.5
100
AcDbArc
 50
0.1145914065300158
 51
180.114591405945
  0
LINE
  5
3BD
330
6F
100
AcDbEntity
  8
A-0
 62
     4
100
AcDbLine
 10
1788.379816014854
 20
1933.214474833198
 30
0.0
 11
1783.379816014854
 21
1933.214474833198
 31
0.0
  0
CIRCLE
  5
3BE
330
6F
100
AcDbEntity
  8
A-0
  6
Continuous
 62
     4
100
AcDbCircle
 10
1743.379816014858
 20
1933.214474833198
 30
0.0
 40
0.25
  0
CIRCLE
  5
3BF
330
6F
100
AcDbEntity
  8
A-0
  6
Continuous
 62
     4
100
AcDbCircle
 10
1743.379816014858
 20
1933.214474833198
 30
0.0
 40
0.1875
  0
CIRCLE
  5
3C0
330
6F
100
AcDbEntity
  8
A-0
  6
Continuous
 62
     4
100
AcDbCircle
 10
1743.379816014858
 20
1933.214474833198
 30
0.0
 40
0.125
  0
CIRCLE
  5
3C1
330
6F
100
AcDbEntity
  8
A-0
  6
Continuous
 62
     4
100
AcDbCircle
 10
1743.379816014858
 20
1933.214474833198
 30
0.0
 40
0.0625
  0
ARC
  5
3C2
330
6F
100
AcDbEntity
  8
A-0
 62
     4
100
AcDbCircle
 10
1743.379816014858
 20
1933.209474833198
 30
0.0
 40
2.5
100
AcDbArc
 50
180.1145914065301
 51
0.1145914059449637
  0
LINE
  5
3C3
330
6F
100
AcDbEntity
  8
A-0
 62
     4
100
AcDbLine
 10
1748.379816014858
 20
1933.214474833249
 30
0.0
 11
1753.379816014858
 21
1933.2144748333
 31
0.0
  0
LINE
  5
3C4
330
6F
100
AcDbEntity
  8
3-0
  6
Continuous
 62
     7
100
AcDbLine
 10
843.379816014858
 20
2133.214474833208
 30
0.0
 11
1190.905328875695
 21
2133.214474833208
 31
0.0
  0
ARC
  5
3C5
330
6F
100
AcDbEntity
  8
3-0
  6
Continuous
 62
     7
100
AcDbCircle
 10
1190.905329
 20
2138.214475
 30
0.0
 40
5.0
100
AcDbArc
 50
270.000000000003
 51
37.79972243502196
  0
ARC
  5
3C6
330
6F
100
AcDbEntity
  8
3-0
  6
Continuous
 62
     7
100
AcDbCircle
 10
1313.379816
 20
2233.214475
 30
0.0
 40
150.0
100
AcDbArc
 50
200.783559596072
 51
217.799722435598
  0
ARC
  5
3C7
330
6F
100
AcDbEntity
  8
3-0
  6
Continuous
 62
     7
100
AcDbCircle
 10
1168.466049
 20
2178.214475
 30
0.0
 40
5.0
100
AcDbArc
 50
20.78355959603209
 51
89.99999999996099
  0
LINE
  5
3C8
330
6F
100
AcDbEntity
  8
3-0
  6
Continuous
 62
     7
100
AcDbLine
 10
1168.466048552964
 20
2183.214474833208
 30
0.0
 11
843.379816014858
 21
2183.214474833208
 31
0.0
  0
ARC
  5
3C9
330
6F
100
AcDbEntity
  8
3-0
  6
Continuous
 62
     7
100
AcDbCircle
 10
843.379816
 20
2178.214475
 30
0.0
 40
5.0
100
AcDbArc
 50
90.00000000000696
 51
179.999999999712
  0
LINE
  5
3CA
330
6F
100
AcDbEntity
  8
3-0
  6
Continuous
 62
     7
100
AcDbLine
 10
838.3798160148579
 20
2178.214474833207
 30
0.0
 11
838.3798160148579
 21
2138.214474833208
 31
0.0
  0
ARC
  5
3CB
330
6F
100
AcDbEntity
  8
3-0
  6
Continuous
 62
     7
100
AcDbCircle
 10
843.379816
 20
2138.214475
 30
0.0
 40
5.0
100
AcDbArc
 50
180.000000000292
 51
269.999999999999
  0
LINE
  5
3CC
330
6F
100
AcDbEntity
  8
3-0
  6
Continuous
 62
     7
100
AcDbLine
 10
1459.535097367796
 20
2175.882439779393
 30
0.0
 11
1684.215508805329
 21
2175.882439779393
 31
0.0
  0
LINE
  5
3CD
330
6F
100
AcDbEntity
  8
3-0
  6
Continuous
 62
     7
100
AcDbLine
 10
1684.215508805329
 20
2175.882439779393
 30
0.0
 11
1593.379816014854
 21
2328.214474833208
 31
0.0
  0
LINE
  5
3CE
330
6F
100
AcDbEntity
  8
3-0
  6
Continuous
 62
     7
100
AcDbLine
 10
1593.379816014854
 20
2328.214474833208
 30
0.0
 11
1619.167787227303
 21
2308.414021877055
 31
0.0
  0
TEXT
  5
3CF
330
6F
100
AcDbEntity
  8
D-0
 62
     5
100
AcDbText
 10
1483.334
 20
2187.204
 30
0.0
 40
25.92
  1
床板排水芯
100
AcDbText
  0
ARC
  5
3D0
330
6F
100
AcDbEntity
  8
3-0
  6
Continuous
 62
     7
100
AcDbCircle
 10
1475.879816
 20
2307.214475
 30
0.0
 40
12.0
100
AcDbArc
 50
180.0
 51
0.0
  0
ARC
  5
3D1
330
6F
100
AcDbEntity
  8
3-0
  6
Continuous
 62
     7
100
AcDbCircle
 10
1161.310753
 20
2213.214475
 30
0.0
 40
5.0
100
AcDbArc
 50
269.999999999986
 51
11.15993687184406
  0
ARC
  5
3D2
330
6F
100
AcDbEntity
  8
3-0
  6
Continuous
 62
     7
100
AcDbCircle
 10
1313.379816
 20
2243.214475
 30
0.0
 40
150.0
100
AcDbArc
 50
176.3009289371429
 51
191.159936872446
  0
ARC
  5
3D3
330
6F
100
AcDbEntity
  8
3-0
  6
Continuous
 62
     7
100
AcDbCircle
 10
1158.702733
 20
2253.214475
 30
0.0
 40
5.0
100
AcDbArc
 50
356.3009289371231
 51
89.99999999996498
  0
LINE
  5
3D4
330
6F
100
AcDbEntity
  8
3-0
  6
Continuous
 62
     7
100
AcDbLine
 10
1158.702733032278
 20
2258.214474833208
 30
0.0
 11
843.379816014858
 21
2258.214474833208
 31
0.0
  0
ARC
  5
3D5
330
6F
100
AcDbEntity
  8
3-0
  6
Continuous
 62
     7
100
AcDbCircle
 10
843.379816
 20
2253.214475
 30
0.0
 40
5.0
100
AcDbArc
 50
90.00000000000095
 51
179.9999999997081
  0
LINE
  5
3D6
330
6F
100
AcDbEntity
  8
3-0
  6
Continuous
 62
     7
100
AcDbLine
 10
838.3798160148579
 20
2253.214474833208
 30
0.0
 11
838.379816014854
 21
2213.214474833208
 31
0.0
  0
ARC
  5
3D7
330
6F
100
AcDbEntity
  8
3-0
  6
Continuous
 62
     7
100
AcDbCircle
 10
843.379816
 20
2213.214475
 30
0.0
 40
5.0
100
AcDbArc
 50
180.000000000293
 51
270.0000000000009
  0
LINE
  5
3D8
330
6F
100
AcDbEntity
  8
3-0
  6
Continuous
 62
     7
100
AcDbLine
 10
843.3798160148539
 20
2208.214474833208
 30
0.0
 11
1161.310752757399
 21
2208.214474833208
 31
0.0
  0
LINE
  5
3D9
330
6F
100
AcDbEntity
  8
3-0
  6
Continuous
 62
     7
100
AcDbLine
 10
793.379816
 20
2608.214475
 30
0.0
 11
1793.379816
 21
2608.214475
 31
0.0
  0
LINE
  5
3DA
330
6F
100
AcDbEntity
  8
3-0
  6
Continuous
 62
     7
100
AcDbLine
 10
793.379816
 20
2633.214475
 30
0.0
 11
1793.379816
 21
2633.214475
 31
0.0
  0
LINE
  5
3DB
330
6F
100
AcDbEntity
  8
A-0
  6
Continuous
 62
     4
100
AcDbLine
 10
1793.379816
 20
2653.214475
 30
0.0
 11
1793.379816
 21
2774.658832
 31
0.0
  0
LINE
  5
3DC
330
6F
100
AcDbEntity
  8
A-0
  6
Continuous
 62
     4
100
AcDbLine
 10
1475.879816
 20
2746.04918
 30
0.0
 11
1475.879816
 21
2774.658832
 31
0.0
  0
TEXT
  5
3DD
330
6F
100
AcDbEntity
  8
A-0
 62
     4
100
AcDbText
 10
1581.452
 20
2775.279000000001
 30
0.0
 40
36.288
  1
317.5
100
AcDbText
  0
LINE
  5
3DE
330
6F
100
AcDbEntity
  8
A-0
  6
Continuous
 62
     4
100
AcDbLine
 10
1475.879816014854
 20
2774.658832308769
 30
0.0
 11
1793.379816014854
 21
2774.658832308769
 31
0.0
  0
CIRCLE
  5
3DF
330
6F
100
AcDbEntity
  8
A-0
  6
Continuous
 62
     4
100
AcDbCircle
 10
1475.879816014854
 20
2774.658832308769
 30
0.0
 40
0.25
  0
CIRCLE
  5
3E0
330
6F
100
AcDbEntity
  8
A-0
  6
Continuous
 62
     4
100
AcDbCircle
 10
1475.879816014854
 20
2774.658832308769
 30
0.0
 40
0.1875
  0
CIRCLE
  5
3E1
330
6F
100
AcDbEntity
  8
A-0
  6
Continuous
 62
     4
100
AcDbCircle
 10
1475.879816014854
 20
2774.658832308769
 30
0.0
 40
0.125
  0
CIRCLE
  5
3E2
330
6F
100
AcDbEntity
  8
A-0
  6
Continuous
 62
     4
100
AcDbCircle
 10
1475.879816014854
 20
2774.658832308769
 30
0.0
 40
0.0625
  0
CIRCLE
  5
3E3
330
6F
100
AcDbEntity
  8
A-0
  6
Continuous
 62
     4
100
AcDbCircle
 10
1793.379816014854
 20
2774.658832308769
 30
0.0
 40
0.25
  0
CIRCLE
  5
3E4
330
6F
100
AcDbEntity
  8
A-0
  6
Continuous
 62
     4
100
AcDbCircle
 10
1793.379816014854
 20
2774.658832308769
 30
0.0
 40
0.1875
  0
CIRCLE
  5
3E5
330
6F
100
AcDbEntity
  8
A-0
  6
Continuous
 62
     4
100
AcDbCircle
 10
1793.379816014854
 20
2774.658832308769
 30
0.0
 40
0.125
  0
CIRCLE
  5
3E6
330
6F
100
AcDbEntity
  8
A-0
  6
Continuous
 62
     4
100
AcDbCircle
 10
1793.379816014854
 20
2774.658832308769
 30
0.0
 40
0.0625
  0
LINE
  5
3E7
330
6F
100
AcDbEntity
  8
A-0
  6
Continuous
 62
     4
100
AcDbLine
 10
1813.379816
 20
2608.214475
 30
0.0
 11
1943.379816
 21
2608.214475
 31
0.0
  0
LINE
  5
3E8
330
6F
100
AcDbEntity
  8
A-0
  6
Continuous
 62
     4
100
AcDbLine
 10
1813.379816
 20
2513.214475
 30
0.0
 11
1943.379816
 21
2513.214475
 31
0.0
  0
TEXT
  5
3E9
330
6F
100
AcDbEntity
  8
A-0
 62
     4
100
AcDbText
 10
1942.76
 20
2538.314
 30
0.0
 40
36.288
  1
95
 50
90.0
100
AcDbText
  0
LINE
  5
3EA
330
6F
100
AcDbEntity
  8
A-0
  6
Continuous
 62
     4
100
AcDbLine
 10
1943.379816014855
 20
2513.214474833209
 30
0.0
 11
1943.379816014855
 21
2608.214474833209
 31
0.0
  0
CIRCLE
  5
3EB
330
6F
100
AcDbEntity
  8
A-0
  6
Continuous
 62
     4
100
AcDbCircle
 10
1943.379816014855
 20
2513.214474833209
 30
0.0
 40
0.25
  0
CIRCLE
  5
3EC
330
6F
100
AcDbEntity
  8
A-0
  6
Continuous
 62
     4
100
AcDbCircle
 10
1943.379816014855
 20
2513.214474833209
 30
0.0
 40
0.1875
  0
CIRCLE
  5
3ED
330
6F
100
AcDbEntity
  8
A-0
  6
Continuous
 62
     4
100
AcDbCircle
 10
1943.379816014855
 20
2513.214474833209
 30
0.0
 40
0.125
  0
CIRCLE
  5
3EE
330
6F
100
AcDbEntity
  8
A-0
  6
Continuous
 62
     4
100
AcDbCircle
 10
1943.379816014855
 20
2513.214474833209
 30
0.0
 40
0.0625
  0
CIRCLE
  5
3EF
330
6F
100
AcDbEntity
  8
A-0
  6
Continuous
 62
     4
100
AcDbCircle
 10
1943.379816014855
 20
2608.214474833209
 30
0.0
 40
0.25
  0
CIRCLE
  5
3F0
330
6F
100
AcDbEntity
  8
A-0
  6
Continuous
 62
     4
100
AcDbCircle
 10
1943.379816014855
 20
2608.214474833209
 30
0.0
 40
0.1875
  0
CIRCLE
  5
3F1
330
6F
100
AcDbEntity
  8
A-0
  6
Continuous
 62
     4
100
AcDbCircle
 10
1943.379816014855
 20
2608.214474833209
 30
0.0
 40
0.125
  0
CIRCLE
  5
3F2
330
6F
100
AcDbEntity
  8
A-0
  6
Continuous
 62
     4
100
AcDbCircle
 10
1943.379816014855
 20
2608.214474833209
 30
0.0
 40
0.0625
  0
LINE
  5
3F3
330
6F
100
AcDbEntity
  8
A-0
  6
Continuous
 62
     4
100
AcDbLine
 10
1813.379816
 20
2608.214475
 30
0.0
 11
1943.379816
 21
2608.214475
 31
0.0
  0
LINE
  5
3F4
330
6F
100
AcDbEntity
  8
A-0
  6
Continuous
 62
     4
100
AcDbLine
 10
1815.879816
 20
2633.214475
 30
0.0
 11
1943.379816
 21
2633.214475
 31
0.0
  0
LINE
  5
3F5
330
6F
100
AcDbEntity
  8
A-0
  6
Continuous
 62
     4
100
AcDbLine
 10
1943.379816
 20
2598.214475000001
 30
0.0
 11
1943.379816
 21
2588.214475
 31
0.0
  0
LINE
  5
3F6
330
6F
100
AcDbEntity
  8
A-0
  6
Continuous
 62
     4
100
AcDbLine
 10
1943.379816
 20
2643.214475000001
 30
0.0
 11
1943.379816
 21
2653.214475
 31
0.0
  0
LINE
  5
3F7
330
6F
100
AcDbEntity
  8
A-0
  6
Continuous
 62
     4
100
AcDbLine
 10
1943.379816
 20
2620.714475
 30
0.0
 11
2003.379816
 21
2654.685454
 31
0.0
  0
LINE
  5
3F8
330
6F
100
AcDbEntity
  8
A-0
  6
Continuous
 62
     4
100
AcDbLine
 10
2003.379816
 20
2654.685454
 30
0.0
 11
2003.379816
 21
2715.370733
 31
0.0
  0
TEXT
  5
3F9
330
6F
100
AcDbEntity
  8
A-0
 62
     4
100
AcDbText
 10
2002.76
 20
2662.628
 30
0.0
 40
36.288
  1
25
 50
90.0
100
AcDbText
  0
LINE
  5
3FA
330
6F
100
AcDbEntity
  8
A-0
  6
Continuous
 62
     4
100
AcDbLine
 10
1943.379816
 20
2608.214475
 30
0.0
 11
1943.379816
 21
2633.214475
 31
0.0
  0
LINE
  5
3FB
330
6F
100
AcDbEntity
  8
A-0
  6
Continuous
 62
     4
100
AcDbLine
 10
1943.379816
 20
2608.214475
 30
0.0
 11
1943.379816
 21
2633.214475
 31
0.0
  0
CIRCLE
  5
3FC
330
6F
100
AcDbEntity
  8
A-0
  6
Continuous
 62
     4
100
AcDbCircle
 10
1943.379816014855
 20
2608.214474833209
 30
0.0
 40
0.25
  0
CIRCLE
  5
3FD
330
6F
100
AcDbEntity
  8
A-0
  6
Continuous
 62
     4
100
AcDbCircle
 10
1943.379816014855
 20
2608.214474833209
 30
0.0
 40
0.1875
  0
CIRCLE
  5
3FE
330
6F
100
AcDbEntity
  8
A-0
  6
Continuous
 62
     4
100
AcDbCircle
 10
1943.379816014855
 20
2608.214474833209
 30
0.0
 40
0.125
  0
CIRCLE
  5
3FF
330
6F
100
AcDbEntity
  8
A-0
  6
Continuous
 62
     4
100
AcDbCircle
 10
1943.379816014855
 20
2608.214474833209
 30
0.0
 40
0.0625
  0
ARC
  5
400
330
6F
100
AcDbEntity
  8
A-0
 62
     4
100
AcDbCircle
 10
1943.374816014855
 20
2608.214474833209
 30
0.0
 40
2.5
100
AcDbArc
 50
90.11459140653
 51
270.114591405945
  0
LINE
  5
401
330
6F
100
AcDbEntity
  8
A-0
 62
     4
100
AcDbLine
 10
1943.37981601488
 20
2603.214474833209
 30
0.0
 11
1943.379816014906
 21
2598.214474833209
 31
0.0
  0
CIRCLE
  5
402
330
6F
100
AcDbEntity
  8
A-0
  6
Continuous
 62
     4
100
AcDbCircle
 10
1943.379816014855
 20
2633.214474833208
 30
0.0
 40
0.25
  0
CIRCLE
  5
403
330
6F
100
AcDbEntity
  8
A-0
  6
Continuous
 62
     4
100
AcDbCircle
 10
1943.379816014855
 20
2633.214474833208
 30
0.0
 40
0.1875
  0
CIRCLE
  5
404
330
6F
100
AcDbEntity
  8
A-0
  6
Continuous
 62
     4
100
AcDbCircle
 10
1943.379816014855
 20
2633.214474833208
 30
0.0
 40
0.125
  0
CIRCLE
  5
405
330
6F
100
AcDbEntity
  8
A-0
  6
Continuous
 62
     4
100
AcDbCircle
 10
1943.379816014855
 20
2633.214474833208
 30
0.0
 40
0.0625
  0
ARC
  5
406
330
6F
100
AcDbEntity
  8
A-0
 62
     4
100
AcDbCircle
 10
1943.384816014855
 20
2633.214474833208
 30
0.0
 40
2.5
100
AcDbArc
 50
270.1145914065301
 51
90.11459140594496
  0
LINE
  5
407
330
6F
100
AcDbEntity
  8
A-0
 62
     4
100
AcDbLine
 10
1943.379816014778
 20
2638.214474833208
 30
0.0
 11
1943.379816014702
 21
2643.214474833208
 31
0.0
  0
ARC
  5
408
330
6F
100
AcDbEntity
  8
3-0
  6
Continuous
 62
     7
100
AcDbCircle
 10
1475.879816
 20
2555.214475
 30
0.0
 40
30.0
100
AcDbArc
 50
320.805
 51
219.195
  0
LINE
  5
409
330
6F
100
AcDbEntity
  8
3-0
  6
Continuous
 62
     7
100
AcDbLine
 10
843.379816014858
 20
2558.214474833208
 30
0.0
 11
1190.905328875695
 21
2558.214474833208
 31
0.0
  0
ARC
  5
40A
330
6F
100
AcDbEntity
  8
3-0
  6
Continuous
 62
     7
100
AcDbCircle
 10
1190.905329
 20
2553.214475000001
 30
0.0
 40
5.0
100
AcDbArc
 50
322.200277564976
 51
89.99999999999495
  0
ARC
  5
40B
330
6F
100
AcDbEntity
  8
3-0
  6
Continuous
 62
     7
100
AcDbCircle
 10
1313.379816
 20
2458.214475
 30
0.0
 40
150.0
100
AcDbArc
 50
142.200277564402
 51
159.216440403928
  0
ARC
  5
40C
330
6F
100
AcDbEntity
  8
3-0
  6
Continuous
 62
     7
100
AcDbCircle
 10
1168.466049
 20
2513.214475
 30
0.0
 40
5.0
100
AcDbArc
 50
270.0000000000309
 51
339.21644040396
  0
LINE
  5
40D
330
6F
100
AcDbEntity
  8
3-0
  6
Continuous
 62
     7
100
AcDbLine
 10
1168.466048552964
 20
2508.214474833208
 30
0.0
 11
843.379816014858
 21
2508.214474833208
 31
0.0
  0
ARC
  5
40E
330
6F
100
AcDbEntity
  8
3-0
  6
Continuous
 62
     7
100
AcDbCircle
 10
843.379816
 20
2513.214475
 30
0.0
 40
5.0
100
AcDbArc
 50
180.000000000293
 51
269.9999999999981
  0
LINE
  5
40F
330
6F
100
AcDbEntity
  8
3-0
  6
Continuous
 62
     7
100
AcDbLine
 10
838.3798160148579
 20
2513.214474833208
 30
0.0
 11
838.3798160148579
 21
2553.214474833208
 31
0.0
  0
ARC
  5
410
330
6F
100
AcDbEntity
  8
3-0
  6
Continuous
 62
     7
100
AcDbCircle
 10
843.379816
 20
2553.214475000001
 30
0.0
 40
5.0
100
AcDbArc
 50
90.00000000000095
 51
179.9999999997081
  0
ARC
  5
411
330
6F
100
AcDbEntity
  8
3-0
  6
Continuous
 62
     7
100
AcDbCircle
 10
1475.879816
 20
2441.546166
 30
0.0
 40
12.0
100
AcDbArc
 50
180.0
 51
0.0
  0
LINE
  5
412
330
6F
100
AcDbEntity
  8
B-0
  6
CENTER
 62
     6
100
AcDbLine
 10
1541.751754
 20
2555.214475
 30
0.0
 11
1400.927481
 21
2555.214475
 31
0.0
  0
ARC
  5
413
330
6F
100
AcDbEntity
  8
3-0
  6
Continuous
 62
     7
100
AcDbCircle
 10
1537.879816
 20
2504.657576
 30
0.0
 40
50.0
100
AcDbArc
 50
140.805
 51
180.0
  0
ARC
  5
414
330
6F
100
AcDbEntity
  8
3-0
  6
Continuous
 62
     7
100
AcDbCircle
 10
1413.879816
 20
2504.657576
 30
0.0
 40
50.0
100
AcDbArc
 50
0.0
 51
39.195
  0
ARC
  5
415
330
6F
100
AcDbEntity
  8
3-0
  6
Continuous
 62
     7
100
AcDbCircle
 10
1158.379816
 20
2478.214475000001
 30
0.0
 40
5.0
100
AcDbArc
 50
0.0000000002920064
 51
90.0
  0
LINE
  5
416
330
6F
100
AcDbEntity
  8
3-0
  6
Continuous
 62
     7
100
AcDbLine
 10
1163.379816014854
 20
2478.214474833208
 30
0.0
 11
1163.379816014854
 21
2438.214474833208
 31
0.0
  0
ARC
  5
417
330
6F
100
AcDbEntity
  8
3-0
  6
Continuous
 62
     7
100
AcDbCircle
 10
1158.379816
 20
2438.214475
 30
0.0
 40
5.0
100
AcDbArc
 50
270.0
 51
359.9999999997079
  0
LINE
  5
418
330
6F
100
AcDbEntity
  8
3-0
  6
Continuous
 62
     7
100
AcDbLine
 10
1158.379816014854
 20
2433.214474833208
 30
0.0
 11
843.3798160148539
 21
2433.214474833208
 31
0.0
  0
ARC
  5
419
330
6F
100
AcDbEntity
  8
3-0
  6
Continuous
 62
     7
100
AcDbCircle
 10
843.379816
 20
2438.214475
 30
0.0
 40
5.0
100
AcDbArc
 50
180.000000000295
 51
269.9999999999981
  0
LINE
  5
41A
330
6F
100
AcDbEntity
  8
3-0
  6
Continuous
 62
     7
100
AcDbLine
 10
838.379816014854
 20
2438.214474833208
 30
0.0
 11
838.379816014854
 21
2478.214474833208
 31
0.0
  0
ARC
  5
41B
330
6F
100
AcDbEntity
  8
3-0
  6
Continuous
 62
     7
100
AcDbCircle
 10
843.379816
 20
2478.214475000001
 30
0.0
 40
5.0
100
AcDbArc
 50
89.99999999999799
 51
179.9999999997081
  0
LINE
  5
41C
330
6F
100
AcDbEntity
  8
3-0
  6
Continuous
 62
     7
100
AcDbLine
 10
843.3798160148539
 20
2483.214474833208
 30
0.0
 11
1158.379816014854
 21
2483.214474833208
 31
0.0
  0
ARC
  5
41D
330
6F
100
AcDbEntity
  8
3-0
  6
Continuous
 62
     7
100
AcDbCircle
 10
1158.379816
 20
2403.214475
 30
0.0
 40
5.0
100
AcDbArc
 50
0.0000000002920064
 51
90.0
  0
LINE
  5
41E
330
6F
100
AcDbEntity
  8
3-0
  6
Continuous
 62
     7
100
AcDbLine
 10
1163.379816014854
 20
2403.214474833208
 30
0.0
 11
1163.379816014854
 21
2363.214474833208
 31
0.0
  0
ARC
  5
41F
330
6F
100
AcDbEntity
  8
3-0
  6
Continuous
 62
     7
100
AcDbCircle
 10
1158.379816
 20
2363.214475
 30
0.0
 40
5.0
100
AcDbArc
 50
270.0
 51
359.9999999997079
  0
LINE
  5
420
330
6F
100
AcDbEntity
  8
3-0
  6
Continuous
 62
     7
100
AcDbLine
 10
1158.379816014854
 20
2358.214474833208
 30
0.0
 11
843.3798160148539
 21
2358.214474833208
 31
0.0
  0
ARC
  5
421
330
6F
100
AcDbEntity
  8
3-0
  6
Continuous
 62
     7
100
AcDbCircle
 10
843.379816
 20
2363.214475
 30
0.0
 40
5.0
100
AcDbArc
 50
180.000000000295
 51
269.9999999999981
  0
LINE
  5
422
330
6F
100
AcDbEntity
  8
3-0
  6
Continuous
 62
     7
100
AcDbLine
 10
838.379816014854
 20
2363.214474833208
 30
0.0
 11
838.379816014854
 21
2403.214474833208
 31
0.0
  0
ARC
  5
423
330
6F
100
AcDbEntity
  8
3-0
  6
Continuous
 62
     7
100
AcDbCircle
 10
843.379816
 20
2403.214475
 30
0.0
 40
5.0
100
AcDbArc
 50
89.99999999999799
 51
179.9999999997081
  0
LINE
  5
424
330
6F
100
AcDbEntity
  8
3-0
  6
Continuous
 62
     7
100
AcDbLine
 10
843.3798160148539
 20
2408.214474833208
 30
0.0
 11
1158.379816014854
 21
2408.214474833208
 31
0.0
  0
LINE
  5
425
330
6F
100
AcDbEntity
  8
3-0
  6
DASHED2
 62
     7
100
AcDbLine
 10
1529.95347271508
 20
1142.960885953763
 30
0.0
 11
1529.95347271508
 21
1089.860885953763
 31
0.0
  0
ARC
  5
426
330
6F
100
AcDbEntity
  8
3-0
  6
DASHED2
 62
     7
100
AcDbCircle
 10
1539.953473
 20
1089.860886
 30
0.0
 40
10.0
100
AcDbArc
 50
180.000000000292
 51
270.0
  0
LINE
  5
427
330
6F
100
AcDbEntity
  8
3-0
  6
DASHED2
 62
     7
100
AcDbLine
 10
1539.95347271508
 20
1079.860885953763
 30
0.0
 11
1646.806159314628
 21
1079.860885953763
 31
0.0
  0
ARC
  5
428
330
6F
100
AcDbEntity
  8
3-0
  6
DASHED2
 62
     7
100
AcDbCircle
 10
1646.806159
 20
1089.860886
 30
0.0
 40
10.0
100
AcDbArc
 50
270.0
 51
359.999999999708
  0
LINE
  5
429
330
6F
100
AcDbEntity
  8
3-0
  6
DASHED2
 62
     7
100
AcDbLine
 10
1656.806159314628
 20
1089.860885953763
 30
0.0
 11
1656.806159314628
 21
1142.960885953763
 31
0.0
  0
LINE
  5
42A
330
6F
100
AcDbEntity
  8
3-0
  6
DASHED2
 62
     7
100
AcDbLine
 10
1623.379816014853
 20
1079.860885953763
 30
0.0
 11
1623.379816014854
 21
1048.960885549903
 31
0.0
  0
LINE
  5
42B
330
6F
100
AcDbEntity
  8
3-0
  6
DASHED2
 62
     7
100
AcDbLine
 10
1623.379816014854
 20
1048.960885549903
 30
0.0
 11
1563.379816014852
 21
1048.960885549903
 31
0.0
  0
LINE
  5
42C
330
6F
100
AcDbEntity
  8
3-0
  6
DASHED2
 62
     7
100
AcDbLine
 10
1563.379816014852
 20
1048.960885549903
 30
0.0
 11
1563.379816014852
 21
1079.860885953763
 31
0.0
  0
LINE
  5
42D
330
6F
100
AcDbEntity
  8
3-0
  6
DASHED2
 62
     7
100
AcDbLine
 10
1503.379816
 20
1231.960886
 30
0.0
 11
1683.379816
 21
1231.960886
 31
0.0
  0
LINE
  5
42E
330
6F
100
AcDbEntity
  8
3-0
  6
DASHED2
 62
     7
100
AcDbLine
 10
1683.379816
 20
1236.960886
 30
0.0
 11
1683.379816
 21
1231.960886
 31
0.0
  0
LINE
  5
42F
330
6F
100
AcDbEntity
  8
3-0
  6
DASHED2
 62
     7
100
AcDbLine
 10
1515.379816
 20
1214.759362
 30
0.0
 11
1524.468615
 21
1209.759362
 31
0.0
  0
LINE
  5
430
330
6F
100
AcDbEntity
  8
3-0
  6
DASHED2
 62
     7
100
AcDbLine
 10
1671.379816
 20
1214.759362
 30
0.0
 11
1662.291017
 21
1209.759362
 31
0.0
  0
LINE
  5
431
330
6F
100
AcDbEntity
  8
3-0
  6
DASHED2
 62
     7
100
AcDbLine
 10
1524.468615
 20
1209.759362
 30
0.0
 11
1524.468615
 21
1145.175652
 31
0.0
  0
LINE
  5
432
330
6F
100
AcDbEntity
  8
3-0
  6
DASHED2
 62
     7
100
AcDbLine
 10
1662.291017
 20
1209.759362
 30
0.0
 11
1662.291017
 21
1145.175652
 31
0.0
  0
LINE
  5
433
330
6F
100
AcDbEntity
  8
3-0
  6
DASHED2
 62
     7
100
AcDbLine
 10
1524.468615
 20
1209.759362
 30
0.0
 11
1662.291017
 21
1209.759362
 31
0.0
  0
LINE
  5
434
330
6F
100
AcDbEntity
  8
3-0
  6
DASHED2
 62
     7
100
AcDbLine
 10
1524.468614871623
 20
1142.960885953763
 30
0.0
 11
1662.291017158084
 21
1142.960885953763
 31
0.0
  0
LINE
  5
435
330
6F
100
AcDbEntity
  8
3-0
  6
DASHED2
 62
     7
100
AcDbLine
 10
1515.379816
 20
1214.759362
 30
0.0
 11
1671.379816
 21
1214.759362
 31
0.0
  0
LINE
  5
436
330
6F
100
AcDbEntity
  8
3-0
  6
DASHED2
 62
     7
100
AcDbLine
 10
1681.13216
 20
1231.960886
 30
0.0
 11
1681.13216
 21
1217.960886
 31
0.0
  0
LINE
  5
437
330
6F
100
AcDbEntity
  8
3-0
  6
DASHED2
 62
     7
100
AcDbLine
 10
1681.13216
 20
1217.960886
 30
0.0
 11
1671.379816
 21
1217.960886
 31
0.0
  0
LINE
  5
438
330
6F
100
AcDbEntity
  8
3-0
  6
DASHED2
 62
     7
100
AcDbLine
 10
1671.379816
 20
1231.960886
 30
0.0
 11
1671.379816
 21
1214.759362
 31
0.0
  0
LINE
  5
439
330
6F
100
AcDbEntity
  8
3-0
  6
DASHED2
 62
     7
100
AcDbLine
 10
1505.627473
 20
1231.960886
 30
0.0
 11
1505.627473
 21
1217.960886
 31
0.0
  0
LINE
  5
43A
330
6F
100
AcDbEntity
  8
3-0
  6
DASHED2
 62
     7
100
AcDbLine
 10
1505.627473
 20
1217.960886
 30
0.0
 11
1515.379816
 21
1217.960886
 31
0.0
  0
LINE
  5
43B
330
6F
100
AcDbEntity
  8
3-0
  6
DASHED2
 62
     7
100
AcDbLine
 10
1515.379816
 20
1231.960886
 30
0.0
 11
1515.379816
 21
1214.759362
 31
0.0
  0
LINE
  5
43C
330
6F
100
AcDbEntity
  8
3-0
  6
DASHED2
 62
     7
100
AcDbLine
 10
1503.379816
 20
1236.960886
 30
0.0
 11
1503.379816
 21
1231.960886
 31
0.0
  0
LINE
  5
43D
330
6F
100
AcDbEntity
  8
B-0
  6
CENTER
 62
     6
100
AcDbLine
 10
1593.379816
 20
2248.214475000001
 30
0.0
 11
1593.379816
 21
2692.496176000001
 31
0.0
  0
LINE
  5
43E
330
6F
100
AcDbEntity
  8
A-0
  6
Continuous
 62
     4
100
AcDbLine
 10
1793.379816
 20
2653.214475
 30
0.0
 11
1793.379816
 21
2692.496176000001
 31
0.0
  0
LINE
  5
43F
330
6F
100
AcDbEntity
  8
A-0
  6
Continuous
 62
     4
100
AcDbLine
 10
1593.379816
 20
2690.658772000001
 30
0.0
 11
1593.379816
 21
2692.496176000001
 31
0.0
  0
TEXT
  5
440
330
6F
100
AcDbEntity
  8
A-0
 62
     4
100
AcDbText
 10
1662.602
 20
2693.116
 30
0.0
 40
36.288
  1
200
100
AcDbText
  0
LINE
  5
441
330
6F
100
AcDbEntity
  8
A-0
  6
Continuous
 62
     4
100
AcDbLine
 10
1593.379816014854
 20
2692.496176316821
 30
0.0
 11
1793.379816014854
 21
2692.496176316821
 31
0.0
  0
CIRCLE
  5
442
330
6F
100
AcDbEntity
  8
A-0
  6
Continuous
 62
     4
100
AcDbCircle
 10
1593.379816014854
 20
2692.496176316821
 30
0.0
 40
0.25
  0
CIRCLE
  5
443
330
6F
100
AcDbEntity
  8
A-0
  6
Continuous
 62
     4
100
AcDbCircle
 10
1593.379816014854
 20
2692.496176316821
 30
0.0
 40
0.1875
  0
CIRCLE
  5
444
330
6F
100
AcDbEntity
  8
A-0
  6
Continuous
 62
     4
100
AcDbCircle
 10
1593.379816014854
 20
2692.496176316821
 30
0.0
 40
0.125
  0
CIRCLE
  5
445
330
6F
100
AcDbEntity
  8
A-0
  6
Continuous
 62
     4
100
AcDbCircle
 10
1593.379816014854
 20
2692.496176316821
 30
0.0
 40
0.0625
  0
CIRCLE
  5
446
330
6F
100
AcDbEntity
  8
A-0
  6
Continuous
 62
     4
100
AcDbCircle
 10
1793.379816014854
 20
2692.496176316821
 30
0.0
 40
0.25
  0
CIRCLE
  5
447
330
6F
100
AcDbEntity
  8
A-0
  6
Continuous
 62
     4
100
AcDbCircle
 10
1793.379816014854
 20
2692.496176316821
 30
0.0
 40
0.1875
  0
CIRCLE
  5
448
330
6F
100
AcDbEntity
  8
A-0
  6
Continuous
 62
     4
100
AcDbCircle
 10
1793.379816014854
 20
2692.496176316821
 30
0.0
 40
0.125
  0
CIRCLE
  5
449
330
6F
100
AcDbEntity
  8
A-0
  6
Continuous
 62
     4
100
AcDbCircle
 10
1793.379816014854
 20
2692.496176316821
 30
0.0
 40
0.0625
  0
LINE
  5
44A
330
6F
100
AcDbEntity
  8
3-0
  6
Continuous
 62
     7
100
AcDbLine
 10
1382.144613
 20
2793.214475
 30
0.0
 11
1475.879816
 21
2555.214475
 31
0.0
  0
LINE
  5
44B
330
6F
100
AcDbEntity
  8
A-0
  6
Continuous
 62
     4
100
AcDbLine
 10
1455.879816
 20
2633.214475
 30
0.0
 11
1400.927481
 21
2633.214475
 31
0.0
  0
LINE
  5
44C
330
6F
100
AcDbEntity
  8
A-0
  6
Continuous
 62
     4
100
AcDbLine
 10
1415.269683
 20
2555.214475
 30
0.0
 11
1400.927481
 21
2555.214475
 31
0.0
  0
LINE
  5
44D
330
6F
100
AcDbEntity
  8
A-0
  6
Continuous
 62
     4
100
AcDbLine
 10
1400.927481
 20
2623.214475000001
 30
0.0
 11
1400.927481
 21
2565.214475
 31
0.0
  0
LINE
  5
44E
330
6F
100
AcDbEntity
  8
A-0
  6
Continuous
 62
     4
100
AcDbLine
 10
1400.927481
 20
2594.214475000001
 30
0.0
 11
1331.302144
 21
2659.71013
 31
0.0
  0
LINE
  5
44F
330
6F
100
AcDbEntity
  8
A-0
  6
Continuous
 62
     4
100
AcDbLine
 10
1331.302144
 20
2659.71013
 30
0.0
 11
1331.302144
 21
2749.532465
 31
0.0
  0
TEXT
  5
450
330
6F
100
AcDbEntity
  8
A-0
 62
     4
100
AcDbText
 10
1327.751
 20
2659.821
 30
0.0
 40
36.288
  1
(78)
 50
90.0
100
AcDbText
  0
CIRCLE
  5
451
330
6F
100
AcDbEntity
  8
A-0
  6
Continuous
 62
     4
100
AcDbCircle
 10
1400.927481002796
 20
2633.21447483321
 30
0.0
 40
0.25
  0
CIRCLE
  5
452
330
6F
100
AcDbEntity
  8
A-0
  6
Continuous
 62
     4
100
AcDbCircle
 10
1400.927481002796
 20
2633.21447483321
 30
0.0
 40
0.1875
  0
CIRCLE
  5
453
330
6F
100
AcDbEntity
  8
A-0
  6
Continuous
 62
     4
100
AcDbCircle
 10
1400.927481002796
 20
2633.21447483321
 30
0.0
 40
0.125
  0
CIRCLE
  5
454
330
6F
100
AcDbEntity
  8
A-0
  6
Continuous
 62
     4
100
AcDbCircle
 10
1400.927481002796
 20
2633.21447483321
 30
0.0
 40
0.0625
  0
ARC
  5
455
330
6F
100
AcDbEntity
  8
A-0
 62
     4
100
AcDbCircle
 10
1400.922481002796
 20
2633.21447483321
 30
0.0
 40
2.5
100
AcDbArc
 50
90.11459140653
 51
270.114591405945
  0
LINE
  5
456
330
6F
100
AcDbEntity
  8
A-0
 62
     4
100
AcDbLine
 10
1400.927481002821
 20
2628.214474833211
 30
0.0
 11
1400.927481002847
 21
2623.21447483321
 31
0.0
  0
CIRCLE
  5
457
330
6F
100
AcDbEntity
  8
A-0
  6
Continuous
 62
     4
100
AcDbCircle
 10
1400.927481002797
 20
2555.21447483321
 30
0.0
 40
0.25
  0
CIRCLE
  5
458
330
6F
100
AcDbEntity
  8
A-0
  6
Continuous
 62
     4
100
AcDbCircle
 10
1400.927481002797
 20
2555.21447483321
 30
0.0
 40
0.1875
  0
CIRCLE
  5
459
330
6F
100
AcDbEntity
  8
A-0
  6
Continuous
 62
     4
100
AcDbCircle
 10
1400.927481002797
 20
2555.21447483321
 30
0.0
 40
0.125
  0
CIRCLE
  5
45A
330
6F
100
AcDbEntity
  8
A-0
  6
Continuous
 62
     4
100
AcDbCircle
 10
1400.927481002797
 20
2555.21447483321
 30
0.0
 40
0.0625
  0
ARC
  5
45B
330
6F
100
AcDbEntity
  8
A-0
 62
     4
100
AcDbCircle
 10
1400.932481002797
 20
2555.21447483321
 30
0.0
 40
2.5
100
AcDbArc
 50
270.1145914065301
 51
90.11459140594496
  0
LINE
  5
45C
330
6F
100
AcDbEntity
  8
A-0
 62
     4
100
AcDbLine
 10
1400.927481002721
 20
2560.214474833211
 30
0.0
 11
1400.927481002644
 21
2565.21447483321
 31
0.0
  0
LINE
  5
45D
330
6F
100
AcDbEntity
  8
3-0
  6
Continuous
 62
     7
100
AcDbLine
 10
1382.144613
 20
2793.214475
 30
0.0
 11
1108.654345
 21
2793.214475
 31
0.0
  0
TEXT
  5
45E
330
6F
100
AcDbEntity
  8
D-0
 62
     5
100
AcDbText
 10
1125.389
 20
2803.419
 30
0.0
 40
25.92
  1
水栓取付参考位置
100
AcDbText
  0
LINE
  5
45F
330
6F
100
AcDbEntity
  8
A-0
  6
Continuous
 62
     4
100
AcDbLine
 10
1613.379816
 20
2633.214475
 30
0.0
 11
1660.343645
 21
2633.214475
 31
0.0
  0
LINE
  5
460
330
6F
100
AcDbEntity
  8
A-0
  6
Continuous
 62
     4
100
AcDbLine
 10
1622.651264
 20
2328.214475000001
 30
0.0
 11
1660.343645
 21
2328.214475000001
 31
0.0
  0
TEXT
  5
461
330
6F
100
AcDbEntity
  8
A-0
 62
     4
100
AcDbText
 10
1659.724
 20
2447.114
 30
0.0
 40
36.288
  1
305
 50
90.0
100
AcDbText
  0
LINE
  5
462
330
6F
100
AcDbEntity
  8
A-0
  6
Continuous
 62
     4
100
AcDbLine
 10
1660.343644802266
 20
2328.214474833208
 30
0.0
 11
1660.343644802266
 21
2633.214474833208
 31
0.0
  0
CIRCLE
  5
463
330
6F
100
AcDbEntity
  8
A-0
  6
Continuous
 62
     4
100
AcDbCircle
 10
1660.343644802266
 20
2328.214474833208
 30
0.0
 40
0.25
  0
CIRCLE
  5
464
330
6F
100
AcDbEntity
  8
A-0
  6
Continuous
 62
     4
100
AcDbCircle
 10
1660.343644802266
 20
2328.214474833208
 30
0.0
 40
0.1875
  0
CIRCLE
  5
465
330
6F
100
AcDbEntity
  8
A-0
  6
Continuous
 62
     4
100
AcDbCircle
 10
1660.343644802266
 20
2328.214474833208
 30
0.0
 40
0.125
  0
CIRCLE
  5
466
330
6F
100
AcDbEntity
  8
A-0
  6
Continuous
 62
     4
100
AcDbCircle
 10
1660.343644802266
 20
2328.214474833208
 30
0.0
 40
0.0625
  0
CIRCLE
  5
467
330
6F
100
AcDbEntity
  8
A-0
  6
Continuous
 62
     4
100
AcDbCircle
 10
1660.343644802266
 20
2633.214474833208
 30
0.0
 40
0.25
  0
CIRCLE
  5
468
330
6F
100
AcDbEntity
  8
A-0
  6
Continuous
 62
     4
100
AcDbCircle
 10
1660.343644802266
 20
2633.214474833208
 30
0.0
 40
0.1875
  0
CIRCLE
  5
469
330
6F
100
AcDbEntity
  8
A-0
  6
Continuous
 62
     4
100
AcDbCircle
 10
1660.343644802266
 20
2633.214474833208
 30
0.0
 40
0.125
  0
CIRCLE
  5
46A
330
6F
100
AcDbEntity
  8
A-0
  6
Continuous
 62
     4
100
AcDbCircle
 10
1660.343644802266
 20
2633.214474833208
 30
0.0
 40
0.0625
  0
LINE
  5
46B
330
6F
100
AcDbEntity
  8
B-0
  6
CENTER
 62
     6
100
AcDbLine
 10
1593.379816
 20
1272.539977
 30
0.0
 11
1593.379816
 21
584.960886
 31
0.0
  0
LINE
  5
46C
330
6F
100
AcDbEntity
  8
3-0
  6
CENTER
 62
     8
100
AcDbLine
 10
800.8798159999999
 20
1349.960886
 30
0.0
 11
1195.879816
 21
1184.960886
 31
0.0
  0
LINE
  5
46D
330
6F
100
AcDbEntity
  8
3-0
  6
DASHED2
 62
     7
100
AcDbLine
 10
1180.879816014858
 20
1199.960885549903
 30
0.0
 11
815.8798160148579
 21
1199.960885549903
 31
0.0
  0
LINE
  5
46E
330
6F
100
AcDbEntity
  8
3-0
  6
DASHED2
 62
     7
100
AcDbLine
 10
815.8798160148579
 20
1199.960885549903
 30
0.0
 11
815.8798160148579
 21
1269.960885549904
 31
0.0
  0
LINE
  5
46F
330
6F
100
AcDbEntity
  8
3-0
  6
DASHED2
 62
     7
100
AcDbLine
 10
815.8798160148579
 20
1269.960885549904
 30
0.0
 11
1180.879816014858
 21
1269.960885549904
 31
0.0
  0
LINE
  5
470
330
6F
100
AcDbEntity
  8
3-0
  6
DASHED2
 62
     7
100
AcDbLine
 10
1180.879816014858
 20
1269.960885549904
 30
0.0
 11
1180.879816014858
 21
1199.960885549903
 31
0.0
  0
LINE
  5
471
330
6F
100
AcDbEntity
  8
3-0
  6
Continuous
 62
     7
100
AcDbLine
 10
1195.879816014858
 20
1184.960885549903
 30
0.0
 11
800.8798160148579
 21
1184.960885549903
 31
0.0
  0
LINE
  5
472
330
6F
100
AcDbEntity
  8
3-0
  6
Continuous
 62
     7
100
AcDbLine
 10
800.8798160148579
 20
1184.960885549903
 30
0.0
 11
800.8798160148579
 21
1349.960885549904
 31
0.0
  0
LINE
  5
473
330
6F
100
AcDbEntity
  8
3-0
  6
Continuous
 62
     7
100
AcDbLine
 10
800.8798160148579
 20
1349.960885549904
 30
0.0
 11
1195.879816014858
 21
1349.960885549904
 31
0.0
  0
LINE
  5
474
330
6F
100
AcDbEntity
  8
3-0
  6
Continuous
 62
     7
100
AcDbLine
 10
1195.879816014858
 20
1349.960885549904
 30
0.0
 11
1195.879816014858
 21
1184.960885549903
 31
0.0
  0
LINE
  5
475
330
6F
100
AcDbEntity
  8
3-0
  6
CENTER
 62
     8
100
AcDbLine
 10
1195.879816014858
 20
1179.960885549903
 30
0.0
 11
800.879816014854
 21
929.9608855499039
 31
0.0
  0
LINE
  5
476
330
6F
100
AcDbEntity
  8
3-0
  6
CENTER
 62
     8
100
AcDbLine
 10
800.879816014854
 20
929.9608855499039
 30
0.0
 11
1195.879816014854
 21
674.9608855499039
 31
0.0
  0
LINE
  5
477
330
6F
100
AcDbEntity
  8
3-0
  6
Continuous
 62
     7
100
AcDbLine
 10
1195.879816014854
 20
674.9608855499039
 30
0.0
 11
800.8798160148579
 21
674.9608855499039
 31
0.0
  0
LINE
  5
478
330
6F
100
AcDbEntity
  8
3-0
  6
Continuous
 62
     7
100
AcDbLine
 10
800.8798160148579
 20
674.9608855499039
 30
0.0
 11
800.879816014854
 21
1179.960885549903
 31
0.0
  0
LINE
  5
479
330
6F
100
AcDbEntity
  8
3-0
  6
Continuous
 62
     7
100
AcDbLine
 10
800.879816014854
 20
1179.960885549903
 30
0.0
 11
1195.879816014858
 21
1179.960885549903
 31
0.0
  0
LINE
  5
47A
330
6F
100
AcDbEntity
  8
3-0
  6
Continuous
 62
     7
100
AcDbLine
 10
1195.879816014858
 20
1179.960885549903
 30
0.0
 11
1195.879816014854
 21
674.9608855499039
 31
0.0
  0
LINE
  5
47B
330
6F
100
AcDbEntity
  8
3-0
  6
CENTER
 62
     8
100
AcDbLine
 10
1493.879816014854
 20
1349.960885549904
 30
0.0
 11
1785.879816014854
 21
1012.460885549903
 31
0.0
  0
LINE
  5
47C
330
6F
100
AcDbEntity
  8
3-0
  6
CENTER
 62
     8
100
AcDbLine
 10
1785.879816014854
 20
1012.460885549903
 30
0.0
 11
1493.879816014854
 21
674.9608855499039
 31
0.0
  0
LINE
  5
47D
330
6F
100
AcDbEntity
  8
3-0
  6
CENTER
 62
     8
100
AcDbLine
 10
1492.879816014854
 20
1349.960885549904
 30
0.0
 11
1200.879816014854
 21
1012.460885549903
 31
0.0
  0
LINE
  5
47E
330
6F
100
AcDbEntity
  8
3-0
  6
CENTER
 62
     8
100
AcDbLine
 10
1200.879816014854
 20
1012.460885549903
 30
0.0
 11
1492.879816014854
 21
674.9608855499039
 31
0.0
  0
LINE
  5
47F
330
6F
100
AcDbEntity
  8
3-0
  6
Continuous
 62
     7
100
AcDbLine
 10
1492.879816014854
 20
674.9608855499039
 30
0.0
 11
1200.879816014854
 21
674.9608855499039
 31
0.0
  0
LINE
  5
480
330
6F
100
AcDbEntity
  8
3-0
  6
Continuous
 62
     7
100
AcDbLine
 10
1200.879816014854
 20
674.9608855499039
 30
0.0
 11
1200.879816014854
 21
1349.960885549904
 31
0.0
  0
LINE
  5
481
330
6F
100
AcDbEntity
  8
3-0
  6
Continuous
 62
     7
100
AcDbLine
 10
1200.879816014854
 20
1349.960885549904
 30
0.0
 11
1492.879816014854
 21
1349.960885549904
 31
0.0
  0
LINE
  5
482
330
6F
100
AcDbEntity
  8
3-0
  6
Continuous
 62
     7
100
AcDbLine
 10
1492.879816014854
 20
1349.960885549904
 30
0.0
 11
1492.879816014854
 21
674.9608855499039
 31
0.0
  0
LINE
  5
483
330
6F
100
AcDbEntity
  8
4-0
  6
Continuous
 62
     7
100
AcDbLine
 10
1785.879816
 20
1342.960886
 30
0.0
 11
1493.879816
 21
1342.960886
 31
0.0
  0
LINE
  5
484
330
6F
100
AcDbEntity
  8
4-0
  6
Continuous
 62
     7
100
AcDbLine
 10
1785.879816
 20
1323.260886
 30
0.0
 11
1493.879816
 21
1323.260886
 31
0.0
  0
LINE
  5
485
330
6F
100
AcDbEntity
  8
4-0
  6
Continuous
 62
     7
100
AcDbLine
 10
1492.879816
 20
1342.960886
 30
0.0
 11
1200.879816
 21
1342.960886
 31
0.0
  0
LINE
  5
486
330
6F
100
AcDbEntity
  8
4-0
  6
Continuous
 62
     7
100
AcDbLine
 10
1492.879816
 20
1323.260886
 30
0.0
 11
1200.879816
 21
1323.260886
 31
0.0
  0
LINE
  5
487
330
6F
100
AcDbEntity
  8
3-0
  6
Continuous
 62
     7
100
AcDbLine
 10
1493.879816014854
 20
674.9608855499039
 30
0.0
 11
1785.879816014854
 21
674.9608855499039
 31
0.0
  0
LINE
  5
488
330
6F
100
AcDbEntity
  8
3-0
  6
Continuous
 62
     7
100
AcDbLine
 10
1785.879816014854
 20
674.9608855499039
 30
0.0
 11
1785.879816014854
 21
1349.960885549904
 31
0.0
  0
LINE
  5
489
330
6F
100
AcDbEntity
  8
3-0
  6
Continuous
 62
     7
100
AcDbLine
 10
1785.879816014854
 20
1349.960885549904
 30
0.0
 11
1493.879816014854
 21
1349.960885549904
 31
0.0
  0
LINE
  5
48A
330
6F
100
AcDbEntity
  8
3-0
  6
Continuous
 62
     7
100
AcDbLine
 10
1493.879816014854
 20
1349.960885549904
 30
0.0
 11
1493.879816014854
 21
674.9608855499039
 31
0.0
  0
LINE
  5
48B
330
6F
100
AcDbEntity
  8
4-0
  6
Continuous
 62
     7
100
AcDbLine
 10
1195.879816
 20
1342.960886
 30
0.0
 11
800.8798159999999
 21
1342.960886
 31
0.0
  0
LINE
  5
48C
330
6F
100
AcDbEntity
  8
4-0
  6
Continuous
 62
     7
100
AcDbLine
 10
1195.879816
 20
1323.260886
 30
0.0
 11
800.8798159999999
 21
1323.260886
 31
0.0
  0
LINE
  5
48D
330
6F
100
AcDbEntity
  8
4-0
  6
Continuous
 62
     7
100
AcDbLine
 10
1195.879816
 20
1172.960886
 30
0.0
 11
800.8798159999999
 21
1172.960886
 31
0.0
  0
LINE
  5
48E
330
6F
100
AcDbEntity
  8
4-0
  6
Continuous
 62
     7
100
AcDbLine
 10
1195.879816
 20
1153.260886
 30
0.0
 11
800.8798159999999
 21
1153.260886
 31
0.0
  0
TEXT
  5
48F
330
6F
100
AcDbEntity
  8
D-0
 62
     5
100
AcDbText
 10
1256.847
 20
1050.164
 30
0.0
 40
25.92
  1
包丁差
100
AcDbText
  0
LINE
  5
490
330
6F
100
AcDbEntity
  8
5-0
  6
DASHED2
 62
     7
100
AcDbLine
 10
1229.879816
 20
809.960886
 30
0.0
 11
1473.879816
 21
809.960886
 31
0.0
  0
LINE
  5
491
330
6F
100
AcDbEntity
  8
5-0
  6
DASHED2
 62
     7
100
AcDbLine
 10
1221.879816
 20
817.960886
 30
0.0
 11
1221.879816
 21
1039.960886
 31
0.0
  0
LINE
  5
492
330
6F
100
AcDbEntity
  8
5-0
  6
DASHED2
 62
     7
100
AcDbLine
 10
1481.879816
 20
1039.960886
 30
0.0
 11
1481.879816
 21
817.960886
 31
0.0
  0
ARC
  5
493
330
6F
100
AcDbEntity
  8
5-0
  6
DOT
 62
     7
100
AcDbCircle
 10
1229.879816
 20
817.960886
 30
0.0
 40
8.0
100
AcDbArc
 50
180.0
 51
270.0
  0
ARC
  5
494
330
6F
100
AcDbEntity
  8
5-0
  6
DOT
 62
     7
100
AcDbCircle
 10
1473.879816
 20
817.960886
 30
0.0
 40
8.0
100
AcDbArc
 50
270.0
 51
0.0
  0
ARC
  5
495
330
6F
100
AcDbEntity
  8
5-0
  6
DASHED2
 62
     7
100
AcDbCircle
 10
1480.879816
 20
1038.960886
 30
0.0
 40
1.0
100
AcDbArc
 50
0.0
 51
90.0
  0
ARC
  5
496
330
6F
100
AcDbEntity
  8
5-0
  6
DASHED2
 62
     7
100
AcDbCircle
 10
1222.879816
 20
1038.960886
 30
0.0
 40
1.0
100
AcDbArc
 50
90.0
 51
180.0
  0
ARC
  5
497
330
6F
100
AcDbEntity
  8
5-0
  6
DASHED2
 62
     7
100
AcDbCircle
 10
1476.879816
 20
844.9608859999999
 30
0.0
 40
7.0
100
AcDbArc
 50
90.0
 51
270.0
  0
LINE
  5
498
330
6F
100
AcDbEntity
  8
5-0
  6
DASHED2
 62
     7
100
AcDbLine
 10
1476.879816
 20
851.9608859999999
 30
0.0
 11
1481.879816
 21
851.9608859999999
 31
0.0
  0
LINE
  5
499
330
6F
100
AcDbEntity
  8
5-0
  6
DASHED2
 62
     7
100
AcDbLine
 10
1476.879816
 20
837.9608859999999
 30
0.0
 11
1481.879816
 21
837.9608859999999
 31
0.0
  0
CIRCLE
  5
49A
330
6F
100
AcDbEntity
  8
5-0
  6
DASHED2
 62
     7
100
AcDbCircle
 10
1476.879816
 20
844.9608859999999
 30
0.0
 40
2.0
  0
ARC
  5
49B
330
6F
100
AcDbEntity
  8
5-0
  6
DASHED2
 62
     7
100
AcDbCircle
 10
1476.879816
 20
1004.960886
 30
0.0
 40
7.0
100
AcDbArc
 50
90.0
 51
270.0
  0
LINE
  5
49C
330
6F
100
AcDbEntity
  8
5-0
  6
DASHED2
 62
     7
100
AcDbLine
 10
1476.879816
 20
1011.960886
 30
0.0
 11
1481.879816
 21
1011.960886
 31
0.0
  0
LINE
  5
49D
330
6F
100
AcDbEntity
  8
5-0
  6
DASHED2
 62
     7
100
AcDbLine
 10
1476.879816
 20
997.9608859999999
 30
0.0
 11
1481.879816
 21
997.9608859999999
 31
0.0
  0
CIRCLE
  5
49E
330
6F
100
AcDbEntity
  8
5-0
  6
DASHED2
 62
     7
100
AcDbCircle
 10
1476.879816
 20
1004.960886
 30
0.0
 40
2.0
  0
ARC
  5
49F
330
6F
100
AcDbEntity
  8
5-0
  6
DASHED2
 62
     7
100
AcDbCircle
 10
1226.879816
 20
844.9608859999999
 30
0.0
 40
7.0
100
AcDbArc
 50
270.0
 51
90.0
  0
LINE
  5
4A0
330
6F
100
AcDbEntity
  8
5-0
  6
DASHED2
 62
     7
100
AcDbLine
 10
1226.879816
 20
851.9608859999999
 30
0.0
 11
1221.879816
 21
851.9608859999999
 31
0.0
  0
LINE
  5
4A1
330
6F
100
AcDbEntity
  8
5-0
  6
DASHED2
 62
     7
100
AcDbLine
 10
1226.879816
 20
837.9608859999999
 30
0.0
 11
1221.879816
 21
837.9608859999999
 31
0.0
  0
CIRCLE
  5
4A2
330
6F
100
AcDbEntity
  8
5-0
  6
DASHED2
 62
     7
100
AcDbCircle
 10
1226.879816
 20
844.9608859999999
 30
0.0
 40
2.0
  0
ARC
  5
4A3
330
6F
100
AcDbEntity
  8
5-0
  6
DASHED2
 62
     7
100
AcDbCircle
 10
1226.879816
 20
1004.960886
 30
0.0
 40
7.0
100
AcDbArc
 50
270.0
 51
90.0
  0
LINE
  5
4A4
330
6F
100
AcDbEntity
  8
5-0
  6
DASHED2
 62
     7
100
AcDbLine
 10
1226.879816
 20
1011.960886
 30
0.0
 11
1221.879816
 21
1011.960886
 31
0.0
  0
LINE
  5
4A5
330
6F
100
AcDbEntity
  8
5-0
  6
DASHED2
 62
     7
100
AcDbLine
 10
1226.879816
 20
997.9608859999999
 30
0.0
 11
1221.879816
 21
997.9608859999999
 31
0.0
  0
CIRCLE
  5
4A6
330
6F
100
AcDbEntity
  8
5-0
  6
DASHED2
 62
     7
100
AcDbCircle
 10
1226.879816
 20
1004.960886
 30
0.0
 40
2.0
  0
LINE
  5
4A7
330
6F
100
AcDbEntity
  8
5-0
  6
DASHED2
 62
     7
100
AcDbLine
 10
1224.879816
 20
1042.960886
 30
0.0
 11
1478.879816
 21
1042.960886
 31
0.0
  0
ARC
  5
4A8
330
6F
100
AcDbEntity
  8
5-0
  6
DASHED2
 62
     7
100
AcDbCircle
 10
1224.879816
 20
1039.960886
 30
0.0
 40
3.0
100
AcDbArc
 50
90.0
 51
180.0
  0
ARC
  5
4A9
330
6F
100
AcDbEntity
  8
5-0
  6
DASHED2
 62
     7
100
AcDbCircle
 10
1478.879816
 20
1039.960886
 30
0.0
 40
3.0
100
AcDbArc
 50
0.0
 51
90.0
  0
LINE
  5
4AA
330
6F
100
AcDbEntity
  8
1-0
  6
Continuous
 62
     4
100
AcDbLine
 10
1358.379816
 20
1042.960886
 30
0.0
 11
1297.630297
 21
1042.960886
 31
0.0
  0
LINE
  5
4AB
330
6F
100
AcDbEntity
  8
1-0
  6
Continuous
 62
     4
100
AcDbLine
 10
1358.759221
 20
674.9608859999999
 30
0.0
 11
1297.630297
 21
674.9608859999999
 31
0.0
  0
TEXT
  5
4AC
330
6F
100
AcDbEntity
  8
1-0
 62
     4
100
AcDbText
 10
1297.01
 20
825.3610000000001
 30
0.0
 40
36.288
  1
368
 50
90.0
100
AcDbText
  0
LINE
  5
4AD
330
6F
100
AcDbEntity
  8
1-0
  6
Continuous
 62
     4
100
AcDbLine
 10
1297.630296802554
 20
674.9608855499039
 30
0.0
 11
1297.630296802554
 21
1042.960885549903
 31
0.0
  0
CIRCLE
  5
4AE
330
6F
100
AcDbEntity
  8
1-0
  6
Continuous
 62
     4
100
AcDbCircle
 10
1297.630296802554
 20
674.9608855499039
 30
0.0
 40
0.25
  0
CIRCLE
  5
4AF
330
6F
100
AcDbEntity
  8
1-0
  6
Continuous
 62
     4
100
AcDbCircle
 10
1297.630296802554
 20
674.9608855499039
 30
0.0
 40
0.1875
  0
CIRCLE
  5
4B0
330
6F
100
AcDbEntity
  8
1-0
  6
Continuous
 62
     4
100
AcDbCircle
 10
1297.630296802554
 20
674.9608855499039
 30
0.0
 40
0.125
  0
CIRCLE
  5
4B1
330
6F
100
AcDbEntity
  8
1-0
  6
Continuous
 62
     4
100
AcDbCircle
 10
1297.630296802554
 20
674.9608855499039
 30
0.0
 40
0.0625
  0
CIRCLE
  5
4B2
330
6F
100
AcDbEntity
  8
1-0
  6
Continuous
 62
     4
100
AcDbCircle
 10
1297.630296802554
 20
1042.960885549903
 30
0.0
 40
0.25
  0
CIRCLE
  5
4B3
330
6F
100
AcDbEntity
  8
1-0
  6
Continuous
 62
     4
100
AcDbCircle
 10
1297.630296802554
 20
1042.960885549903
 30
0.0
 40
0.1875
  0
CIRCLE
  5
4B4
330
6F
100
AcDbEntity
  8
1-0
  6
Continuous
 62
     4
100
AcDbCircle
 10
1297.630296802554
 20
1042.960885549903
 30
0.0
 40
0.125
  0
CIRCLE
  5
4B5
330
6F
100
AcDbEntity
  8
1-0
  6
Continuous
 62
     4
100
AcDbCircle
 10
1297.630296802554
 20
1042.960885549903
 30
0.0
 40
0.0625
  0
LINE
  5
4B6
330
6F
100
AcDbEntity
  8
3-0
  6
Continuous
 62
     7
100
AcDbLine
 10
1561.73768
 20
999.1030209999999
 30
0.0
 11
1554.666613
 21
1006.174089
 31
0.0
  0
LINE
  5
4B7
330
6F
100
AcDbEntity
  8
3-0
  6
Continuous
 62
     7
100
AcDbLine
 10
1590.021952
 20
999.1030209999999
 30
0.0
 11
1597.093019
 21
1006.174089
 31
0.0
  0
TEXT
  5
4B8
330
6F
100
AcDbEntity
  8
D-0
 62
     5
100
AcDbText
 10
3977.866
 20
48.607
 30
0.0
 40
31.104
  1
2022.1
100
AcDbText
  0
LINE
  5
4B9
330
6F
100
AcDbEntity
  8
4-0
  6
Continuous
 62
     7
100
AcDbLine
 10
3193.348398
 20
1354.960886
 30
0.0
 11
3179.218398
 21
1354.960886
 31
0.0
  0
LINE
  5
4BA
330
6F
100
AcDbEntity
  8
4-0
  6
Continuous
 62
     7
100
AcDbLine
 10
3177.467684
 20
1354.960886
 30
0.0
 11
3194.394755
 21
1354.960886
 31
0.0
  0
LINE
  5
4BB
330
6F
100
AcDbEntity
  8
4-0
  6
Continuous
 62
     7
100
AcDbLine
 10
3184.068672
 20
1352.960886
 30
0.0
 11
3190.689174
 21
1352.960886
 31
0.0
  0
LINE
  5
4BC
330
6F
100
AcDbEntity
  8
4-0
  6
Continuous
 62
     7
100
AcDbLine
 10
3177.50129
 20
1309.360886
 30
0.0
 11
3178.618398
 21
1309.360886
 31
0.0
  0
LINE
  5
4BD
330
6F
100
AcDbEntity
  8
4-0
  6
Continuous
 62
     7
100
AcDbLine
 10
3176.618398
 20
1354.156152
 30
0.0
 11
3176.618398
 21
1310.135219
 31
0.0
  0
ARC
  5
4BE
330
6F
100
AcDbEntity
  8
4-0
  6
Continuous
 62
     7
100
AcDbCircle
 10
3177.51928
 20
1310.271899
 30
0.0
 40
0.9111909999999999
100
AcDbArc
 50
188.627
 51
268.869
  0
ARC
  5
4BF
330
6F
100
AcDbEntity
  8
4-0
  6
Continuous
 62
     7
100
AcDbCircle
 10
3177.499411
 20
1354.076883
 30
0.0
 40
0.884572
100
AcDbArc
 50
87.94499999999999
 51
174.859
  0
LINE
  5
4C0
330
6F
100
AcDbEntity
  8
4-0
  6
Continuous
 62
     7
100
AcDbLine
 10
3194.594394000001
 20
1354.780563
 30
0.0
 11
3195.353927
 21
1348.479212
 31
0.0
  0
LINE
  5
4C1
330
6F
100
AcDbEntity
  8
4-0
  6
Continuous
 62
     7
100
AcDbLine
 10
3191.19284
 20
1352.601319
 30
0.0
 11
3191.722479
 21
1348.309706
 31
0.0
  0
ARC
  5
4C2
330
6F
100
AcDbEntity
  8
4-0
  6
Continuous
 62
     7
100
AcDbCircle
 10
3192.417208
 20
1348.395444
 30
0.0
 40
0.7
100
AcDbArc
 50
187.035
 51
270.0
  0
ARC
  5
4C3
330
6F
100
AcDbEntity
  8
4-0
  6
Continuous
 62
     7
100
AcDbCircle
 10
3190.679183
 20
1352.41435
 30
0.0
 40
0.546626
100
AcDbArc
 50
20.001
 51
88.953
  0
ARC
  5
4C4
330
6F
100
AcDbEntity
  8
4-0
  6
Continuous
 62
     7
100
AcDbCircle
 10
3184.76169
 20
1347.572122
 30
0.0
 40
5.433143
100
AcDbArc
 50
97.32800000000001
 51
175.897
  0
LINE
  5
4C5
330
6F
100
AcDbEntity
  8
4-0
  6
Continuous
 62
     7
100
AcDbLine
 10
3179.342474
 20
1347.960886
 30
0.0
 11
3179.34082
 21
1333.641377
 31
0.0
  0
ARC
  5
4C6
330
6F
100
AcDbEntity
  8
4-0
  6
Continuous
 62
     7
100
AcDbCircle
 10
3194.333956
 20
1354.6929
 30
0.0
 40
0.274796
100
AcDbArc
 50
18.603
 51
77.217
  0
LINE
  5
4C7
330
6F
100
AcDbEntity
  8
4-0
  6
Continuous
 62
     7
100
AcDbLine
 10
3192.417208
 20
1347.695444
 30
0.0
 11
3194.658957
 21
1347.695444
 31
0.0
  0
ARC
  5
4C8
330
6F
100
AcDbEntity
  8
4-0
  6
Continuous
 62
     7
100
AcDbCircle
 10
3194.658957
 20
1348.395444
 30
0.0
 40
0.7
100
AcDbArc
 50
270.0
 51
6.873000000000001
  0
ARC
  5
4C9
330
6F
100
AcDbEntity
  8
4-0
  6
Continuous
 62
     7
100
AcDbCircle
 10
3185.001621
 20
1334.279448
 30
0.0
 40
5.7
100
AcDbArc
 50
186.431
 51
256.176
  0
ARC
  5
4CA
330
6F
100
AcDbEntity
  8
4-0
  6
Continuous
 62
     7
100
AcDbCircle
 10
3183.635078
 20
1326.748109
 30
0.0
 40
1.999706999999999
100
AcDbArc
 50
6.107999999999998
 51
89.846
  0
TEXT
  5
4CB
330
6F
100
AcDbEntity
  8
D-0
 62
     2
100
AcDbText
 10
2972.821
 20
441.7059999999999
 30
0.0
 40
25.92
  1
※
100
AcDbText
  0
TEXT
  5
4CC
330
6F
100
AcDbEntity
  8
D-0
 62
     2
100
AcDbText
 10
3321.237
 20
322.518
 30
0.0
 40
25.92
  1
※巾木奥行(D)(M)(A)はD496
100
AcDbText
  0
ENDSEC
  0
SECTION
  2
OBJECTS
  0
DICTIONARY
  5
C
330
0
100
AcDbDictionary
281
     1
  3
ACAD_CIP_PREVIOUS_PRODUCT_INFO
350
4CE
  3
ACAD_COLOR
350
62
  3
ACAD_DETAILVIEWSTYLE
350
69
  3
ACAD_GROUP
350
D
  3
ACAD_LAYOUT
350
61
  3
ACAD_MATERIAL
350
10
  3
ACAD_MLEADERSTYLE
350
65
  3
ACAD_MLINESTYLE
350
5E
  3
ACAD_PLOTSETTINGS
350
60
  3
ACAD_PLOTSTYLENAME
350
E
  3
ACAD_SCALELIST
350
42
  3
ACAD_SECTIONVIEWSTYLE
350
67
  3
ACAD_TABLESTYLE
350
63
  3
ACAD_VISUALSTYLE
350
29
  3
ACDB_RECOMPOSE_DATA
350
4F6
  3
AcDbVariableDictionary
350
4E9
  3
DWGPROPS
350
4F7
  0
DICTIONARY
  5
4CF
330
54
100
AcDbDictionary
280
     1
281
     1
  3
ADSK_XREC_LAYER_RECONCILED
360
4D0
  0
DICTIONARY
  5
4D1
330
7F
100
AcDbDictionary
280
     1
281
     1
  3
ADSK_XREC_LAYER_RECONCILED
360
4D2
  0
DICTIONARY
  5
4D3
330
80
100
AcDbDictionary
280
     1
281
     1
  3
ADSK_XREC_LAYER_RECONCILED
360
4D4
  0
DICTIONARY
  5
4D5
330
81
100
AcDbDictionary
280
     1
281
     1
  3
ADSK_XREC_LAYER_RECONCILED
360
4D6
  0
DICTIONARY
  5
4D7
330
82
100
AcDbDictionary
280
     1
281
     1
  3
ADSK_XREC_LAYER_RECONCILED
360
4D8
  0
DICTIONARY
  5
4D9
330
83
100
AcDbDictionary
280
     1
281
     1
  3
ADSK_XREC_LAYER_RECONCILED
360
4DA
  0
DICTIONARY
  5
4DB
330
84
100
AcDbDictionary
280
     1
281
     1
  3
ADSK_XREC_LAYER_RECONCILED
360
4DC
  0
DICTIONARY
  5
4DD
330
85
100
AcDbDictionary
280
     1
281
     1
  3
ADSK_XREC_LAYER_RECONCILED
360
4DE
  0
DICTIONARY
  5
4DF
330
86
100
AcDbDictionary
280
     1
281
     1
  3
ADSK_XREC_LAYER_RECONCILED
360
4E0
  0
DICTIONARY
  5
4E1
330
87
100
AcDbDictionary
280
     1
281
     1
  3
ADSK_XREC_LAYER_RECONCILED
360
4E2
  0
DICTIONARY
  5
4E3
330
88
100
AcDbDictionary
280
     1
281
     1
  3
ADSK_XREC_LAYER_RECONCILED
360
4E4
  0
DICTIONARY
  5
4E5
330
89
100
AcDbDictionary
280
     1
281
     1
  3
ADSK_XREC_LAYER_RECONCILED
360
4E6
  0
DICTIONARY
  5
4E7
330
8F
100
AcDbDictionary
280
     1
281
     1
  3
ADSK_XREC_LAYER_RECONCILED
360
4E8
  0
XRECORD
  5
4CE
102
{ACAD_REACTORS
330
C
102
}
330
C
100
AcDbXrecord
280
     1
300
ACDLT
300
2020
300

  0
DICTIONARY
  5
62
102
{ACAD_REACTORS
330
C
102
}
330
C
100
AcDbDictionary
281
     1
  0
DICTIONARY
  5
69
102
{ACAD_REACTORS
330
C
102
}
330
C
100
AcDbDictionary
281
     1
  3
Imperial24
350
6A
  0
DICTIONARY
  5
D
102
{ACAD_REACTORS
330
C
102
}
330
C
100
AcDbDictionary
281
     1
  0
DICTIONARY
  5
61
102
{ACAD_REACTORS
330
C
102
}
330
C
100
AcDbDictionary
281
     1
  3
Model
350
72
  3
レイアウト1
350
6E
  0
DICTIONARY
  5
10
102
{ACAD_REACTORS
330
C
102
}
330
C
100
AcDbDictionary
281
     1
  3
ByBlock
350
19
  3
ByLayer
350
11
  3
Global
350
21
  0
DICTIONARY
  5
65
102
{ACAD_REACTORS
330
C
102
}
330
C
100
AcDbDictionary
281
     1
  3
Standard
350
66
  0
DICTIONARY
  5
5E
102
{ACAD_REACTORS
330
C
102
}
330
C
100
AcDbDictionary
281
     1
  3
Standard
350
5F
  0
DICTIONARY
  5
60
102
{ACAD_REACTORS
330
C
102
}
330
C
100
AcDbDictionary
281
     1
  0
ACDBDICTIONARYWDFLT
  5
E
102
{ACAD_REACTORS
330
C
102
}
330
C
100
AcDbDictionary
281
     1
  3
Normal
350
F
100
AcDbDictionaryWithDefault
340
F
  0
DICTIONARY
  5
42
102
{ACAD_REACTORS
330
C
102
}
330
C
100
AcDbDictionary
281
     1
  3
A0
350
43
  3
A1
350
44
  3
A2
350
45
  3
A3
350
46
  3
A4
350
47
  3
A5
350
48
  3
A6
350
49
  3
A7
350
4A
  3
A8
350
4B
  3
A9
350
4C
  3
B0
350
4D
  3
B1
350
4E
  3
B2
350
4F
  3
B3
350
50
  3
B4
350
51
  3
B5
350
52
  3
B6
350
53
  0
DICTIONARY
  5
67
102
{ACAD_REACTORS
330
C
102
}
330
C
100
AcDbDictionary
281
     1
  3
Imperial24
350
68
  0
DICTIONARY
  5
63
102
{ACAD_REACTORS
330
C
102
}
330
C
100
AcDbDictionary
281
     1
  3
Standard
350
64
  0
DICTIONARY
  5
29
102
{ACAD_REACTORS
330
C
102
}
330
C
100
AcDbDictionary
281
     1
  3
2dWireframe
350
2F
  3
Basic
350
2E
  3
Brighten
350
35
  3
ColorChange
350
39
  3
Conceptual
350
32
  3
Dim
350
34
  3
EdgeColorOff
350
41
  3
Facepattern
350
38
  3
Flat
350
2A
  3
FlatWithEdges
350
2B
  3
Gouraud
350
2C
  3
GouraudWithEdges
350
2D
  3
Hidden
350
31
  3
JitterOff
350
3F
  3
Linepattern
350
37
  3
OverhangOff
350
40
  3
Realistic
350
33
  3
Shaded
350
3E
  3
Shaded with edges
350
3D
  3
Shades of Gray
350
3A
  3
Sketchy
350
3B
  3
Thicken
350
36
  3
Wireframe
350
30
  3
X-Ray
350
3C
  0
XRECORD
  5
4F6
102
{ACAD_REACTORS
330
C
102
}
330
C
100
AcDbXrecord
280
     1
 90
        1
330
64
  0
DICTIONARY
  5
4E9
102
{ACAD_REACTORS
330
C
102
}
330
C
100
AcDbDictionary
281
     1
  3
CANNOSCALE
350
4EE
  3
CMLEADERSTYLE
350
4EB
  3
CTABLESTYLE
350
4EA
  3
CVIEWDETAILSTYLE
350
4EC
  3
CVIEWSECTIONSTYLE
350
4ED
  3
DIMASSOC
350
4F1
  3
INDEXCTL
350
4F0
  3
SORTENTS
350
4EF
  3
XCLIPFRAME
350
4F2
  0
XRECORD
  5
4F7
102
{ACAD_REACTORS
330
C
102
}
330
C
100
AcDbXrecord
280
     1
  1
DWGPROPS COOKIE
  2

  3

  4

  6

  7

  8
suzuki
  9

300
=
301
=
302
=
303
=
304
=
305
=
306
=
307
=
308
=
309
=
 40
0.0003009259259259
 41
2459620.657685186
 42
2459620.657986111
  1

 90
        0
  0
XRECORD
  5
4D0
102
{ACAD_REACTORS
330
4CF
102
}
330
4CF
100
AcDbXrecord
280
     1
290
     1
  0
XRECORD
  5
4D2
102
{ACAD_REACTORS
330
4D1
102
}
330
4D1
100
AcDbXrecord
280
     1
290
     1
  0
XRECORD
  5
4D4
102
{ACAD_REACTORS
330
4D3
102
}
330
4D3
100
AcDbXrecord
280
     1
290
     1
  0
XRECORD
  5
4D6
102
{ACAD_REACTORS
330
4D5
102
}
330
4D5
100
AcDbXrecord
280
     1
290
     1
  0
XRECORD
  5
4D8
102
{ACAD_REACTORS
330
4D7
102
}
330
4D7
100
AcDbXrecord
280
     1
290
     1
  0
XRECORD
  5
4DA
102
{ACAD_REACTORS
330
4D9
102
}
330
4D9
100
AcDbXrecord
280
     1
290
     1
  0
XRECORD
  5
4DC
102
{ACAD_REACTORS
330
4DB
102
}
330
4DB
100
AcDbXrecord
280
     1
290
     1
  0
XRECORD
  5
4DE
102
{ACAD_REACTORS
330
4DD
102
}
330
4DD
100
AcDbXrecord
280
     1
290
     1
  0
XRECORD
  5
4E0
102
{ACAD_REACTORS
330
4DF
102
}
330
4DF
100
AcDbXrecord
280
     1
290
     1
  0
XRECORD
  5
4E2
102
{ACAD_REACTORS
330
4E1
102
}
330
4E1
100
AcDbXrecord
280
     1
290
     1
  0
XRECORD
  5
4E4
102
{ACAD_REACTORS
330
4E3
102
}
330
4E3
100
AcDbXrecord
280
     1
290
     1
  0
XRECORD
  5
4E6
102
{ACAD_REACTORS
330
4E5
102
}
330
4E5
100
AcDbXrecord
280
     1
290
     1
  0
XRECORD
  5
4E8
102
{ACAD_REACTORS
330
4E7
102
}
330
4E7
100
AcDbXrecord
280
     1
290
     1
  0
ACDBDETAILVIEWSTYLE
  5
6A
102
{ACAD_XDICTIONARY
360
52F
102
}
102
{ACAD_REACTORS
330
69
102
}
330
69
100
AcDbModelDocViewStyle
 70
     0
  3
Imperial24
290
     0
100
AcDbDetailViewStyle
 70
     0
 71
     0
 90
        3
 71
     1
340
55
 40
0.24
340
0
 40
0.24
300

 40
0.36
280
     3
 71
     2
340
5C
 90
       25
 71
     3
340
55
 40
0.24
 90
        1
 40
0.75
 90
        1
300
%<\AcVar ViewType \f "%tc1">% %<\AcVar ViewDetailId>%\PSCALE %<\AcVar ViewScale \f "%sn">%
 71
     4
340
5C
 90
       25
340
5C
 90
       25
280
     0
  0
LAYOUT
  5
72
102
{ACAD_XDICTIONARY
360
533
102
}
102
{ACAD_REACTORS
330
61
102
}
330
61
100
AcDbPlotSettings
  1

  2
DocuCentre-V 4070
  4

  6

 40
0.0
 41
0.0
 42
0.0
 43
0.0
 44
0.0
 45
0.0
 46
0.0
 47
0.0
 48
0.0
 49
0.0
140
0.0
141
0.0
142
1.0
143
1.0
 70
  1712
 72
     0
 73
     0
 74
     0
  7

 75
     0
147
1.0
148
0.0
149
0.0
100
AcDbLayout
  1
Model
 70
     1
 71
     0
 10
0.0
 20
0.0
 11
12.0
 21
9.0
 12
0.0
 22
0.0
 32
0.0
 14
0.0
 24
0.0
 34
0.0
 15
0.0
 25
0.0
 35
0.0
146
0.0
 13
0.0
 23
0.0
 33
0.0
 16
1.0
 26
0.0
 36
0.0
 17
0.0
 27
1.0
 37
0.0
 76
     0
330
6F
331
8E
  0
LAYOUT
  5
6E
102
{ACAD_XDICTIONARY
360
531
102
}
102
{ACAD_REACTORS
330
61
102
}
330
61
100
AcDbPlotSettings
  1

  2
DocuCentre-V 4070
  4

  6

 40
0.0
 41
0.0
 42
0.0
 43
0.0
 44
0.0
 45
0.0
 46
0.0
 47
0.0
 48
0.0
 49
0.0
140
0.0
141
0.0
142
1.0
143
1.0
 70
   688
 72
     0
 73
     0
 74
     5
  7

 75
    16
147
1.0
148
0.0
149
0.0
100
AcDbLayout
  1
レイアウト1
 70
     1
 71
     1
 10
0.0
 20
0.0
 11
12.0
 21
9.0
 12
0.0
 22
0.0
 32
0.0
 14
1.000000000000000E+20
 24
1.000000000000000E+20
 34
1.000000000000000E+20
 15
-1.000000000000000E+20
 25
-1.000000000000000E+20
 35
-1.000000000000000E+20
146
0.0
 13
0.0
 23
0.0
 33
0.0
 16
1.0
 26
0.0
 36
0.0
 17
0.0
 27
1.0
 37
0.0
 76
     0
330
6B
  0
MATERIAL
  5
19
102
{ACAD_XDICTIONARY
360
1A
102
}
102
{ACAD_REACTORS
330
10
102
}
330
10
100
AcDbMaterial
  1
ByBlock
 72
     0
 43
0.0208333333333333
 43
0.0
 43
0.0
 43
0.0
 43
0.0
 43
0.0208333333333333
 43
0.0
 43
0.0
 43
0.0
 43
0.0
 43
1.0
 43
0.0
 43
0.0
 43
0.0
 43
0.0
 43
1.0
 77
     0
 47
0.0208333333333333
 47
0.0
 47
0.0
 47
0.0
 47
0.0
 47
0.0208333333333333
 47
0.0
 47
0.0
 47
0.0
 47
0.0
 47
1.0
 47
0.0
 47
0.0
 47
0.0
 47
0.0
 47
1.0
171
     0
 49
0.0208333333333333
 49
0.0
 49
0.0
 49
0.0
 49
0.0
 49
0.0208333333333333
 49
0.0
 49
0.0
 49
0.0
 49
0.0
 49
1.0
 49
0.0
 49
0.0
 49
0.0
 49
0.0
 49
1.0
175
     0
142
0.0208333333333333
142
0.0
142
0.0
142
0.0
142
0.0
142
0.0208333333333333
142
0.0
142
0.0
142
0.0
142
0.0
142
1.0
142
0.0
142
0.0
142
0.0
142
0.0
142
1.0
179
     0
144
0.0208333333333333
144
0.0
144
0.0
144
0.0
144
0.0
144
0.0208333333333333
144
0.0
144
0.0
144
0.0
144
0.0
144
1.0
144
0.0
144
0.0
144
0.0
144
0.0
144
1.0
147
0.0208333333333333
147
0.0
147
0.0
147
0.0
147
0.0
147
0.0208333333333333
147
0.0
147
0.0
147
0.0
147
0.0
147
1.0
147
0.0
147
0.0
147
0.0
147
0.0
147
1.0
  0
MATERIAL
  5
11
102
{ACAD_XDICTIONARY
360
12
102
}
102
{ACAD_REACTORS
330
10
102
}
330
10
100
AcDbMaterial
  1
ByLayer
 72
     0
 43
0.0208333333333333
 43
0.0
 43
0.0
 43
0.0
 43
0.0
 43
0.0208333333333333
 43
0.0
 43
0.0
 43
0.0
 43
0.0
 43
1.0
 43
0.0
 43
0.0
 43
0.0
 43
0.0
 43
1.0
 77
     0
 47
0.0208333333333333
 47
0.0
 47
0.0
 47
0.0
 47
0.0
 47
0.0208333333333333
 47
0.0
 47
0.0
 47
0.0
 47
0.0
 47
1.0
 47
0.0
 47
0.0
 47
0.0
 47
0.0
 47
1.0
171
     0
 49
0.0208333333333333
 49
0.0
 49
0.0
 49
0.0
 49
0.0
 49
0.0208333333333333
 49
0.0
 49
0.0
 49
0.0
 49
0.0
 49
1.0
 49
0.0
 49
0.0
 49
0.0
 49
0.0
 49
1.0
175
     0
142
0.0208333333333333
142
0.0
142
0.0
142
0.0
142
0.0
142
0.0208333333333333
142
0.0
142
0.0
142
0.0
142
0.0
142
1.0
142
0.0
142
0.0
142
0.0
142
0.0
142
1.0
179
     0
144
0.0208333333333333
144
0.0
144
0.0
144
0.0
144
0.0
144
0.0208333333333333
144
0.0
144
0.0
144
0.0
144
0.0
144
1.0
144
0.0
144
0.0
144
0.0
144
0.0
144
1.0
147
0.0208333333333333
147
0.0
147
0.0
147
0.0
147
0.0
147
0.0208333333333333
147
0.0
147
0.0
147
0.0
147
0.0
147
1.0
147
0.0
147
0.0
147
0.0
147
0.0
147
1.0
  0
MATERIAL
  5
21
102
{ACAD_XDICTIONARY
360
22
102
}
102
{ACAD_REACTORS
330
10
102
}
330
10
100
AcDbMaterial
  1
Global
 72
     0
 43
0.0208333333333333
 43
0.0
 43
0.0
 43
0.0
 43
0.0
 43
0.0208333333333333
 43
0.0
 43
0.0
 43
0.0
 43
0.0
 43
1.0
 43
0.0
 43
0.0
 43
0.0
 43
0.0
 43
1.0
 77
     0
 47
0.0208333333333333
 47
0.0
 47
0.0
 47
0.0
 47
0.0
 47
0.0208333333333333
 47
0.0
 47
0.0
 47
0.0
 47
0.0
 47
1.0
 47
0.0
 47
0.0
 47
0.0
 47
0.0
 47
1.0
171
     0
 49
0.0208333333333333
 49
0.0
 49
0.0
 49
0.0
 49
0.0
 49
0.0208333333333333
 49
0.0
 49
0.0
 49
0.0
 49
0.0
 49
1.0
 49
0.0
 49
0.0
 49
0.0
 49
0.0
 49
1.0
175
     0
142
0.0208333333333333
142
0.0
142
0.0
142
0.0
142
0.0
142
0.0208333333333333
142
0.0
142
0.0
142
0.0
142
0.0
142
1.0
142
0.0
142
0.0
142
0.0
142
0.0
142
1.0
179
     0
144
0.0208333333333333
144
0.0
144
0.0
144
0.0
144
0.0
144
0.0208333333333333
144
0.0
144
0.0
144
0.0
144
0.0
144
1.0
144
0.0
144
0.0
144
0.0
144
0.0
144
1.0
147
0.0208333333333333
147
0.0
147
0.0
147
0.0
147
0.0
147
0.0208333333333333
147
0.0
147
0.0
147
0.0
147
0.0
147
1.0
147
0.0
147
0.0
147
0.0
147
0.0
147
1.0
  0
MLEADERSTYLE
  5
66
102
{ACAD_REACTORS
330
65
102
}
330
65
100
AcDbMLeaderStyle
170
     2
171
     1
172
     0
 90
        2
 40
0.0
 41
0.0
173
     1
 91
-1056964608
340
5A
 92
       -2
290
     1
 42
0.09
291
     1
 43
0.36
  3
Standard
 44
0.18
300

342
55
174
     1
178
     6
175
     1
176
     0
 93
-1056964608
 45
0.18
292
     0
297
     0
 46
0.18
 94
-1056964608
 47
1.0
 49
1.0
140
1.0
293
     1
141
0.0
294
     1
177
     0
142
1.0
295
     0
296
     0
143
0.125
1001
ACAD_MLEADERVER
1070
     2
  0
MLINESTYLE
  5
5F
102
{ACAD_REACTORS
330
5E
102
}
330
5E
100
AcDbMlineStyle
  2
STANDARD
 70
     0
  3

 62
   256
 51
90.0
 52
90.0
 71
     2
 49
0.5
 62
   256
  6
BYLAYER
 49
-0.5
 62
   256
  6
BYLAYER
  0
ACDBPLACEHOLDER
  5
F
102
{ACAD_REACTORS
330
E
102
}
330
E
  0
SCALE
  5
43
102
{ACAD_REACTORS
330
42
102
}
330
42
100
AcDbScale
 70
     0
300
1:1
140
1.0
141
1.0
290
     1
  0
SCALE
  5
44
102
{ACAD_REACTORS
330
42
102
}
330
42
100
AcDbScale
 70
     0
300
1/128" = 1'-0"
140
0.0078125
141
12.0
290
     0
  0
SCALE
  5
45
102
{ACAD_REACTORS
330
42
102
}
330
42
100
AcDbScale
 70
     0
300
1/64" = 1'-0"
140
0.015625
141
12.0
290
     0
  0
SCALE
  5
46
102
{ACAD_REACTORS
330
42
102
}
330
42
100
AcDbScale
 70
     0
300
1/32" = 1'-0"
140
0.03125
141
12.0
290
     0
  0
SCALE
  5
47
102
{ACAD_REACTORS
330
42
102
}
330
42
100
AcDbScale
 70
     0
300
1/16" = 1'-0"
140
0.0625
141
12.0
290
     0
  0
SCALE
  5
48
102
{ACAD_REACTORS
330
42
102
}
330
42
100
AcDbScale
 70
     0
300
3/32" = 1'-0"
140
0.09375
141
12.0
290
     0
  0
SCALE
  5
49
102
{ACAD_REACTORS
330
42
102
}
330
42
100
AcDbScale
 70
     0
300
1/8" = 1'-0"
140
0.125
141
12.0
290
     0
  0
SCALE
  5
4A
102
{ACAD_REACTORS
330
42
102
}
330
42
100
AcDbScale
 70
     0
300
3/16" = 1'-0"
140
0.1875
141
12.0
290
     0
  0
SCALE
  5
4B
102
{ACAD_REACTORS
330
42
102
}
330
42
100
AcDbScale
 70
     0
300
1/4" = 1'-0"
140
0.25
141
12.0
290
     0
  0
SCALE
  5
4C
102
{ACAD_REACTORS
330
42
102
}
330
42
100
AcDbScale
 70
     0
300
3/8" = 1'-0"
140
0.375
141
12.0
290
     0
  0
SCALE
  5
4D
102
{ACAD_REACTORS
330
42
102
}
330
42
100
AcDbScale
 70
     0
300
1/2" = 1'-0"
140
0.5
141
12.0
290
     0
  0
SCALE
  5
4E
102
{ACAD_REACTORS
330
42
102
}
330
42
100
AcDbScale
 70
     0
300
3/4" = 1'-0"
140
0.75
141
12.0
290
     0
  0
SCALE
  5
4F
102
{ACAD_REACTORS
330
42
102
}
330
42
100
AcDbScale
 70
     0
300
1" = 1'-0"
140
1.0
141
12.0
290
     0
  0
SCALE
  5
50
102
{ACAD_REACTORS
330
42
102
}
330
42
100
AcDbScale
 70
     0
300
1-1/2" = 1'-0"
140
1.5
141
12.0
290
     0
  0
SCALE
  5
51
102
{ACAD_REACTORS
330
42
102
}
330
42
100
AcDbScale
 70
     0
300
3" = 1'-0"
140
3.0
141
12.0
290
     0
  0
SCALE
  5
52
102
{ACAD_REACTORS
330
42
102
}
330
42
100
AcDbScale
 70
     0
300
6" = 1'-0"
140
6.0
141
12.0
290
     0
  0
SCALE
  5
53
102
{ACAD_REACTORS
330
42
102
}
330
42
100
AcDbScale
 70
     0
300
1'-0" = 1'-0"
140
12.0
141
12.0
290
     0
  0
ACDBSECTIONVIEWSTYLE
  5
68
102
{ACAD_XDICTIONARY
360
52D
102
}
102
{ACAD_REACTORS
330
67
102
}
330
67
100
AcDbModelDocViewStyle
 70
     0
  3
Imperial24
290
     0
100
AcDbSectionViewStyle
 70
     0
 71
     0
 90
       78
 71
     1
340
55
 40
0.24
340
0
340
0
 40
0.24
300
I, O, Q, S, X, Z
 40
0.48
 90
        3
 40
0.18
 90
        1
 71
     2
340
5C
 90
       25
340
5C
 90
       50
 40
0.24
 40
0.0
 40
0.24
 71
     3
340
55
 40
0.24
 90
        1
 40
0.75
 90
        1
300
%<\AcVar ViewType \f "%tc1">% %<\AcVar ViewSectionStartId>%-%<\AcVar ViewSectionEndId>%\PSCALE %<\AcVar ViewScale \f "%sn">%
 71
     4
300
ANSI31
 40
1.0
 90
        0
290
     0
290
     0
 90
        6
 40
0.0
 40
1.570796326794896
 40
0.2617993877991494
 40
1.308996938995747
 40
-0.2617993877991494
 40
1.832595714594046
  0
TABLESTYLE
  5
64
102
{ACAD_XDICTIONARY
360
4F4
102
}
102
{ACAD_REACTORS
330
63
102
}
330
63
100
AcDbTableStyle
  3
Standard
 70
     0
 71
     0
 40
0.06
 41
0.06
280
     0
281
     0
  7
STANDARD
140
0.18
170
     2
 62
     0
 63
     7
283
     0
274
    -2
284
     1
 64
     0
275
    -2
285
     1
 65
     0
276
    -2
286
     1
 66
     0
277
    -2
287
     1
 67
     0
278
    -2
288
     1
 68
     0
279
    -2
289
     1
 69
     0
  7
STANDARD
140
0.25
170
     5
 62
     0
 63
     7
283
     0
274
    -2
284
     1
 64
     0
275
    -2
285
     1
 65
     0
276
    -2
286
     1
 66
     0
277
    -2
287
     1
 67
     0
278
    -2
288
     1
 68
     0
279
    -2
289
     1
 69
     0
  7
STANDARD
140
0.18
170
     5
 62
     0
 63
     7
283
     0
274
    -2
284
     1
 64
     0
275
    -2
285
     1
 65
     0
276
    -2
286
     1
 66
     0
277
    -2
287
     1
 67
     0
278
    -2
288
     1
 68
     0
279
    -2
289
     1
 69
     0
  0
VISUALSTYLE
  5
2F
102
{ACAD_XDICTIONARY
360
505
102
}
102
{ACAD_REACTORS
330
29
102
}
330
29
100
AcDbVisualStyle
  2
2dWireframe
 70
     4
 71
     0
 72
     2
 73
     0
 90
        0
 40
-0.6
 41
-30.0
 62
     5
 63
     7
 74
     1
 91
        4
 64
     7
 65
   257
 75
     1
175
     1
 42
1.0
 92
        0
 66
   257
 43
1.0
 76
     1
 77
     6
 78
     2
 67
     7
 79
     5
170
     0
171
     0
290
     0
174
     0
 93
        1
 44
0.0
173
     0
291
     0
 45
0.0
1001
ACAD
1000
AcDbSavedByObjectVersion
1070
     0
  0
VISUALSTYLE
  5
2E
102
{ACAD_XDICTIONARY
360
503
102
}
102
{ACAD_REACTORS
330
29
102
}
330
29
100
AcDbVisualStyle
  2
Basic
 70
     7
 71
     1
 72
     0
 73
     1
 90
        0
 40
-0.6
 41
-30.0
 62
     5
 63
     7
 74
     0
 91
        4
 64
     7
 65
   257
 75
     1
175
     1
 42
1.0
 92
        8
 66
     7
 43
1.0
 76
     1
 77
     6
 78
     2
 67
     7
 79
     5
170
     0
171
     0
290
     0
174
     0
 93
        1
 44
0.0
173
     0
291
     1
 45
0.0
1001
ACAD
1000
AcDbSavedByObjectVersion
1070
     0
  0
VISUALSTYLE
  5
35
102
{ACAD_XDICTIONARY
360
511
102
}
102
{ACAD_REACTORS
330
29
102
}
330
29
100
AcDbVisualStyle
  2
Brighten
 70
    12
 71
     2
 72
     2
 73
     0
 90
        0
 40
-0.6
 41
-30.0
 62
     5
 63
     7
 74
     1
 91
        4
 64
     7
 65
   257
 75
     1
175
     1
 42
1.0
 92
        8
 66
     7
 43
1.0
 76
     1
 77
     6
 78
     2
 67
     7
 79
     5
170
     0
171
     0
290
     0
174
     0
 93
        1
 44
50.0
173
     0
291
     1
 45
0.0
1001
ACAD
1000
AcDbSavedByObjectVersion
1070
     0
  0
VISUALSTYLE
  5
39
102
{ACAD_XDICTIONARY
360
519
102
}
102
{ACAD_REACTORS
330
29
102
}
330
29
100
AcDbVisualStyle
  2
ColorChange
 70
    16
 71
     2
 72
     2
 73
     3
 90
        0
 40
-0.6
 41
-30.0
 62
     5
 63
     8
 74
     1
 91
        4
 64
     7
 65
   257
 75
     1
175
     1
 42
1.0
 92
        8
 66
     8
 43
1.0
 76
     1
 77
     6
 78
     2
 67
     7
 79
     5
170
     0
171
     0
290
     0
174
     0
 93
        1
 44
0.0
173
     0
291
     1
 45
0.0
1001
ACAD
1000
AcDbSavedByObjectVersion
1070
     0
  0
VISUALSTYLE
  5
32
102
{ACAD_XDICTIONARY
360
50B
102
}
102
{ACAD_REACTORS
330
29
102
}
330
29
100
AcDbVisualStyle
  2
Conceptual
 70
     9
 71
     3
 72
     2
 73
     0
 90
        0
 40
-0.6
 41
-30.0
 62
     5
 63
     7
 74
     2
 91
        2
 64
     7
 65
   257
 75
     1
175
     1
 42
179.0
 92
        8
 66
     7
 43
1.0
 76
     1
 77
     6
 78
     2
 67
     7
 79
     3
170
     0
171
     0
290
     0
174
     0
 93
        1
 44
0.0
173
     0
291
     0
 45
0.0
1001
ACAD
1000
AcDbSavedByObjectVersion
1070
     0
  0
VISUALSTYLE
  5
34
102
{ACAD_XDICTIONARY
360
50F
102
}
102
{ACAD_REACTORS
330
29
102
}
330
29
100
AcDbVisualStyle
  2
Dim
 70
    11
 71
     2
 72
     2
 73
     0
 90
        0
 40
-0.6
 41
-30.0
 62
     5
 63
     7
 74
     1
 91
        4
 64
     7
 65
   257
 75
     1
175
     1
 42
1.0
 92
        8
 66
     7
 43
1.0
 76
     1
 77
     6
 78
     2
 67
     7
 79
     5
170
     0
171
     0
290
     0
174
     0
 93
        1
 44
-50.0
173
     0
291
     1
 45
0.0
1001
ACAD
1000
AcDbSavedByObjectVersion
1070
     0
  0
VISUALSTYLE
  5
41
102
{ACAD_XDICTIONARY
360
529
102
}
102
{ACAD_REACTORS
330
29
102
}
330
29
100
AcDbVisualStyle
  2
EdgeColorOff
 70
    22
 71
     2
 72
     2
 73
     0
 90
        0
 40
-0.6
 41
-30.0
 62
     5
 63
     7
 74
     1
 91
        4
 64
     7
 65
   257
 75
     1
175
     1
 42
1.0
 92
        8
 66
     7
 43
1.0
 76
     1
 77
     6
 78
     2
 67
     7
 79
     5
170
     0
171
     0
290
     0
174
     0
 93
        1
 44
0.0
173
     0
291
     1
 45
0.0
1001
ACAD
1000
AcDbSavedByObjectVersion
1070
     0
  0
VISUALSTYLE
  5
38
102
{ACAD_XDICTIONARY
360
517
102
}
102
{ACAD_REACTORS
330
29
102
}
330
29
100
AcDbVisualStyle
  2
Facepattern
 70
    15
 71
     2
 72
     2
 73
     0
 90
        0
 40
-0.6
 41
-30.0
 62
     5
 63
     7
 74
     1
 91
        4
 64
     7
 65
   257
 75
     1
175
     1
 42
1.0
 92
        8
 66
     7
 43
1.0
 76
     1
 77
     6
 78
     2
 67
     7
 79
     5
170
     0
171
     0
290
     0
174
     0
 93
        1
 44
0.0
173
     0
291
     1
 45
0.0
1001
ACAD
1000
AcDbSavedByObjectVersion
1070
     0
  0
VISUALSTYLE
  5
2A
102
{ACAD_XDICTIONARY
360
4FB
102
}
102
{ACAD_REACTORS
330
29
102
}
330
29
100
AcDbVisualStyle
  2
Flat
 70
     0
 71
     2
 72
     1
 73
     1
 90
        2
 40
-0.6
 41
30.0
 62
     5
 63
     7
 74
     0
 91
        0
 64
     7
 65
   257
 75
     1
175
     1
 42
1.0
 92
        8
 66
     7
 43
1.0
 76
     1
 77
     6
 78
     2
 67
     7
 79
     5
170
     0
171
     0
290
     0
174
     0
 93
       13
 44
0.0
173
     0
291
     1
 45
0.0
1001
ACAD
1000
AcDbSavedByObjectVersion
1070
     0
  0
VISUALSTYLE
  5
2B
102
{ACAD_XDICTIONARY
360
4FD
102
}
102
{ACAD_REACTORS
330
29
102
}
330
29
100
AcDbVisualStyle
  2
FlatWithEdges
 70
     1
 71
     2
 72
     1
 73
     1
 90
        2
 40
-0.6
 41
30.0
 62
     5
 63
     7
 74
     1
 91
        0
 64
     7
 65
   257
 75
     1
175
     1
 42
1.0
 92
        0
 66
   257
 43
1.0
 76
     1
 77
     6
 78
     2
 67
     7
 79
     5
170
     0
171
     0
290
     0
174
     0
 93
       13
 44
0.0
173
     0
291
     1
 45
0.0
1001
ACAD
1000
AcDbSavedByObjectVersion
1070
     0
  0
VISUALSTYLE
  5
2C
102
{ACAD_XDICTIONARY
360
4FF
102
}
102
{ACAD_REACTORS
330
29
102
}
330
29
100
AcDbVisualStyle
  2
Gouraud
 70
     2
 71
     2
 72
     2
 73
     1
 90
        2
 40
-0.6
 41
30.0
 62
     5
 63
     7
 74
     0
 91
        0
 64
     7
 65
   257
 75
     1
175
     1
 42
1.0
 92
        0
 66
     7
 43
1.0
 76
     1
 77
     6
 78
     2
 67
     7
 79
     5
170
     0
171
     0
290
     0
174
     0
 93
       13
 44
0.0
173
     0
291
     1
 45
0.0
1001
ACAD
1000
AcDbSavedByObjectVersion
1070
     0
  0
VISUALSTYLE
  5
2D
102
{ACAD_XDICTIONARY
360
501
102
}
102
{ACAD_REACTORS
330
29
102
}
330
29
100
AcDbVisualStyle
  2
GouraudWithEdges
 70
     3
 71
     2
 72
     2
 73
     1
 90
        2
 40
-0.6
 41
30.0
 62
     5
 63
     7
 74
     1
 91
        0
 64
     7
 65
   257
 75
     1
175
     1
 42
1.0
 92
        0
 66
   257
 43
1.0
 76
     1
 77
     6
 78
     2
 67
     7
 79
     5
170
     0
171
     0
290
     0
174
     0
 93
       13
 44
0.0
173
     0
291
     1
 45
0.0
1001
ACAD
1000
AcDbSavedByObjectVersion
1070
     0
  0
VISUALSTYLE
  5
31
102
{ACAD_XDICTIONARY
360
509
102
}
102
{ACAD_REACTORS
330
29
102
}
330
29
100
AcDbVisualStyle
  2
Hidden
 70
     6
 71
     1
 72
     2
 73
     2
 90
        0
 40
-0.6
 41
-30.0
 62
     5
 63
     7
 74
     2
 91
        2
 64
     7
 65
   257
 75
     2
175
     1
 42
40.0
 92
        0
 66
   257
 43
1.0
 76
     1
 77
     6
 78
     2
 67
     7
 79
     3
170
     0
171
     0
290
     0
174
     0
 93
        1
 44
0.0
173
     0
291
     0
 45
0.0
1001
ACAD
1000
AcDbSavedByObjectVersion
1070
     0
  0
VISUALSTYLE
  5
3F
102
{ACAD_XDICTIONARY
360
525
102
}
102
{ACAD_REACTORS
330
29
102
}
330
29
100
AcDbVisualStyle
  2
JitterOff
 70
    20
 71
     2
 72
     2
 73
     0
 90
        0
 40
-0.6
 41
-30.0
 62
     5
 63
     7
 74
     1
 91
        4
 64
     7
 65
   257
 75
     1
175
     1
 42
1.0
 92
       10
 66
     7
 43
1.0
 76
     1
 77
     6
 78
     2
 67
     7
 79
     5
170
     0
171
     0
290
     0
174
     0
 93
        1
 44
0.0
173
     0
291
     1
 45
0.0
1001
ACAD
1000
AcDbSavedByObjectVersion
1070
     0
  0
VISUALSTYLE
  5
37
102
{ACAD_XDICTIONARY
360
515
102
}
102
{ACAD_REACTORS
330
29
102
}
330
29
100
AcDbVisualStyle
  2
Linepattern
 70
    14
 71
     2
 72
     2
 73
     0
 90
        0
 40
-0.6
 41
-30.0
 62
     5
 63
     7
 74
     1
 91
        4
 64
     7
 65
   257
 75
     7
175
     7
 42
1.0
 92
        8
 66
     7
 43
1.0
 76
     1
 77
     6
 78
     2
 67
     7
 79
     5
170
     0
171
     0
290
     0
174
     0
 93
        1
 44
0.0
173
     0
291
     1
 45
0.0
1001
ACAD
1000
AcDbSavedByObjectVersion
1070
     0
  0
VISUALSTYLE
  5
40
102
{ACAD_XDICTIONARY
360
527
102
}
102
{ACAD_REACTORS
330
29
102
}
330
29
100
AcDbVisualStyle
  2
OverhangOff
 70
    21
 71
     2
 72
     2
 73
     0
 90
        0
 40
-0.6
 41
-30.0
 62
     5
 63
     7
 74
     1
 91
        4
 64
     7
 65
   257
 75
     1
175
     1
 42
1.0
 92
        9
 66
     7
 43
1.0
 76
     1
 77
     6
 78
     2
 67
     7
 79
     5
170
     0
171
     0
290
     0
174
     0
 93
        1
 44
0.0
173
     0
291
     1
 45
0.0
1001
ACAD
1000
AcDbSavedByObjectVersion
1070
     0
  0
VISUALSTYLE
  5
33
102
{ACAD_XDICTIONARY
360
50D
102
}
102
{ACAD_REACTORS
330
29
102
}
330
29
100
AcDbVisualStyle
  2
Realistic
 70
     8
 71
     2
 72
     3
 73
     0
 90
        2
 40
-0.6
 41
30.0
 62
     5
 63
     7
 74
     0
 91
        0
 64
     7
 65
   257
 75
     1
175
     1
 42
1.0
 92
        8
 66
   257
 43
1.0
 76
     1
 77
     6
 78
     2
 67
     7
 79
     3
170
     0
171
     0
290
     0
174
     0
 93
       13
 44
0.0
173
     0
291
     0
 45
0.0
1001
ACAD
1000
AcDbSavedByObjectVersion
1070
     0
  0
VISUALSTYLE
  5
3E
102
{ACAD_XDICTIONARY
360
523
102
}
102
{ACAD_REACTORS
330
29
102
}
330
29
100
AcDbVisualStyle
  2
Shaded
 70
    27
 71
     2
 72
     2
 73
     1
 90
        2
 40
-0.6
 41
30.0
 62
     5
 63
     7
 74
     0
 91
        4
 64
     7
 65
   257
 75
     1
175
     1
 42
1.0
 92
        8
 66
   257
 43
1.0
 76
     1
 77
     6
 78
     2
 67
     8
 79
     3
170
     0
171
     0
290
     0
174
     0
 93
        5
 44
0.0
173
     0
291
     0
 45
0.0
1001
ACAD
1000
AcDbSavedByObjectVersion
1070
     0
  0
VISUALSTYLE
  5
3D
102
{ACAD_XDICTIONARY
360
521
102
}
102
{ACAD_REACTORS
330
29
102
}
330
29
100
AcDbVisualStyle
  2
Shaded with edges
 70
    26
 71
     2
 72
     2
 73
     1
 90
        2
 40
-0.6
 41
30.0
 62
     5
 63
     7
 74
     1
 91
        2
 64
     7
 65
   257
 75
     2
175
     1
 42
1.0
 92
        8
 66
   257
 43
1.0
 76
     1
 77
     6
 78
     2
 67
     7
 79
     3
170
     0
171
     0
290
     0
174
     0
 93
        5
 44
0.0
173
     0
291
     0
 45
0.0
1001
ACAD
1000
AcDbSavedByObjectVersion
1070
     0
  0
VISUALSTYLE
  5
3A
102
{ACAD_XDICTIONARY
360
51B
102
}
102
{ACAD_REACTORS
330
29
102
}
330
29
100
AcDbVisualStyle
  2
Shades of Gray
 70
    23
 71
     2
 72
     2
 73
     3
 90
        0
 40
-0.6
 41
-30.0
 62
     5
 63
     7
 74
     2
 91
        2
 64
     7
 65
     7
 75
     1
175
     1
 42
40.0
 92
        8
 66
     7
 43
1.0
 76
     1
 77
     6
 78
     2
 67
     7
 79
     3
170
     0
171
     0
290
     0
174
     0
 93
        1
 44
0.0
173
     0
291
     0
 45
0.0
1001
ACAD
1000
AcDbSavedByObjectVersion
1070
     0
  0
VISUALSTYLE
  5
3B
102
{ACAD_XDICTIONARY
360
51D
102
}
102
{ACAD_REACTORS
330
29
102
}
330
29
100
AcDbVisualStyle
  2
Sketchy
 70
    24
 71
     1
 72
     2
 73
     2
 90
        0
 40
-0.6
 41
-30.0
 62
     5
 63
     7
 74
     2
 91
        2
 64
     7
 65
     7
 75
     1
175
     1
 42
40.0
 92
       11
 66
     7
 43
1.0
 76
     1
 77
     6
 78
     2
 67
     7
 79
     6
170
     0
171
     0
290
     0
174
     0
 93
        1
 44
0.0
173
     0
291
     0
 45
0.0
1001
ACAD
1000
AcDbSavedByObjectVersion
1070
     0
  0
VISUALSTYLE
  5
36
102
{ACAD_XDICTIONARY
360
513
102
}
102
{ACAD_REACTORS
330
29
102
}
330
29
100
AcDbVisualStyle
  2
Thicken
 70
    13
 71
     2
 72
     2
 73
     0
 90
        0
 40
-0.6
 41
-30.0
 62
     5
 63
     7
 74
     1
 91
        4
 64
     7
 65
   257
 75
     1
175
     1
 42
1.0
 92
       12
 66
     7
 43
1.0
 76
     1
 77
     6
 78
     2
 67
     7
 79
     5
170
     0
171
     0
290
     0
174
     0
 93
        1
 44
0.0
173
     0
291
     1
 45
0.0
1001
ACAD
1000
AcDbSavedByObjectVersion
1070
     0
  0
VISUALSTYLE
  5
30
102
{ACAD_XDICTIONARY
360
507
102
}
102
{ACAD_REACTORS
330
29
102
}
330
29
100
AcDbVisualStyle
  2
Wireframe
 70
     5
 71
     0
 72
     2
 73
     0
 90
        0
 40
-0.6
 41
-30.0
 62
     5
 63
     7
 74
     1
 91
        4
 64
     7
 65
   257
 75
     1
175
     1
 42
1.0
 92
        0
 66
   257
 43
1.0
 76
     1
 77
     6
 78
     2
 67
     7
 79
     3
170
     0
171
     0
290
     0
174
     0
 93
        1
 44
0.0
173
     0
291
     0
 45
0.0
1001
ACAD
1000
AcDbSavedByObjectVersion
1070
     0
  0
VISUALSTYLE
  5
3C
102
{ACAD_XDICTIONARY
360
51F
102
}
102
{ACAD_REACTORS
330
29
102
}
330
29
100
AcDbVisualStyle
  2
X-Ray
 70
    25
 71
     2
 72
     2
 73
     1
 90
        1
 40
0.5
 41
-30.0
 62
     5
 63
     7
 74
     1
 91
        0
 64
     7
 65
   257
 75
     1
175
     1
 42
1.0
 92
        8
 66
     7
 43
1.0
 76
     1
 77
     6
 78
     2
 67
     7
 79
     3
170
     0
171
     0
290
     0
174
     0
 93
       13
 44
0.0
173
     0
291
     0
 45
0.0
1001
ACAD
1000
AcDbSavedByObjectVersion
1070
     0
  0
DICTIONARYVAR
  5
4EE
102
{ACAD_REACTORS
330
4E9
102
}
330
4E9
100
DictionaryVariables
280
     0
  1
1:1
  0
DICTIONARYVAR
  5
4EB
102
{ACAD_REACTORS
330
4E9
102
}
330
4E9
100
DictionaryVariables
280
     0
  1
STANDARD
  0
DICTIONARYVAR
  5
4EA
102
{ACAD_REACTORS
330
4E9
102
}
330
4E9
100
DictionaryVariables
280
     0
  1
STANDARD
  0
DICTIONARYVAR
  5
4EC
102
{ACAD_REACTORS
330
4E9
102
}
330
4E9
100
DictionaryVariables
280
     0
  1
Imperial24
  0
DICTIONARYVAR
  5
4ED
102
{ACAD_REACTORS
330
4E9
102
}
330
4E9
100
DictionaryVariables
280
     0
  1
Imperial24
  0
DICTIONARYVAR
  5
4F1
102
{ACAD_REACTORS
330
4E9
102
}
330
4E9
100
DictionaryVariables
280
     0
  1
1
  0
DICTIONARYVAR
  5
4F0
102
{ACAD_REACTORS
330
4E9
102
}
330
4E9
100
DictionaryVariables
280
     0
  1
0
  0
DICTIONARYVAR
  5
4EF
102
{ACAD_REACTORS
330
4E9
102
}
330
4E9
100
DictionaryVariables
280
     0
  1
127
  0
DICTIONARYVAR
  5
4F2
102
{ACAD_REACTORS
330
4E9
102
}
330
4E9
100
DictionaryVariables
280
     0
  1
2
  0
DICTIONARY
  5
52F
330
6A
100
AcDbDictionary
280
     1
281
     1
  3
ACAD_XREC_ROUNDTRIP
360
530
  0
DICTIONARY
  5
533
330
72
100
AcDbDictionary
280
     1
281
     1
  3
ACAD_XREC_ROUNDTRIP
360
534
  0
DICTIONARY
  5
531
330
6E
100
AcDbDictionary
280
     1
281
     1
  3
ACAD_XREC_ROUNDTRIP
360
532
  0
DICTIONARY
  5
1A
330
19
100
AcDbDictionary
280
     1
281
     1
  3
ACAD_XREC_ROUNDTRIP
360
4F9
  3
BUMPTILE
360
1C
  3
DIFFUSETILE
360
1B
  3
OPACITYTILE
360
1F
  3
REFLECTIONTILE
360
1E
  3
REFRACTIONTILE
360
20
  3
SPECULARTILE
360
1D
  0
DICTIONARY
  5
12
330
11
100
AcDbDictionary
280
     1
281
     1
  3
ACAD_XREC_ROUNDTRIP
360
4F8
  3
BUMPTILE
360
14
  3
DIFFUSETILE
360
13
  3
OPACITYTILE
360
17
  3
REFLECTIONTILE
360
16
  3
REFRACTIONTILE
360
18
  3
SPECULARTILE
360
15
  0
DICTIONARY
  5
22
330
21
100
AcDbDictionary
280
     1
281
     1
  3
ACAD_XREC_ROUNDTRIP
360
4FA
  3
BUMPTILE
360
24
  3
DIFFUSETILE
360
23
  3
OPACITYTILE
360
27
  3
REFLECTIONTILE
360
26
  3
REFRACTIONTILE
360
28
  3
SPECULARTILE
360
25
  0
DICTIONARY
  5
52D
330
68
100
AcDbDictionary
280
     1
281
     1
  3
ACAD_XREC_ROUNDTRIP
360
52E
  0
DICTIONARY
  5
4F4
330
64
100
AcDbDictionary
280
     1
281
     1
  3
ACAD_ROUNDTRIP_2008_TABLESTYLE_CELLSTYLEMAP
360
4F5
  3
ACAD_XREC_ROUNDTRIP
360
52B
  0
DICTIONARY
  5
505
330
2F
100
AcDbDictionary
280
     1
281
     1
  3
ACAD_XREC_ROUNDTRIP
360
506
  0
DICTIONARY
  5
503
330
2E
100
AcDbDictionary
280
     1
281
     1
  3
ACAD_XREC_ROUNDTRIP
360
504
  0
DICTIONARY
  5
511
330
35
100
AcDbDictionary
280
     1
281
     1
  3
ACAD_XREC_ROUNDTRIP
360
512
  0
DICTIONARY
  5
519
330
39
100
AcDbDictionary
280
     1
281
     1
  3
ACAD_XREC_ROUNDTRIP
360
51A
  0
DICTIONARY
  5
50B
330
32
100
AcDbDictionary
280
     1
281
     1
  3
ACAD_XREC_ROUNDTRIP
360
50C
  0
DICTIONARY
  5
50F
330
34
100
AcDbDictionary
280
     1
281
     1
  3
ACAD_XREC_ROUNDTRIP
360
510
  0
DICTIONARY
  5
529
330
41
100
AcDbDictionary
280
     1
281
     1
  3
ACAD_XREC_ROUNDTRIP
360
52A
  0
DICTIONARY
  5
517
330
38
100
AcDbDictionary
280
     1
281
     1
  3
ACAD_XREC_ROUNDTRIP
360
518
  0
DICTIONARY
  5
4FB
330
2A
100
AcDbDictionary
280
     1
281
     1
  3
ACAD_XREC_ROUNDTRIP
360
4FC
  0
DICTIONARY
  5
4FD
330
2B
100
AcDbDictionary
280
     1
281
     1
  3
ACAD_XREC_ROUNDTRIP
360
4FE
  0
DICTIONARY
  5
4FF
330
2C
100
AcDbDictionary
280
     1
281
     1
  3
ACAD_XREC_ROUNDTRIP
360
500
  0
DICTIONARY
  5
501
330
2D
100
AcDbDictionary
280
     1
281
     1
  3
ACAD_XREC_ROUNDTRIP
360
502
  0
DICTIONARY
  5
509
330
31
100
AcDbDictionary
280
     1
281
     1
  3
ACAD_XREC_ROUNDTRIP
360
50A
  0
DICTIONARY
  5
525
330
3F
100
AcDbDictionary
280
     1
281
     1
  3
ACAD_XREC_ROUNDTRIP
360
526
  0
DICTIONARY
  5
515
330
37
100
AcDbDictionary
280
     1
281
     1
  3
ACAD_XREC_ROUNDTRIP
360
516
  0
DICTIONARY
  5
527
330
40
100
AcDbDictionary
280
     1
281
     1
  3
ACAD_XREC_ROUNDTRIP
360
528
  0
DICTIONARY
  5
50D
330
33
100
AcDbDictionary
280
     1
281
     1
  3
ACAD_XREC_ROUNDTRIP
360
50E
  0
DICTIONARY
  5
523
330
3E
100
AcDbDictionary
280
     1
281
     1
  3
ACAD_XREC_ROUNDTRIP
360
524
  0
DICTIONARY
  5
521
330
3D
100
AcDbDictionary
280
     1
281
     1
  3
ACAD_XREC_ROUNDTRIP
360
522
  0
DICTIONARY
  5
51B
330
3A
100
AcDbDictionary
280
     1
281
     1
  3
ACAD_XREC_ROUNDTRIP
360
51C
  0
DICTIONARY
  5
51D
330
3B
100
AcDbDictionary
280
     1
281
     1
  3
ACAD_XREC_ROUNDTRIP
360
51E
  0
DICTIONARY
  5
513
330
36
100
AcDbDictionary
280
     1
281
     1
  3
ACAD_XREC_ROUNDTRIP
360
514
  0
DICTIONARY
  5
507
330
30
100
AcDbDictionary
280
     1
281
     1
  3
ACAD_XREC_ROUNDTRIP
360
508
  0
DICTIONARY
  5
51F
330
3C
100
AcDbDictionary
280
     1
281
     1
  3
ACAD_XREC_ROUNDTRIP
360
520
  0
XRECORD
  5
530
102
{ACAD_REACTORS
330
52F
102
}
330
52F
100
AcDbXrecord
280
     1
102
DISPLAYNAME
  1
Imperial24
102
FLAGS
 90
        0
  0
XRECORD
  5
534
102
{ACAD_REACTORS
330
533
102
}
330
533
100
AcDbXrecord
280
     1
102
SHADEPLOT
 70
     0
102
SHADEPLOTRESLEVEL
 70
     2
102
SHADEPLOTCUSTOMDPI
 70
   300
  0
XRECORD
  5
532
102
{ACAD_REACTORS
330
531
102
}
330
531
100
AcDbXrecord
280
     1
102
SHADEPLOT
 70
     0
102
SHADEPLOTRESLEVEL
 70
     2
102
SHADEPLOTCUSTOMDPI
 70
   300
  0
XRECORD
  5
4F9
102
{ACAD_REACTORS
330
1A
102
}
330
1A
100
AcDbXrecord
280
     1
102
MATERIAL
148
0.0
149
0.0
149
0.0
 93
        0
 94
      127
282
     0
 72
     0
 77
     0
171
     0
175
     0
179
     0
273
     0
  0
XRECORD
  5
1C
102
{ACAD_REACTORS
330
1A
102
}
330
1A
100
AcDbXrecord
280
     1
270
     1
271
     1
  0
XRECORD
  5
1B
102
{ACAD_REACTORS
330
1A
102
}
330
1A
100
AcDbXrecord
280
     1
270
     1
271
     1
  0
XRECORD
  5
1F
102
{ACAD_REACTORS
330
1A
102
}
330
1A
100
AcDbXrecord
280
     1
270
     1
271
     1
  0
XRECORD
  5
1E
102
{ACAD_REACTORS
330
1A
102
}
330
1A
100
AcDbXrecord
280
     1
270
     1
271
     1
  0
XRECORD
  5
20
102
{ACAD_REACTORS
330
1A
102
}
330
1A
100
AcDbXrecord
280
     1
270
     1
271
     1
  0
XRECORD
  5
1D
102
{ACAD_REACTORS
330
1A
102
}
330
1A
100
AcDbXrecord
280
     1
270
     1
271
     1
  0
XRECORD
  5
4F8
102
{ACAD_REACTORS
330
12
102
}
330
12
100
AcDbXrecord
280
     1
102
MATERIAL
148
0.0
149
0.0
149
0.0
 93
        0
 94
      127
282
     0
 72
     0
 77
     0
171
     0
175
     0
179
     0
273
     0
  0
XRECORD
  5
14
102
{ACAD_REACTORS
330
12
102
}
330
12
100
AcDbXrecord
280
     1
270
     1
271
     1
  0
XRECORD
  5
13
102
{ACAD_REACTORS
330
12
102
}
330
12
100
AcDbXrecord
280
     1
270
     1
271
     1
  0
XRECORD
  5
17
102
{ACAD_REACTORS
330
12
102
}
330
12
100
AcDbXrecord
280
     1
270
     1
271
     1
  0
XRECORD
  5
16
102
{ACAD_REACTORS
330
12
102
}
330
12
100
AcDbXrecord
280
     1
270
     1
271
     1
  0
XRECORD
  5
18
102
{ACAD_REACTORS
330
12
102
}
330
12
100
AcDbXrecord
280
     1
270
     1
271
     1
  0
XRECORD
  5
15
102
{ACAD_REACTORS
330
12
102
}
330
12
100
AcDbXrecord
280
     1
270
     1
271
     1
  0
XRECORD
  5
4FA
102
{ACAD_REACTORS
330
22
102
}
330
22
100
AcDbXrecord
280
     1
102
MATERIAL
148
0.0
149
0.0
149
0.0
 93
        0
 94
      127
282
     0
 72
     0
 77
     0
171
     0
175
     0
179
     0
273
     0
  0
XRECORD
  5
24
102
{ACAD_REACTORS
330
22
102
}
330
22
100
AcDbXrecord
280
     1
270
     1
271
     1
  0
XRECORD
  5
23
102
{ACAD_REACTORS
330
22
102
}
330
22
100
AcDbXrecord
280
     1
270
     1
271
     1
  0
XRECORD
  5
27
102
{ACAD_REACTORS
330
22
102
}
330
22
100
AcDbXrecord
280
     1
270
     1
271
     1
  0
XRECORD
  5
26
102
{ACAD_REACTORS
330
22
102
}
330
22
100
AcDbXrecord
280
     1
270
     1
271
     1
  0
XRECORD
  5
28
102
{ACAD_REACTORS
330
22
102
}
330
22
100
AcDbXrecord
280
     1
270
     1
271
     1
  0
XRECORD
  5
25
102
{ACAD_REACTORS
330
22
102
}
330
22
100
AcDbXrecord
280
     1
270
     1
271
     1
  0
XRECORD
  5
52E
102
{ACAD_REACTORS
330
52D
102
}
330
52D
100
AcDbXrecord
280
     1
102
DISPLAYNAME
  1
Imperial24
102
FLAGS
 90
        0
  0
CELLSTYLEMAP
  5
4F5
102
{ACAD_REACTORS
330
4F4
102
}
330
4F4
100
AcDbCellStyleMap
 90
        3
300
CELLSTYLE
  1
TABLEFORMAT_BEGIN
 90
        5
170
     1
 91
        0
 92
    32768
 62
   257
 93
        1
300
CONTENTFORMAT
  1
CONTENTFORMAT_BEGIN
 90
        0
 91
        0
 92
      512
 93
        0
300

 40
0.0
140
1.0
 94
        5
 62
     0
340
55
144
0.25
309
CONTENTFORMAT_END
171
     0
 94
        0
309
TABLEFORMAT_END
  1
CELLSTYLE_BEGIN
 90
        1
 91
        1
300
_TITLE
309
CELLSTYLE_END
300
CELLSTYLE
  1
TABLEFORMAT_BEGIN
 90
        5
170
     1
 91
        0
 92
        0
 62
   257
 93
        1
300
CONTENTFORMAT
  1
CONTENTFORMAT_BEGIN
 90
        0
 91
        0
 92
      512
 93
        0
300

 40
0.0
140
1.0
 94
        5
 62
     0
340
55
144
0.18
309
CONTENTFORMAT_END
171
     0
 94
        0
309
TABLEFORMAT_END
  1
CELLSTYLE_BEGIN
 90
        2
 91
        1
300
_HEADER
309
CELLSTYLE_END
300
CELLSTYLE
  1
TABLEFORMAT_BEGIN
 90
        5
170
     1
 91
        0
 92
        0
 62
   257
 93
        1
300
CONTENTFORMAT
  1
CONTENTFORMAT_BEGIN
 90
        0
 91
        0
 92
      512
 93
        0
300

 40
0.0
140
1.0
 94
        2
 62
     0
340
55
144
0.18
309
CONTENTFORMAT_END
171
     0
 94
        0
309
TABLEFORMAT_END
  1
CELLSTYLE_BEGIN
 90
        3
 91
        2
300
_DATA
309
CELLSTYLE_END
  0
XRECORD
  5
52B
102
{ACAD_REACTORS
330
4F4
102
}
330
4F4
100
AcDbXrecord
280
     1
102
ACAD_ROUNDTRIP_PRE2007_TABLESTYLE
 90
      512
 91
        0
  1

 92
      512
 93
        0
  2

 94
      512
 95
        0
  3

  0
XRECORD
  5
506
102
{ACAD_REACTORS
330
505
102
}
330
505
100
AcDbXrecord
280
     1
102
RTVSPost2010Prop28
280
     1
102
RTVSPost2010PropOp28
 70
     1
102
RTVSPost2010Prop29
280
     1
102
RTVSPost2010PropOp29
 70
     1
102
RTVSPost2010Prop30
280
     0
102
RTVSPost2010PropOp30
 70
     1
102
RTVSPost2010Prop31
280
     0
102
RTVSPost2010PropOp31
 70
     1
102
RTVSPost2010Prop32
280
     0
102
RTVSPost2010PropOp32
 70
     1
102
RTVSPost2010Prop33
280
     0
102
RTVSPost2010PropOp33
 70
     1
102
RTVSPost2010Prop34
280
     0
102
RTVSPost2010PropOp34
 70
     1
102
RTVSPost2010Prop35
280
     0
102
RTVSPost2010PropOp35
 70
     1
102
RTVSPost2010Prop36
280
     0
102
RTVSPost2010PropOp36
 70
     1
102
RTVSPost2010Prop37
 90
       50
102
RTVSPost2010PropOp37
 70
     1
102
RTVSPost2010Prop38
140
0.0
102
RTVSPost2010PropOp38
 70
     1
102
RTVSPost2010Prop39
140
1.0
102
RTVSPost2010PropOp39
 70
     1
102
RTVSPost2010Prop40
 90
        0
102
RTVSPost2010PropOp40
 70
     1
102
RTVSPost2010Prop41ColorIndex
 90
       18
102
RTVSPost2010Prop41ColorRGB
 90
        0
102
RTVSPost2010PropOp41
 70
     1
102
RTVSPost2010Prop42
 90
       50
102
RTVSPost2010PropOp42
 70
     1
102
RTVSPost2010Prop43
 90
        3
102
RTVSPost2010PropOp43
 70
     1
102
RTVSPost2010Prop44ColorIndex
 90
        5
102
RTVSPost2010Prop44ColorRGB
 90
      255
102
RTVSPost2010PropOp44
 70
     1
102
RTVSPost2010Prop45
280
     0
102
RTVSPost2010PropOp45
 70
     1
102
RTVSPost2010Prop46
 90
       50
102
RTVSPost2010PropOp46
 70
     1
102
RTVSPost2010Prop47
 90
       50
102
RTVSPost2010PropOp47
 70
     1
102
RTVSPost2010Prop48
 90
       50
102
RTVSPost2010PropOp48
 70
     1
102
RTVSPost2010Prop49
280
     0
102
RTVSPost2010PropOp49
 70
     1
102
RTVSPost2010Prop50
 90
       50
102
RTVSPost2010PropOp50
 70
     1
102
RTVSPost2010Prop51ColorIndex
 90
      256
102
RTVSPost2010Prop51ColorRGB
 90
-16777216
102
RTVSPost2010PropOp51
 70
     0
102
RTVSPost2010Prop52
140
1.0
102
RTVSPost2010PropOp52
 70
     0
102
RTVSPost2010Prop53
 90
        2
102
RTVSPost2010PropOp53
 70
     1
102
RTVSPost2010Prop54
  1
strokes_ogs.tif
102
RTVSPost2010PropOp54
 70
     1
102
RTVSPost2010Prop55
280
     0
102
RTVSPost2010PropOp55
 70
     1
102
RTVSPost2010Prop56
140
1.0
102
RTVSPost2010PropOp56
 70
     1
102
RTVSPost2010Prop57
140
1.0
102
RTVSPost2010PropOp57
 70
     1
102
RTVSPropertyOp0
 70
     1
102
RTVSPropertyOp1
 70
     1
102
RTVSPropertyOp2
 70
     1
102
RTVSPropertyOp3
 70
     1
102
RTVSPropertyOp4
 70
     1
102
RTVSPropertyOp5
 70
     1
102
RTVSPropertyOp6
 70
     1
102
RTVSPropertyOp7
 70
     1
102
RTVSPropertyOp8
 70
     1
102
RTVSPropertyOp9
 70
     1
102
RTVSPropertyOp10
 70
     1
102
RTVSPropertyOp11
 70
     1
102
RTVSPropertyOp12
 70
     1
102
RTVSPropertyOp13
 70
     1
102
RTVSPropertyOp14
 70
     1
102
RTVSPropertyOp15
 70
     1
102
RTVSPropertyOp16
 70
     1
102
RTVSPropertyOp17
 70
     1
102
RTVSPropertyOp18
 70
     1
102
RTVSPropertyOp19
 70
     1
102
RTVSPropertyOp20
 70
     1
102
RTVSPropertyOp21
 70
     1
102
RTVSPropertyOp22
 70
     1
102
RTVSPropertyOp23
 70
     1
102
RTVSPropertyOp24
 70
     1
102
RTVSPropertyOp25
 70
     1
102
RTVSPropertyOp26
 70
     1
102
RTVSPropertyOp27
 70
     1
102
RTVSPropertyOp28
 70
     1
102
RTVSPropertyOp29
 70
     1
102
RTVSPropertyOp30
 70
     1
102
RTVSPropertyOp31
 70
     1
102
RTVSPropertyOp32
 70
     1
102
RTVSPropertyOp33
 70
     1
102
RTVSPropertyOp34
 70
     1
102
RTVSPropertyOp35
 70
     1
102
RTVSPropertyOp36
 70
     1
102
RTVSPropertyOp37
 70
     1
102
RTVSPropertyOp38
 70
     1
102
RTVSPropertyOp39
 70
     1
102
RTVSPropertyOp40
 70
     1
102
RTVSPropertyOp41
 70
     1
102
RTVSPropertyOp42
 70
     1
102
RTVSPropertyOp43
 70
     1
102
RTVSPropertyOp44
 70
     1
102
RTVSPropertyOp45
 70
     1
102
RTVSPropertyOp46
 70
     1
102
RTVSPropertyOp47
 70
     1
102
RTVSPropertyOp48
 70
     1
102
RTVSPropertyOp49
 70
     1
102
RTVSPropertyOp50
 70
     1
102
RTVSPropertyOp51
 70
     0
102
RTVSPropertyOp52
 70
     0
102
RTVSPropertyOp53
 70
     1
102
RTVSPropertyOp54
 70
     1
102
RTVSPropertyOp55
 70
     1
102
RTVSPropertyOp56
 70
     1
102
RTVSPropertyOp57
 70
     1
102
RTVSPropertyOp58
 70
     1
102
RTVSPropertyOp59
 70
     1
102
RTVSPropertyOp60
 70
     1
102
RTVSPropertyOp61
 70
     1
102
RTVSPropertyOp62
 70
     1
  0
XRECORD
  5
504
102
{ACAD_REACTORS
330
503
102
}
330
503
100
AcDbXrecord
280
     1
102
RTVSPost2010Prop28
280
     0
102
RTVSPost2010PropOp28
 70
     1
102
RTVSPost2010Prop29
280
     1
102
RTVSPost2010PropOp29
 70
     1
102
RTVSPost2010Prop30
280
     1
102
RTVSPost2010PropOp30
 70
     1
102
RTVSPost2010Prop31
280
     0
102
RTVSPost2010PropOp31
 70
     1
102
RTVSPost2010Prop32
280
     0
102
RTVSPost2010PropOp32
 70
     1
102
RTVSPost2010Prop33
280
     0
102
RTVSPost2010PropOp33
 70
     1
102
RTVSPost2010Prop34
280
     0
102
RTVSPost2010PropOp34
 70
     1
102
RTVSPost2010Prop35
280
     0
102
RTVSPost2010PropOp35
 70
     1
102
RTVSPost2010Prop36
280
     0
102
RTVSPost2010PropOp36
 70
     1
102
RTVSPost2010Prop37
 90
       50
102
RTVSPost2010PropOp37
 70
     1
102
RTVSPost2010Prop38
140
0.0
102
RTVSPost2010PropOp38
 70
     1
102
RTVSPost2010Prop39
140
1.0
102
RTVSPost2010PropOp39
 70
     1
102
RTVSPost2010Prop40
 90
        0
102
RTVSPost2010PropOp40
 70
     1
102
RTVSPost2010Prop41ColorIndex
 90
       18
102
RTVSPost2010Prop41ColorRGB
 90
        0
102
RTVSPost2010PropOp41
 70
     1
102
RTVSPost2010Prop42
 90
       50
102
RTVSPost2010PropOp42
 70
     1
102
RTVSPost2010Prop43
 90
        3
102
RTVSPost2010PropOp43
 70
     1
102
RTVSPost2010Prop44ColorIndex
 90
        5
102
RTVSPost2010Prop44ColorRGB
 90
      255
102
RTVSPost2010PropOp44
 70
     1
102
RTVSPost2010Prop45
280
     0
102
RTVSPost2010PropOp45
 70
     1
102
RTVSPost2010Prop46
 90
       50
102
RTVSPost2010PropOp46
 70
     1
102
RTVSPost2010Prop47
 90
       50
102
RTVSPost2010PropOp47
 70
     1
102
RTVSPost2010Prop48
 90
       50
102
RTVSPost2010PropOp48
 70
     1
102
RTVSPost2010Prop49
280
     0
102
RTVSPost2010PropOp49
 70
     1
102
RTVSPost2010Prop50
 90
       50
102
RTVSPost2010PropOp50
 70
     1
102
RTVSPost2010Prop51ColorIndex
 90
      256
102
RTVSPost2010Prop51ColorRGB
 90
-16777216
102
RTVSPost2010PropOp51
 70
     0
102
RTVSPost2010Prop52
140
1.0
102
RTVSPost2010PropOp52
 70
     0
102
RTVSPost2010Prop53
 90
        2
102
RTVSPost2010PropOp53
 70
     1
102
RTVSPost2010Prop54
  1
strokes_ogs.tif
102
RTVSPost2010PropOp54
 70
     1
102
RTVSPost2010Prop55
280
     0
102
RTVSPost2010PropOp55
 70
     1
102
RTVSPost2010Prop56
140
1.0
102
RTVSPost2010PropOp56
 70
     1
102
RTVSPost2010Prop57
140
1.0
102
RTVSPost2010PropOp57
 70
     1
102
RTVSPropertyOp0
 70
     1
102
RTVSPropertyOp1
 70
     1
102
RTVSPropertyOp2
 70
     1
102
RTVSPropertyOp3
 70
     1
102
RTVSPropertyOp4
 70
     1
102
RTVSPropertyOp5
 70
     1
102
RTVSPropertyOp6
 70
     1
102
RTVSPropertyOp7
 70
     1
102
RTVSPropertyOp8
 70
     1
102
RTVSPropertyOp9
 70
     1
102
RTVSPropertyOp10
 70
     1
102
RTVSPropertyOp11
 70
     1
102
RTVSPropertyOp12
 70
     1
102
RTVSPropertyOp13
 70
     1
102
RTVSPropertyOp14
 70
     1
102
RTVSPropertyOp15
 70
     1
102
RTVSPropertyOp16
 70
     1
102
RTVSPropertyOp17
 70
     1
102
RTVSPropertyOp18
 70
     1
102
RTVSPropertyOp19
 70
     1
102
RTVSPropertyOp20
 70
     1
102
RTVSPropertyOp21
 70
     1
102
RTVSPropertyOp22
 70
     1
102
RTVSPropertyOp23
 70
     1
102
RTVSPropertyOp24
 70
     1
102
RTVSPropertyOp25
 70
     1
102
RTVSPropertyOp26
 70
     1
102
RTVSPropertyOp27
 70
     1
102
RTVSPropertyOp28
 70
     1
102
RTVSPropertyOp29
 70
     1
102
RTVSPropertyOp30
 70
     1
102
RTVSPropertyOp31
 70
     1
102
RTVSPropertyOp32
 70
     1
102
RTVSPropertyOp33
 70
     1
102
RTVSPropertyOp34
 70
     1
102
RTVSPropertyOp35
 70
     1
102
RTVSPropertyOp36
 70
     1
102
RTVSPropertyOp37
 70
     1
102
RTVSPropertyOp38
 70
     1
102
RTVSPropertyOp39
 70
     1
102
RTVSPropertyOp40
 70
     1
102
RTVSPropertyOp41
 70
     1
102
RTVSPropertyOp42
 70
     1
102
RTVSPropertyOp43
 70
     1
102
RTVSPropertyOp44
 70
     1
102
RTVSPropertyOp45
 70
     1
102
RTVSPropertyOp46
 70
     1
102
RTVSPropertyOp47
 70
     1
102
RTVSPropertyOp48
 70
     1
102
RTVSPropertyOp49
 70
     1
102
RTVSPropertyOp50
 70
     1
102
RTVSPropertyOp51
 70
     0
102
RTVSPropertyOp52
 70
     0
102
RTVSPropertyOp53
 70
     1
102
RTVSPropertyOp54
 70
     1
102
RTVSPropertyOp55
 70
     1
102
RTVSPropertyOp56
 70
     1
102
RTVSPropertyOp57
 70
     1
102
RTVSPropertyOp58
 70
     1
102
RTVSPropertyOp59
 70
     1
102
RTVSPropertyOp60
 70
     1
102
RTVSPropertyOp61
 70
     1
102
RTVSPropertyOp62
 70
     1
  0
XRECORD
  5
512
102
{ACAD_REACTORS
330
511
102
}
330
511
100
AcDbXrecord
280
     1
102
RTVSPost2010Prop28
280
     0
102
RTVSPost2010PropOp28
 70
     1
102
RTVSPost2010Prop29
280
     1
102
RTVSPost2010PropOp29
 70
     1
102
RTVSPost2010Prop30
280
     1
102
RTVSPost2010PropOp30
 70
     1
102
RTVSPost2010Prop31
280
     0
102
RTVSPost2010PropOp31
 70
     1
102
RTVSPost2010Prop32
280
     0
102
RTVSPost2010PropOp32
 70
     1
102
RTVSPost2010Prop33
280
     0
102
RTVSPost2010PropOp33
 70
     1
102
RTVSPost2010Prop34
280
     0
102
RTVSPost2010PropOp34
 70
     1
102
RTVSPost2010Prop35
280
     0
102
RTVSPost2010PropOp35
 70
     1
102
RTVSPost2010Prop36
280
     0
102
RTVSPost2010PropOp36
 70
     1
102
RTVSPost2010Prop37
 90
       50
102
RTVSPost2010PropOp37
 70
     1
102
RTVSPost2010Prop38
140
0.0
102
RTVSPost2010PropOp38
 70
     1
102
RTVSPost2010Prop39
140
1.0
102
RTVSPost2010PropOp39
 70
     1
102
RTVSPost2010Prop40
 90
        0
102
RTVSPost2010PropOp40
 70
     1
102
RTVSPost2010Prop41ColorIndex
 90
       18
102
RTVSPost2010Prop41ColorRGB
 90
        0
102
RTVSPost2010PropOp41
 70
     1
102
RTVSPost2010Prop42
 90
       50
102
RTVSPost2010PropOp42
 70
     1
102
RTVSPost2010Prop43
 90
        3
102
RTVSPost2010PropOp43
 70
     1
102
RTVSPost2010Prop44ColorIndex
 90
        5
102
RTVSPost2010Prop44ColorRGB
 90
      255
102
RTVSPost2010PropOp44
 70
     1
102
RTVSPost2010Prop45
280
     0
102
RTVSPost2010PropOp45
 70
     1
102
RTVSPost2010Prop46
 90
       50
102
RTVSPost2010PropOp46
 70
     1
102
RTVSPost2010Prop47
 90
       50
102
RTVSPost2010PropOp47
 70
     1
102
RTVSPost2010Prop48
 90
       50
102
RTVSPost2010PropOp48
 70
     1
102
RTVSPost2010Prop49
280
     0
102
RTVSPost2010PropOp49
 70
     1
102
RTVSPost2010Prop50
 90
       50
102
RTVSPost2010PropOp50
 70
     1
102
RTVSPost2010Prop51ColorIndex
 90
      256
102
RTVSPost2010Prop51ColorRGB
 90
-16777216
102
RTVSPost2010PropOp51
 70
     0
102
RTVSPost2010Prop52
140
1.0
102
RTVSPost2010PropOp52
 70
     0
102
RTVSPost2010Prop53
 90
        2
102
RTVSPost2010PropOp53
 70
     1
102
RTVSPost2010Prop54
  1
strokes_ogs.tif
102
RTVSPost2010PropOp54
 70
     1
102
RTVSPost2010Prop55
280
     0
102
RTVSPost2010PropOp55
 70
     1
102
RTVSPost2010Prop56
140
1.0
102
RTVSPost2010PropOp56
 70
     1
102
RTVSPost2010Prop57
140
1.0
102
RTVSPost2010PropOp57
 70
     1
102
RTVSPropertyOp0
 70
     1
102
RTVSPropertyOp1
 70
     1
102
RTVSPropertyOp2
 70
     1
102
RTVSPropertyOp3
 70
     1
102
RTVSPropertyOp4
 70
     1
102
RTVSPropertyOp5
 70
     1
102
RTVSPropertyOp6
 70
     1
102
RTVSPropertyOp7
 70
     1
102
RTVSPropertyOp8
 70
     1
102
RTVSPropertyOp9
 70
     1
102
RTVSPropertyOp10
 70
     1
102
RTVSPropertyOp11
 70
     1
102
RTVSPropertyOp12
 70
     1
102
RTVSPropertyOp13
 70
     1
102
RTVSPropertyOp14
 70
     1
102
RTVSPropertyOp15
 70
     1
102
RTVSPropertyOp16
 70
     1
102
RTVSPropertyOp17
 70
     1
102
RTVSPropertyOp18
 70
     1
102
RTVSPropertyOp19
 70
     1
102
RTVSPropertyOp20
 70
     1
102
RTVSPropertyOp21
 70
     1
102
RTVSPropertyOp22
 70
     1
102
RTVSPropertyOp23
 70
     1
102
RTVSPropertyOp24
 70
     1
102
RTVSPropertyOp25
 70
     1
102
RTVSPropertyOp26
 70
     1
102
RTVSPropertyOp27
 70
     1
102
RTVSPropertyOp28
 70
     1
102
RTVSPropertyOp29
 70
     1
102
RTVSPropertyOp30
 70
     1
102
RTVSPropertyOp31
 70
     1
102
RTVSPropertyOp32
 70
     1
102
RTVSPropertyOp33
 70
     1
102
RTVSPropertyOp34
 70
     1
102
RTVSPropertyOp35
 70
     1
102
RTVSPropertyOp36
 70
     1
102
RTVSPropertyOp37
 70
     1
102
RTVSPropertyOp38
 70
     1
102
RTVSPropertyOp39
 70
     1
102
RTVSPropertyOp40
 70
     1
102
RTVSPropertyOp41
 70
     1
102
RTVSPropertyOp42
 70
     1
102
RTVSPropertyOp43
 70
     1
102
RTVSPropertyOp44
 70
     1
102
RTVSPropertyOp45
 70
     1
102
RTVSPropertyOp46
 70
     1
102
RTVSPropertyOp47
 70
     1
102
RTVSPropertyOp48
 70
     1
102
RTVSPropertyOp49
 70
     1
102
RTVSPropertyOp50
 70
     1
102
RTVSPropertyOp51
 70
     0
102
RTVSPropertyOp52
 70
     0
102
RTVSPropertyOp53
 70
     1
102
RTVSPropertyOp54
 70
     1
102
RTVSPropertyOp55
 70
     1
102
RTVSPropertyOp56
 70
     1
102
RTVSPropertyOp57
 70
     1
102
RTVSPropertyOp58
 70
     1
102
RTVSPropertyOp59
 70
     1
102
RTVSPropertyOp60
 70
     1
102
RTVSPropertyOp61
 70
     1
102
RTVSPropertyOp62
 70
     1
  0
XRECORD
  5
51A
102
{ACAD_REACTORS
330
519
102
}
330
519
100
AcDbXrecord
280
     1
102
RTVSPost2010Prop28
280
     0
102
RTVSPost2010PropOp28
 70
     1
102
RTVSPost2010Prop29
280
     1
102
RTVSPost2010PropOp29
 70
     1
102
RTVSPost2010Prop30
280
     1
102
RTVSPost2010PropOp30
 70
     1
102
RTVSPost2010Prop31
280
     0
102
RTVSPost2010PropOp31
 70
     1
102
RTVSPost2010Prop32
280
     0
102
RTVSPost2010PropOp32
 70
     1
102
RTVSPost2010Prop33
280
     0
102
RTVSPost2010PropOp33
 70
     1
102
RTVSPost2010Prop34
280
     0
102
RTVSPost2010PropOp34
 70
     1
102
RTVSPost2010Prop35
280
     0
102
RTVSPost2010PropOp35
 70
     1
102
RTVSPost2010Prop36
280
     0
102
RTVSPost2010PropOp36
 70
     1
102
RTVSPost2010Prop37
 90
       50
102
RTVSPost2010PropOp37
 70
     1
102
RTVSPost2010Prop38
140
0.0
102
RTVSPost2010PropOp38
 70
     1
102
RTVSPost2010Prop39
140
1.0
102
RTVSPost2010PropOp39
 70
     1
102
RTVSPost2010Prop40
 90
        0
102
RTVSPost2010PropOp40
 70
     1
102
RTVSPost2010Prop41ColorIndex
 90
       18
102
RTVSPost2010Prop41ColorRGB
 90
        0
102
RTVSPost2010PropOp41
 70
     1
102
RTVSPost2010Prop42
 90
       50
102
RTVSPost2010PropOp42
 70
     1
102
RTVSPost2010Prop43
 90
        3
102
RTVSPost2010PropOp43
 70
     1
102
RTVSPost2010Prop44ColorIndex
 90
        5
102
RTVSPost2010Prop44ColorRGB
 90
      255
102
RTVSPost2010PropOp44
 70
     1
102
RTVSPost2010Prop45
280
     0
102
RTVSPost2010PropOp45
 70
     1
102
RTVSPost2010Prop46
 90
       50
102
RTVSPost2010PropOp46
 70
     1
102
RTVSPost2010Prop47
 90
       50
102
RTVSPost2010PropOp47
 70
     1
102
RTVSPost2010Prop48
 90
       50
102
RTVSPost2010PropOp48
 70
     1
102
RTVSPost2010Prop49
280
     0
102
RTVSPost2010PropOp49
 70
     1
102
RTVSPost2010Prop50
 90
       50
102
RTVSPost2010PropOp50
 70
     1
102
RTVSPost2010Prop51ColorIndex
 90
      256
102
RTVSPost2010Prop51ColorRGB
 90
-16777216
102
RTVSPost2010PropOp51
 70
     0
102
RTVSPost2010Prop52
140
1.0
102
RTVSPost2010PropOp52
 70
     0
102
RTVSPost2010Prop53
 90
        2
102
RTVSPost2010PropOp53
 70
     1
102
RTVSPost2010Prop54
  1
strokes_ogs.tif
102
RTVSPost2010PropOp54
 70
     1
102
RTVSPost2010Prop55
280
     0
102
RTVSPost2010PropOp55
 70
     1
102
RTVSPost2010Prop56
140
1.0
102
RTVSPost2010PropOp56
 70
     1
102
RTVSPost2010Prop57
140
1.0
102
RTVSPost2010PropOp57
 70
     1
102
RTVSPropertyOp0
 70
     1
102
RTVSPropertyOp1
 70
     1
102
RTVSPropertyOp2
 70
     1
102
RTVSPropertyOp3
 70
     1
102
RTVSPropertyOp4
 70
     1
102
RTVSPropertyOp5
 70
     1
102
RTVSPropertyOp6
 70
     1
102
RTVSPropertyOp7
 70
     1
102
RTVSPropertyOp8
 70
     1
102
RTVSPropertyOp9
 70
     1
102
RTVSPropertyOp10
 70
     1
102
RTVSPropertyOp11
 70
     1
102
RTVSPropertyOp12
 70
     1
102
RTVSPropertyOp13
 70
     1
102
RTVSPropertyOp14
 70
     1
102
RTVSPropertyOp15
 70
     1
102
RTVSPropertyOp16
 70
     1
102
RTVSPropertyOp17
 70
     1
102
RTVSPropertyOp18
 70
     1
102
RTVSPropertyOp19
 70
     1
102
RTVSPropertyOp20
 70
     1
102
RTVSPropertyOp21
 70
     1
102
RTVSPropertyOp22
 70
     1
102
RTVSPropertyOp23
 70
     1
102
RTVSPropertyOp24
 70
     1
102
RTVSPropertyOp25
 70
     1
102
RTVSPropertyOp26
 70
     1
102
RTVSPropertyOp27
 70
     1
102
RTVSPropertyOp28
 70
     1
102
RTVSPropertyOp29
 70
     1
102
RTVSPropertyOp30
 70
     1
102
RTVSPropertyOp31
 70
     1
102
RTVSPropertyOp32
 70
     1
102
RTVSPropertyOp33
 70
     1
102
RTVSPropertyOp34
 70
     1
102
RTVSPropertyOp35
 70
     1
102
RTVSPropertyOp36
 70
     1
102
RTVSPropertyOp37
 70
     1
102
RTVSPropertyOp38
 70
     1
102
RTVSPropertyOp39
 70
     1
102
RTVSPropertyOp40
 70
     1
102
RTVSPropertyOp41
 70
     1
102
RTVSPropertyOp42
 70
     1
102
RTVSPropertyOp43
 70
     1
102
RTVSPropertyOp44
 70
     1
102
RTVSPropertyOp45
 70
     1
102
RTVSPropertyOp46
 70
     1
102
RTVSPropertyOp47
 70
     1
102
RTVSPropertyOp48
 70
     1
102
RTVSPropertyOp49
 70
     1
102
RTVSPropertyOp50
 70
     1
102
RTVSPropertyOp51
 70
     0
102
RTVSPropertyOp52
 70
     0
102
RTVSPropertyOp53
 70
     1
102
RTVSPropertyOp54
 70
     1
102
RTVSPropertyOp55
 70
     1
102
RTVSPropertyOp56
 70
     1
102
RTVSPropertyOp57
 70
     1
102
RTVSPropertyOp58
 70
     1
102
RTVSPropertyOp59
 70
     1
102
RTVSPropertyOp60
 70
     1
102
RTVSPropertyOp61
 70
     1
102
RTVSPropertyOp62
 70
     1
  0
XRECORD
  5
50C
102
{ACAD_REACTORS
330
50B
102
}
330
50B
100
AcDbXrecord
280
     1
102
RTVSPost2010Prop28
280
     0
102
RTVSPost2010PropOp28
 70
     1
102
RTVSPost2010Prop29
280
     1
102
RTVSPost2010PropOp29
 70
     1
102
RTVSPost2010Prop30
280
     1
102
RTVSPost2010PropOp30
 70
     1
102
RTVSPost2010Prop31
280
     0
102
RTVSPost2010PropOp31
 70
     1
102
RTVSPost2010Prop32
280
     0
102
RTVSPost2010PropOp32
 70
     1
102
RTVSPost2010Prop33
280
     0
102
RTVSPost2010PropOp33
 70
     1
102
RTVSPost2010Prop34
280
     0
102
RTVSPost2010PropOp34
 70
     1
102
RTVSPost2010Prop35
280
     0
102
RTVSPost2010PropOp35
 70
     1
102
RTVSPost2010Prop36
280
     0
102
RTVSPost2010PropOp36
 70
     1
102
RTVSPost2010Prop37
 90
       50
102
RTVSPost2010PropOp37
 70
     1
102
RTVSPost2010Prop38
140
0.0
102
RTVSPost2010PropOp38
 70
     1
102
RTVSPost2010Prop39
140
1.0
102
RTVSPost2010PropOp39
 70
     1
102
RTVSPost2010Prop40
 90
        0
102
RTVSPost2010PropOp40
 70
     1
102
RTVSPost2010Prop41ColorIndex
 90
       18
102
RTVSPost2010Prop41ColorRGB
 90
        0
102
RTVSPost2010PropOp41
 70
     1
102
RTVSPost2010Prop42
 90
       50
102
RTVSPost2010PropOp42
 70
     1
102
RTVSPost2010Prop43
 90
        3
102
RTVSPost2010PropOp43
 70
     1
102
RTVSPost2010Prop44ColorIndex
 90
        5
102
RTVSPost2010Prop44ColorRGB
 90
      255
102
RTVSPost2010PropOp44
 70
     1
102
RTVSPost2010Prop45
280
     0
102
RTVSPost2010PropOp45
 70
     1
102
RTVSPost2010Prop46
 90
       50
102
RTVSPost2010PropOp46
 70
     1
102
RTVSPost2010Prop47
 90
       50
102
RTVSPost2010PropOp47
 70
     1
102
RTVSPost2010Prop48
 90
       50
102
RTVSPost2010PropOp48
 70
     1
102
RTVSPost2010Prop49
280
     0
102
RTVSPost2010PropOp49
 70
     1
102
RTVSPost2010Prop50
 90
       50
102
RTVSPost2010PropOp50
 70
     1
102
RTVSPost2010Prop51ColorIndex
 90
      256
102
RTVSPost2010Prop51ColorRGB
 90
-16777216
102
RTVSPost2010PropOp51
 70
     0
102
RTVSPost2010Prop52
140
1.0
102
RTVSPost2010PropOp52
 70
     0
102
RTVSPost2010Prop53
 90
        2
102
RTVSPost2010PropOp53
 70
     1
102
RTVSPost2010Prop54
  1
strokes_ogs.tif
102
RTVSPost2010PropOp54
 70
     1
102
RTVSPost2010Prop55
280
     0
102
RTVSPost2010PropOp55
 70
     1
102
RTVSPost2010Prop56
140
1.0
102
RTVSPost2010PropOp56
 70
     1
102
RTVSPost2010Prop57
140
1.0
102
RTVSPost2010PropOp57
 70
     1
102
RTVSPropertyOp0
 70
     1
102
RTVSPropertyOp1
 70
     1
102
RTVSPropertyOp2
 70
     1
102
RTVSPropertyOp3
 70
     1
102
RTVSPropertyOp4
 70
     1
102
RTVSPropertyOp5
 70
     1
102
RTVSPropertyOp6
 70
     1
102
RTVSPropertyOp7
 70
     1
102
RTVSPropertyOp8
 70
     1
102
RTVSPropertyOp9
 70
     1
102
RTVSPropertyOp10
 70
     1
102
RTVSPropertyOp11
 70
     1
102
RTVSPropertyOp12
 70
     1
102
RTVSPropertyOp13
 70
     1
102
RTVSPropertyOp14
 70
     1
102
RTVSPropertyOp15
 70
     1
102
RTVSPropertyOp16
 70
     1
102
RTVSPropertyOp17
 70
     1
102
RTVSPropertyOp18
 70
     1
102
RTVSPropertyOp19
 70
     1
102
RTVSPropertyOp20
 70
     1
102
RTVSPropertyOp21
 70
     1
102
RTVSPropertyOp22
 70
     1
102
RTVSPropertyOp23
 70
     1
102
RTVSPropertyOp24
 70
     1
102
RTVSPropertyOp25
 70
     1
102
RTVSPropertyOp26
 70
     1
102
RTVSPropertyOp27
 70
     1
102
RTVSPropertyOp28
 70
     1
102
RTVSPropertyOp29
 70
     1
102
RTVSPropertyOp30
 70
     1
102
RTVSPropertyOp31
 70
     1
102
RTVSPropertyOp32
 70
     1
102
RTVSPropertyOp33
 70
     1
102
RTVSPropertyOp34
 70
     1
102
RTVSPropertyOp35
 70
     1
102
RTVSPropertyOp36
 70
     1
102
RTVSPropertyOp37
 70
     1
102
RTVSPropertyOp38
 70
     1
102
RTVSPropertyOp39
 70
     1
102
RTVSPropertyOp40
 70
     1
102
RTVSPropertyOp41
 70
     1
102
RTVSPropertyOp42
 70
     1
102
RTVSPropertyOp43
 70
     1
102
RTVSPropertyOp44
 70
     1
102
RTVSPropertyOp45
 70
     1
102
RTVSPropertyOp46
 70
     1
102
RTVSPropertyOp47
 70
     1
102
RTVSPropertyOp48
 70
     1
102
RTVSPropertyOp49
 70
     1
102
RTVSPropertyOp50
 70
     1
102
RTVSPropertyOp51
 70
     0
102
RTVSPropertyOp52
 70
     0
102
RTVSPropertyOp53
 70
     1
102
RTVSPropertyOp54
 70
     1
102
RTVSPropertyOp55
 70
     1
102
RTVSPropertyOp56
 70
     1
102
RTVSPropertyOp57
 70
     1
102
RTVSPropertyOp58
 70
     1
102
RTVSPropertyOp59
 70
     1
102
RTVSPropertyOp60
 70
     1
102
RTVSPropertyOp61
 70
     1
102
RTVSPropertyOp62
 70
     1
  0
XRECORD
  5
510
102
{ACAD_REACTORS
330
50F
102
}
330
50F
100
AcDbXrecord
280
     1
102
RTVSPost2010Prop28
280
     0
102
RTVSPost2010PropOp28
 70
     1
102
RTVSPost2010Prop29
280
     1
102
RTVSPost2010PropOp29
 70
     1
102
RTVSPost2010Prop30
280
     1
102
RTVSPost2010PropOp30
 70
     1
102
RTVSPost2010Prop31
280
     0
102
RTVSPost2010PropOp31
 70
     1
102
RTVSPost2010Prop32
280
     0
102
RTVSPost2010PropOp32
 70
     1
102
RTVSPost2010Prop33
280
     0
102
RTVSPost2010PropOp33
 70
     1
102
RTVSPost2010Prop34
280
     0
102
RTVSPost2010PropOp34
 70
     1
102
RTVSPost2010Prop35
280
     0
102
RTVSPost2010PropOp35
 70
     1
102
RTVSPost2010Prop36
280
     0
102
RTVSPost2010PropOp36
 70
     1
102
RTVSPost2010Prop37
 90
       50
102
RTVSPost2010PropOp37
 70
     1
102
RTVSPost2010Prop38
140
0.0
102
RTVSPost2010PropOp38
 70
     1
102
RTVSPost2010Prop39
140
1.0
102
RTVSPost2010PropOp39
 70
     1
102
RTVSPost2010Prop40
 90
        0
102
RTVSPost2010PropOp40
 70
     1
102
RTVSPost2010Prop41ColorIndex
 90
       18
102
RTVSPost2010Prop41ColorRGB
 90
        0
102
RTVSPost2010PropOp41
 70
     1
102
RTVSPost2010Prop42
 90
       50
102
RTVSPost2010PropOp42
 70
     1
102
RTVSPost2010Prop43
 90
        3
102
RTVSPost2010PropOp43
 70
     1
102
RTVSPost2010Prop44ColorIndex
 90
        5
102
RTVSPost2010Prop44ColorRGB
 90
      255
102
RTVSPost2010PropOp44
 70
     1
102
RTVSPost2010Prop45
280
     0
102
RTVSPost2010PropOp45
 70
     1
102
RTVSPost2010Prop46
 90
       50
102
RTVSPost2010PropOp46
 70
     1
102
RTVSPost2010Prop47
 90
       50
102
RTVSPost2010PropOp47
 70
     1
102
RTVSPost2010Prop48
 90
       50
102
RTVSPost2010PropOp48
 70
     1
102
RTVSPost2010Prop49
280
     0
102
RTVSPost2010PropOp49
 70
     1
102
RTVSPost2010Prop50
 90
       50
102
RTVSPost2010PropOp50
 70
     1
102
RTVSPost2010Prop51ColorIndex
 90
      256
102
RTVSPost2010Prop51ColorRGB
 90
-16777216
102
RTVSPost2010PropOp51
 70
     0
102
RTVSPost2010Prop52
140
1.0
102
RTVSPost2010PropOp52
 70
     0
102
RTVSPost2010Prop53
 90
        2
102
RTVSPost2010PropOp53
 70
     1
102
RTVSPost2010Prop54
  1
strokes_ogs.tif
102
RTVSPost2010PropOp54
 70
     1
102
RTVSPost2010Prop55
280
     0
102
RTVSPost2010PropOp55
 70
     1
102
RTVSPost2010Prop56
140
1.0
102
RTVSPost2010PropOp56
 70
     1
102
RTVSPost2010Prop57
140
1.0
102
RTVSPost2010PropOp57
 70
     1
102
RTVSPropertyOp0
 70
     1
102
RTVSPropertyOp1
 70
     1
102
RTVSPropertyOp2
 70
     1
102
RTVSPropertyOp3
 70
     1
102
RTVSPropertyOp4
 70
     1
102
RTVSPropertyOp5
 70
     1
102
RTVSPropertyOp6
 70
     1
102
RTVSPropertyOp7
 70
     1
102
RTVSPropertyOp8
 70
     1
102
RTVSPropertyOp9
 70
     1
102
RTVSPropertyOp10
 70
     1
102
RTVSPropertyOp11
 70
     1
102
RTVSPropertyOp12
 70
     1
102
RTVSPropertyOp13
 70
     1
102
RTVSPropertyOp14
 70
     1
102
RTVSPropertyOp15
 70
     1
102
RTVSPropertyOp16
 70
     1
102
RTVSPropertyOp17
 70
     1
102
RTVSPropertyOp18
 70
     1
102
RTVSPropertyOp19
 70
     1
102
RTVSPropertyOp20
 70
     1
102
RTVSPropertyOp21
 70
     1
102
RTVSPropertyOp22
 70
     1
102
RTVSPropertyOp23
 70
     1
102
RTVSPropertyOp24
 70
     1
102
RTVSPropertyOp25
 70
     1
102
RTVSPropertyOp26
 70
     1
102
RTVSPropertyOp27
 70
     1
102
RTVSPropertyOp28
 70
     1
102
RTVSPropertyOp29
 70
     1
102
RTVSPropertyOp30
 70
     1
102
RTVSPropertyOp31
 70
     1
102
RTVSPropertyOp32
 70
     1
102
RTVSPropertyOp33
 70
     1
102
RTVSPropertyOp34
 70
     1
102
RTVSPropertyOp35
 70
     1
102
RTVSPropertyOp36
 70
     1
102
RTVSPropertyOp37
 70
     1
102
RTVSPropertyOp38
 70
     1
102
RTVSPropertyOp39
 70
     1
102
RTVSPropertyOp40
 70
     1
102
RTVSPropertyOp41
 70
     1
102
RTVSPropertyOp42
 70
     1
102
RTVSPropertyOp43
 70
     1
102
RTVSPropertyOp44
 70
     1
102
RTVSPropertyOp45
 70
     1
102
RTVSPropertyOp46
 70
     1
102
RTVSPropertyOp47
 70
     1
102
RTVSPropertyOp48
 70
     1
102
RTVSPropertyOp49
 70
     1
102
RTVSPropertyOp50
 70
     1
102
RTVSPropertyOp51
 70
     0
102
RTVSPropertyOp52
 70
     0
102
RTVSPropertyOp53
 70
     1
102
RTVSPropertyOp54
 70
     1
102
RTVSPropertyOp55
 70
     1
102
RTVSPropertyOp56
 70
     1
102
RTVSPropertyOp57
 70
     1
102
RTVSPropertyOp58
 70
     1
102
RTVSPropertyOp59
 70
     1
102
RTVSPropertyOp60
 70
     1
102
RTVSPropertyOp61
 70
     1
102
RTVSPropertyOp62
 70
     1
  0
XRECORD
  5
52A
102
{ACAD_REACTORS
330
529
102
}
330
529
100
AcDbXrecord
280
     1
102
RTVSPost2010Prop28
280
     0
102
RTVSPost2010PropOp28
 70
     1
102
RTVSPost2010Prop29
280
     1
102
RTVSPost2010PropOp29
 70
     1
102
RTVSPost2010Prop30
280
     1
102
RTVSPost2010PropOp30
 70
     1
102
RTVSPost2010Prop31
280
     0
102
RTVSPost2010PropOp31
 70
     1
102
RTVSPost2010Prop32
280
     0
102
RTVSPost2010PropOp32
 70
     1
102
RTVSPost2010Prop33
280
     0
102
RTVSPost2010PropOp33
 70
     1
102
RTVSPost2010Prop34
280
     0
102
RTVSPost2010PropOp34
 70
     1
102
RTVSPost2010Prop35
280
     0
102
RTVSPost2010PropOp35
 70
     1
102
RTVSPost2010Prop36
280
     0
102
RTVSPost2010PropOp36
 70
     1
102
RTVSPost2010Prop37
 90
       50
102
RTVSPost2010PropOp37
 70
     0
102
RTVSPost2010Prop38
140
0.0
102
RTVSPost2010PropOp38
 70
     0
102
RTVSPost2010Prop39
140
1.0
102
RTVSPost2010PropOp39
 70
     0
102
RTVSPost2010Prop40
 90
        0
102
RTVSPost2010PropOp40
 70
     0
102
RTVSPost2010Prop41ColorIndex
 90
       18
102
RTVSPost2010Prop41ColorRGB
 90
        0
102
RTVSPost2010PropOp41
 70
     0
102
RTVSPost2010Prop42
 90
       50
102
RTVSPost2010PropOp42
 70
     0
102
RTVSPost2010Prop43
 90
        3
102
RTVSPost2010PropOp43
 70
     0
102
RTVSPost2010Prop44ColorIndex
 90
        5
102
RTVSPost2010Prop44ColorRGB
 90
      255
102
RTVSPost2010PropOp44
 70
     0
102
RTVSPost2010Prop45
280
     0
102
RTVSPost2010PropOp45
 70
     1
102
RTVSPost2010Prop46
 90
       50
102
RTVSPost2010PropOp46
 70
     0
102
RTVSPost2010Prop47
 90
       50
102
RTVSPost2010PropOp47
 70
     0
102
RTVSPost2010Prop48
 90
       50
102
RTVSPost2010PropOp48
 70
     0
102
RTVSPost2010Prop49
280
     0
102
RTVSPost2010PropOp49
 70
     1
102
RTVSPost2010Prop50
 90
       50
102
RTVSPost2010PropOp50
 70
     0
102
RTVSPost2010Prop51ColorIndex
 90
      256
102
RTVSPost2010Prop51ColorRGB
 90
-16777216
102
RTVSPost2010PropOp51
 70
     0
102
RTVSPost2010Prop52
140
1.0
102
RTVSPost2010PropOp52
 70
     0
102
RTVSPost2010Prop53
 90
        2
102
RTVSPost2010PropOp53
 70
     0
102
RTVSPost2010Prop54
  1
strokes_ogs.tif
102
RTVSPost2010PropOp54
 70
     0
102
RTVSPost2010Prop55
280
     0
102
RTVSPost2010PropOp55
 70
     1
102
RTVSPost2010Prop56
140
1.0
102
RTVSPost2010PropOp56
 70
     0
102
RTVSPost2010Prop57
140
1.0
102
RTVSPost2010PropOp57
 70
     0
102
RTVSPropertyOp0
 70
     0
102
RTVSPropertyOp1
 70
     0
102
RTVSPropertyOp2
 70
     0
102
RTVSPropertyOp3
 70
     0
102
RTVSPropertyOp4
 70
     0
102
RTVSPropertyOp5
 70
     0
102
RTVSPropertyOp6
 70
     0
102
RTVSPropertyOp7
 70
     0
102
RTVSPropertyOp8
 70
     0
102
RTVSPropertyOp9
 70
     0
102
RTVSPropertyOp10
 70
     0
102
RTVSPropertyOp11
 70
     0
102
RTVSPropertyOp12
 70
     0
102
RTVSPropertyOp13
 70
     0
102
RTVSPropertyOp14
 70
     2
102
RTVSPropertyOp15
 70
     0
102
RTVSPropertyOp16
 70
     0
102
RTVSPropertyOp17
 70
     0
102
RTVSPropertyOp18
 70
     0
102
RTVSPropertyOp19
 70
     0
102
RTVSPropertyOp20
 70
     0
102
RTVSPropertyOp21
 70
     0
102
RTVSPropertyOp22
 70
     0
102
RTVSPropertyOp23
 70
     0
102
RTVSPropertyOp24
 70
     0
102
RTVSPropertyOp25
 70
     0
102
RTVSPropertyOp26
 70
     0
102
RTVSPropertyOp27
 70
     0
102
RTVSPropertyOp28
 70
     1
102
RTVSPropertyOp29
 70
     1
102
RTVSPropertyOp30
 70
     1
102
RTVSPropertyOp31
 70
     1
102
RTVSPropertyOp32
 70
     1
102
RTVSPropertyOp33
 70
     1
102
RTVSPropertyOp34
 70
     1
102
RTVSPropertyOp35
 70
     1
102
RTVSPropertyOp36
 70
     1
102
RTVSPropertyOp37
 70
     0
102
RTVSPropertyOp38
 70
     0
102
RTVSPropertyOp39
 70
     0
102
RTVSPropertyOp40
 70
     0
102
RTVSPropertyOp41
 70
     0
102
RTVSPropertyOp42
 70
     0
102
RTVSPropertyOp43
 70
     0
102
RTVSPropertyOp44
 70
     0
102
RTVSPropertyOp45
 70
     1
102
RTVSPropertyOp46
 70
     0
102
RTVSPropertyOp47
 70
     0
102
RTVSPropertyOp48
 70
     0
102
RTVSPropertyOp49
 70
     1
102
RTVSPropertyOp50
 70
     0
102
RTVSPropertyOp51
 70
     0
102
RTVSPropertyOp52
 70
     0
102
RTVSPropertyOp53
 70
     0
102
RTVSPropertyOp54
 70
     0
102
RTVSPropertyOp55
 70
     1
102
RTVSPropertyOp56
 70
     0
102
RTVSPropertyOp57
 70
     0
102
RTVSPropertyOp58
 70
     0
102
RTVSPropertyOp59
 70
     0
102
RTVSPropertyOp60
 70
     0
102
RTVSPropertyOp61
 70
     0
102
RTVSPropertyOp62
 70
     0
  0
XRECORD
  5
518
102
{ACAD_REACTORS
330
517
102
}
330
517
100
AcDbXrecord
280
     1
102
RTVSPost2010Prop28
280
     0
102
RTVSPost2010PropOp28
 70
     1
102
RTVSPost2010Prop29
280
     1
102
RTVSPost2010PropOp29
 70
     1
102
RTVSPost2010Prop30
280
     1
102
RTVSPost2010PropOp30
 70
     1
102
RTVSPost2010Prop31
280
     0
102
RTVSPost2010PropOp31
 70
     1
102
RTVSPost2010Prop32
280
     0
102
RTVSPost2010PropOp32
 70
     1
102
RTVSPost2010Prop33
280
     0
102
RTVSPost2010PropOp33
 70
     1
102
RTVSPost2010Prop34
280
     0
102
RTVSPost2010PropOp34
 70
     1
102
RTVSPost2010Prop35
280
     0
102
RTVSPost2010PropOp35
 70
     1
102
RTVSPost2010Prop36
280
     0
102
RTVSPost2010PropOp36
 70
     1
102
RTVSPost2010Prop37
 90
       50
102
RTVSPost2010PropOp37
 70
     1
102
RTVSPost2010Prop38
140
0.0
102
RTVSPost2010PropOp38
 70
     1
102
RTVSPost2010Prop39
140
1.0
102
RTVSPost2010PropOp39
 70
     1
102
RTVSPost2010Prop40
 90
        0
102
RTVSPost2010PropOp40
 70
     1
102
RTVSPost2010Prop41ColorIndex
 90
       18
102
RTVSPost2010Prop41ColorRGB
 90
        0
102
RTVSPost2010PropOp41
 70
     1
102
RTVSPost2010Prop42
 90
       50
102
RTVSPost2010PropOp42
 70
     1
102
RTVSPost2010Prop43
 90
        3
102
RTVSPost2010PropOp43
 70
     1
102
RTVSPost2010Prop44ColorIndex
 90
        5
102
RTVSPost2010Prop44ColorRGB
 90
      255
102
RTVSPost2010PropOp44
 70
     1
102
RTVSPost2010Prop45
280
     0
102
RTVSPost2010PropOp45
 70
     1
102
RTVSPost2010Prop46
 90
       50
102
RTVSPost2010PropOp46
 70
     1
102
RTVSPost2010Prop47
 90
       50
102
RTVSPost2010PropOp47
 70
     1
102
RTVSPost2010Prop48
 90
       50
102
RTVSPost2010PropOp48
 70
     1
102
RTVSPost2010Prop49
280
     0
102
RTVSPost2010PropOp49
 70
     1
102
RTVSPost2010Prop50
 90
       50
102
RTVSPost2010PropOp50
 70
     1
102
RTVSPost2010Prop51ColorIndex
 90
      256
102
RTVSPost2010Prop51ColorRGB
 90
-16777216
102
RTVSPost2010PropOp51
 70
     0
102
RTVSPost2010Prop52
140
1.0
102
RTVSPost2010PropOp52
 70
     0
102
RTVSPost2010Prop53
 90
        2
102
RTVSPost2010PropOp53
 70
     1
102
RTVSPost2010Prop54
  1
strokes_ogs.tif
102
RTVSPost2010PropOp54
 70
     1
102
RTVSPost2010Prop55
280
     0
102
RTVSPost2010PropOp55
 70
     1
102
RTVSPost2010Prop56
140
1.0
102
RTVSPost2010PropOp56
 70
     1
102
RTVSPost2010Prop57
140
1.0
102
RTVSPost2010PropOp57
 70
     1
102
RTVSPropertyOp0
 70
     1
102
RTVSPropertyOp1
 70
     1
102
RTVSPropertyOp2
 70
     1
102
RTVSPropertyOp3
 70
     1
102
RTVSPropertyOp4
 70
     1
102
RTVSPropertyOp5
 70
     1
102
RTVSPropertyOp6
 70
     1
102
RTVSPropertyOp7
 70
     1
102
RTVSPropertyOp8
 70
     1
102
RTVSPropertyOp9
 70
     1
102
RTVSPropertyOp10
 70
     1
102
RTVSPropertyOp11
 70
     1
102
RTVSPropertyOp12
 70
     1
102
RTVSPropertyOp13
 70
     1
102
RTVSPropertyOp14
 70
     1
102
RTVSPropertyOp15
 70
     1
102
RTVSPropertyOp16
 70
     1
102
RTVSPropertyOp17
 70
     1
102
RTVSPropertyOp18
 70
     1
102
RTVSPropertyOp19
 70
     1
102
RTVSPropertyOp20
 70
     1
102
RTVSPropertyOp21
 70
     1
102
RTVSPropertyOp22
 70
     1
102
RTVSPropertyOp23
 70
     1
102
RTVSPropertyOp24
 70
     1
102
RTVSPropertyOp25
 70
     1
102
RTVSPropertyOp26
 70
     1
102
RTVSPropertyOp27
 70
     1
102
RTVSPropertyOp28
 70
     1
102
RTVSPropertyOp29
 70
     1
102
RTVSPropertyOp30
 70
     1
102
RTVSPropertyOp31
 70
     1
102
RTVSPropertyOp32
 70
     1
102
RTVSPropertyOp33
 70
     1
102
RTVSPropertyOp34
 70
     1
102
RTVSPropertyOp35
 70
     1
102
RTVSPropertyOp36
 70
     1
102
RTVSPropertyOp37
 70
     1
102
RTVSPropertyOp38
 70
     1
102
RTVSPropertyOp39
 70
     1
102
RTVSPropertyOp40
 70
     1
102
RTVSPropertyOp41
 70
     1
102
RTVSPropertyOp42
 70
     1
102
RTVSPropertyOp43
 70
     1
102
RTVSPropertyOp44
 70
     1
102
RTVSPropertyOp45
 70
     1
102
RTVSPropertyOp46
 70
     1
102
RTVSPropertyOp47
 70
     1
102
RTVSPropertyOp48
 70
     1
102
RTVSPropertyOp49
 70
     1
102
RTVSPropertyOp50
 70
     1
102
RTVSPropertyOp51
 70
     0
102
RTVSPropertyOp52
 70
     0
102
RTVSPropertyOp53
 70
     1
102
RTVSPropertyOp54
 70
     1
102
RTVSPropertyOp55
 70
     1
102
RTVSPropertyOp56
 70
     1
102
RTVSPropertyOp57
 70
     1
102
RTVSPropertyOp58
 70
     1
102
RTVSPropertyOp59
 70
     1
102
RTVSPropertyOp60
 70
     1
102
RTVSPropertyOp61
 70
     1
102
RTVSPropertyOp62
 70
     1
  0
XRECORD
  5
4FC
102
{ACAD_REACTORS
330
4FB
102
}
330
4FB
100
AcDbXrecord
280
     1
102
RTVSPost2010Prop28
280
     0
102
RTVSPost2010PropOp28
 70
     1
102
RTVSPost2010Prop29
280
     1
102
RTVSPost2010PropOp29
 70
     1
102
RTVSPost2010Prop30
280
     1
102
RTVSPost2010PropOp30
 70
     1
102
RTVSPost2010Prop31
280
     0
102
RTVSPost2010PropOp31
 70
     1
102
RTVSPost2010Prop32
280
     0
102
RTVSPost2010PropOp32
 70
     1
102
RTVSPost2010Prop33
280
     0
102
RTVSPost2010PropOp33
 70
     1
102
RTVSPost2010Prop34
280
     0
102
RTVSPost2010PropOp34
 70
     1
102
RTVSPost2010Prop35
280
     0
102
RTVSPost2010PropOp35
 70
     1
102
RTVSPost2010Prop36
280
     0
102
RTVSPost2010PropOp36
 70
     1
102
RTVSPost2010Prop37
 90
       50
102
RTVSPost2010PropOp37
 70
     1
102
RTVSPost2010Prop38
140
0.0
102
RTVSPost2010PropOp38
 70
     1
102
RTVSPost2010Prop39
140
1.0
102
RTVSPost2010PropOp39
 70
     1
102
RTVSPost2010Prop40
 90
        0
102
RTVSPost2010PropOp40
 70
     1
102
RTVSPost2010Prop41ColorIndex
 90
       18
102
RTVSPost2010Prop41ColorRGB
 90
        0
102
RTVSPost2010PropOp41
 70
     1
102
RTVSPost2010Prop42
 90
       50
102
RTVSPost2010PropOp42
 70
     1
102
RTVSPost2010Prop43
 90
        3
102
RTVSPost2010PropOp43
 70
     1
102
RTVSPost2010Prop44ColorIndex
 90
        5
102
RTVSPost2010Prop44ColorRGB
 90
      255
102
RTVSPost2010PropOp44
 70
     1
102
RTVSPost2010Prop45
280
     0
102
RTVSPost2010PropOp45
 70
     1
102
RTVSPost2010Prop46
 90
       50
102
RTVSPost2010PropOp46
 70
     1
102
RTVSPost2010Prop47
 90
       50
102
RTVSPost2010PropOp47
 70
     1
102
RTVSPost2010Prop48
 90
       50
102
RTVSPost2010PropOp48
 70
     1
102
RTVSPost2010Prop49
280
     0
102
RTVSPost2010PropOp49
 70
     1
102
RTVSPost2010Prop50
 90
       50
102
RTVSPost2010PropOp50
 70
     1
102
RTVSPost2010Prop51ColorIndex
 90
      256
102
RTVSPost2010Prop51ColorRGB
 90
-16777216
102
RTVSPost2010PropOp51
 70
     0
102
RTVSPost2010Prop52
140
1.0
102
RTVSPost2010PropOp52
 70
     0
102
RTVSPost2010Prop53
 90
        2
102
RTVSPost2010PropOp53
 70
     1
102
RTVSPost2010Prop54
  1
strokes_ogs.tif
102
RTVSPost2010PropOp54
 70
     1
102
RTVSPost2010Prop55
280
     0
102
RTVSPost2010PropOp55
 70
     1
102
RTVSPost2010Prop56
140
1.0
102
RTVSPost2010PropOp56
 70
     1
102
RTVSPost2010Prop57
140
1.0
102
RTVSPost2010PropOp57
 70
     1
102
RTVSPropertyOp0
 70
     1
102
RTVSPropertyOp1
 70
     1
102
RTVSPropertyOp2
 70
     1
102
RTVSPropertyOp3
 70
     1
102
RTVSPropertyOp4
 70
     1
102
RTVSPropertyOp5
 70
     1
102
RTVSPropertyOp6
 70
     1
102
RTVSPropertyOp7
 70
     1
102
RTVSPropertyOp8
 70
     1
102
RTVSPropertyOp9
 70
     1
102
RTVSPropertyOp10
 70
     1
102
RTVSPropertyOp11
 70
     1
102
RTVSPropertyOp12
 70
     1
102
RTVSPropertyOp13
 70
     1
102
RTVSPropertyOp14
 70
     1
102
RTVSPropertyOp15
 70
     1
102
RTVSPropertyOp16
 70
     1
102
RTVSPropertyOp17
 70
     1
102
RTVSPropertyOp18
 70
     1
102
RTVSPropertyOp19
 70
     1
102
RTVSPropertyOp20
 70
     1
102
RTVSPropertyOp21
 70
     1
102
RTVSPropertyOp22
 70
     1
102
RTVSPropertyOp23
 70
     1
102
RTVSPropertyOp24
 70
     1
102
RTVSPropertyOp25
 70
     1
102
RTVSPropertyOp26
 70
     1
102
RTVSPropertyOp27
 70
     1
102
RTVSPropertyOp28
 70
     1
102
RTVSPropertyOp29
 70
     1
102
RTVSPropertyOp30
 70
     1
102
RTVSPropertyOp31
 70
     1
102
RTVSPropertyOp32
 70
     1
102
RTVSPropertyOp33
 70
     1
102
RTVSPropertyOp34
 70
     1
102
RTVSPropertyOp35
 70
     1
102
RTVSPropertyOp36
 70
     1
102
RTVSPropertyOp37
 70
     1
102
RTVSPropertyOp38
 70
     1
102
RTVSPropertyOp39
 70
     1
102
RTVSPropertyOp40
 70
     1
102
RTVSPropertyOp41
 70
     1
102
RTVSPropertyOp42
 70
     1
102
RTVSPropertyOp43
 70
     1
102
RTVSPropertyOp44
 70
     1
102
RTVSPropertyOp45
 70
     1
102
RTVSPropertyOp46
 70
     1
102
RTVSPropertyOp47
 70
     1
102
RTVSPropertyOp48
 70
     1
102
RTVSPropertyOp49
 70
     1
102
RTVSPropertyOp50
 70
     1
102
RTVSPropertyOp51
 70
     0
102
RTVSPropertyOp52
 70
     0
102
RTVSPropertyOp53
 70
     1
102
RTVSPropertyOp54
 70
     1
102
RTVSPropertyOp55
 70
     1
102
RTVSPropertyOp56
 70
     1
102
RTVSPropertyOp57
 70
     1
102
RTVSPropertyOp58
 70
     1
102
RTVSPropertyOp59
 70
     1
102
RTVSPropertyOp60
 70
     1
102
RTVSPropertyOp61
 70
     1
102
RTVSPropertyOp62
 70
     1
  0
XRECORD
  5
4FE
102
{ACAD_REACTORS
330
4FD
102
}
330
4FD
100
AcDbXrecord
280
     1
102
RTVSPost2010Prop28
280
     0
102
RTVSPost2010PropOp28
 70
     1
102
RTVSPost2010Prop29
280
     1
102
RTVSPost2010PropOp29
 70
     1
102
RTVSPost2010Prop30
280
     1
102
RTVSPost2010PropOp30
 70
     1
102
RTVSPost2010Prop31
280
     0
102
RTVSPost2010PropOp31
 70
     1
102
RTVSPost2010Prop32
280
     0
102
RTVSPost2010PropOp32
 70
     1
102
RTVSPost2010Prop33
280
     0
102
RTVSPost2010PropOp33
 70
     1
102
RTVSPost2010Prop34
280
     0
102
RTVSPost2010PropOp34
 70
     1
102
RTVSPost2010Prop35
280
     0
102
RTVSPost2010PropOp35
 70
     1
102
RTVSPost2010Prop36
280
     0
102
RTVSPost2010PropOp36
 70
     1
102
RTVSPost2010Prop37
 90
       50
102
RTVSPost2010PropOp37
 70
     1
102
RTVSPost2010Prop38
140
0.0
102
RTVSPost2010PropOp38
 70
     1
102
RTVSPost2010Prop39
140
1.0
102
RTVSPost2010PropOp39
 70
     1
102
RTVSPost2010Prop40
 90
        0
102
RTVSPost2010PropOp40
 70
     1
102
RTVSPost2010Prop41ColorIndex
 90
       18
102
RTVSPost2010Prop41ColorRGB
 90
        0
102
RTVSPost2010PropOp41
 70
     1
102
RTVSPost2010Prop42
 90
       50
102
RTVSPost2010PropOp42
 70
     1
102
RTVSPost2010Prop43
 90
        3
102
RTVSPost2010PropOp43
 70
     1
102
RTVSPost2010Prop44ColorIndex
 90
        5
102
RTVSPost2010Prop44ColorRGB
 90
      255
102
RTVSPost2010PropOp44
 70
     1
102
RTVSPost2010Prop45
280
     0
102
RTVSPost2010PropOp45
 70
     1
102
RTVSPost2010Prop46
 90
       50
102
RTVSPost2010PropOp46
 70
     1
102
RTVSPost2010Prop47
 90
       50
102
RTVSPost2010PropOp47
 70
     1
102
RTVSPost2010Prop48
 90
       50
102
RTVSPost2010PropOp48
 70
     1
102
RTVSPost2010Prop49
280
     0
102
RTVSPost2010PropOp49
 70
     1
102
RTVSPost2010Prop50
 90
       50
102
RTVSPost2010PropOp50
 70
     1
102
RTVSPost2010Prop51ColorIndex
 90
      256
102
RTVSPost2010Prop51ColorRGB
 90
-16777216
102
RTVSPost2010PropOp51
 70
     0
102
RTVSPost2010Prop52
140
1.0
102
RTVSPost2010PropOp52
 70
     0
102
RTVSPost2010Prop53
 90
        2
102
RTVSPost2010PropOp53
 70
     1
102
RTVSPost2010Prop54
  1
strokes_ogs.tif
102
RTVSPost2010PropOp54
 70
     1
102
RTVSPost2010Prop55
280
     0
102
RTVSPost2010PropOp55
 70
     1
102
RTVSPost2010Prop56
140
1.0
102
RTVSPost2010PropOp56
 70
     1
102
RTVSPost2010Prop57
140
1.0
102
RTVSPost2010PropOp57
 70
     1
102
RTVSPropertyOp0
 70
     1
102
RTVSPropertyOp1
 70
     1
102
RTVSPropertyOp2
 70
     1
102
RTVSPropertyOp3
 70
     1
102
RTVSPropertyOp4
 70
     1
102
RTVSPropertyOp5
 70
     1
102
RTVSPropertyOp6
 70
     1
102
RTVSPropertyOp7
 70
     1
102
RTVSPropertyOp8
 70
     1
102
RTVSPropertyOp9
 70
     1
102
RTVSPropertyOp10
 70
     1
102
RTVSPropertyOp11
 70
     1
102
RTVSPropertyOp12
 70
     1
102
RTVSPropertyOp13
 70
     1
102
RTVSPropertyOp14
 70
     1
102
RTVSPropertyOp15
 70
     1
102
RTVSPropertyOp16
 70
     1
102
RTVSPropertyOp17
 70
     1
102
RTVSPropertyOp18
 70
     1
102
RTVSPropertyOp19
 70
     1
102
RTVSPropertyOp20
 70
     1
102
RTVSPropertyOp21
 70
     1
102
RTVSPropertyOp22
 70
     1
102
RTVSPropertyOp23
 70
     1
102
RTVSPropertyOp24
 70
     1
102
RTVSPropertyOp25
 70
     1
102
RTVSPropertyOp26
 70
     1
102
RTVSPropertyOp27
 70
     1
102
RTVSPropertyOp28
 70
     1
102
RTVSPropertyOp29
 70
     1
102
RTVSPropertyOp30
 70
     1
102
RTVSPropertyOp31
 70
     1
102
RTVSPropertyOp32
 70
     1
102
RTVSPropertyOp33
 70
     1
102
RTVSPropertyOp34
 70
     1
102
RTVSPropertyOp35
 70
     1
102
RTVSPropertyOp36
 70
     1
102
RTVSPropertyOp37
 70
     1
102
RTVSPropertyOp38
 70
     1
102
RTVSPropertyOp39
 70
     1
102
RTVSPropertyOp40
 70
     1
102
RTVSPropertyOp41
 70
     1
102
RTVSPropertyOp42
 70
     1
102
RTVSPropertyOp43
 70
     1
102
RTVSPropertyOp44
 70
     1
102
RTVSPropertyOp45
 70
     1
102
RTVSPropertyOp46
 70
     1
102
RTVSPropertyOp47
 70
     1
102
RTVSPropertyOp48
 70
     1
102
RTVSPropertyOp49
 70
     1
102
RTVSPropertyOp50
 70
     1
102
RTVSPropertyOp51
 70
     0
102
RTVSPropertyOp52
 70
     0
102
RTVSPropertyOp53
 70
     1
102
RTVSPropertyOp54
 70
     1
102
RTVSPropertyOp55
 70
     1
102
RTVSPropertyOp56
 70
     1
102
RTVSPropertyOp57
 70
     1
102
RTVSPropertyOp58
 70
     1
102
RTVSPropertyOp59
 70
     1
102
RTVSPropertyOp60
 70
     1
102
RTVSPropertyOp61
 70
     1
102
RTVSPropertyOp62
 70
     1
  0
XRECORD
  5
500
102
{ACAD_REACTORS
330
4FF
102
}
330
4FF
100
AcDbXrecord
280
     1
102
RTVSPost2010Prop28
280
     0
102
RTVSPost2010PropOp28
 70
     1
102
RTVSPost2010Prop29
280
     1
102
RTVSPost2010PropOp29
 70
     1
102
RTVSPost2010Prop30
280
     1
102
RTVSPost2010PropOp30
 70
     1
102
RTVSPost2010Prop31
280
     0
102
RTVSPost2010PropOp31
 70
     1
102
RTVSPost2010Prop32
280
     0
102
RTVSPost2010PropOp32
 70
     1
102
RTVSPost2010Prop33
280
     0
102
RTVSPost2010PropOp33
 70
     1
102
RTVSPost2010Prop34
280
     0
102
RTVSPost2010PropOp34
 70
     1
102
RTVSPost2010Prop35
280
     0
102
RTVSPost2010PropOp35
 70
     1
102
RTVSPost2010Prop36
280
     0
102
RTVSPost2010PropOp36
 70
     1
102
RTVSPost2010Prop37
 90
       50
102
RTVSPost2010PropOp37
 70
     1
102
RTVSPost2010Prop38
140
0.0
102
RTVSPost2010PropOp38
 70
     1
102
RTVSPost2010Prop39
140
1.0
102
RTVSPost2010PropOp39
 70
     1
102
RTVSPost2010Prop40
 90
        0
102
RTVSPost2010PropOp40
 70
     1
102
RTVSPost2010Prop41ColorIndex
 90
       18
102
RTVSPost2010Prop41ColorRGB
 90
        0
102
RTVSPost2010PropOp41
 70
     1
102
RTVSPost2010Prop42
 90
       50
102
RTVSPost2010PropOp42
 70
     1
102
RTVSPost2010Prop43
 90
        3
102
RTVSPost2010PropOp43
 70
     1
102
RTVSPost2010Prop44ColorIndex
 90
        5
102
RTVSPost2010Prop44ColorRGB
 90
      255
102
RTVSPost2010PropOp44
 70
     1
102
RTVSPost2010Prop45
280
     0
102
RTVSPost2010PropOp45
 70
     1
102
RTVSPost2010Prop46
 90
       50
102
RTVSPost2010PropOp46
 70
     1
102
RTVSPost2010Prop47
 90
       50
102
RTVSPost2010PropOp47
 70
     1
102
RTVSPost2010Prop48
 90
       50
102
RTVSPost2010PropOp48
 70
     1
102
RTVSPost2010Prop49
280
     0
102
RTVSPost2010PropOp49
 70
     1
102
RTVSPost2010Prop50
 90
       50
102
RTVSPost2010PropOp50
 70
     1
102
RTVSPost2010Prop51ColorIndex
 90
      256
102
RTVSPost2010Prop51ColorRGB
 90
-16777216
102
RTVSPost2010PropOp51
 70
     0
102
RTVSPost2010Prop52
140
1.0
102
RTVSPost2010PropOp52
 70
     0
102
RTVSPost2010Prop53
 90
        2
102
RTVSPost2010PropOp53
 70
     1
102
RTVSPost2010Prop54
  1
strokes_ogs.tif
102
RTVSPost2010PropOp54
 70
     1
102
RTVSPost2010Prop55
280
     0
102
RTVSPost2010PropOp55
 70
     1
102
RTVSPost2010Prop56
140
1.0
102
RTVSPost2010PropOp56
 70
     1
102
RTVSPost2010Prop57
140
1.0
102
RTVSPost2010PropOp57
 70
     1
102
RTVSPropertyOp0
 70
     1
102
RTVSPropertyOp1
 70
     1
102
RTVSPropertyOp2
 70
     1
102
RTVSPropertyOp3
 70
     1
102
RTVSPropertyOp4
 70
     1
102
RTVSPropertyOp5
 70
     1
102
RTVSPropertyOp6
 70
     1
102
RTVSPropertyOp7
 70
     1
102
RTVSPropertyOp8
 70
     1
102
RTVSPropertyOp9
 70
     1
102
RTVSPropertyOp10
 70
     1
102
RTVSPropertyOp11
 70
     1
102
RTVSPropertyOp12
 70
     1
102
RTVSPropertyOp13
 70
     1
102
RTVSPropertyOp14
 70
     1
102
RTVSPropertyOp15
 70
     1
102
RTVSPropertyOp16
 70
     1
102
RTVSPropertyOp17
 70
     1
102
RTVSPropertyOp18
 70
     1
102
RTVSPropertyOp19
 70
     1
102
RTVSPropertyOp20
 70
     1
102
RTVSPropertyOp21
 70
     1
102
RTVSPropertyOp22
 70
     1
102
RTVSPropertyOp23
 70
     1
102
RTVSPropertyOp24
 70
     1
102
RTVSPropertyOp25
 70
     1
102
RTVSPropertyOp26
 70
     1
102
RTVSPropertyOp27
 70
     1
102
RTVSPropertyOp28
 70
     1
102
RTVSPropertyOp29
 70
     1
102
RTVSPropertyOp30
 70
     1
102
RTVSPropertyOp31
 70
     1
102
RTVSPropertyOp32
 70
     1
102
RTVSPropertyOp33
 70
     1
102
RTVSPropertyOp34
 70
     1
102
RTVSPropertyOp35
 70
     1
102
RTVSPropertyOp36
 70
     1
102
RTVSPropertyOp37
 70
     1
102
RTVSPropertyOp38
 70
     1
102
RTVSPropertyOp39
 70
     1
102
RTVSPropertyOp40
 70
     1
102
RTVSPropertyOp41
 70
     1
102
RTVSPropertyOp42
 70
     1
102
RTVSPropertyOp43
 70
     1
102
RTVSPropertyOp44
 70
     1
102
RTVSPropertyOp45
 70
     1
102
RTVSPropertyOp46
 70
     1
102
RTVSPropertyOp47
 70
     1
102
RTVSPropertyOp48
 70
     1
102
RTVSPropertyOp49
 70
     1
102
RTVSPropertyOp50
 70
     1
102
RTVSPropertyOp51
 70
     0
102
RTVSPropertyOp52
 70
     0
102
RTVSPropertyOp53
 70
     1
102
RTVSPropertyOp54
 70
     1
102
RTVSPropertyOp55
 70
     1
102
RTVSPropertyOp56
 70
     1
102
RTVSPropertyOp57
 70
     1
102
RTVSPropertyOp58
 70
     1
102
RTVSPropertyOp59
 70
     1
102
RTVSPropertyOp60
 70
     1
102
RTVSPropertyOp61
 70
     1
102
RTVSPropertyOp62
 70
     1
  0
XRECORD
  5
502
102
{ACAD_REACTORS
330
501
102
}
330
501
100
AcDbXrecord
280
     1
102
RTVSPost2010Prop28
280
     0
102
RTVSPost2010PropOp28
 70
     1
102
RTVSPost2010Prop29
280
     1
102
RTVSPost2010PropOp29
 70
     1
102
RTVSPost2010Prop30
280
     1
102
RTVSPost2010PropOp30
 70
     1
102
RTVSPost2010Prop31
280
     0
102
RTVSPost2010PropOp31
 70
     1
102
RTVSPost2010Prop32
280
     0
102
RTVSPost2010PropOp32
 70
     1
102
RTVSPost2010Prop33
280
     0
102
RTVSPost2010PropOp33
 70
     1
102
RTVSPost2010Prop34
280
     0
102
RTVSPost2010PropOp34
 70
     1
102
RTVSPost2010Prop35
280
     0
102
RTVSPost2010PropOp35
 70
     1
102
RTVSPost2010Prop36
280
     0
102
RTVSPost2010PropOp36
 70
     1
102
RTVSPost2010Prop37
 90
       50
102
RTVSPost2010PropOp37
 70
     1
102
RTVSPost2010Prop38
140
0.0
102
RTVSPost2010PropOp38
 70
     1
102
RTVSPost2010Prop39
140
1.0
102
RTVSPost2010PropOp39
 70
     1
102
RTVSPost2010Prop40
 90
        0
102
RTVSPost2010PropOp40
 70
     1
102
RTVSPost2010Prop41ColorIndex
 90
       18
102
RTVSPost2010Prop41ColorRGB
 90
        0
102
RTVSPost2010PropOp41
 70
     1
102
RTVSPost2010Prop42
 90
       50
102
RTVSPost2010PropOp42
 70
     1
102
RTVSPost2010Prop43
 90
        3
102
RTVSPost2010PropOp43
 70
     1
102
RTVSPost2010Prop44ColorIndex
 90
        5
102
RTVSPost2010Prop44ColorRGB
 90
      255
102
RTVSPost2010PropOp44
 70
     1
102
RTVSPost2010Prop45
280
     0
102
RTVSPost2010PropOp45
 70
     1
102
RTVSPost2010Prop46
 90
       50
102
RTVSPost2010PropOp46
 70
     1
102
RTVSPost2010Prop47
 90
       50
102
RTVSPost2010PropOp47
 70
     1
102
RTVSPost2010Prop48
 90
       50
102
RTVSPost2010PropOp48
 70
     1
102
RTVSPost2010Prop49
280
     0
102
RTVSPost2010PropOp49
 70
     1
102
RTVSPost2010Prop50
 90
       50
102
RTVSPost2010PropOp50
 70
     1
102
RTVSPost2010Prop51ColorIndex
 90
      256
102
RTVSPost2010Prop51ColorRGB
 90
-16777216
102
RTVSPost2010PropOp51
 70
     0
102
RTVSPost2010Prop52
140
1.0
102
RTVSPost2010PropOp52
 70
     0
102
RTVSPost2010Prop53
 90
        2
102
RTVSPost2010PropOp53
 70
     1
102
RTVSPost2010Prop54
  1
strokes_ogs.tif
102
RTVSPost2010PropOp54
 70
     1
102
RTVSPost2010Prop55
280
     0
102
RTVSPost2010PropOp55
 70
     1
102
RTVSPost2010Prop56
140
1.0
102
RTVSPost2010PropOp56
 70
     1
102
RTVSPost2010Prop57
140
1.0
102
RTVSPost2010PropOp57
 70
     1
102
RTVSPropertyOp0
 70
     1
102
RTVSPropertyOp1
 70
     1
102
RTVSPropertyOp2
 70
     1
102
RTVSPropertyOp3
 70
     1
102
RTVSPropertyOp4
 70
     1
102
RTVSPropertyOp5
 70
     1
102
RTVSPropertyOp6
 70
     1
102
RTVSPropertyOp7
 70
     1
102
RTVSPropertyOp8
 70
     1
102
RTVSPropertyOp9
 70
     1
102
RTVSPropertyOp10
 70
     1
102
RTVSPropertyOp11
 70
     1
102
RTVSPropertyOp12
 70
     1
102
RTVSPropertyOp13
 70
     1
102
RTVSPropertyOp14
 70
     1
102
RTVSPropertyOp15
 70
     1
102
RTVSPropertyOp16
 70
     1
102
RTVSPropertyOp17
 70
     1
102
RTVSPropertyOp18
 70
     1
102
RTVSPropertyOp19
 70
     1
102
RTVSPropertyOp20
 70
     1
102
RTVSPropertyOp21
 70
     1
102
RTVSPropertyOp22
 70
     1
102
RTVSPropertyOp23
 70
     1
102
RTVSPropertyOp24
 70
     1
102
RTVSPropertyOp25
 70
     1
102
RTVSPropertyOp26
 70
     1
102
RTVSPropertyOp27
 70
     1
102
RTVSPropertyOp28
 70
     1
102
RTVSPropertyOp29
 70
     1
102
RTVSPropertyOp30
 70
     1
102
RTVSPropertyOp31
 70
     1
102
RTVSPropertyOp32
 70
     1
102
RTVSPropertyOp33
 70
     1
102
RTVSPropertyOp34
 70
     1
102
RTVSPropertyOp35
 70
     1
102
RTVSPropertyOp36
 70
     1
102
RTVSPropertyOp37
 70
     1
102
RTVSPropertyOp38
 70
     1
102
RTVSPropertyOp39
 70
     1
102
RTVSPropertyOp40
 70
     1
102
RTVSPropertyOp41
 70
     1
102
RTVSPropertyOp42
 70
     1
102
RTVSPropertyOp43
 70
     1
102
RTVSPropertyOp44
 70
     1
102
RTVSPropertyOp45
 70
     1
102
RTVSPropertyOp46
 70
     1
102
RTVSPropertyOp47
 70
     1
102
RTVSPropertyOp48
 70
     1
102
RTVSPropertyOp49
 70
     1
102
RTVSPropertyOp50
 70
     1
102
RTVSPropertyOp51
 70
     0
102
RTVSPropertyOp52
 70
     0
102
RTVSPropertyOp53
 70
     1
102
RTVSPropertyOp54
 70
     1
102
RTVSPropertyOp55
 70
     1
102
RTVSPropertyOp56
 70
     1
102
RTVSPropertyOp57
 70
     1
102
RTVSPropertyOp58
 70
     1
102
RTVSPropertyOp59
 70
     1
102
RTVSPropertyOp60
 70
     1
102
RTVSPropertyOp61
 70
     1
102
RTVSPropertyOp62
 70
     1
  0
XRECORD
  5
50A
102
{ACAD_REACTORS
330
509
102
}
330
509
100
AcDbXrecord
280
     1
102
RTVSPost2010Prop28
280
     0
102
RTVSPost2010PropOp28
 70
     1
102
RTVSPost2010Prop29
280
     1
102
RTVSPost2010PropOp29
 70
     1
102
RTVSPost2010Prop30
280
     1
102
RTVSPost2010PropOp30
 70
     1
102
RTVSPost2010Prop31
280
     0
102
RTVSPost2010PropOp31
 70
     1
102
RTVSPost2010Prop32
280
     0
102
RTVSPost2010PropOp32
 70
     1
102
RTVSPost2010Prop33
280
     0
102
RTVSPost2010PropOp33
 70
     1
102
RTVSPost2010Prop34
280
     0
102
RTVSPost2010PropOp34
 70
     1
102
RTVSPost2010Prop35
280
     0
102
RTVSPost2010PropOp35
 70
     1
102
RTVSPost2010Prop36
280
     0
102
RTVSPost2010PropOp36
 70
     1
102
RTVSPost2010Prop37
 90
       50
102
RTVSPost2010PropOp37
 70
     1
102
RTVSPost2010Prop38
140
0.0
102
RTVSPost2010PropOp38
 70
     1
102
RTVSPost2010Prop39
140
1.0
102
RTVSPost2010PropOp39
 70
     1
102
RTVSPost2010Prop40
 90
        0
102
RTVSPost2010PropOp40
 70
     1
102
RTVSPost2010Prop41ColorIndex
 90
       18
102
RTVSPost2010Prop41ColorRGB
 90
        0
102
RTVSPost2010PropOp41
 70
     1
102
RTVSPost2010Prop42
 90
       50
102
RTVSPost2010PropOp42
 70
     1
102
RTVSPost2010Prop43
 90
        3
102
RTVSPost2010PropOp43
 70
     1
102
RTVSPost2010Prop44ColorIndex
 90
        5
102
RTVSPost2010Prop44ColorRGB
 90
      255
102
RTVSPost2010PropOp44
 70
     1
102
RTVSPost2010Prop45
280
     0
102
RTVSPost2010PropOp45
 70
     1
102
RTVSPost2010Prop46
 90
       50
102
RTVSPost2010PropOp46
 70
     1
102
RTVSPost2010Prop47
 90
       50
102
RTVSPost2010PropOp47
 70
     1
102
RTVSPost2010Prop48
 90
       50
102
RTVSPost2010PropOp48
 70
     1
102
RTVSPost2010Prop49
280
     0
102
RTVSPost2010PropOp49
 70
     1
102
RTVSPost2010Prop50
 90
       50
102
RTVSPost2010PropOp50
 70
     1
102
RTVSPost2010Prop51ColorIndex
 90
      256
102
RTVSPost2010Prop51ColorRGB
 90
-16777216
102
RTVSPost2010PropOp51
 70
     0
102
RTVSPost2010Prop52
140
1.0
102
RTVSPost2010PropOp52
 70
     0
102
RTVSPost2010Prop53
 90
        2
102
RTVSPost2010PropOp53
 70
     1
102
RTVSPost2010Prop54
  1
strokes_ogs.tif
102
RTVSPost2010PropOp54
 70
     1
102
RTVSPost2010Prop55
280
     0
102
RTVSPost2010PropOp55
 70
     1
102
RTVSPost2010Prop56
140
1.0
102
RTVSPost2010PropOp56
 70
     1
102
RTVSPost2010Prop57
140
1.0
102
RTVSPost2010PropOp57
 70
     1
102
RTVSPropertyOp0
 70
     1
102
RTVSPropertyOp1
 70
     1
102
RTVSPropertyOp2
 70
     1
102
RTVSPropertyOp3
 70
     1
102
RTVSPropertyOp4
 70
     1
102
RTVSPropertyOp5
 70
     1
102
RTVSPropertyOp6
 70
     1
102
RTVSPropertyOp7
 70
     1
102
RTVSPropertyOp8
 70
     1
102
RTVSPropertyOp9
 70
     1
102
RTVSPropertyOp10
 70
     1
102
RTVSPropertyOp11
 70
     1
102
RTVSPropertyOp12
 70
     1
102
RTVSPropertyOp13
 70
     1
102
RTVSPropertyOp14
 70
     1
102
RTVSPropertyOp15
 70
     1
102
RTVSPropertyOp16
 70
     1
102
RTVSPropertyOp17
 70
     1
102
RTVSPropertyOp18
 70
     1
102
RTVSPropertyOp19
 70
     1
102
RTVSPropertyOp20
 70
     1
102
RTVSPropertyOp21
 70
     1
102
RTVSPropertyOp22
 70
     1
102
RTVSPropertyOp23
 70
     1
102
RTVSPropertyOp24
 70
     1
102
RTVSPropertyOp25
 70
     1
102
RTVSPropertyOp26
 70
     1
102
RTVSPropertyOp27
 70
     1
102
RTVSPropertyOp28
 70
     1
102
RTVSPropertyOp29
 70
     1
102
RTVSPropertyOp30
 70
     1
102
RTVSPropertyOp31
 70
     1
102
RTVSPropertyOp32
 70
     1
102
RTVSPropertyOp33
 70
     1
102
RTVSPropertyOp34
 70
     1
102
RTVSPropertyOp35
 70
     1
102
RTVSPropertyOp36
 70
     1
102
RTVSPropertyOp37
 70
     1
102
RTVSPropertyOp38
 70
     1
102
RTVSPropertyOp39
 70
     1
102
RTVSPropertyOp40
 70
     1
102
RTVSPropertyOp41
 70
     1
102
RTVSPropertyOp42
 70
     1
102
RTVSPropertyOp43
 70
     1
102
RTVSPropertyOp44
 70
     1
102
RTVSPropertyOp45
 70
     1
102
RTVSPropertyOp46
 70
     1
102
RTVSPropertyOp47
 70
     1
102
RTVSPropertyOp48
 70
     1
102
RTVSPropertyOp49
 70
     1
102
RTVSPropertyOp50
 70
     1
102
RTVSPropertyOp51
 70
     0
102
RTVSPropertyOp52
 70
     0
102
RTVSPropertyOp53
 70
     1
102
RTVSPropertyOp54
 70
     1
102
RTVSPropertyOp55
 70
     1
102
RTVSPropertyOp56
 70
     1
102
RTVSPropertyOp57
 70
     1
102
RTVSPropertyOp58
 70
     1
102
RTVSPropertyOp59
 70
     1
102
RTVSPropertyOp60
 70
     1
102
RTVSPropertyOp61
 70
     1
102
RTVSPropertyOp62
 70
     1
  0
XRECORD
  5
526
102
{ACAD_REACTORS
330
525
102
}
330
525
100
AcDbXrecord
280
     1
102
RTVSPost2010Prop28
280
     0
102
RTVSPost2010PropOp28
 70
     1
102
RTVSPost2010Prop29
280
     1
102
RTVSPost2010PropOp29
 70
     1
102
RTVSPost2010Prop30
280
     1
102
RTVSPost2010PropOp30
 70
     1
102
RTVSPost2010Prop31
280
     0
102
RTVSPost2010PropOp31
 70
     1
102
RTVSPost2010Prop32
280
     0
102
RTVSPost2010PropOp32
 70
     1
102
RTVSPost2010Prop33
280
     0
102
RTVSPost2010PropOp33
 70
     1
102
RTVSPost2010Prop34
280
     0
102
RTVSPost2010PropOp34
 70
     1
102
RTVSPost2010Prop35
280
     0
102
RTVSPost2010PropOp35
 70
     1
102
RTVSPost2010Prop36
280
     0
102
RTVSPost2010PropOp36
 70
     1
102
RTVSPost2010Prop37
 90
       50
102
RTVSPost2010PropOp37
 70
     0
102
RTVSPost2010Prop38
140
0.0
102
RTVSPost2010PropOp38
 70
     0
102
RTVSPost2010Prop39
140
1.0
102
RTVSPost2010PropOp39
 70
     0
102
RTVSPost2010Prop40
 90
        0
102
RTVSPost2010PropOp40
 70
     0
102
RTVSPost2010Prop41ColorIndex
 90
       18
102
RTVSPost2010Prop41ColorRGB
 90
        0
102
RTVSPost2010PropOp41
 70
     0
102
RTVSPost2010Prop42
 90
       50
102
RTVSPost2010PropOp42
 70
     0
102
RTVSPost2010Prop43
 90
        3
102
RTVSPost2010PropOp43
 70
     0
102
RTVSPost2010Prop44ColorIndex
 90
        5
102
RTVSPost2010Prop44ColorRGB
 90
      255
102
RTVSPost2010PropOp44
 70
     0
102
RTVSPost2010Prop45
280
     0
102
RTVSPost2010PropOp45
 70
     1
102
RTVSPost2010Prop46
 90
       50
102
RTVSPost2010PropOp46
 70
     0
102
RTVSPost2010Prop47
 90
       50
102
RTVSPost2010PropOp47
 70
     0
102
RTVSPost2010Prop48
 90
       50
102
RTVSPost2010PropOp48
 70
     0
102
RTVSPost2010Prop49
280
     0
102
RTVSPost2010PropOp49
 70
     1
102
RTVSPost2010Prop50
 90
       50
102
RTVSPost2010PropOp50
 70
     0
102
RTVSPost2010Prop51ColorIndex
 90
      256
102
RTVSPost2010Prop51ColorRGB
 90
-16777216
102
RTVSPost2010PropOp51
 70
     0
102
RTVSPost2010Prop52
140
1.0
102
RTVSPost2010PropOp52
 70
     0
102
RTVSPost2010Prop53
 90
        2
102
RTVSPost2010PropOp53
 70
     0
102
RTVSPost2010Prop54
  1
strokes_ogs.tif
102
RTVSPost2010PropOp54
 70
     0
102
RTVSPost2010Prop55
280
     0
102
RTVSPost2010PropOp55
 70
     1
102
RTVSPost2010Prop56
140
1.0
102
RTVSPost2010PropOp56
 70
     0
102
RTVSPost2010Prop57
140
1.0
102
RTVSPost2010PropOp57
 70
     0
102
RTVSPropertyOp0
 70
     0
102
RTVSPropertyOp1
 70
     0
102
RTVSPropertyOp2
 70
     0
102
RTVSPropertyOp3
 70
     0
102
RTVSPropertyOp4
 70
     0
102
RTVSPropertyOp5
 70
     0
102
RTVSPropertyOp6
 70
     0
102
RTVSPropertyOp7
 70
     0
102
RTVSPropertyOp8
 70
     0
102
RTVSPropertyOp9
 70
     0
102
RTVSPropertyOp10
 70
     0
102
RTVSPropertyOp11
 70
     0
102
RTVSPropertyOp12
 70
     0
102
RTVSPropertyOp13
 70
     0
102
RTVSPropertyOp14
 70
     2
102
RTVSPropertyOp15
 70
     0
102
RTVSPropertyOp16
 70
     0
102
RTVSPropertyOp17
 70
     0
102
RTVSPropertyOp18
 70
     0
102
RTVSPropertyOp19
 70
     0
102
RTVSPropertyOp20
 70
     0
102
RTVSPropertyOp21
 70
     0
102
RTVSPropertyOp22
 70
     0
102
RTVSPropertyOp23
 70
     0
102
RTVSPropertyOp24
 70
     0
102
RTVSPropertyOp25
 70
     0
102
RTVSPropertyOp26
 70
     0
102
RTVSPropertyOp27
 70
     0
102
RTVSPropertyOp28
 70
     1
102
RTVSPropertyOp29
 70
     1
102
RTVSPropertyOp30
 70
     1
102
RTVSPropertyOp31
 70
     1
102
RTVSPropertyOp32
 70
     1
102
RTVSPropertyOp33
 70
     1
102
RTVSPropertyOp34
 70
     1
102
RTVSPropertyOp35
 70
     1
102
RTVSPropertyOp36
 70
     1
102
RTVSPropertyOp37
 70
     0
102
RTVSPropertyOp38
 70
     0
102
RTVSPropertyOp39
 70
     0
102
RTVSPropertyOp40
 70
     0
102
RTVSPropertyOp41
 70
     0
102
RTVSPropertyOp42
 70
     0
102
RTVSPropertyOp43
 70
     0
102
RTVSPropertyOp44
 70
     0
102
RTVSPropertyOp45
 70
     1
102
RTVSPropertyOp46
 70
     0
102
RTVSPropertyOp47
 70
     0
102
RTVSPropertyOp48
 70
     0
102
RTVSPropertyOp49
 70
     1
102
RTVSPropertyOp50
 70
     0
102
RTVSPropertyOp51
 70
     0
102
RTVSPropertyOp52
 70
     0
102
RTVSPropertyOp53
 70
     0
102
RTVSPropertyOp54
 70
     0
102
RTVSPropertyOp55
 70
     1
102
RTVSPropertyOp56
 70
     0
102
RTVSPropertyOp57
 70
     0
102
RTVSPropertyOp58
 70
     0
102
RTVSPropertyOp59
 70
     0
102
RTVSPropertyOp60
 70
     0
102
RTVSPropertyOp61
 70
     0
102
RTVSPropertyOp62
 70
     0
  0
XRECORD
  5
516
102
{ACAD_REACTORS
330
515
102
}
330
515
100
AcDbXrecord
280
     1
102
RTVSPost2010Prop28
280
     0
102
RTVSPost2010PropOp28
 70
     1
102
RTVSPost2010Prop29
280
     1
102
RTVSPost2010PropOp29
 70
     1
102
RTVSPost2010Prop30
280
     1
102
RTVSPost2010PropOp30
 70
     1
102
RTVSPost2010Prop31
280
     0
102
RTVSPost2010PropOp31
 70
     1
102
RTVSPost2010Prop32
280
     0
102
RTVSPost2010PropOp32
 70
     1
102
RTVSPost2010Prop33
280
     0
102
RTVSPost2010PropOp33
 70
     1
102
RTVSPost2010Prop34
280
     0
102
RTVSPost2010PropOp34
 70
     1
102
RTVSPost2010Prop35
280
     0
102
RTVSPost2010PropOp35
 70
     1
102
RTVSPost2010Prop36
280
     0
102
RTVSPost2010PropOp36
 70
     1
102
RTVSPost2010Prop37
 90
       50
102
RTVSPost2010PropOp37
 70
     1
102
RTVSPost2010Prop38
140
0.0
102
RTVSPost2010PropOp38
 70
     1
102
RTVSPost2010Prop39
140
1.0
102
RTVSPost2010PropOp39
 70
     1
102
RTVSPost2010Prop40
 90
        0
102
RTVSPost2010PropOp40
 70
     1
102
RTVSPost2010Prop41ColorIndex
 90
       18
102
RTVSPost2010Prop41ColorRGB
 90
        0
102
RTVSPost2010PropOp41
 70
     1
102
RTVSPost2010Prop42
 90
       50
102
RTVSPost2010PropOp42
 70
     1
102
RTVSPost2010Prop43
 90
        3
102
RTVSPost2010PropOp43
 70
     1
102
RTVSPost2010Prop44ColorIndex
 90
        5
102
RTVSPost2010Prop44ColorRGB
 90
      255
102
RTVSPost2010PropOp44
 70
     1
102
RTVSPost2010Prop45
280
     0
102
RTVSPost2010PropOp45
 70
     1
102
RTVSPost2010Prop46
 90
       50
102
RTVSPost2010PropOp46
 70
     1
102
RTVSPost2010Prop47
 90
       50
102
RTVSPost2010PropOp47
 70
     1
102
RTVSPost2010Prop48
 90
       50
102
RTVSPost2010PropOp48
 70
     1
102
RTVSPost2010Prop49
280
     0
102
RTVSPost2010PropOp49
 70
     1
102
RTVSPost2010Prop50
 90
       50
102
RTVSPost2010PropOp50
 70
     1
102
RTVSPost2010Prop51ColorIndex
 90
      256
102
RTVSPost2010Prop51ColorRGB
 90
-16777216
102
RTVSPost2010PropOp51
 70
     0
102
RTVSPost2010Prop52
140
1.0
102
RTVSPost2010PropOp52
 70
     0
102
RTVSPost2010Prop53
 90
        2
102
RTVSPost2010PropOp53
 70
     1
102
RTVSPost2010Prop54
  1
strokes_ogs.tif
102
RTVSPost2010PropOp54
 70
     1
102
RTVSPost2010Prop55
280
     0
102
RTVSPost2010PropOp55
 70
     1
102
RTVSPost2010Prop56
140
1.0
102
RTVSPost2010PropOp56
 70
     1
102
RTVSPost2010Prop57
140
1.0
102
RTVSPost2010PropOp57
 70
     1
102
RTVSPropertyOp0
 70
     1
102
RTVSPropertyOp1
 70
     1
102
RTVSPropertyOp2
 70
     1
102
RTVSPropertyOp3
 70
     1
102
RTVSPropertyOp4
 70
     1
102
RTVSPropertyOp5
 70
     1
102
RTVSPropertyOp6
 70
     1
102
RTVSPropertyOp7
 70
     1
102
RTVSPropertyOp8
 70
     1
102
RTVSPropertyOp9
 70
     1
102
RTVSPropertyOp10
 70
     1
102
RTVSPropertyOp11
 70
     1
102
RTVSPropertyOp12
 70
     1
102
RTVSPropertyOp13
 70
     1
102
RTVSPropertyOp14
 70
     1
102
RTVSPropertyOp15
 70
     1
102
RTVSPropertyOp16
 70
     1
102
RTVSPropertyOp17
 70
     1
102
RTVSPropertyOp18
 70
     1
102
RTVSPropertyOp19
 70
     1
102
RTVSPropertyOp20
 70
     1
102
RTVSPropertyOp21
 70
     1
102
RTVSPropertyOp22
 70
     1
102
RTVSPropertyOp23
 70
     1
102
RTVSPropertyOp24
 70
     1
102
RTVSPropertyOp25
 70
     1
102
RTVSPropertyOp26
 70
     1
102
RTVSPropertyOp27
 70
     1
102
RTVSPropertyOp28
 70
     1
102
RTVSPropertyOp29
 70
     1
102
RTVSPropertyOp30
 70
     1
102
RTVSPropertyOp31
 70
     1
102
RTVSPropertyOp32
 70
     1
102
RTVSPropertyOp33
 70
     1
102
RTVSPropertyOp34
 70
     1
102
RTVSPropertyOp35
 70
     1
102
RTVSPropertyOp36
 70
     1
102
RTVSPropertyOp37
 70
     1
102
RTVSPropertyOp38
 70
     1
102
RTVSPropertyOp39
 70
     1
102
RTVSPropertyOp40
 70
     1
102
RTVSPropertyOp41
 70
     1
102
RTVSPropertyOp42
 70
     1
102
RTVSPropertyOp43
 70
     1
102
RTVSPropertyOp44
 70
     1
102
RTVSPropertyOp45
 70
     1
102
RTVSPropertyOp46
 70
     1
102
RTVSPropertyOp47
 70
     1
102
RTVSPropertyOp48
 70
     1
102
RTVSPropertyOp49
 70
     1
102
RTVSPropertyOp50
 70
     1
102
RTVSPropertyOp51
 70
     0
102
RTVSPropertyOp52
 70
     0
102
RTVSPropertyOp53
 70
     1
102
RTVSPropertyOp54
 70
     1
102
RTVSPropertyOp55
 70
     1
102
RTVSPropertyOp56
 70
     1
102
RTVSPropertyOp57
 70
     1
102
RTVSPropertyOp58
 70
     1
102
RTVSPropertyOp59
 70
     1
102
RTVSPropertyOp60
 70
     1
102
RTVSPropertyOp61
 70
     1
102
RTVSPropertyOp62
 70
     1
  0
XRECORD
  5
528
102
{ACAD_REACTORS
330
527
102
}
330
527
100
AcDbXrecord
280
     1
102
RTVSPost2010Prop28
280
     0
102
RTVSPost2010PropOp28
 70
     1
102
RTVSPost2010Prop29
280
     1
102
RTVSPost2010PropOp29
 70
     1
102
RTVSPost2010Prop30
280
     1
102
RTVSPost2010PropOp30
 70
     1
102
RTVSPost2010Prop31
280
     0
102
RTVSPost2010PropOp31
 70
     1
102
RTVSPost2010Prop32
280
     0
102
RTVSPost2010PropOp32
 70
     1
102
RTVSPost2010Prop33
280
     0
102
RTVSPost2010PropOp33
 70
     1
102
RTVSPost2010Prop34
280
     0
102
RTVSPost2010PropOp34
 70
     1
102
RTVSPost2010Prop35
280
     0
102
RTVSPost2010PropOp35
 70
     1
102
RTVSPost2010Prop36
280
     0
102
RTVSPost2010PropOp36
 70
     1
102
RTVSPost2010Prop37
 90
       50
102
RTVSPost2010PropOp37
 70
     0
102
RTVSPost2010Prop38
140
0.0
102
RTVSPost2010PropOp38
 70
     0
102
RTVSPost2010Prop39
140
1.0
102
RTVSPost2010PropOp39
 70
     0
102
RTVSPost2010Prop40
 90
        0
102
RTVSPost2010PropOp40
 70
     0
102
RTVSPost2010Prop41ColorIndex
 90
       18
102
RTVSPost2010Prop41ColorRGB
 90
        0
102
RTVSPost2010PropOp41
 70
     0
102
RTVSPost2010Prop42
 90
       50
102
RTVSPost2010PropOp42
 70
     0
102
RTVSPost2010Prop43
 90
        3
102
RTVSPost2010PropOp43
 70
     0
102
RTVSPost2010Prop44ColorIndex
 90
        5
102
RTVSPost2010Prop44ColorRGB
 90
      255
102
RTVSPost2010PropOp44
 70
     0
102
RTVSPost2010Prop45
280
     0
102
RTVSPost2010PropOp45
 70
     1
102
RTVSPost2010Prop46
 90
       50
102
RTVSPost2010PropOp46
 70
     0
102
RTVSPost2010Prop47
 90
       50
102
RTVSPost2010PropOp47
 70
     0
102
RTVSPost2010Prop48
 90
       50
102
RTVSPost2010PropOp48
 70
     0
102
RTVSPost2010Prop49
280
     0
102
RTVSPost2010PropOp49
 70
     1
102
RTVSPost2010Prop50
 90
       50
102
RTVSPost2010PropOp50
 70
     0
102
RTVSPost2010Prop51ColorIndex
 90
      256
102
RTVSPost2010Prop51ColorRGB
 90
-16777216
102
RTVSPost2010PropOp51
 70
     0
102
RTVSPost2010Prop52
140
1.0
102
RTVSPost2010PropOp52
 70
     0
102
RTVSPost2010Prop53
 90
        2
102
RTVSPost2010PropOp53
 70
     0
102
RTVSPost2010Prop54
  1
strokes_ogs.tif
102
RTVSPost2010PropOp54
 70
     0
102
RTVSPost2010Prop55
280
     0
102
RTVSPost2010PropOp55
 70
     1
102
RTVSPost2010Prop56
140
1.0
102
RTVSPost2010PropOp56
 70
     0
102
RTVSPost2010Prop57
140
1.0
102
RTVSPost2010PropOp57
 70
     0
102
RTVSPropertyOp0
 70
     0
102
RTVSPropertyOp1
 70
     0
102
RTVSPropertyOp2
 70
     0
102
RTVSPropertyOp3
 70
     0
102
RTVSPropertyOp4
 70
     0
102
RTVSPropertyOp5
 70
     0
102
RTVSPropertyOp6
 70
     0
102
RTVSPropertyOp7
 70
     0
102
RTVSPropertyOp8
 70
     0
102
RTVSPropertyOp9
 70
     0
102
RTVSPropertyOp10
 70
     0
102
RTVSPropertyOp11
 70
     0
102
RTVSPropertyOp12
 70
     0
102
RTVSPropertyOp13
 70
     0
102
RTVSPropertyOp14
 70
     2
102
RTVSPropertyOp15
 70
     0
102
RTVSPropertyOp16
 70
     0
102
RTVSPropertyOp17
 70
     0
102
RTVSPropertyOp18
 70
     0
102
RTVSPropertyOp19
 70
     0
102
RTVSPropertyOp20
 70
     0
102
RTVSPropertyOp21
 70
     0
102
RTVSPropertyOp22
 70
     0
102
RTVSPropertyOp23
 70
     0
102
RTVSPropertyOp24
 70
     0
102
RTVSPropertyOp25
 70
     0
102
RTVSPropertyOp26
 70
     0
102
RTVSPropertyOp27
 70
     0
102
RTVSPropertyOp28
 70
     1
102
RTVSPropertyOp29
 70
     1
102
RTVSPropertyOp30
 70
     1
102
RTVSPropertyOp31
 70
     1
102
RTVSPropertyOp32
 70
     1
102
RTVSPropertyOp33
 70
     1
102
RTVSPropertyOp34
 70
     1
102
RTVSPropertyOp35
 70
     1
102
RTVSPropertyOp36
 70
     1
102
RTVSPropertyOp37
 70
     0
102
RTVSPropertyOp38
 70
     0
102
RTVSPropertyOp39
 70
     0
102
RTVSPropertyOp40
 70
     0
102
RTVSPropertyOp41
 70
     0
102
RTVSPropertyOp42
 70
     0
102
RTVSPropertyOp43
 70
     0
102
RTVSPropertyOp44
 70
     0
102
RTVSPropertyOp45
 70
     1
102
RTVSPropertyOp46
 70
     0
102
RTVSPropertyOp47
 70
     0
102
RTVSPropertyOp48
 70
     0
102
RTVSPropertyOp49
 70
     1
102
RTVSPropertyOp50
 70
     0
102
RTVSPropertyOp51
 70
     0
102
RTVSPropertyOp52
 70
     0
102
RTVSPropertyOp53
 70
     0
102
RTVSPropertyOp54
 70
     0
102
RTVSPropertyOp55
 70
     1
102
RTVSPropertyOp56
 70
     0
102
RTVSPropertyOp57
 70
     0
102
RTVSPropertyOp58
 70
     0
102
RTVSPropertyOp59
 70
     0
102
RTVSPropertyOp60
 70
     0
102
RTVSPropertyOp61
 70
     0
102
RTVSPropertyOp62
 70
     0
  0
XRECORD
  5
50E
102
{ACAD_REACTORS
330
50D
102
}
330
50D
100
AcDbXrecord
280
     1
102
RTVSPost2010Prop28
280
     0
102
RTVSPost2010PropOp28
 70
     1
102
RTVSPost2010Prop29
280
     1
102
RTVSPost2010PropOp29
 70
     1
102
RTVSPost2010Prop30
280
     1
102
RTVSPost2010PropOp30
 70
     1
102
RTVSPost2010Prop31
280
     0
102
RTVSPost2010PropOp31
 70
     1
102
RTVSPost2010Prop32
280
     0
102
RTVSPost2010PropOp32
 70
     1
102
RTVSPost2010Prop33
280
     0
102
RTVSPost2010PropOp33
 70
     1
102
RTVSPost2010Prop34
280
     0
102
RTVSPost2010PropOp34
 70
     1
102
RTVSPost2010Prop35
280
     0
102
RTVSPost2010PropOp35
 70
     1
102
RTVSPost2010Prop36
280
     0
102
RTVSPost2010PropOp36
 70
     1
102
RTVSPost2010Prop37
 90
       50
102
RTVSPost2010PropOp37
 70
     1
102
RTVSPost2010Prop38
140
0.0
102
RTVSPost2010PropOp38
 70
     1
102
RTVSPost2010Prop39
140
1.0
102
RTVSPost2010PropOp39
 70
     1
102
RTVSPost2010Prop40
 90
        0
102
RTVSPost2010PropOp40
 70
     1
102
RTVSPost2010Prop41ColorIndex
 90
       18
102
RTVSPost2010Prop41ColorRGB
 90
        0
102
RTVSPost2010PropOp41
 70
     1
102
RTVSPost2010Prop42
 90
       50
102
RTVSPost2010PropOp42
 70
     1
102
RTVSPost2010Prop43
 90
        3
102
RTVSPost2010PropOp43
 70
     1
102
RTVSPost2010Prop44ColorIndex
 90
        5
102
RTVSPost2010Prop44ColorRGB
 90
      255
102
RTVSPost2010PropOp44
 70
     1
102
RTVSPost2010Prop45
280
     0
102
RTVSPost2010PropOp45
 70
     1
102
RTVSPost2010Prop46
 90
       50
102
RTVSPost2010PropOp46
 70
     1
102
RTVSPost2010Prop47
 90
       50
102
RTVSPost2010PropOp47
 70
     1
102
RTVSPost2010Prop48
 90
       50
102
RTVSPost2010PropOp48
 70
     1
102
RTVSPost2010Prop49
280
     0
102
RTVSPost2010PropOp49
 70
     1
102
RTVSPost2010Prop50
 90
       50
102
RTVSPost2010PropOp50
 70
     1
102
RTVSPost2010Prop51ColorIndex
 90
      256
102
RTVSPost2010Prop51ColorRGB
 90
-16777216
102
RTVSPost2010PropOp51
 70
     0
102
RTVSPost2010Prop52
140
1.0
102
RTVSPost2010PropOp52
 70
     0
102
RTVSPost2010Prop53
 90
        2
102
RTVSPost2010PropOp53
 70
     1
102
RTVSPost2010Prop54
  1
strokes_ogs.tif
102
RTVSPost2010PropOp54
 70
     1
102
RTVSPost2010Prop55
280
     0
102
RTVSPost2010PropOp55
 70
     1
102
RTVSPost2010Prop56
140
1.0
102
RTVSPost2010PropOp56
 70
     1
102
RTVSPost2010Prop57
140
1.0
102
RTVSPost2010PropOp57
 70
     1
102
RTVSPropertyOp0
 70
     1
102
RTVSPropertyOp1
 70
     1
102
RTVSPropertyOp2
 70
     1
102
RTVSPropertyOp3
 70
     1
102
RTVSPropertyOp4
 70
     1
102
RTVSPropertyOp5
 70
     1
102
RTVSPropertyOp6
 70
     1
102
RTVSPropertyOp7
 70
     1
102
RTVSPropertyOp8
 70
     1
102
RTVSPropertyOp9
 70
     1
102
RTVSPropertyOp10
 70
     1
102
RTVSPropertyOp11
 70
     1
102
RTVSPropertyOp12
 70
     1
102
RTVSPropertyOp13
 70
     1
102
RTVSPropertyOp14
 70
     1
102
RTVSPropertyOp15
 70
     1
102
RTVSPropertyOp16
 70
     1
102
RTVSPropertyOp17
 70
     1
102
RTVSPropertyOp18
 70
     1
102
RTVSPropertyOp19
 70
     1
102
RTVSPropertyOp20
 70
     1
102
RTVSPropertyOp21
 70
     1
102
RTVSPropertyOp22
 70
     1
102
RTVSPropertyOp23
 70
     1
102
RTVSPropertyOp24
 70
     1
102
RTVSPropertyOp25
 70
     1
102
RTVSPropertyOp26
 70
     1
102
RTVSPropertyOp27
 70
     1
102
RTVSPropertyOp28
 70
     1
102
RTVSPropertyOp29
 70
     1
102
RTVSPropertyOp30
 70
     1
102
RTVSPropertyOp31
 70
     1
102
RTVSPropertyOp32
 70
     1
102
RTVSPropertyOp33
 70
     1
102
RTVSPropertyOp34
 70
     1
102
RTVSPropertyOp35
 70
     1
102
RTVSPropertyOp36
 70
     1
102
RTVSPropertyOp37
 70
     1
102
RTVSPropertyOp38
 70
     1
102
RTVSPropertyOp39
 70
     1
102
RTVSPropertyOp40
 70
     1
102
RTVSPropertyOp41
 70
     1
102
RTVSPropertyOp42
 70
     1
102
RTVSPropertyOp43
 70
     1
102
RTVSPropertyOp44
 70
     1
102
RTVSPropertyOp45
 70
     1
102
RTVSPropertyOp46
 70
     1
102
RTVSPropertyOp47
 70
     1
102
RTVSPropertyOp48
 70
     1
102
RTVSPropertyOp49
 70
     1
102
RTVSPropertyOp50
 70
     1
102
RTVSPropertyOp51
 70
     0
102
RTVSPropertyOp52
 70
     0
102
RTVSPropertyOp53
 70
     1
102
RTVSPropertyOp54
 70
     1
102
RTVSPropertyOp55
 70
     1
102
RTVSPropertyOp56
 70
     1
102
RTVSPropertyOp57
 70
     1
102
RTVSPropertyOp58
 70
     1
102
RTVSPropertyOp59
 70
     1
102
RTVSPropertyOp60
 70
     1
102
RTVSPropertyOp61
 70
     1
102
RTVSPropertyOp62
 70
     1
  0
XRECORD
  5
524
102
{ACAD_REACTORS
330
523
102
}
330
523
100
AcDbXrecord
280
     1
102
RTVSPost2010Prop28
280
     0
102
RTVSPost2010PropOp28
 70
     1
102
RTVSPost2010Prop29
280
     1
102
RTVSPost2010PropOp29
 70
     1
102
RTVSPost2010Prop30
280
     1
102
RTVSPost2010PropOp30
 70
     1
102
RTVSPost2010Prop31
280
     0
102
RTVSPost2010PropOp31
 70
     1
102
RTVSPost2010Prop32
280
     0
102
RTVSPost2010PropOp32
 70
     1
102
RTVSPost2010Prop33
280
     0
102
RTVSPost2010PropOp33
 70
     1
102
RTVSPost2010Prop34
280
     0
102
RTVSPost2010PropOp34
 70
     1
102
RTVSPost2010Prop35
280
     0
102
RTVSPost2010PropOp35
 70
     1
102
RTVSPost2010Prop36
280
     0
102
RTVSPost2010PropOp36
 70
     1
102
RTVSPost2010Prop37
 90
       50
102
RTVSPost2010PropOp37
 70
     1
102
RTVSPost2010Prop38
140
0.0
102
RTVSPost2010PropOp38
 70
     1
102
RTVSPost2010Prop39
140
1.0
102
RTVSPost2010PropOp39
 70
     1
102
RTVSPost2010Prop40
 90
        0
102
RTVSPost2010PropOp40
 70
     1
102
RTVSPost2010Prop41ColorIndex
 90
       18
102
RTVSPost2010Prop41ColorRGB
 90
        0
102
RTVSPost2010PropOp41
 70
     1
102
RTVSPost2010Prop42
 90
       50
102
RTVSPost2010PropOp42
 70
     1
102
RTVSPost2010Prop43
 90
        3
102
RTVSPost2010PropOp43
 70
     1
102
RTVSPost2010Prop44ColorIndex
 90
        5
102
RTVSPost2010Prop44ColorRGB
 90
      255
102
RTVSPost2010PropOp44
 70
     1
102
RTVSPost2010Prop45
280
     0
102
RTVSPost2010PropOp45
 70
     1
102
RTVSPost2010Prop46
 90
       50
102
RTVSPost2010PropOp46
 70
     1
102
RTVSPost2010Prop47
 90
       50
102
RTVSPost2010PropOp47
 70
     1
102
RTVSPost2010Prop48
 90
       50
102
RTVSPost2010PropOp48
 70
     1
102
RTVSPost2010Prop49
280
     0
102
RTVSPost2010PropOp49
 70
     1
102
RTVSPost2010Prop50
 90
       50
102
RTVSPost2010PropOp50
 70
     1
102
RTVSPost2010Prop51ColorIndex
 90
      256
102
RTVSPost2010Prop51ColorRGB
 90
-16777216
102
RTVSPost2010PropOp51
 70
     0
102
RTVSPost2010Prop52
140
1.0
102
RTVSPost2010PropOp52
 70
     0
102
RTVSPost2010Prop53
 90
        2
102
RTVSPost2010PropOp53
 70
     1
102
RTVSPost2010Prop54
  1
strokes_ogs.tif
102
RTVSPost2010PropOp54
 70
     1
102
RTVSPost2010Prop55
280
     0
102
RTVSPost2010PropOp55
 70
     1
102
RTVSPost2010Prop56
140
1.0
102
RTVSPost2010PropOp56
 70
     1
102
RTVSPost2010Prop57
140
1.0
102
RTVSPost2010PropOp57
 70
     1
102
RTVSPropertyOp0
 70
     1
102
RTVSPropertyOp1
 70
     1
102
RTVSPropertyOp2
 70
     1
102
RTVSPropertyOp3
 70
     1
102
RTVSPropertyOp4
 70
     1
102
RTVSPropertyOp5
 70
     1
102
RTVSPropertyOp6
 70
     1
102
RTVSPropertyOp7
 70
     1
102
RTVSPropertyOp8
 70
     1
102
RTVSPropertyOp9
 70
     1
102
RTVSPropertyOp10
 70
     1
102
RTVSPropertyOp11
 70
     1
102
RTVSPropertyOp12
 70
     1
102
RTVSPropertyOp13
 70
     1
102
RTVSPropertyOp14
 70
     1
102
RTVSPropertyOp15
 70
     1
102
RTVSPropertyOp16
 70
     1
102
RTVSPropertyOp17
 70
     1
102
RTVSPropertyOp18
 70
     1
102
RTVSPropertyOp19
 70
     1
102
RTVSPropertyOp20
 70
     1
102
RTVSPropertyOp21
 70
     1
102
RTVSPropertyOp22
 70
     1
102
RTVSPropertyOp23
 70
     1
102
RTVSPropertyOp24
 70
     1
102
RTVSPropertyOp25
 70
     1
102
RTVSPropertyOp26
 70
     1
102
RTVSPropertyOp27
 70
     1
102
RTVSPropertyOp28
 70
     1
102
RTVSPropertyOp29
 70
     1
102
RTVSPropertyOp30
 70
     1
102
RTVSPropertyOp31
 70
     1
102
RTVSPropertyOp32
 70
     1
102
RTVSPropertyOp33
 70
     1
102
RTVSPropertyOp34
 70
     1
102
RTVSPropertyOp35
 70
     1
102
RTVSPropertyOp36
 70
     1
102
RTVSPropertyOp37
 70
     1
102
RTVSPropertyOp38
 70
     1
102
RTVSPropertyOp39
 70
     1
102
RTVSPropertyOp40
 70
     1
102
RTVSPropertyOp41
 70
     1
102
RTVSPropertyOp42
 70
     1
102
RTVSPropertyOp43
 70
     1
102
RTVSPropertyOp44
 70
     1
102
RTVSPropertyOp45
 70
     1
102
RTVSPropertyOp46
 70
     1
102
RTVSPropertyOp47
 70
     1
102
RTVSPropertyOp48
 70
     1
102
RTVSPropertyOp49
 70
     1
102
RTVSPropertyOp50
 70
     1
102
RTVSPropertyOp51
 70
     0
102
RTVSPropertyOp52
 70
     0
102
RTVSPropertyOp53
 70
     1
102
RTVSPropertyOp54
 70
     1
102
RTVSPropertyOp55
 70
     1
102
RTVSPropertyOp56
 70
     1
102
RTVSPropertyOp57
 70
     1
102
RTVSPropertyOp58
 70
     1
102
RTVSPropertyOp59
 70
     1
102
RTVSPropertyOp60
 70
     1
102
RTVSPropertyOp61
 70
     1
102
RTVSPropertyOp62
 70
     1
  0
XRECORD
  5
522
102
{ACAD_REACTORS
330
521
102
}
330
521
100
AcDbXrecord
280
     1
102
RTVSPost2010Prop28
280
     0
102
RTVSPost2010PropOp28
 70
     1
102
RTVSPost2010Prop29
280
     1
102
RTVSPost2010PropOp29
 70
     1
102
RTVSPost2010Prop30
280
     1
102
RTVSPost2010PropOp30
 70
     1
102
RTVSPost2010Prop31
280
     0
102
RTVSPost2010PropOp31
 70
     1
102
RTVSPost2010Prop32
280
     0
102
RTVSPost2010PropOp32
 70
     1
102
RTVSPost2010Prop33
280
     0
102
RTVSPost2010PropOp33
 70
     1
102
RTVSPost2010Prop34
280
     0
102
RTVSPost2010PropOp34
 70
     1
102
RTVSPost2010Prop35
280
     0
102
RTVSPost2010PropOp35
 70
     1
102
RTVSPost2010Prop36
280
     0
102
RTVSPost2010PropOp36
 70
     1
102
RTVSPost2010Prop37
 90
       50
102
RTVSPost2010PropOp37
 70
     1
102
RTVSPost2010Prop38
140
0.0
102
RTVSPost2010PropOp38
 70
     1
102
RTVSPost2010Prop39
140
1.0
102
RTVSPost2010PropOp39
 70
     1
102
RTVSPost2010Prop40
 90
        0
102
RTVSPost2010PropOp40
 70
     1
102
RTVSPost2010Prop41ColorIndex
 90
       18
102
RTVSPost2010Prop41ColorRGB
 90
        0
102
RTVSPost2010PropOp41
 70
     1
102
RTVSPost2010Prop42
 90
       50
102
RTVSPost2010PropOp42
 70
     1
102
RTVSPost2010Prop43
 90
        3
102
RTVSPost2010PropOp43
 70
     1
102
RTVSPost2010Prop44ColorIndex
 90
        5
102
RTVSPost2010Prop44ColorRGB
 90
      255
102
RTVSPost2010PropOp44
 70
     1
102
RTVSPost2010Prop45
280
     0
102
RTVSPost2010PropOp45
 70
     1
102
RTVSPost2010Prop46
 90
       50
102
RTVSPost2010PropOp46
 70
     1
102
RTVSPost2010Prop47
 90
       50
102
RTVSPost2010PropOp47
 70
     1
102
RTVSPost2010Prop48
 90
       50
102
RTVSPost2010PropOp48
 70
     1
102
RTVSPost2010Prop49
280
     0
102
RTVSPost2010PropOp49
 70
     1
102
RTVSPost2010Prop50
 90
       50
102
RTVSPost2010PropOp50
 70
     1
102
RTVSPost2010Prop51ColorIndex
 90
      256
102
RTVSPost2010Prop51ColorRGB
 90
-16777216
102
RTVSPost2010PropOp51
 70
     0
102
RTVSPost2010Prop52
140
1.0
102
RTVSPost2010PropOp52
 70
     0
102
RTVSPost2010Prop53
 90
        2
102
RTVSPost2010PropOp53
 70
     1
102
RTVSPost2010Prop54
  1
strokes_ogs.tif
102
RTVSPost2010PropOp54
 70
     1
102
RTVSPost2010Prop55
280
     0
102
RTVSPost2010PropOp55
 70
     1
102
RTVSPost2010Prop56
140
1.0
102
RTVSPost2010PropOp56
 70
     1
102
RTVSPost2010Prop57
140
1.0
102
RTVSPost2010PropOp57
 70
     1
102
RTVSPropertyOp0
 70
     1
102
RTVSPropertyOp1
 70
     1
102
RTVSPropertyOp2
 70
     1
102
RTVSPropertyOp3
 70
     1
102
RTVSPropertyOp4
 70
     1
102
RTVSPropertyOp5
 70
     1
102
RTVSPropertyOp6
 70
     1
102
RTVSPropertyOp7
 70
     1
102
RTVSPropertyOp8
 70
     1
102
RTVSPropertyOp9
 70
     1
102
RTVSPropertyOp10
 70
     1
102
RTVSPropertyOp11
 70
     1
102
RTVSPropertyOp12
 70
     1
102
RTVSPropertyOp13
 70
     1
102
RTVSPropertyOp14
 70
     1
102
RTVSPropertyOp15
 70
     1
102
RTVSPropertyOp16
 70
     1
102
RTVSPropertyOp17
 70
     1
102
RTVSPropertyOp18
 70
     1
102
RTVSPropertyOp19
 70
     1
102
RTVSPropertyOp20
 70
     1
102
RTVSPropertyOp21
 70
     1
102
RTVSPropertyOp22
 70
     1
102
RTVSPropertyOp23
 70
     1
102
RTVSPropertyOp24
 70
     1
102
RTVSPropertyOp25
 70
     1
102
RTVSPropertyOp26
 70
     1
102
RTVSPropertyOp27
 70
     1
102
RTVSPropertyOp28
 70
     1
102
RTVSPropertyOp29
 70
     1
102
RTVSPropertyOp30
 70
     1
102
RTVSPropertyOp31
 70
     1
102
RTVSPropertyOp32
 70
     1
102
RTVSPropertyOp33
 70
     1
102
RTVSPropertyOp34
 70
     1
102
RTVSPropertyOp35
 70
     1
102
RTVSPropertyOp36
 70
     1
102
RTVSPropertyOp37
 70
     1
102
RTVSPropertyOp38
 70
     1
102
RTVSPropertyOp39
 70
     1
102
RTVSPropertyOp40
 70
     1
102
RTVSPropertyOp41
 70
     1
102
RTVSPropertyOp42
 70
     1
102
RTVSPropertyOp43
 70
     1
102
RTVSPropertyOp44
 70
     1
102
RTVSPropertyOp45
 70
     1
102
RTVSPropertyOp46
 70
     1
102
RTVSPropertyOp47
 70
     1
102
RTVSPropertyOp48
 70
     1
102
RTVSPropertyOp49
 70
     1
102
RTVSPropertyOp50
 70
     1
102
RTVSPropertyOp51
 70
     0
102
RTVSPropertyOp52
 70
     0
102
RTVSPropertyOp53
 70
     1
102
RTVSPropertyOp54
 70
     1
102
RTVSPropertyOp55
 70
     1
102
RTVSPropertyOp56
 70
     1
102
RTVSPropertyOp57
 70
     1
102
RTVSPropertyOp58
 70
     1
102
RTVSPropertyOp59
 70
     1
102
RTVSPropertyOp60
 70
     1
102
RTVSPropertyOp61
 70
     1
102
RTVSPropertyOp62
 70
     1
  0
XRECORD
  5
51C
102
{ACAD_REACTORS
330
51B
102
}
330
51B
100
AcDbXrecord
280
     1
102
RTVSPost2010Prop28
280
     0
102
RTVSPost2010PropOp28
 70
     1
102
RTVSPost2010Prop29
280
     1
102
RTVSPost2010PropOp29
 70
     1
102
RTVSPost2010Prop30
280
     1
102
RTVSPost2010PropOp30
 70
     1
102
RTVSPost2010Prop31
280
     0
102
RTVSPost2010PropOp31
 70
     1
102
RTVSPost2010Prop32
280
     0
102
RTVSPost2010PropOp32
 70
     1
102
RTVSPost2010Prop33
280
     0
102
RTVSPost2010PropOp33
 70
     1
102
RTVSPost2010Prop34
280
     0
102
RTVSPost2010PropOp34
 70
     1
102
RTVSPost2010Prop35
280
     0
102
RTVSPost2010PropOp35
 70
     1
102
RTVSPost2010Prop36
280
     0
102
RTVSPost2010PropOp36
 70
     1
102
RTVSPost2010Prop37
 90
       50
102
RTVSPost2010PropOp37
 70
     1
102
RTVSPost2010Prop38
140
0.0
102
RTVSPost2010PropOp38
 70
     1
102
RTVSPost2010Prop39
140
1.0
102
RTVSPost2010PropOp39
 70
     1
102
RTVSPost2010Prop40
 90
        0
102
RTVSPost2010PropOp40
 70
     1
102
RTVSPost2010Prop41ColorIndex
 90
       18
102
RTVSPost2010Prop41ColorRGB
 90
        0
102
RTVSPost2010PropOp41
 70
     1
102
RTVSPost2010Prop42
 90
       50
102
RTVSPost2010PropOp42
 70
     1
102
RTVSPost2010Prop43
 90
        3
102
RTVSPost2010PropOp43
 70
     1
102
RTVSPost2010Prop44ColorIndex
 90
        5
102
RTVSPost2010Prop44ColorRGB
 90
      255
102
RTVSPost2010PropOp44
 70
     1
102
RTVSPost2010Prop45
280
     0
102
RTVSPost2010PropOp45
 70
     1
102
RTVSPost2010Prop46
 90
       50
102
RTVSPost2010PropOp46
 70
     1
102
RTVSPost2010Prop47
 90
       50
102
RTVSPost2010PropOp47
 70
     1
102
RTVSPost2010Prop48
 90
       50
102
RTVSPost2010PropOp48
 70
     1
102
RTVSPost2010Prop49
280
     0
102
RTVSPost2010PropOp49
 70
     1
102
RTVSPost2010Prop50
 90
       50
102
RTVSPost2010PropOp50
 70
     1
102
RTVSPost2010Prop51ColorIndex
 90
      256
102
RTVSPost2010Prop51ColorRGB
 90
-16777216
102
RTVSPost2010PropOp51
 70
     0
102
RTVSPost2010Prop52
140
1.0
102
RTVSPost2010PropOp52
 70
     0
102
RTVSPost2010Prop53
 90
        2
102
RTVSPost2010PropOp53
 70
     1
102
RTVSPost2010Prop54
  1
strokes_ogs.tif
102
RTVSPost2010PropOp54
 70
     1
102
RTVSPost2010Prop55
280
     0
102
RTVSPost2010PropOp55
 70
     1
102
RTVSPost2010Prop56
140
1.0
102
RTVSPost2010PropOp56
 70
     1
102
RTVSPost2010Prop57
140
1.0
102
RTVSPost2010PropOp57
 70
     1
102
RTVSPropertyOp0
 70
     1
102
RTVSPropertyOp1
 70
     1
102
RTVSPropertyOp2
 70
     1
102
RTVSPropertyOp3
 70
     1
102
RTVSPropertyOp4
 70
     1
102
RTVSPropertyOp5
 70
     1
102
RTVSPropertyOp6
 70
     1
102
RTVSPropertyOp7
 70
     1
102
RTVSPropertyOp8
 70
     1
102
RTVSPropertyOp9
 70
     1
102
RTVSPropertyOp10
 70
     1
102
RTVSPropertyOp11
 70
     1
102
RTVSPropertyOp12
 70
     1
102
RTVSPropertyOp13
 70
     1
102
RTVSPropertyOp14
 70
     1
102
RTVSPropertyOp15
 70
     1
102
RTVSPropertyOp16
 70
     1
102
RTVSPropertyOp17
 70
     1
102
RTVSPropertyOp18
 70
     1
102
RTVSPropertyOp19
 70
     1
102
RTVSPropertyOp20
 70
     1
102
RTVSPropertyOp21
 70
     1
102
RTVSPropertyOp22
 70
     1
102
RTVSPropertyOp23
 70
     1
102
RTVSPropertyOp24
 70
     1
102
RTVSPropertyOp25
 70
     1
102
RTVSPropertyOp26
 70
     1
102
RTVSPropertyOp27
 70
     1
102
RTVSPropertyOp28
 70
     1
102
RTVSPropertyOp29
 70
     1
102
RTVSPropertyOp30
 70
     1
102
RTVSPropertyOp31
 70
     1
102
RTVSPropertyOp32
 70
     1
102
RTVSPropertyOp33
 70
     1
102
RTVSPropertyOp34
 70
     1
102
RTVSPropertyOp35
 70
     1
102
RTVSPropertyOp36
 70
     1
102
RTVSPropertyOp37
 70
     1
102
RTVSPropertyOp38
 70
     1
102
RTVSPropertyOp39
 70
     1
102
RTVSPropertyOp40
 70
     1
102
RTVSPropertyOp41
 70
     1
102
RTVSPropertyOp42
 70
     1
102
RTVSPropertyOp43
 70
     1
102
RTVSPropertyOp44
 70
     1
102
RTVSPropertyOp45
 70
     1
102
RTVSPropertyOp46
 70
     1
102
RTVSPropertyOp47
 70
     1
102
RTVSPropertyOp48
 70
     1
102
RTVSPropertyOp49
 70
     1
102
RTVSPropertyOp50
 70
     1
102
RTVSPropertyOp51
 70
     0
102
RTVSPropertyOp52
 70
     0
102
RTVSPropertyOp53
 70
     1
102
RTVSPropertyOp54
 70
     1
102
RTVSPropertyOp55
 70
     1
102
RTVSPropertyOp56
 70
     1
102
RTVSPropertyOp57
 70
     1
102
RTVSPropertyOp58
 70
     1
102
RTVSPropertyOp59
 70
     1
102
RTVSPropertyOp60
 70
     1
102
RTVSPropertyOp61
 70
     1
102
RTVSPropertyOp62
 70
     1
  0
XRECORD
  5
51E
102
{ACAD_REACTORS
330
51D
102
}
330
51D
100
AcDbXrecord
280
     1
102
RTVSPost2010Prop28
280
     0
102
RTVSPost2010PropOp28
 70
     1
102
RTVSPost2010Prop29
280
     1
102
RTVSPost2010PropOp29
 70
     1
102
RTVSPost2010Prop30
280
     1
102
RTVSPost2010PropOp30
 70
     1
102
RTVSPost2010Prop31
280
     0
102
RTVSPost2010PropOp31
 70
     1
102
RTVSPost2010Prop32
280
     0
102
RTVSPost2010PropOp32
 70
     1
102
RTVSPost2010Prop33
280
     0
102
RTVSPost2010PropOp33
 70
     1
102
RTVSPost2010Prop34
280
     0
102
RTVSPost2010PropOp34
 70
     1
102
RTVSPost2010Prop35
280
     0
102
RTVSPost2010PropOp35
 70
     1
102
RTVSPost2010Prop36
280
     0
102
RTVSPost2010PropOp36
 70
     1
102
RTVSPost2010Prop37
 90
       50
102
RTVSPost2010PropOp37
 70
     1
102
RTVSPost2010Prop38
140
0.0
102
RTVSPost2010PropOp38
 70
     1
102
RTVSPost2010Prop39
140
1.0
102
RTVSPost2010PropOp39
 70
     1
102
RTVSPost2010Prop40
 90
        0
102
RTVSPost2010PropOp40
 70
     1
102
RTVSPost2010Prop41ColorIndex
 90
       18
102
RTVSPost2010Prop41ColorRGB
 90
        0
102
RTVSPost2010PropOp41
 70
     1
102
RTVSPost2010Prop42
 90
       50
102
RTVSPost2010PropOp42
 70
     1
102
RTVSPost2010Prop43
 90
        3
102
RTVSPost2010PropOp43
 70
     1
102
RTVSPost2010Prop44ColorIndex
 90
        5
102
RTVSPost2010Prop44ColorRGB
 90
      255
102
RTVSPost2010PropOp44
 70
     1
102
RTVSPost2010Prop45
280
     0
102
RTVSPost2010PropOp45
 70
     1
102
RTVSPost2010Prop46
 90
       50
102
RTVSPost2010PropOp46
 70
     1
102
RTVSPost2010Prop47
 90
       50
102
RTVSPost2010PropOp47
 70
     1
102
RTVSPost2010Prop48
 90
       50
102
RTVSPost2010PropOp48
 70
     1
102
RTVSPost2010Prop49
280
     0
102
RTVSPost2010PropOp49
 70
     1
102
RTVSPost2010Prop50
 90
       50
102
RTVSPost2010PropOp50
 70
     1
102
RTVSPost2010Prop51ColorIndex
 90
      256
102
RTVSPost2010Prop51ColorRGB
 90
-16777216
102
RTVSPost2010PropOp51
 70
     0
102
RTVSPost2010Prop52
140
1.0
102
RTVSPost2010PropOp52
 70
     0
102
RTVSPost2010Prop53
 90
        2
102
RTVSPost2010PropOp53
 70
     1
102
RTVSPost2010Prop54
  1
strokes_ogs.tif
102
RTVSPost2010PropOp54
 70
     1
102
RTVSPost2010Prop55
280
     0
102
RTVSPost2010PropOp55
 70
     1
102
RTVSPost2010Prop56
140
1.0
102
RTVSPost2010PropOp56
 70
     1
102
RTVSPost2010Prop57
140
1.0
102
RTVSPost2010PropOp57
 70
     1
102
RTVSPropertyOp0
 70
     1
102
RTVSPropertyOp1
 70
     1
102
RTVSPropertyOp2
 70
     1
102
RTVSPropertyOp3
 70
     1
102
RTVSPropertyOp4
 70
     1
102
RTVSPropertyOp5
 70
     1
102
RTVSPropertyOp6
 70
     1
102
RTVSPropertyOp7
 70
     1
102
RTVSPropertyOp8
 70
     1
102
RTVSPropertyOp9
 70
     1
102
RTVSPropertyOp10
 70
     1
102
RTVSPropertyOp11
 70
     1
102
RTVSPropertyOp12
 70
     1
102
RTVSPropertyOp13
 70
     1
102
RTVSPropertyOp14
 70
     1
102
RTVSPropertyOp15
 70
     1
102
RTVSPropertyOp16
 70
     1
102
RTVSPropertyOp17
 70
     1
102
RTVSPropertyOp18
 70
     1
102
RTVSPropertyOp19
 70
     1
102
RTVSPropertyOp20
 70
     1
102
RTVSPropertyOp21
 70
     1
102
RTVSPropertyOp22
 70
     1
102
RTVSPropertyOp23
 70
     1
102
RTVSPropertyOp24
 70
     1
102
RTVSPropertyOp25
 70
     1
102
RTVSPropertyOp26
 70
     1
102
RTVSPropertyOp27
 70
     1
102
RTVSPropertyOp28
 70
     1
102
RTVSPropertyOp29
 70
     1
102
RTVSPropertyOp30
 70
     1
102
RTVSPropertyOp31
 70
     1
102
RTVSPropertyOp32
 70
     1
102
RTVSPropertyOp33
 70
     1
102
RTVSPropertyOp34
 70
     1
102
RTVSPropertyOp35
 70
     1
102
RTVSPropertyOp36
 70
     1
102
RTVSPropertyOp37
 70
     1
102
RTVSPropertyOp38
 70
     1
102
RTVSPropertyOp39
 70
     1
102
RTVSPropertyOp40
 70
     1
102
RTVSPropertyOp41
 70
     1
102
RTVSPropertyOp42
 70
     1
102
RTVSPropertyOp43
 70
     1
102
RTVSPropertyOp44
 70
     1
102
RTVSPropertyOp45
 70
     1
102
RTVSPropertyOp46
 70
     1
102
RTVSPropertyOp47
 70
     1
102
RTVSPropertyOp48
 70
     1
102
RTVSPropertyOp49
 70
     1
102
RTVSPropertyOp50
 70
     1
102
RTVSPropertyOp51
 70
     0
102
RTVSPropertyOp52
 70
     0
102
RTVSPropertyOp53
 70
     1
102
RTVSPropertyOp54
 70
     1
102
RTVSPropertyOp55
 70
     1
102
RTVSPropertyOp56
 70
     1
102
RTVSPropertyOp57
 70
     1
102
RTVSPropertyOp58
 70
     1
102
RTVSPropertyOp59
 70
     1
102
RTVSPropertyOp60
 70
     1
102
RTVSPropertyOp61
 70
     1
102
RTVSPropertyOp62
 70
     1
  0
XRECORD
  5
514
102
{ACAD_REACTORS
330
513
102
}
330
513
100
AcDbXrecord
280
     1
102
RTVSPost2010Prop28
280
     0
102
RTVSPost2010PropOp28
 70
     1
102
RTVSPost2010Prop29
280
     1
102
RTVSPost2010PropOp29
 70
     1
102
RTVSPost2010Prop30
280
     1
102
RTVSPost2010PropOp30
 70
     1
102
RTVSPost2010Prop31
280
     0
102
RTVSPost2010PropOp31
 70
     1
102
RTVSPost2010Prop32
280
     0
102
RTVSPost2010PropOp32
 70
     1
102
RTVSPost2010Prop33
280
     0
102
RTVSPost2010PropOp33
 70
     1
102
RTVSPost2010Prop34
280
     0
102
RTVSPost2010PropOp34
 70
     1
102
RTVSPost2010Prop35
280
     0
102
RTVSPost2010PropOp35
 70
     1
102
RTVSPost2010Prop36
280
     0
102
RTVSPost2010PropOp36
 70
     1
102
RTVSPost2010Prop37
 90
       50
102
RTVSPost2010PropOp37
 70
     1
102
RTVSPost2010Prop38
140
0.0
102
RTVSPost2010PropOp38
 70
     1
102
RTVSPost2010Prop39
140
1.0
102
RTVSPost2010PropOp39
 70
     1
102
RTVSPost2010Prop40
 90
        0
102
RTVSPost2010PropOp40
 70
     1
102
RTVSPost2010Prop41ColorIndex
 90
       18
102
RTVSPost2010Prop41ColorRGB
 90
        0
102
RTVSPost2010PropOp41
 70
     1
102
RTVSPost2010Prop42
 90
       50
102
RTVSPost2010PropOp42
 70
     1
102
RTVSPost2010Prop43
 90
        3
102
RTVSPost2010PropOp43
 70
     1
102
RTVSPost2010Prop44ColorIndex
 90
        5
102
RTVSPost2010Prop44ColorRGB
 90
      255
102
RTVSPost2010PropOp44
 70
     1
102
RTVSPost2010Prop45
280
     0
102
RTVSPost2010PropOp45
 70
     1
102
RTVSPost2010Prop46
 90
       50
102
RTVSPost2010PropOp46
 70
     1
102
RTVSPost2010Prop47
 90
       50
102
RTVSPost2010PropOp47
 70
     1
102
RTVSPost2010Prop48
 90
       50
102
RTVSPost2010PropOp48
 70
     1
102
RTVSPost2010Prop49
280
     0
102
RTVSPost2010PropOp49
 70
     1
102
RTVSPost2010Prop50
 90
       50
102
RTVSPost2010PropOp50
 70
     1
102
RTVSPost2010Prop51ColorIndex
 90
      256
102
RTVSPost2010Prop51ColorRGB
 90
-16777216
102
RTVSPost2010PropOp51
 70
     0
102
RTVSPost2010Prop52
140
1.0
102
RTVSPost2010PropOp52
 70
     0
102
RTVSPost2010Prop53
 90
        2
102
RTVSPost2010PropOp53
 70
     1
102
RTVSPost2010Prop54
  1
strokes_ogs.tif
102
RTVSPost2010PropOp54
 70
     1
102
RTVSPost2010Prop55
280
     0
102
RTVSPost2010PropOp55
 70
     1
102
RTVSPost2010Prop56
140
1.0
102
RTVSPost2010PropOp56
 70
     1
102
RTVSPost2010Prop57
140
1.0
102
RTVSPost2010PropOp57
 70
     1
102
RTVSPropertyOp0
 70
     1
102
RTVSPropertyOp1
 70
     1
102
RTVSPropertyOp2
 70
     1
102
RTVSPropertyOp3
 70
     1
102
RTVSPropertyOp4
 70
     1
102
RTVSPropertyOp5
 70
     1
102
RTVSPropertyOp6
 70
     1
102
RTVSPropertyOp7
 70
     1
102
RTVSPropertyOp8
 70
     1
102
RTVSPropertyOp9
 70
     1
102
RTVSPropertyOp10
 70
     1
102
RTVSPropertyOp11
 70
     1
102
RTVSPropertyOp12
 70
     1
102
RTVSPropertyOp13
 70
     1
102
RTVSPropertyOp14
 70
     1
102
RTVSPropertyOp15
 70
     1
102
RTVSPropertyOp16
 70
     1
102
RTVSPropertyOp17
 70
     1
102
RTVSPropertyOp18
 70
     1
102
RTVSPropertyOp19
 70
     1
102
RTVSPropertyOp20
 70
     1
102
RTVSPropertyOp21
 70
     1
102
RTVSPropertyOp22
 70
     1
102
RTVSPropertyOp23
 70
     1
102
RTVSPropertyOp24
 70
     1
102
RTVSPropertyOp25
 70
     1
102
RTVSPropertyOp26
 70
     1
102
RTVSPropertyOp27
 70
     1
102
RTVSPropertyOp28
 70
     1
102
RTVSPropertyOp29
 70
     1
102
RTVSPropertyOp30
 70
     1
102
RTVSPropertyOp31
 70
     1
102
RTVSPropertyOp32
 70
     1
102
RTVSPropertyOp33
 70
     1
102
RTVSPropertyOp34
 70
     1
102
RTVSPropertyOp35
 70
     1
102
RTVSPropertyOp36
 70
     1
102
RTVSPropertyOp37
 70
     1
102
RTVSPropertyOp38
 70
     1
102
RTVSPropertyOp39
 70
     1
102
RTVSPropertyOp40
 70
     1
102
RTVSPropertyOp41
 70
     1
102
RTVSPropertyOp42
 70
     1
102
RTVSPropertyOp43
 70
     1
102
RTVSPropertyOp44
 70
     1
102
RTVSPropertyOp45
 70
     1
102
RTVSPropertyOp46
 70
     1
102
RTVSPropertyOp47
 70
     1
102
RTVSPropertyOp48
 70
     1
102
RTVSPropertyOp49
 70
     1
102
RTVSPropertyOp50
 70
     1
102
RTVSPropertyOp51
 70
     0
102
RTVSPropertyOp52
 70
     0
102
RTVSPropertyOp53
 70
     1
102
RTVSPropertyOp54
 70
     1
102
RTVSPropertyOp55
 70
     1
102
RTVSPropertyOp56
 70
     1
102
RTVSPropertyOp57
 70
     1
102
RTVSPropertyOp58
 70
     1
102
RTVSPropertyOp59
 70
     1
102
RTVSPropertyOp60
 70
     1
102
RTVSPropertyOp61
 70
     1
102
RTVSPropertyOp62
 70
     1
  0
XRECORD
  5
508
102
{ACAD_REACTORS
330
507
102
}
330
507
100
AcDbXrecord
280
     1
102
RTVSPost2010Prop28
280
     0
102
RTVSPost2010PropOp28
 70
     1
102
RTVSPost2010Prop29
280
     1
102
RTVSPost2010PropOp29
 70
     1
102
RTVSPost2010Prop30
280
     1
102
RTVSPost2010PropOp30
 70
     1
102
RTVSPost2010Prop31
280
     0
102
RTVSPost2010PropOp31
 70
     1
102
RTVSPost2010Prop32
280
     0
102
RTVSPost2010PropOp32
 70
     1
102
RTVSPost2010Prop33
280
     0
102
RTVSPost2010PropOp33
 70
     1
102
RTVSPost2010Prop34
280
     0
102
RTVSPost2010PropOp34
 70
     1
102
RTVSPost2010Prop35
280
     0
102
RTVSPost2010PropOp35
 70
     1
102
RTVSPost2010Prop36
280
     0
102
RTVSPost2010PropOp36
 70
     1
102
RTVSPost2010Prop37
 90
       50
102
RTVSPost2010PropOp37
 70
     1
102
RTVSPost2010Prop38
140
0.0
102
RTVSPost2010PropOp38
 70
     1
102
RTVSPost2010Prop39
140
1.0
102
RTVSPost2010PropOp39
 70
     1
102
RTVSPost2010Prop40
 90
        0
102
RTVSPost2010PropOp40
 70
     1
102
RTVSPost2010Prop41ColorIndex
 90
       18
102
RTVSPost2010Prop41ColorRGB
 90
        0
102
RTVSPost2010PropOp41
 70
     1
102
RTVSPost2010Prop42
 90
       50
102
RTVSPost2010PropOp42
 70
     1
102
RTVSPost2010Prop43
 90
        3
102
RTVSPost2010PropOp43
 70
     1
102
RTVSPost2010Prop44ColorIndex
 90
        5
102
RTVSPost2010Prop44ColorRGB
 90
      255
102
RTVSPost2010PropOp44
 70
     1
102
RTVSPost2010Prop45
280
     0
102
RTVSPost2010PropOp45
 70
     1
102
RTVSPost2010Prop46
 90
       50
102
RTVSPost2010PropOp46
 70
     1
102
RTVSPost2010Prop47
 90
       50
102
RTVSPost2010PropOp47
 70
     1
102
RTVSPost2010Prop48
 90
       50
102
RTVSPost2010PropOp48
 70
     1
102
RTVSPost2010Prop49
280
     0
102
RTVSPost2010PropOp49
 70
     1
102
RTVSPost2010Prop50
 90
       50
102
RTVSPost2010PropOp50
 70
     1
102
RTVSPost2010Prop51ColorIndex
 90
      256
102
RTVSPost2010Prop51ColorRGB
 90
-16777216
102
RTVSPost2010PropOp51
 70
     0
102
RTVSPost2010Prop52
140
1.0
102
RTVSPost2010PropOp52
 70
     0
102
RTVSPost2010Prop53
 90
        2
102
RTVSPost2010PropOp53
 70
     1
102
RTVSPost2010Prop54
  1
strokes_ogs.tif
102
RTVSPost2010PropOp54
 70
     1
102
RTVSPost2010Prop55
280
     0
102
RTVSPost2010PropOp55
 70
     1
102
RTVSPost2010Prop56
140
1.0
102
RTVSPost2010PropOp56
 70
     1
102
RTVSPost2010Prop57
140
1.0
102
RTVSPost2010PropOp57
 70
     1
102
RTVSPropertyOp0
 70
     1
102
RTVSPropertyOp1
 70
     1
102
RTVSPropertyOp2
 70
     1
102
RTVSPropertyOp3
 70
     1
102
RTVSPropertyOp4
 70
     1
102
RTVSPropertyOp5
 70
     1
102
RTVSPropertyOp6
 70
     1
102
RTVSPropertyOp7
 70
     1
102
RTVSPropertyOp8
 70
     1
102
RTVSPropertyOp9
 70
     1
102
RTVSPropertyOp10
 70
     1
102
RTVSPropertyOp11
 70
     1
102
RTVSPropertyOp12
 70
     1
102
RTVSPropertyOp13
 70
     1
102
RTVSPropertyOp14
 70
     1
102
RTVSPropertyOp15
 70
     1
102
RTVSPropertyOp16
 70
     1
102
RTVSPropertyOp17
 70
     1
102
RTVSPropertyOp18
 70
     1
102
RTVSPropertyOp19
 70
     1
102
RTVSPropertyOp20
 70
     1
102
RTVSPropertyOp21
 70
     1
102
RTVSPropertyOp22
 70
     1
102
RTVSPropertyOp23
 70
     1
102
RTVSPropertyOp24
 70
     1
102
RTVSPropertyOp25
 70
     1
102
RTVSPropertyOp26
 70
     1
102
RTVSPropertyOp27
 70
     1
102
RTVSPropertyOp28
 70
     1
102
RTVSPropertyOp29
 70
     1
102
RTVSPropertyOp30
 70
     1
102
RTVSPropertyOp31
 70
     1
102
RTVSPropertyOp32
 70
     1
102
RTVSPropertyOp33
 70
     1
102
RTVSPropertyOp34
 70
     1
102
RTVSPropertyOp35
 70
     1
102
RTVSPropertyOp36
 70
     1
102
RTVSPropertyOp37
 70
     1
102
RTVSPropertyOp38
 70
     1
102
RTVSPropertyOp39
 70
     1
102
RTVSPropertyOp40
 70
     1
102
RTVSPropertyOp41
 70
     1
102
RTVSPropertyOp42
 70
     1
102
RTVSPropertyOp43
 70
     1
102
RTVSPropertyOp44
 70
     1
102
RTVSPropertyOp45
 70
     1
102
RTVSPropertyOp46
 70
     1
102
RTVSPropertyOp47
 70
     1
102
RTVSPropertyOp48
 70
     1
102
RTVSPropertyOp49
 70
     1
102
RTVSPropertyOp50
 70
     1
102
RTVSPropertyOp51
 70
     0
102
RTVSPropertyOp52
 70
     0
102
RTVSPropertyOp53
 70
     1
102
RTVSPropertyOp54
 70
     1
102
RTVSPropertyOp55
 70
     1
102
RTVSPropertyOp56
 70
     1
102
RTVSPropertyOp57
 70
     1
102
RTVSPropertyOp58
 70
     1
102
RTVSPropertyOp59
 70
     1
102
RTVSPropertyOp60
 70
     1
102
RTVSPropertyOp61
 70
     1
102
RTVSPropertyOp62
 70
     1
  0
XRECORD
  5
520
102
{ACAD_REACTORS
330
51F
102
}
330
51F
100
AcDbXrecord
280
     1
102
RTVSPost2010Prop28
280
     0
102
RTVSPost2010PropOp28
 70
     1
102
RTVSPost2010Prop29
280
     1
102
RTVSPost2010PropOp29
 70
     1
102
RTVSPost2010Prop30
280
     1
102
RTVSPost2010PropOp30
 70
     1
102
RTVSPost2010Prop31
280
     0
102
RTVSPost2010PropOp31
 70
     1
102
RTVSPost2010Prop32
280
     0
102
RTVSPost2010PropOp32
 70
     1
102
RTVSPost2010Prop33
280
     0
102
RTVSPost2010PropOp33
 70
     1
102
RTVSPost2010Prop34
280
     0
102
RTVSPost2010PropOp34
 70
     1
102
RTVSPost2010Prop35
280
     0
102
RTVSPost2010PropOp35
 70
     1
102
RTVSPost2010Prop36
280
     0
102
RTVSPost2010PropOp36
 70
     1
102
RTVSPost2010Prop37
 90
       50
102
RTVSPost2010PropOp37
 70
     1
102
RTVSPost2010Prop38
140
0.0
102
RTVSPost2010PropOp38
 70
     1
102
RTVSPost2010Prop39
140
1.0
102
RTVSPost2010PropOp39
 70
     1
102
RTVSPost2010Prop40
 90
        0
102
RTVSPost2010PropOp40
 70
     1
102
RTVSPost2010Prop41ColorIndex
 90
       18
102
RTVSPost2010Prop41ColorRGB
 90
        0
102
RTVSPost2010PropOp41
 70
     1
102
RTVSPost2010Prop42
 90
       50
102
RTVSPost2010PropOp42
 70
     1
102
RTVSPost2010Prop43
 90
        3
102
RTVSPost2010PropOp43
 70
     1
102
RTVSPost2010Prop44ColorIndex
 90
        5
102
RTVSPost2010Prop44ColorRGB
 90
      255
102
RTVSPost2010PropOp44
 70
     1
102
RTVSPost2010Prop45
280
     0
102
RTVSPost2010PropOp45
 70
     1
102
RTVSPost2010Prop46
 90
       50
102
RTVSPost2010PropOp46
 70
     1
102
RTVSPost2010Prop47
 90
       50
102
RTVSPost2010PropOp47
 70
     1
102
RTVSPost2010Prop48
 90
       50
102
RTVSPost2010PropOp48
 70
     1
102
RTVSPost2010Prop49
280
     0
102
RTVSPost2010PropOp49
 70
     1
102
RTVSPost2010Prop50
 90
       50
102
RTVSPost2010PropOp50
 70
     1
102
RTVSPost2010Prop51ColorIndex
 90
      256
102
RTVSPost2010Prop51ColorRGB
 90
-16777216
102
RTVSPost2010PropOp51
 70
     0
102
RTVSPost2010Prop52
140
1.0
102
RTVSPost2010PropOp52
 70
     0
102
RTVSPost2010Prop53
 90
        2
102
RTVSPost2010PropOp53
 70
     1
102
RTVSPost2010Prop54
  1
strokes_ogs.tif
102
RTVSPost2010PropOp54
 70
     1
102
RTVSPost2010Prop55
280
     0
102
RTVSPost2010PropOp55
 70
     1
102
RTVSPost2010Prop56
140
1.0
102
RTVSPost2010PropOp56
 70
     1
102
RTVSPost2010Prop57
140
1.0
102
RTVSPost2010PropOp57
 70
     1
102
RTVSPropertyOp0
 70
     1
102
RTVSPropertyOp1
 70
     1
102
RTVSPropertyOp2
 70
     1
102
RTVSPropertyOp3
 70
     1
102
RTVSPropertyOp4
 70
     1
102
RTVSPropertyOp5
 70
     1
102
RTVSPropertyOp6
 70
     1
102
RTVSPropertyOp7
 70
     1
102
RTVSPropertyOp8
 70
     1
102
RTVSPropertyOp9
 70
     1
102
RTVSPropertyOp10
 70
     1
102
RTVSPropertyOp11
 70
     1
102
RTVSPropertyOp12
 70
     1
102
RTVSPropertyOp13
 70
     1
102
RTVSPropertyOp14
 70
     1
102
RTVSPropertyOp15
 70
     1
102
RTVSPropertyOp16
 70
     1
102
RTVSPropertyOp17
 70
     1
102
RTVSPropertyOp18
 70
     1
102
RTVSPropertyOp19
 70
     1
102
RTVSPropertyOp20
 70
     1
102
RTVSPropertyOp21
 70
     1
102
RTVSPropertyOp22
 70
     1
102
RTVSPropertyOp23
 70
     1
102
RTVSPropertyOp24
 70
     1
102
RTVSPropertyOp25
 70
     1
102
RTVSPropertyOp26
 70
     1
102
RTVSPropertyOp27
 70
     1
102
RTVSPropertyOp28
 70
     1
102
RTVSPropertyOp29
 70
     1
102
RTVSPropertyOp30
 70
     1
102
RTVSPropertyOp31
 70
     1
102
RTVSPropertyOp32
 70
     1
102
RTVSPropertyOp33
 70
     1
102
RTVSPropertyOp34
 70
     1
102
RTVSPropertyOp35
 70
     1
102
RTVSPropertyOp36
 70
     1
102
RTVSPropertyOp37
 70
     1
102
RTVSPropertyOp38
 70
     1
102
RTVSPropertyOp39
 70
     1
102
RTVSPropertyOp40
 70
     1
102
RTVSPropertyOp41
 70
     1
102
RTVSPropertyOp42
 70
     1
102
RTVSPropertyOp43
 70
     1
102
RTVSPropertyOp44
 70
     1
102
RTVSPropertyOp45
 70
     1
102
RTVSPropertyOp46
 70
     1
102
RTVSPropertyOp47
 70
     1
102
RTVSPropertyOp48
 70
     1
102
RTVSPropertyOp49
 70
     1
102
RTVSPropertyOp50
 70
     1
102
RTVSPropertyOp51
 70
     0
102
RTVSPropertyOp52
 70
     0
102
RTVSPropertyOp53
 70
     1
102
RTVSPropertyOp54
 70
     1
102
RTVSPropertyOp55
 70
     1
102
RTVSPropertyOp56
 70
     1
102
RTVSPropertyOp57
 70
     1
102
RTVSPropertyOp58
 70
     1
102
RTVSPropertyOp59
 70
     1
102
RTVSPropertyOp60
 70
     1
102
RTVSPropertyOp61
 70
     1
102
RTVSPropertyOp62
 70
     1
  0
ENDSEC
  0
EOF
