  0
SECTION
  2
HEADER
  9
$ACADVER
  1
AC1015
  9
$ACADMAINTVER
 70
    20
  9
$DWGCODEPAGE
  3
ANSI_932
  9
$INSBASE
 10
0.0
 20
0.0
 30
0.0
  9
$EXTMIN
 10
0.0
 20
0.0
 30
0.0
  9
$EXTMAX
 10
4200.0
 20
2970.0
 30
0.0
  9
$LIMMIN
 10
0.0
 20
0.0
  9
$LIMMAX
 10
12.0
 20
9.0
  9
$ORTHOMODE
 70
     0
  9
$REGENMODE
 70
     1
  9
$FILLMODE
 70
     1
  9
$QTEXTMODE
 70
     0
  9
$MIRRTEXT
 70
     0
  9
$LTSCALE
 40
10.0
  9
$ATTMODE
 70
     1
  9
$TEXTSIZE
 40
0.0
  9
$TRACEWID
 40
0.05
  9
$TEXTSTYLE
  7
STANDARD
  9
$CLAYER
  8
0
  9
$CELTYPE
  6
CONTINUOUS
  9
$CECOLOR
 62
   256
  9
$CELTSCALE
 40
1.0
  9
$DISPSILH
 70
     0
  9
$DIMSCALE
 40
1.0
  9
$DIMASZ
 40
0.18
  9
$DIMEXO
 40
0.0625
  9
$DIMDLI
 40
0.38
  9
$DIMRND
 40
0.0
  9
$DIMDLE
 40
0.0
  9
$DIMEXE
 40
0.18
  9
$DIMTP
 40
0.0
  9
$DIMTM
 40
0.0
  9
$DIMTXT
 40
0.18
  9
$DIMCEN
 40
0.09
  9
$DIMTSZ
 40
0.0
  9
$DIMTOL
 70
     0
  9
$DIMLIM
 70
     0
  9
$DIMTIH
 70
     1
  9
$DIMTOH
 70
     1
  9
$DIMSE1
 70
     0
  9
$DIMSE2
 70
     0
  9
$DIMTAD
 70
     0
  9
$DIMZIN
 70
     0
  9
$DIMBLK
  1

  9
$DIMASO
 70
     1
  9
$DIMSHO
 70
     1
  9
$DIMPOST
  1

  9
$DIMAPOST
  1

  9
$DIMALT
 70
     0
  9
$DIMALTD
 70
     2
  9
$DIMALTF
 40
25.4
  9
$DIMLFAC
 40
1.0
  9
$DIMTOFL
 70
     0
  9
$DIMTVP
 40
0.0
  9
$DIMTIX
 70
     0
  9
$DIMSOXD
 70
     0
  9
$DIMSAH
 70
     0
  9
$DIMBLK1
  1

  9
$DIMBLK2
  1

  9
$DIMSTYLE
  2
Standard
  9
$DIMCLRD
 70
     0
  9
$DIMCLRE
 70
     0
  9
$DIMCLRT
 70
     0
  9
$DIMTFAC
 40
1.0
  9
$DIMGAP
 40
0.09
  9
$DIMJUST
 70
     0
  9
$DIMSD1
 70
     0
  9
$DIMSD2
 70
     0
  9
$DIMTOLJ
 70
     1
  9
$DIMTZIN
 70
     0
  9
$DIMALTZ
 70
     0
  9
$DIMALTTZ
 70
     0
  9
$DIMUPT
 70
     0
  9
$DIMDEC
 70
     4
  9
$DIMTDEC
 70
     4
  9
$DIMALTU
 70
     2
  9
$DIMALTTD
 70
     2
  9
$DIMTXSTY
  7
STANDARD
  9
$DIMAUNIT
 70
     0
  9
$DIMADEC
 70
     0
  9
$DIMALTRND
 40
0.0
  9
$DIMAZIN
 70
     0
  9
$DIMDSEP
 70
    46
  9
$DIMATFIT
 70
     3
  9
$DIMFRAC
 70
     0
  9
$DIMLDRBLK
  1

  9
$DIMLUNIT
 70
     2
  9
$DIMLWD
 70
    -2
  9
$DIMLWE
 70
    -2
  9
$DIMTMOVE
 70
     0
  9
$LUNITS
 70
     2
  9
$LUPREC
 70
     4
  9
$SKETCHINC
 40
0.1
  9
$FILLETRAD
 40
0.0
  9
$AUNITS
 70
     0
  9
$AUPREC
 70
     0
  9
$MENU
  1
.
  9
$ELEVATION
 40
0.0
  9
$PELEVATION
 40
0.0
  9
$THICKNESS
 40
0.0
  9
$LIMCHECK
 70
     0
  9
$CHAMFERA
 40
0.0
  9
$CHAMFERB
 40
0.0
  9
$CHAMFERC
 40
0.0
  9
$CHAMFERD
 40
0.0
  9
$SKPOLY
 70
     0
  9
$TDCREATE
 40
2459642.747743056
  9
$TDUCREATE
 40
2459642.372743056
  9
$TDUPDATE
 40
2459642.748287037
  9
$TDUUPDATE
 40
2459642.373287037
  9
$TDINDWG
 40
0.0005439815
  9
$TDUSRTIMER
 40
0.0005439815
  9
$USRTIMER
 70
     1
  9
$ANGBASE
 50
0.0
  9
$ANGDIR
 70
     0
  9
$PDMODE
 70
     0
  9
$PDSIZE
 40
5.0
  9
$PLINEWID
 40
0.0
  9
$SPLFRAME
 70
     0
  9
$SPLINETYPE
 70
     6
  9
$SPLINESEGS
 70
     8
  9
$HANDSEED
  5
4AB
  9
$SURFTAB1
 70
     6
  9
$SURFTAB2
 70
     6
  9
$SURFTYPE
 70
     6
  9
$SURFU
 70
     6
  9
$SURFV
 70
     6
  9
$UCSBASE
  2

  9
$UCSNAME
  2

  9
$UCSORG
 10
0.0
 20
0.0
 30
0.0
  9
$UCSXDIR
 10
1.0
 20
0.0
 30
0.0
  9
$UCSYDIR
 10
0.0
 20
1.0
 30
0.0
  9
$UCSORTHOREF
  2

  9
$UCSORTHOVIEW
 70
     0
  9
$UCSORGTOP
 10
0.0
 20
0.0
 30
0.0
  9
$UCSORGBOTTOM
 10
0.0
 20
0.0
 30
0.0
  9
$UCSORGLEFT
 10
0.0
 20
0.0
 30
0.0
  9
$UCSORGRIGHT
 10
0.0
 20
0.0
 30
0.0
  9
$UCSORGFRONT
 10
0.0
 20
0.0
 30
0.0
  9
$UCSORGBACK
 10
0.0
 20
0.0
 30
0.0
  9
$PUCSBASE
  2

  9
$PUCSNAME
  2

  9
$PUCSORG
 10
0.0
 20
0.0
 30
0.0
  9
$PUCSXDIR
 10
1.0
 20
0.0
 30
0.0
  9
$PUCSYDIR
 10
0.0
 20
1.0
 30
0.0
  9
$PUCSORTHOREF
  2

  9
$PUCSORTHOVIEW
 70
     0
  9
$PUCSORGTOP
 10
0.0
 20
0.0
 30
0.0
  9
$PUCSORGBOTTOM
 10
0.0
 20
0.0
 30
0.0
  9
$PUCSORGLEFT
 10
0.0
 20
0.0
 30
0.0
  9
$PUCSORGRIGHT
 10
0.0
 20
0.0
 30
0.0
  9
$PUCSORGFRONT
 10
0.0
 20
0.0
 30
0.0
  9
$PUCSORGBACK
 10
0.0
 20
0.0
 30
0.0
  9
$USERI1
 70
     0
  9
$USERI2
 70
     0
  9
$USERI3
 70
     0
  9
$USERI4
 70
     0
  9
$USERI5
 70
     0
  9
$USERR1
 40
0.0
  9
$USERR2
 40
0.0
  9
$USERR3
 40
0.0
  9
$USERR4
 40
0.0
  9
$USERR5
 40
0.0
  9
$WORLDVIEW
 70
     1
  9
$SHADEDGE
 70
     3
  9
$SHADEDIF
 70
    70
  9
$TILEMODE
 70
     1
  9
$MAXACTVP
 70
    64
  9
$PINSBASE
 10
0.0
 20
0.0
 30
0.0
  9
$PLIMCHECK
 70
     0
  9
$PEXTMIN
 10
1.000000000000000E+20
 20
1.000000000000000E+20
 30
1.000000000000000E+20
  9
$PEXTMAX
 10
-1.000000000000000E+20
 20
-1.000000000000000E+20
 30
-1.000000000000000E+20
  9
$PLIMMIN
 10
0.0
 20
0.0
  9
$PLIMMAX
 10
12.0
 20
9.0
  9
$UNITMODE
 70
     0
  9
$VISRETAIN
 70
     1
  9
$PLINEGEN
 70
     0
  9
$PSLTSCALE
 70
     1
  9
$TREEDEPTH
 70
  3020
  9
$CMLSTYLE
  2
Standard
  9
$CMLJUST
 70
     0
  9
$CMLSCALE
 40
1.0
  9
$PROXYGRAPHICS
 70
     1
  9
$MEASUREMENT
 70
     0
  9
$CELWEIGHT
370
    -1
  9
$ENDCAPS
280
     0
  9
$JOINSTYLE
280
     0
  9
$LWDISPLAY
290
     0
  9
$INSUNITS
 70
     0
  9
$HYPERLINKBASE
  1

  9
$STYLESHEET
  1

  9
$XEDIT
290
     1
  9
$CEPSNTYPE
380
     0
  9
$PSTYLEMODE
290
     1
  9
$FINGERPRINTGUID
  2
{C6924BCB-0227-A743-BA8A-C8F6E16262F9}
  9
$VERSIONGUID
  2
{DFC4D706-1E53-0847-A12F-B353146208BC}
  9
$EXTNAMES
290
     1
  9
$PSVPSCALE
 40
0.0
  9
$OLESTARTUP
290
     0
  0
ENDSEC
  0
SECTION
  2
CLASSES
  0
CLASS
  1
ACDBDICTIONARYWDFLT
  2
AcDbDictionaryWithDefault
  3
ObjectDBX Classes
 90
        0
280
     0
281
     0
  0
CLASS
  1
MATERIAL
  2
AcDbMaterial
  3
ObjectDBX Classes
 90
     1153
280
     0
281
     0
  0
CLASS
  1
VISUALSTYLE
  2
AcDbVisualStyle
  3
ObjectDBX Classes
 90
     4095
280
     0
281
     0
  0
CLASS
  1
SCALE
  2
AcDbScale
  3
ObjectDBX Classes
 90
     1153
280
     0
281
     0
  0
CLASS
  1
TABLESTYLE
  2
AcDbTableStyle
  3
ObjectDBX Classes
 90
     4095
280
     0
281
     0
  0
CLASS
  1
MLEADERSTYLE
  2
AcDbMLeaderStyle
  3
ACDB_MLEADERSTYLE_CLASS
 90
     4095
280
     0
281
     0
  0
CLASS
  1
ACDBSECTIONVIEWSTYLE
  2
AcDbSectionViewStyle
  3
ObjectDBX Classes
 90
     1025
280
     0
281
     0
  0
CLASS
  1
ACDBDETAILVIEWSTYLE
  2
AcDbDetailViewStyle
  3
ObjectDBX Classes
 90
     1025
280
     0
281
     0
  0
CLASS
  1
DICTIONARYVAR
  2
AcDbDictionaryVar
  3
ObjectDBX Classes
 90
        0
280
     0
281
     0
  0
CLASS
  1
CELLSTYLEMAP
  2
AcDbCellStyleMap
  3
ObjectDBX Classes
 90
     1152
280
     0
281
     0
  0
CLASS
  1
ACDBPLACEHOLDER
  2
AcDbPlaceHolder
  3
ObjectDBX Classes
 90
        0
280
     0
281
     0
  0
CLASS
  1
LAYOUT
  2
AcDbLayout
  3
ObjectDBX Classes
 90
        0
280
     0
281
     0
  0
ENDSEC
  0
SECTION
  2
TABLES
  0
TABLE
  2
VPORT
  5
8
330
0
100
AcDbSymbolTable
 70
     1
  0
VPORT
  5
8C
330
8
100
AcDbSymbolTableRecord
100
AcDbViewportTableRecord
  2
*Active
 70
     0
 10
0.0
 20
0.0
 11
1.0
 21
1.0
 12
2481.784802575047
 22
1423.014800555113
 13
0.0
 23
0.0
 14
1.0
 24
1.0
 15
0.0
 25
0.0
 16
0.0
 26
0.0
 36
1.0
 17
0.0
 27
0.0
 37
0.0
 40
3904.4467997213
 41
2.288647342995169
 42
50.0
 43
0.0
 44
0.0
 50
0.0
 51
0.0
 71
     0
 72
   100
 73
     1
 74
     0
 75
     1
 76
     0
 77
     0
 78
     0
281
     0
 65
     1
110
0.0
120
0.0
130
0.0
111
1.0
121
0.0
131
0.0
112
0.0
122
1.0
132
0.0
 79
     0
146
0.0
1001
ACAD_NAV_VCDISPLAY
1070
     3
  0
ENDTAB
  0
TABLE
  2
LTYPE
  5
5
330
0
100
AcDbSymbolTable
 70
     9
  0
LTYPE
  5
5A
330
5
100
AcDbSymbolTableRecord
100
AcDbLinetypeTableRecord
  2
ByBlock
 70
     0
  3

 72
    65
 73
     0
 40
0.0
  0
LTYPE
  5
5B
330
5
100
AcDbSymbolTableRecord
100
AcDbLinetypeTableRecord
  2
ByLayer
 70
     0
  3

 72
    65
 73
     0
 40
0.0
  0
LTYPE
  5
5C
330
5
100
AcDbSymbolTableRecord
100
AcDbLinetypeTableRecord
  2
CONTINUOUS
 70
     0
  3
SolidLine
 72
    65
 73
     0
 40
0.0
  0
LTYPE
  5
73
330
5
100
AcDbSymbolTableRecord
100
AcDbLinetypeTableRecord
  2
DOT
 70
     0
  3
--  --  --  --  --  --  --  --     
 72
    65
 73
     2
 40
3.0
 49
1.0
 74
     0
 49
-2.0
 74
     0
  0
LTYPE
  5
74
330
5
100
AcDbSymbolTableRecord
100
AcDbLinetypeTableRecord
  2
DASHED
 70
     0
  3
----    ----    ----    ----    
 72
    65
 73
     2
 40
5.0
 49
2.0
 74
     0
 49
-3.0
 74
     0
  0
LTYPE
  5
75
330
5
100
AcDbSymbolTableRecord
100
AcDbLinetypeTableRecord
  2
DASHED2
 70
     0
  3
------  ------  ------  ------ 
 72
    65
 73
     2
 40
10.0
 49
4.0
 74
     0
 49
-6.0
 74
     0
  0
LTYPE
  5
76
330
5
100
AcDbSymbolTableRecord
100
AcDbLinetypeTableRecord
  2
CENTER
 70
     0
  3
----- - ----- - ----- - ----- - 
 72
    65
 73
     4
 40
10.0
 49
6.0
 74
     0
 49
-3.0
 74
     0
 49
1.0
 74
     0
 49
-3.0
 74
     0
  0
LTYPE
  5
77
330
5
100
AcDbSymbolTableRecord
100
AcDbLinetypeTableRecord
  2
CENTER2
 70
     0
  3
----------  --  ----------  -- 
 72
    65
 73
     4
 40
17.0
 49
12.0
 74
     0
 49
-5.0
 74
     0
 49
2.0
 74
     0
 49
-5.0
 74
     0
  0
LTYPE
  5
78
330
5
100
AcDbSymbolTableRecord
100
AcDbLinetypeTableRecord
  2
PHANTOM
 70
     0
  3
--- - - --- - - --- - - --- - -
 72
    65
 73
     6
 40
13.0
 49
5.0
 74
     0
 49
-3.0
 74
     0
 49
1.0
 74
     0
 49
-3.0
 74
     0
 49
1.0
 74
     0
 49
-3.0
 74
     0
  0
LTYPE
  5
79
330
5
100
AcDbSymbolTableRecord
100
AcDbLinetypeTableRecord
  2
PHANTOM2
 70
     0
  3
--------  -  -  --------  -  -
 72
    65
 73
     6
 40
20.0
 49
6.0
 74
     0
 49
-5.0
 74
     0
 49
2.0
 74
     0
 49
-5.0
 74
     0
 49
2.0
 74
     0
 49
-5.0
 74
     0
  0
LTYPE
  5
7A
330
5
100
AcDbSymbolTableRecord
100
AcDbLinetypeTableRecord
  2
HIDDEN
 70
     0
  3
-   -   -   -   -   -   -   -   
 72
    65
 73
     2
 40
3.0
 49
0.5
 74
     0
 49
-2.5
 74
     0
  0
ENDTAB
  0
TABLE
  2
LAYER
  5
2
330
0
100
AcDbSymbolTable
 70
    11
  0
LAYER
  5
54
102
{ACAD_XDICTIONARY
360
449
102
}
330
2
100
AcDbSymbolTableRecord
100
AcDbLayerTableRecord
  2
0
 70
     0
 62
     7
  6
CONTINUOUS
370
    -3
390
F
  0
LAYER
  5
7F
102
{ACAD_XDICTIONARY
360
44B
102
}
330
2
100
AcDbSymbolTableRecord
100
AcDbLayerTableRecord
  2
2-0
 70
     0
 62
     7
  6
CONTINUOUS
370
    -3
390
F
  0
LAYER
  5
80
102
{ACAD_XDICTIONARY
360
44D
102
}
330
2
100
AcDbSymbolTableRecord
100
AcDbLayerTableRecord
  2
4-0
 70
     0
 62
    -7
  6
CONTINUOUS
370
    -3
390
F
  0
LAYER
  5
81
102
{ACAD_XDICTIONARY
360
44F
102
}
330
2
100
AcDbSymbolTableRecord
100
AcDbLayerTableRecord
  2
5-0
 70
     0
 62
    -7
  6
CONTINUOUS
370
    -3
390
F
  0
LAYER
  5
82
102
{ACAD_XDICTIONARY
360
451
102
}
330
2
100
AcDbSymbolTableRecord
100
AcDbLayerTableRecord
  2
6-0
 70
     0
 62
     7
  6
CONTINUOUS
370
    -3
390
F
  0
LAYER
  5
83
102
{ACAD_XDICTIONARY
360
453
102
}
330
2
100
AcDbSymbolTableRecord
100
AcDbLayerTableRecord
  2
8-0
 70
     0
 62
     7
  6
CONTINUOUS
370
    -3
390
F
  0
LAYER
  5
84
102
{ACAD_XDICTIONARY
360
455
102
}
330
2
100
AcDbSymbolTableRecord
100
AcDbLayerTableRecord
  2
9-0
 70
     0
 62
     1
  6
CONTINUOUS
370
    -3
390
F
  0
LAYER
  5
85
102
{ACAD_XDICTIONARY
360
457
102
}
330
2
100
AcDbSymbolTableRecord
100
AcDbLayerTableRecord
  2
A-0
 70
     0
 62
     6
  6
CENTER
370
    -3
390
F
  0
LAYER
  5
86
102
{ACAD_XDICTIONARY
360
459
102
}
330
2
100
AcDbSymbolTableRecord
100
AcDbLayerTableRecord
  2
C-0
 70
     0
 62
     4
  6
CONTINUOUS
370
    -3
390
F
  0
LAYER
  5
87
102
{ACAD_XDICTIONARY
360
45B
102
}
330
2
100
AcDbSymbolTableRecord
100
AcDbLayerTableRecord
  2
D-0
 70
     0
 62
     5
  6
CONTINUOUS
370
    -3
390
F
  0
LAYER
  5
8D
102
{ACAD_XDICTIONARY
360
45D
102
}
330
2
100
AcDbSymbolTableRecord
100
AcDbLayerTableRecord
  2
1-0
 70
     0
 62
     7
  6
CONTINUOUS
370
    -3
390
F
  0
ENDTAB
  0
TABLE
  2
STYLE
  5
3
330
0
100
AcDbSymbolTable
 70
     6
  0
STYLE
  5
55
330
3
100
AcDbSymbolTableRecord
100
AcDbTextStyleTableRecord
  2
STANDARD
 70
     0
 40
0.0
 41
1.0
 50
0.0
 71
     0
 42
0.0
  3
txt.shx
  4
extfont.shx
  0
STYLE
  5
59
330
3
100
AcDbSymbolTableRecord
100
AcDbTextStyleTableRecord
  2
Annotative
 70
     0
 40
0.0
 41
1.0
 50
0.0
 71
     0
 42
0.2
  3
txt
  4

1001
AcadAnnotative
1000
AnnotativeData
1002
{
1070
     1
1070
     1
1002
}
  0
STYLE
  5
7B
330
3
100
AcDbSymbolTableRecord
100
AcDbTextStyleTableRecord
  2
TATEGAKI
 70
     4
 40
0.0
 41
1.0
 50
0.0
 71
     0
 42
0.0
  3
txt.shx
  4
extfont.shx
  0
STYLE
  5
7C
330
3
100
AcDbSymbolTableRecord
100
AcDbTextStyleTableRecord
  2
DIM
 70
     0
 40
0.0
 41
0.75
 50
0.0
 71
     0
 42
0.0
  3
txt.shx
  4
extfont.shx
  0
STYLE
  5
7D
330
3
100
AcDbSymbolTableRecord
100
AcDbTextStyleTableRecord
  2
_GOTHIC__
 70
     0
 40
0.0
 41
1.0
 50
0.0
 71
     0
 42
0.0
  3
MS Gothic
  4

  0
STYLE
  5
7E
330
3
100
AcDbSymbolTableRecord
100
AcDbTextStyleTableRecord
  2
_TATEGOTHIC_
 70
     4
 40
0.0
 41
1.0
 50
0.0
 71
     0
 42
0.0
  3
@MS Gothic
  4

  0
ENDTAB
  0
TABLE
  2
VIEW
  5
6
330
0
100
AcDbSymbolTable
 70
     0
  0
ENDTAB
  0
TABLE
  2
UCS
  5
7
330
0
100
AcDbSymbolTable
 70
     0
  0
ENDTAB
  0
TABLE
  2
APPID
  5
9
330
0
100
AcDbSymbolTable
 70
     4
  0
APPID
  5
56
330
9
100
AcDbSymbolTableRecord
100
AcDbRegAppTableRecord
  2
ACAD
 70
     0
  0
APPID
  5
5D
330
9
100
AcDbSymbolTableRecord
100
AcDbRegAppTableRecord
  2
AcadAnnotative
 70
     0
  0
APPID
  5
469
330
9
100
AcDbSymbolTableRecord
100
AcDbRegAppTableRecord
  2
ACAD_NAV_VCDISPLAY
 70
     0
  0
APPID
  5
4A2
330
9
100
AcDbSymbolTableRecord
100
AcDbRegAppTableRecord
  2
ACAD_MLEADERVER
 70
     0
  0
ENDTAB
  0
TABLE
  2
DIMSTYLE
  5
A
330
0
100
AcDbSymbolTable
 70
     2
100
AcDbDimStyleTable
 71
     0
  0
DIMSTYLE
105
57
330
A
100
AcDbSymbolTableRecord
100
AcDbDimStyleTableRecord
  2
Standard
 70
     0
340
55
  0
DIMSTYLE
105
58
330
A
100
AcDbSymbolTableRecord
100
AcDbDimStyleTableRecord
  2
Annotative
 70
     0
340
55
1001
AcadAnnotative
1000
AnnotativeData
1002
{
1070
     1
1070
     1
1002
}
  0
ENDTAB
  0
TABLE
  2
BLOCK_RECORD
  5
1
330
0
100
AcDbSymbolTable
 70
     0
  0
BLOCK_RECORD
  5
6F
330
1
100
AcDbSymbolTableRecord
100
AcDbBlockTableRecord
  2
*Model_Space
340
72
  0
BLOCK_RECORD
  5
6B
330
1
100
AcDbSymbolTableRecord
100
AcDbBlockTableRecord
  2
*Paper_Space
340
6E
  0
ENDTAB
  0
ENDSEC
  0
SECTION
  2
BLOCKS
  0
BLOCK
  5
70
330
6F
100
AcDbEntity
  8
0
100
AcDbBlockBegin
  2
*Model_Space
 70
     0
 10
0.0
 20
0.0
 30
0.0
  3
*Model_Space
  1

  0
ENDBLK
  5
71
330
6F
100
AcDbEntity
  8
0
100
AcDbBlockEnd
  0
BLOCK
  5
6C
330
6B
100
AcDbEntity
 67
     1
  8
0
100
AcDbBlockBegin
  2
*Paper_Space
 70
     0
 10
0.0
 20
0.0
 30
0.0
  3
*Paper_Space
  1

  0
ENDBLK
  5
6D
330
6B
100
AcDbEntity
 67
     1
  8
0
100
AcDbBlockEnd
  0
ENDSEC
  0
SECTION
  2
ENTITIES
  0
LINE
  5
8E
330
6F
100
AcDbEntity
  8
1-0
  6
Continuous
 62
     7
100
AcDbLine
 10
0.0
 20
0.0
 30
0.0
 11
4200.0
 21
0.0
 31
0.0
  0
LINE
  5
8F
330
6F
100
AcDbEntity
  8
1-0
  6
Continuous
 62
     7
100
AcDbLine
 10
4200.0
 20
0.0
 30
0.0
 11
4200.0
 21
2970.0
 31
0.0
  0
LINE
  5
90
330
6F
100
AcDbEntity
  8
1-0
  6
Continuous
 62
     7
100
AcDbLine
 10
4200.0
 20
2970.0
 30
0.0
 11
0.0
 21
2970.0
 31
0.0
  0
LINE
  5
91
330
6F
100
AcDbEntity
  8
1-0
  6
Continuous
 62
     7
100
AcDbLine
 10
0.0
 20
2970.0
 30
0.0
 11
0.0
 21
0.0
 31
0.0
  0
LINE
  5
92
330
6F
100
AcDbEntity
  8
8-0
  6
Continuous
 62
     7
100
AcDbLine
 10
100.0
 20
100.0
 30
0.0
 11
4100.0
 21
100.0
 31
0.0
  0
LINE
  5
93
330
6F
100
AcDbEntity
  8
8-0
  6
Continuous
 62
     7
100
AcDbLine
 10
2500.0
 20
300.0
 30
0.0
 11
4100.0
 21
300.0
 31
0.0
  0
LINE
  5
94
330
6F
100
AcDbEntity
  8
6-0
  6
Continuous
 62
     7
100
AcDbLine
 10
2500.0
 20
240.0
 30
0.0
 11
3150.0
 21
240.0
 31
0.0
  0
LINE
  5
95
330
6F
100
AcDbEntity
  8
8-0
  6
Continuous
 62
     7
100
AcDbLine
 10
4100.0
 20
100.0
 30
0.0
 11
4100.0
 21
2870.0
 31
0.0
  0
LINE
  5
96
330
6F
100
AcDbEntity
  8
8-0
  6
Continuous
 62
     7
100
AcDbLine
 10
4100.0
 20
2870.0
 30
0.0
 11
100.0
 21
2870.0
 31
0.0
  0
LINE
  5
97
330
6F
100
AcDbEntity
  8
8-0
  6
Continuous
 62
     7
100
AcDbLine
 10
100.0
 20
2870.0
 30
0.0
 11
100.0
 21
100.0
 31
0.0
  0
LINE
  5
98
330
6F
100
AcDbEntity
  8
6-0
  6
Continuous
 62
     7
100
AcDbLine
 10
3150.0
 20
100.0
 30
0.0
 11
3150.0
 21
300.0
 31
0.0
  0
LINE
  5
99
330
6F
100
AcDbEntity
  8
8-0
  6
Continuous
 62
     7
100
AcDbLine
 10
2500.0
 20
100.0
 30
0.0
 11
2500.0
 21
300.0
 31
0.0
  0
TEXT
  5
9A
330
6F
100
AcDbEntity
  8
D-0
 62
     5
100
AcDbText
 10
2788.434
 20
252.531
 30
0.0
 40
31.104
  1
品番
100
AcDbText
  0
TEXT
  5
9B
330
6F
100
AcDbEntity
  8
D-0
 62
     5
100
AcDbText
 10
2628.083
 20
139.854
 30
0.0
 40
51.84000000000001
  1
KLH-950S
100
AcDbText
  0
TEXT
  5
9C
330
6F
100
AcDbEntity
  8
D-0
 62
     5
100
AcDbText
 10
3353.56
 20
192.32
 30
0.0
 40
62.208
  1
アイオ産業株式会社
100
AcDbText
  0
TEXT
  5
9D
330
6F
100
AcDbEntity
  8
D-0
 62
     5
100
AcDbText
 10
3427.941
 20
124.513
 30
0.0
 40
31.104
  1
アイオシステムキッチン事業部
100
AcDbText
  0
ARC
  5
9E
330
6F
100
AcDbEntity
  8
2-0
  6
Continuous
 62
     7
100
AcDbCircle
 10
3255.659538175486
 20
200.204166274297
 30
0.0
 40
63.24278074506601
100
AcDbArc
 50
319.753
 51
220.247
  0
CIRCLE
  5
9F
330
6F
100
AcDbEntity
  8
2-0
  6
Continuous
 62
     7
100
AcDbCircle
 10
3255.659538175486
 20
200.204166274297
 30
0.0
 40
71.58304716886799
  0
CIRCLE
  5
A0
330
6F
100
AcDbEntity
  8
2-0
  6
Continuous
 62
     7
100
AcDbCircle
 10
3255.659538175486
 20
200.204166274297
 30
0.0
 40
72.000060490058
  0
CIRCLE
  5
A1
330
6F
100
AcDbEntity
  8
2-0
  6
Continuous
 62
     7
100
AcDbCircle
 10
3255.659538175486
 20
200.204166274297
 30
0.0
 40
72.417073811248
  0
CIRCLE
  5
A2
330
6F
100
AcDbEntity
  8
2-0
  6
Continuous
 62
     7
100
AcDbCircle
 10
3255.659538175486
 20
200.204166274297
 30
0.0
 40
72.834087132438
  0
CIRCLE
  5
A3
330
6F
100
AcDbEntity
  8
2-0
  6
Continuous
 62
     7
100
AcDbCircle
 10
3255.659538175486
 20
200.204166274297
 30
0.0
 40
73.251100453628
  0
CIRCLE
  5
A4
330
6F
100
AcDbEntity
  8
2-0
  6
Continuous
 62
     7
100
AcDbCircle
 10
3255.659538175486
 20
200.204166274297
 30
0.0
 40
73.459607114223
  0
CIRCLE
  5
A5
330
6F
100
AcDbEntity
  8
2-0
  6
Continuous
 62
     7
100
AcDbCircle
 10
3255.659538175486
 20
200.204166274297
 30
0.0
 40
73.04259379303299
  0
CIRCLE
  5
A6
330
6F
100
AcDbEntity
  8
2-0
  6
Continuous
 62
     7
100
AcDbCircle
 10
3255.659538175486
 20
200.204166274297
 30
0.0
 40
72.62558047184301
  0
CIRCLE
  5
A7
330
6F
100
AcDbEntity
  8
2-0
  6
Continuous
 62
     7
100
AcDbCircle
 10
3255.659538175486
 20
200.204166274297
 30
0.0
 40
72.20856715065299
  0
CIRCLE
  5
A8
330
6F
100
AcDbEntity
  8
2-0
  6
Continuous
 62
     7
100
AcDbCircle
 10
3255.659538175486
 20
200.204166274297
 30
0.0
 40
71.791553829463
  0
CIRCLE
  5
A9
330
6F
100
AcDbEntity
  8
2-0
  6
Continuous
 62
     7
100
AcDbCircle
 10
3255.659538175486
 20
200.204166274297
 30
0.0
 40
71.791553829463
  0
ARC
  5
AA
330
6F
100
AcDbEntity
  8
2-0
  6
Continuous
 62
     7
100
AcDbCircle
 10
3255.659538175486
 20
200.204166274297
 30
0.0
 40
63.45128740566099
100
AcDbArc
 50
319.753
 51
220.247
  0
CIRCLE
  5
AB
330
6F
100
AcDbEntity
  8
2-0
  6
Continuous
 62
     7
100
AcDbCircle
 10
3255.659538175486
 20
200.204166274297
 30
0.0
 40
71.374540508273
  0
ARC
  5
AC
330
6F
100
AcDbEntity
  8
2-0
  6
Continuous
 62
     7
100
AcDbCircle
 10
3255.659538175486
 20
200.204166274297
 30
0.0
 40
63.03427408447099
100
AcDbArc
 50
319.753
 51
220.247
  0
TEXT
  5
AD
330
6F
100
AcDbEntity
  8
2-0
 62
     7
100
AcDbText
 10
3216.455
 20
142.198
 30
0.0
 40
48.64
  1
A
100
AcDbText
  0
TEXT
  5
AE
330
6F
100
AcDbEntity
  8
2-0
 62
     7
100
AcDbText
 10
3258.946
 20
142.301
 30
0.0
 40
48.64
  1
I
100
AcDbText
  0
TEXT
  5
AF
330
6F
100
AcDbEntity
  8
2-0
 62
     7
100
AcDbText
 10
3269.344
 20
142.267
 30
0.0
 40
48.64
  1
O
100
AcDbText
  0
CIRCLE
  5
B0
330
6F
100
AcDbEntity
  8
2-0
  6
CENTER
 62
     7
100
AcDbCircle
 10
522.1800792924311
 20
904.708331353016
 30
0.0
 40
35.65880700000001
  0
TEXT
  5
B1
330
6F
100
AcDbEntity
  8
2-0
 62
     7
100
AcDbText
 10
458.1059999999999
 20
838.64
 30
0.0
 40
25.92
  1
A
100
AcDbText
  0
LINE
  5
B2
330
6F
100
AcDbEntity
  8
2-0
  6
Continuous
 62
     7
100
AcDbLine
 10
514.167642
 20
1985.846341
 30
0.0
 11
514.167642
 21
2330.846341
 31
0.0
  0
LINE
  5
B3
330
6F
100
AcDbEntity
  8
2-0
  6
Continuous
 62
     7
100
AcDbLine
 10
531.667642
 20
1985.846341
 30
0.0
 11
531.667642
 21
2330.846341
 31
0.0
  0
LINE
  5
B4
330
6F
100
AcDbEntity
  8
2-0
  6
Continuous
 62
     7
100
AcDbLine
 10
517.1676419999999
 20
1983.846341
 30
0.0
 11
517.1676419999999
 21
1968.846341
 31
0.0
  0
LINE
  5
B5
330
6F
100
AcDbEntity
  8
2-0
  6
DASHED2
 62
     7
100
AcDbLine
 10
571.6676419999999
 20
2330.846341
 30
0.0
 11
571.6676419999999
 21
2310.846341
 31
0.0
  0
LINE
  5
B6
330
6F
100
AcDbEntity
  8
9-0
  6
Continuous
 62
     4
100
AcDbLine
 10
531.667642
 20
2370.809839
 30
0.0
 11
531.667642
 21
2435.191954
 31
0.0
  0
LINE
  5
B7
330
6F
100
AcDbEntity
  8
9-0
  6
Continuous
 62
     4
100
AcDbLine
 10
514.167642
 20
2372.419584000001
 30
0.0
 11
514.167642
 21
2435.191954
 31
0.0
  0
LINE
  5
B8
330
6F
100
AcDbEntity
  8
9-0
  6
Continuous
 62
     4
100
AcDbLine
 10
541.6676419999999
 20
2435.191954
 30
0.0
 11
551.667642
 21
2435.191954
 31
0.0
  0
LINE
  5
B9
330
6F
100
AcDbEntity
  8
9-0
  6
Continuous
 62
     4
100
AcDbLine
 10
504.1676419999999
 20
2435.191954
 30
0.0
 11
494.167642
 21
2435.191954
 31
0.0
  0
LINE
  5
BA
330
6F
100
AcDbEntity
  8
9-0
  6
Continuous
 62
     4
100
AcDbLine
 10
522.9176419999999
 20
2435.191954
 30
0.0
 11
498.3897439999999
 21
2465.572666
 31
0.0
  0
LINE
  5
BB
330
6F
100
AcDbEntity
  8
9-0
  6
Continuous
 62
     4
100
AcDbLine
 10
498.3897439999999
 20
2465.572666
 30
0.0
 11
394.531876
 21
2465.572666
 31
0.0
  0
TEXT
  5
BC
330
6F
100
AcDbEntity
  8
9-0
 62
     4
100
AcDbText
 10
404.483
 20
2466.193
 30
0.0
 40
36.288
  1
17.5
100
AcDbText
  0
LINE
  5
BD
330
6F
100
AcDbEntity
  8
9-0
  6
Continuous
 62
     4
100
AcDbLine
 10
531.667642
 20
2435.191954
 30
0.0
 11
514.167642
 21
2435.191954
 31
0.0
  0
LINE
  5
BE
330
6F
100
AcDbEntity
  8
9-0
  6
Continuous
 62
     4
100
AcDbLine
 10
531.667642
 20
2435.191954
 30
0.0
 11
514.167642
 21
2435.191954
 31
0.0
  0
CIRCLE
  5
BF
330
6F
100
AcDbEntity
  8
9-0
  6
Continuous
 62
     4
100
AcDbCircle
 10
531.6676423280729
 20
2435.19195430384
 30
0.0
 40
0.25
  0
CIRCLE
  5
C0
330
6F
100
AcDbEntity
  8
9-0
  6
Continuous
 62
     4
100
AcDbCircle
 10
531.6676423280729
 20
2435.19195430384
 30
0.0
 40
0.1875
  0
CIRCLE
  5
C1
330
6F
100
AcDbEntity
  8
9-0
  6
Continuous
 62
     4
100
AcDbCircle
 10
531.6676423280729
 20
2435.19195430384
 30
0.0
 40
0.125
  0
CIRCLE
  5
C2
330
6F
100
AcDbEntity
  8
9-0
  6
Continuous
 62
     4
100
AcDbCircle
 10
531.6676423280729
 20
2435.19195430384
 30
0.0
 40
0.0625
  0
ARC
  5
C3
330
6F
100
AcDbEntity
  8
9-0
 62
     4
100
AcDbCircle
 10
531.6676423280729
 20
2435.186954303839
 30
0.0
 40
2.5
100
AcDbArc
 50
180.1145914065301
 51
0.1145914059449637
  0
LINE
  5
C4
330
6F
100
AcDbEntity
  8
9-0
 62
     4
100
AcDbLine
 10
536.6676423280729
 20
2435.191954303891
 30
0.0
 11
541.6676423280729
 21
2435.191954303941
 31
0.0
  0
CIRCLE
  5
C5
330
6F
100
AcDbEntity
  8
9-0
  6
Continuous
 62
     4
100
AcDbCircle
 10
514.1676423280729
 20
2435.19195430384
 30
0.0
 40
0.25
  0
CIRCLE
  5
C6
330
6F
100
AcDbEntity
  8
9-0
  6
Continuous
 62
     4
100
AcDbCircle
 10
514.1676423280729
 20
2435.19195430384
 30
0.0
 40
0.1875
  0
CIRCLE
  5
C7
330
6F
100
AcDbEntity
  8
9-0
  6
Continuous
 62
     4
100
AcDbCircle
 10
514.1676423280729
 20
2435.19195430384
 30
0.0
 40
0.125
  0
CIRCLE
  5
C8
330
6F
100
AcDbEntity
  8
9-0
  6
Continuous
 62
     4
100
AcDbCircle
 10
514.1676423280729
 20
2435.19195430384
 30
0.0
 40
0.0625
  0
ARC
  5
C9
330
6F
100
AcDbEntity
  8
9-0
 62
     4
100
AcDbCircle
 10
514.1676423280729
 20
2435.196954303839
 30
0.0
 40
2.5
100
AcDbArc
 50
0.1145914065300158
 51
180.114591405945
  0
LINE
  5
CA
330
6F
100
AcDbEntity
  8
9-0
 62
     4
100
AcDbLine
 10
509.167642328073
 20
2435.19195430384
 30
0.0
 11
504.167642328073
 21
2435.19195430384
 31
0.0
  0
LINE
  5
CB
330
6F
100
AcDbEntity
  8
9-0
  6
Continuous
 62
     4
100
AcDbLine
 10
531.667642
 20
2370.809839
 30
0.0
 11
531.667642
 21
2435.191954
 31
0.0
  0
LINE
  5
CC
330
6F
100
AcDbEntity
  8
9-0
  6
Continuous
 62
     4
100
AcDbLine
 10
571.6676419999999
 20
2374.834202
 30
0.0
 11
571.6676419999999
 21
2435.191954
 31
0.0
  0
LINE
  5
CD
330
6F
100
AcDbEntity
  8
9-0
  6
Continuous
 62
     4
100
AcDbLine
 10
541.6676419999999
 20
2435.191954
 30
0.0
 11
561.667642
 21
2435.191954
 31
0.0
  0
LINE
  5
CE
330
6F
100
AcDbEntity
  8
9-0
  6
Continuous
 62
     4
100
AcDbLine
 10
551.667642
 20
2435.191954
 30
0.0
 11
575.3885269999999
 21
2465.540137
 31
0.0
  0
LINE
  5
CF
330
6F
100
AcDbEntity
  8
9-0
  6
Continuous
 62
     4
100
AcDbLine
 10
575.3885269999999
 20
2465.540137
 30
0.0
 11
637.6727909999999
 21
2465.540137
 31
0.0
  0
TEXT
  5
D0
330
6F
100
AcDbEntity
  8
9-0
 62
     4
100
AcDbText
 10
586.953
 20
2466.16
 30
0.0
 40
36.288
  1
40
100
AcDbText
  0
CIRCLE
  5
D1
330
6F
100
AcDbEntity
  8
9-0
  6
Continuous
 62
     4
100
AcDbCircle
 10
531.6676423280729
 20
2435.19195430384
 30
0.0
 40
0.25
  0
CIRCLE
  5
D2
330
6F
100
AcDbEntity
  8
9-0
  6
Continuous
 62
     4
100
AcDbCircle
 10
531.6676423280729
 20
2435.19195430384
 30
0.0
 40
0.1875
  0
CIRCLE
  5
D3
330
6F
100
AcDbEntity
  8
9-0
  6
Continuous
 62
     4
100
AcDbCircle
 10
531.6676423280729
 20
2435.19195430384
 30
0.0
 40
0.125
  0
CIRCLE
  5
D4
330
6F
100
AcDbEntity
  8
9-0
  6
Continuous
 62
     4
100
AcDbCircle
 10
531.6676423280729
 20
2435.19195430384
 30
0.0
 40
0.0625
  0
ARC
  5
D5
330
6F
100
AcDbEntity
  8
9-0
 62
     4
100
AcDbCircle
 10
531.6676423280729
 20
2435.186954303839
 30
0.0
 40
2.5
100
AcDbArc
 50
180.1145914065301
 51
0.1145914059449637
  0
LINE
  5
D6
330
6F
100
AcDbEntity
  8
9-0
 62
     4
100
AcDbLine
 10
536.6676423280729
 20
2435.191954303891
 30
0.0
 11
541.6676423280729
 21
2435.191954303941
 31
0.0
  0
CIRCLE
  5
D7
330
6F
100
AcDbEntity
  8
9-0
  6
Continuous
 62
     4
100
AcDbCircle
 10
571.667642328072
 20
2435.19195430384
 30
0.0
 40
0.25
  0
CIRCLE
  5
D8
330
6F
100
AcDbEntity
  8
9-0
  6
Continuous
 62
     4
100
AcDbCircle
 10
571.667642328072
 20
2435.19195430384
 30
0.0
 40
0.1875
  0
CIRCLE
  5
D9
330
6F
100
AcDbEntity
  8
9-0
  6
Continuous
 62
     4
100
AcDbCircle
 10
571.667642328072
 20
2435.19195430384
 30
0.0
 40
0.125
  0
CIRCLE
  5
DA
330
6F
100
AcDbEntity
  8
9-0
  6
Continuous
 62
     4
100
AcDbCircle
 10
571.667642328072
 20
2435.19195430384
 30
0.0
 40
0.0625
  0
ARC
  5
DB
330
6F
100
AcDbEntity
  8
9-0
 62
     4
100
AcDbCircle
 10
571.667642328072
 20
2435.196954303839
 30
0.0
 40
2.5
100
AcDbArc
 50
0.1145914065300158
 51
180.114591405945
  0
LINE
  5
DC
330
6F
100
AcDbEntity
  8
9-0
 62
     4
100
AcDbLine
 10
566.667642328072
 20
2435.19195430384
 30
0.0
 11
561.667642328072
 21
2435.19195430384
 31
0.0
  0
CIRCLE
  5
DD
330
6F
100
AcDbEntity
  8
2-0
  6
CENTER
 62
     7
100
AcDbCircle
 10
1456.155205363713
 20
904.708331353016
 30
0.0
 40
35.65880700000001
  0
TEXT
  5
DE
330
6F
100
AcDbEntity
  8
2-0
 62
     7
100
AcDbText
 10
1508.261
 20
838.64
 30
0.0
 40
25.92
  1
A
100
AcDbText
  0
LINE
  5
DF
330
6F
100
AcDbEntity
  8
2-0
  6
DASHED2
 62
     7
100
AcDbLine
 10
530.1676419999999
 20
914.343904
 30
0.0
 11
1445.667642
 21
914.343904
 31
0.0
  0
LINE
  5
E0
330
6F
100
AcDbEntity
  8
9-0
  6
Continuous
 62
     4
100
AcDbLine
 10
1166.167642
 20
2370.809839
 30
0.0
 11
1166.167642
 21
2435.191954
 31
0.0
  0
LINE
  5
E1
330
6F
100
AcDbEntity
  8
9-0
  6
Continuous
 62
     4
100
AcDbLine
 10
1126.167642
 20
2374.834202
 30
0.0
 11
1126.167642
 21
2435.191954
 31
0.0
  0
LINE
  5
E2
330
6F
100
AcDbEntity
  8
9-0
  6
Continuous
 62
     4
100
AcDbLine
 10
1156.167642
 20
2435.191954
 30
0.0
 11
1136.167642
 21
2435.191954
 31
0.0
  0
LINE
  5
E3
330
6F
100
AcDbEntity
  8
9-0
  6
Continuous
 62
     4
100
AcDbLine
 10
1146.167642
 20
2435.191954
 30
0.0
 11
1127.446758
 21
2465.540137
 31
0.0
  0
LINE
  5
E4
330
6F
100
AcDbEntity
  8
9-0
  6
Continuous
 62
     4
100
AcDbLine
 10
1127.446758
 20
2465.540137
 30
0.0
 11
1065.162494
 21
2465.540137
 31
0.0
  0
TEXT
  5
E5
330
6F
100
AcDbEntity
  8
9-0
 62
     4
100
AcDbText
 10
1076.726999999999
 20
2466.16
 30
0.0
 40
36.288
  1
40
100
AcDbText
  0
CIRCLE
  5
E6
330
6F
100
AcDbEntity
  8
9-0
  6
Continuous
 62
     4
100
AcDbCircle
 10
1166.167642328072
 20
2435.19195430384
 30
0.0
 40
0.25
  0
CIRCLE
  5
E7
330
6F
100
AcDbEntity
  8
9-0
  6
Continuous
 62
     4
100
AcDbCircle
 10
1166.167642328072
 20
2435.19195430384
 30
0.0
 40
0.1875
  0
CIRCLE
  5
E8
330
6F
100
AcDbEntity
  8
9-0
  6
Continuous
 62
     4
100
AcDbCircle
 10
1166.167642328072
 20
2435.19195430384
 30
0.0
 40
0.125
  0
CIRCLE
  5
E9
330
6F
100
AcDbEntity
  8
9-0
  6
Continuous
 62
     4
100
AcDbCircle
 10
1166.167642328072
 20
2435.19195430384
 30
0.0
 40
0.0625
  0
ARC
  5
EA
330
6F
100
AcDbEntity
  8
9-0
 62
     4
100
AcDbCircle
 10
1166.167642328072
 20
2435.196954303839
 30
0.0
 40
2.5
100
AcDbArc
 50
0.1145914065300158
 51
180.114591405945
  0
LINE
  5
EB
330
6F
100
AcDbEntity
  8
9-0
 62
     4
100
AcDbLine
 10
1161.167642328072
 20
2435.19195430384
 30
0.0
 11
1156.167642328072
 21
2435.19195430384
 31
0.0
  0
CIRCLE
  5
EC
330
6F
100
AcDbEntity
  8
9-0
  6
Continuous
 62
     4
100
AcDbCircle
 10
1126.167642328072
 20
2435.19195430384
 30
0.0
 40
0.25
  0
CIRCLE
  5
ED
330
6F
100
AcDbEntity
  8
9-0
  6
Continuous
 62
     4
100
AcDbCircle
 10
1126.167642328072
 20
2435.19195430384
 30
0.0
 40
0.1875
  0
CIRCLE
  5
EE
330
6F
100
AcDbEntity
  8
9-0
  6
Continuous
 62
     4
100
AcDbCircle
 10
1126.167642328072
 20
2435.19195430384
 30
0.0
 40
0.125
  0
CIRCLE
  5
EF
330
6F
100
AcDbEntity
  8
9-0
  6
Continuous
 62
     4
100
AcDbCircle
 10
1126.167642328072
 20
2435.19195430384
 30
0.0
 40
0.0625
  0
ARC
  5
F0
330
6F
100
AcDbEntity
  8
9-0
 62
     4
100
AcDbCircle
 10
1126.167642328072
 20
2435.186954303839
 30
0.0
 40
2.5
100
AcDbArc
 50
180.1145914065301
 51
0.1145914059449637
  0
LINE
  5
F1
330
6F
100
AcDbEntity
  8
9-0
 62
     4
100
AcDbLine
 10
1131.167642328072
 20
2435.191954303891
 30
0.0
 11
1136.167642328072
 21
2435.191954303941
 31
0.0
  0
LINE
  5
F2
330
6F
100
AcDbEntity
  8
9-0
  6
Continuous
 62
     4
100
AcDbLine
 10
1446.667642
 20
2370.809839
 30
0.0
 11
1446.667642
 21
2435.191954
 31
0.0
  0
LINE
  5
F3
330
6F
100
AcDbEntity
  8
9-0
  6
Continuous
 62
     4
100
AcDbLine
 10
1406.667642
 20
2374.834202
 30
0.0
 11
1406.667642
 21
2435.191954
 31
0.0
  0
LINE
  5
F4
330
6F
100
AcDbEntity
  8
9-0
  6
Continuous
 62
     4
100
AcDbLine
 10
1436.667642
 20
2435.191954
 30
0.0
 11
1416.667642
 21
2435.191954
 31
0.0
  0
LINE
  5
F5
330
6F
100
AcDbEntity
  8
9-0
  6
Continuous
 62
     4
100
AcDbLine
 10
1426.667642
 20
2435.191954
 30
0.0
 11
1402.946758
 21
2465.540137
 31
0.0
  0
LINE
  5
F6
330
6F
100
AcDbEntity
  8
9-0
  6
Continuous
 62
     4
100
AcDbLine
 10
1402.946758
 20
2465.540137
 30
0.0
 11
1340.662494
 21
2465.540137
 31
0.0
  0
TEXT
  5
F7
330
6F
100
AcDbEntity
  8
9-0
 62
     4
100
AcDbText
 10
1352.227
 20
2466.16
 30
0.0
 40
36.288
  1
40
100
AcDbText
  0
CIRCLE
  5
F8
330
6F
100
AcDbEntity
  8
9-0
  6
Continuous
 62
     4
100
AcDbCircle
 10
1446.667642328072
 20
2435.19195430384
 30
0.0
 40
0.25
  0
CIRCLE
  5
F9
330
6F
100
AcDbEntity
  8
9-0
  6
Continuous
 62
     4
100
AcDbCircle
 10
1446.667642328072
 20
2435.19195430384
 30
0.0
 40
0.1875
  0
CIRCLE
  5
FA
330
6F
100
AcDbEntity
  8
9-0
  6
Continuous
 62
     4
100
AcDbCircle
 10
1446.667642328072
 20
2435.19195430384
 30
0.0
 40
0.125
  0
CIRCLE
  5
FB
330
6F
100
AcDbEntity
  8
9-0
  6
Continuous
 62
     4
100
AcDbCircle
 10
1446.667642328072
 20
2435.19195430384
 30
0.0
 40
0.0625
  0
ARC
  5
FC
330
6F
100
AcDbEntity
  8
9-0
 62
     4
100
AcDbCircle
 10
1446.667642328072
 20
2435.196954303839
 30
0.0
 40
2.5
100
AcDbArc
 50
0.1145914065300158
 51
180.114591405945
  0
LINE
  5
FD
330
6F
100
AcDbEntity
  8
9-0
 62
     4
100
AcDbLine
 10
1441.667642328072
 20
2435.19195430384
 30
0.0
 11
1436.667642328072
 21
2435.19195430384
 31
0.0
  0
CIRCLE
  5
FE
330
6F
100
AcDbEntity
  8
9-0
  6
Continuous
 62
     4
100
AcDbCircle
 10
1406.667642328072
 20
2435.19195430384
 30
0.0
 40
0.25
  0
CIRCLE
  5
FF
330
6F
100
AcDbEntity
  8
9-0
  6
Continuous
 62
     4
100
AcDbCircle
 10
1406.667642328072
 20
2435.19195430384
 30
0.0
 40
0.1875
  0
CIRCLE
  5
100
330
6F
100
AcDbEntity
  8
9-0
  6
Continuous
 62
     4
100
AcDbCircle
 10
1406.667642328072
 20
2435.19195430384
 30
0.0
 40
0.125
  0
CIRCLE
  5
101
330
6F
100
AcDbEntity
  8
9-0
  6
Continuous
 62
     4
100
AcDbCircle
 10
1406.667642328072
 20
2435.19195430384
 30
0.0
 40
0.0625
  0
ARC
  5
102
330
6F
100
AcDbEntity
  8
9-0
 62
     4
100
AcDbCircle
 10
1406.667642328072
 20
2435.186954303839
 30
0.0
 40
2.5
100
AcDbArc
 50
180.1145914065301
 51
0.1145914059449637
  0
LINE
  5
103
330
6F
100
AcDbEntity
  8
9-0
 62
     4
100
AcDbLine
 10
1411.667642328072
 20
2435.191954303891
 30
0.0
 11
1416.667642328072
 21
2435.191954303941
 31
0.0
  0
LINE
  5
104
330
6F
100
AcDbEntity
  8
9-0
  6
Continuous
 62
     4
100
AcDbLine
 10
1446.667642
 20
2370.809839
 30
0.0
 11
1446.667642
 21
2435.191954
 31
0.0
  0
LINE
  5
105
330
6F
100
AcDbEntity
  8
9-0
  6
Continuous
 62
     4
100
AcDbLine
 10
1464.167642
 20
2372.419584000001
 30
0.0
 11
1464.167642
 21
2435.191954
 31
0.0
  0
LINE
  5
106
330
6F
100
AcDbEntity
  8
9-0
  6
Continuous
 62
     4
100
AcDbLine
 10
1436.667642
 20
2435.191954
 30
0.0
 11
1426.667642
 21
2435.191954
 31
0.0
  0
LINE
  5
107
330
6F
100
AcDbEntity
  8
9-0
  6
Continuous
 62
     4
100
AcDbLine
 10
1474.167642
 20
2435.191954
 30
0.0
 11
1484.167642
 21
2435.191954
 31
0.0
  0
LINE
  5
108
330
6F
100
AcDbEntity
  8
9-0
  6
Continuous
 62
     4
100
AcDbLine
 10
1455.417642
 20
2435.191954
 30
0.0
 11
1479.945541
 21
2465.572666
 31
0.0
  0
LINE
  5
109
330
6F
100
AcDbEntity
  8
9-0
  6
Continuous
 62
     4
100
AcDbLine
 10
1479.945541
 20
2465.572666
 30
0.0
 11
1583.803409
 21
2465.572666
 31
0.0
  0
TEXT
  5
10A
330
6F
100
AcDbEntity
  8
9-0
 62
     4
100
AcDbText
 10
1489.897
 20
2466.193
 30
0.0
 40
36.288
  1
17.5
100
AcDbText
  0
LINE
  5
10B
330
6F
100
AcDbEntity
  8
9-0
  6
Continuous
 62
     4
100
AcDbLine
 10
1446.667642
 20
2435.191954
 30
0.0
 11
1464.167642
 21
2435.191954
 31
0.0
  0
LINE
  5
10C
330
6F
100
AcDbEntity
  8
9-0
  6
Continuous
 62
     4
100
AcDbLine
 10
1446.667642
 20
2435.191954
 30
0.0
 11
1464.167642
 21
2435.191954
 31
0.0
  0
CIRCLE
  5
10D
330
6F
100
AcDbEntity
  8
9-0
  6
Continuous
 62
     4
100
AcDbCircle
 10
1446.667642328072
 20
2435.19195430384
 30
0.0
 40
0.25
  0
CIRCLE
  5
10E
330
6F
100
AcDbEntity
  8
9-0
  6
Continuous
 62
     4
100
AcDbCircle
 10
1446.667642328072
 20
2435.19195430384
 30
0.0
 40
0.1875
  0
CIRCLE
  5
10F
330
6F
100
AcDbEntity
  8
9-0
  6
Continuous
 62
     4
100
AcDbCircle
 10
1446.667642328072
 20
2435.19195430384
 30
0.0
 40
0.125
  0
CIRCLE
  5
110
330
6F
100
AcDbEntity
  8
9-0
  6
Continuous
 62
     4
100
AcDbCircle
 10
1446.667642328072
 20
2435.19195430384
 30
0.0
 40
0.0625
  0
ARC
  5
111
330
6F
100
AcDbEntity
  8
9-0
 62
     4
100
AcDbCircle
 10
1446.667642328072
 20
2435.196954303839
 30
0.0
 40
2.5
100
AcDbArc
 50
0.1145914065300158
 51
180.114591405945
  0
LINE
  5
112
330
6F
100
AcDbEntity
  8
9-0
 62
     4
100
AcDbLine
 10
1441.667642328072
 20
2435.19195430384
 30
0.0
 11
1436.667642328072
 21
2435.19195430384
 31
0.0
  0
CIRCLE
  5
113
330
6F
100
AcDbEntity
  8
9-0
  6
Continuous
 62
     4
100
AcDbCircle
 10
1464.167642328072
 20
2435.19195430384
 30
0.0
 40
0.25
  0
CIRCLE
  5
114
330
6F
100
AcDbEntity
  8
9-0
  6
Continuous
 62
     4
100
AcDbCircle
 10
1464.167642328072
 20
2435.19195430384
 30
0.0
 40
0.1875
  0
CIRCLE
  5
115
330
6F
100
AcDbEntity
  8
9-0
  6
Continuous
 62
     4
100
AcDbCircle
 10
1464.167642328072
 20
2435.19195430384
 30
0.0
 40
0.125
  0
CIRCLE
  5
116
330
6F
100
AcDbEntity
  8
9-0
  6
Continuous
 62
     4
100
AcDbCircle
 10
1464.167642328072
 20
2435.19195430384
 30
0.0
 40
0.0625
  0
ARC
  5
117
330
6F
100
AcDbEntity
  8
9-0
 62
     4
100
AcDbCircle
 10
1464.167642328072
 20
2435.186954303839
 30
0.0
 40
2.5
100
AcDbArc
 50
180.1145914065301
 51
0.1145914059449637
  0
LINE
  5
118
330
6F
100
AcDbEntity
  8
9-0
 62
     4
100
AcDbLine
 10
1469.167642328072
 20
2435.191954303891
 30
0.0
 11
1474.167642328072
 21
2435.191954303941
 31
0.0
  0
LINE
  5
119
330
6F
100
AcDbEntity
  8
9-0
  6
Continuous
 62
     4
100
AcDbLine
 10
1138.667642
 20
2188.593115
 30
0.0
 11
1138.667642
 21
2200.197588
 31
0.0
  0
LINE
  5
11A
330
6F
100
AcDbEntity
  8
9-0
  6
Continuous
 62
     4
100
AcDbLine
 10
1153.667642
 20
2190.738716
 30
0.0
 11
1153.667642
 21
2200.197588
 31
0.0
  0
TEXT
  5
11B
330
6F
100
AcDbEntity
  8
9-0
 62
     4
100
AcDbText
 10
1165.528
 20
2233.318
 30
0.0
 40
36.288
  1
15
100
AcDbText
  0
LINE
  5
11C
330
6F
100
AcDbEntity
  8
9-0
  6
Continuous
 62
     4
100
AcDbLine
 10
1153.667642328072
 20
2200.19758801183
 30
0.0
 11
1138.667642328072
 21
2200.19758801183
 31
0.0
  0
CIRCLE
  5
11D
330
6F
100
AcDbEntity
  8
9-0
  6
Continuous
 62
     4
100
AcDbCircle
 10
1153.667642328072
 20
2200.19758801183
 30
0.0
 40
0.25
  0
CIRCLE
  5
11E
330
6F
100
AcDbEntity
  8
9-0
  6
Continuous
 62
     4
100
AcDbCircle
 10
1153.667642328072
 20
2200.19758801183
 30
0.0
 40
0.1875
  0
CIRCLE
  5
11F
330
6F
100
AcDbEntity
  8
9-0
  6
Continuous
 62
     4
100
AcDbCircle
 10
1153.667642328072
 20
2200.19758801183
 30
0.0
 40
0.125
  0
CIRCLE
  5
120
330
6F
100
AcDbEntity
  8
9-0
  6
Continuous
 62
     4
100
AcDbCircle
 10
1153.667642328072
 20
2200.19758801183
 30
0.0
 40
0.0625
  0
CIRCLE
  5
121
330
6F
100
AcDbEntity
  8
9-0
  6
Continuous
 62
     4
100
AcDbCircle
 10
1138.667642328072
 20
2200.19758801183
 30
0.0
 40
0.25
  0
CIRCLE
  5
122
330
6F
100
AcDbEntity
  8
9-0
  6
Continuous
 62
     4
100
AcDbCircle
 10
1138.667642328072
 20
2200.19758801183
 30
0.0
 40
0.1875
  0
CIRCLE
  5
123
330
6F
100
AcDbEntity
  8
9-0
  6
Continuous
 62
     4
100
AcDbCircle
 10
1138.667642328072
 20
2200.19758801183
 30
0.0
 40
0.125
  0
CIRCLE
  5
124
330
6F
100
AcDbEntity
  8
9-0
  6
Continuous
 62
     4
100
AcDbCircle
 10
1138.667642328072
 20
2200.19758801183
 30
0.0
 40
0.0625
  0
LINE
  5
125
330
6F
100
AcDbEntity
  8
9-0
  6
Continuous
 62
     4
100
AcDbLine
 10
1464.167642
 20
728.802133
 30
0.0
 11
1464.167642
 21
610.822177
 31
0.0
  0
LINE
  5
126
330
6F
100
AcDbEntity
  8
9-0
  6
Continuous
 62
     4
100
AcDbLine
 10
514.167642
 20
724.5515629999999
 30
0.0
 11
514.167642
 21
610.822177
 31
0.0
  0
TEXT
  5
127
330
6F
100
AcDbEntity
  8
9-0
 62
     4
100
AcDbText
 10
958.3899999999999
 20
611.4419999999999
 30
0.0
 40
36.288
  1
950
100
AcDbText
  0
LINE
  5
128
330
6F
100
AcDbEntity
  8
9-0
  6
Continuous
 62
     4
100
AcDbLine
 10
514.1676423280729
 20
610.8221771811749
 30
0.0
 11
1464.167642328072
 21
610.8221771811749
 31
0.0
  0
CIRCLE
  5
129
330
6F
100
AcDbEntity
  8
9-0
  6
Continuous
 62
     4
100
AcDbCircle
 10
514.1676423280729
 20
610.8221771811749
 30
0.0
 40
0.25
  0
CIRCLE
  5
12A
330
6F
100
AcDbEntity
  8
9-0
  6
Continuous
 62
     4
100
AcDbCircle
 10
514.1676423280729
 20
610.8221771811749
 30
0.0
 40
0.1875
  0
CIRCLE
  5
12B
330
6F
100
AcDbEntity
  8
9-0
  6
Continuous
 62
     4
100
AcDbCircle
 10
514.1676423280729
 20
610.8221771811749
 30
0.0
 40
0.125
  0
CIRCLE
  5
12C
330
6F
100
AcDbEntity
  8
9-0
  6
Continuous
 62
     4
100
AcDbCircle
 10
514.1676423280729
 20
610.8221771811749
 30
0.0
 40
0.0625
  0
CIRCLE
  5
12D
330
6F
100
AcDbEntity
  8
9-0
  6
Continuous
 62
     4
100
AcDbCircle
 10
1464.167642328072
 20
610.8221771811749
 30
0.0
 40
0.25
  0
CIRCLE
  5
12E
330
6F
100
AcDbEntity
  8
9-0
  6
Continuous
 62
     4
100
AcDbCircle
 10
1464.167642328072
 20
610.8221771811749
 30
0.0
 40
0.1875
  0
CIRCLE
  5
12F
330
6F
100
AcDbEntity
  8
9-0
  6
Continuous
 62
     4
100
AcDbCircle
 10
1464.167642328072
 20
610.8221771811749
 30
0.0
 40
0.125
  0
CIRCLE
  5
130
330
6F
100
AcDbEntity
  8
9-0
  6
Continuous
 62
     4
100
AcDbCircle
 10
1464.167642328072
 20
610.8221771811749
 30
0.0
 40
0.0625
  0
LINE
  5
131
330
6F
100
AcDbEntity
  8
9-0
  6
Continuous
 62
     4
100
AcDbLine
 10
1459.167642
 20
778.7298729999999
 30
0.0
 11
1459.167642
 21
710.822177
 31
0.0
  0
LINE
  5
132
330
6F
100
AcDbEntity
  8
9-0
  6
Continuous
 62
     4
100
AcDbLine
 10
1464.167642
 20
778.7001189999999
 30
0.0
 11
1464.167642
 21
710.822177
 31
0.0
  0
TEXT
  5
133
330
6F
100
AcDbEntity
  8
9-0
 62
     4
100
AcDbText
 10
1492.601
 20
643.942
 30
0.0
 40
36.288
  1
5
100
AcDbText
  0
LINE
  5
134
330
6F
100
AcDbEntity
  8
9-0
  6
Continuous
 62
     4
100
AcDbLine
 10
1464.167642328072
 20
710.8221771811749
 30
0.0
 11
1459.167642328072
 21
710.8221771811749
 31
0.0
  0
CIRCLE
  5
135
330
6F
100
AcDbEntity
  8
9-0
  6
Continuous
 62
     4
100
AcDbCircle
 10
1464.167642328072
 20
710.8221771811749
 30
0.0
 40
0.25
  0
CIRCLE
  5
136
330
6F
100
AcDbEntity
  8
9-0
  6
Continuous
 62
     4
100
AcDbCircle
 10
1464.167642328072
 20
710.8221771811749
 30
0.0
 40
0.1875
  0
CIRCLE
  5
137
330
6F
100
AcDbEntity
  8
9-0
  6
Continuous
 62
     4
100
AcDbCircle
 10
1464.167642328072
 20
710.8221771811749
 30
0.0
 40
0.125
  0
CIRCLE
  5
138
330
6F
100
AcDbEntity
  8
9-0
  6
Continuous
 62
     4
100
AcDbCircle
 10
1464.167642328072
 20
710.8221771811749
 30
0.0
 40
0.0625
  0
CIRCLE
  5
139
330
6F
100
AcDbEntity
  8
9-0
  6
Continuous
 62
     4
100
AcDbCircle
 10
1459.167642328072
 20
710.8221771811749
 30
0.0
 40
0.25
  0
CIRCLE
  5
13A
330
6F
100
AcDbEntity
  8
9-0
  6
Continuous
 62
     4
100
AcDbCircle
 10
1459.167642328072
 20
710.8221771811749
 30
0.0
 40
0.1875
  0
CIRCLE
  5
13B
330
6F
100
AcDbEntity
  8
9-0
  6
Continuous
 62
     4
100
AcDbCircle
 10
1459.167642328072
 20
710.8221771811749
 30
0.0
 40
0.125
  0
CIRCLE
  5
13C
330
6F
100
AcDbEntity
  8
9-0
  6
Continuous
 62
     4
100
AcDbCircle
 10
1459.167642328072
 20
710.8221771811749
 30
0.0
 40
0.0625
  0
LINE
  5
13D
330
6F
100
AcDbEntity
  8
9-0
  6
Continuous
 62
     4
100
AcDbLine
 10
1459.167642
 20
778.7298729999999
 30
0.0
 11
1459.167642
 21
710.822177
 31
0.0
  0
LINE
  5
13E
330
6F
100
AcDbEntity
  8
9-0
  6
Continuous
 62
     4
100
AcDbLine
 10
1148.167642
 20
777.3399369999999
 30
0.0
 11
1148.167642
 21
710.822177
 31
0.0
  0
TEXT
  5
13F
330
6F
100
AcDbEntity
  8
9-0
 62
     4
100
AcDbText
 10
1272.89
 20
711.4419999999999
 30
0.0
 40
36.288
  1
311
100
AcDbText
  0
LINE
  5
140
330
6F
100
AcDbEntity
  8
9-0
  6
Continuous
 62
     4
100
AcDbLine
 10
1148.167642328072
 20
710.8221771811749
 30
0.0
 11
1459.167642328072
 21
710.8221771811749
 31
0.0
  0
CIRCLE
  5
141
330
6F
100
AcDbEntity
  8
9-0
  6
Continuous
 62
     4
100
AcDbCircle
 10
1148.167642328072
 20
710.8221771811749
 30
0.0
 40
0.25
  0
CIRCLE
  5
142
330
6F
100
AcDbEntity
  8
9-0
  6
Continuous
 62
     4
100
AcDbCircle
 10
1148.167642328072
 20
710.8221771811749
 30
0.0
 40
0.1875
  0
CIRCLE
  5
143
330
6F
100
AcDbEntity
  8
9-0
  6
Continuous
 62
     4
100
AcDbCircle
 10
1148.167642328072
 20
710.8221771811749
 30
0.0
 40
0.125
  0
CIRCLE
  5
144
330
6F
100
AcDbEntity
  8
9-0
  6
Continuous
 62
     4
100
AcDbCircle
 10
1148.167642328072
 20
710.8221771811749
 30
0.0
 40
0.0625
  0
CIRCLE
  5
145
330
6F
100
AcDbEntity
  8
9-0
  6
Continuous
 62
     4
100
AcDbCircle
 10
1459.167642328072
 20
710.8221771811749
 30
0.0
 40
0.25
  0
CIRCLE
  5
146
330
6F
100
AcDbEntity
  8
9-0
  6
Continuous
 62
     4
100
AcDbCircle
 10
1459.167642328072
 20
710.8221771811749
 30
0.0
 40
0.1875
  0
CIRCLE
  5
147
330
6F
100
AcDbEntity
  8
9-0
  6
Continuous
 62
     4
100
AcDbCircle
 10
1459.167642328072
 20
710.8221771811749
 30
0.0
 40
0.125
  0
CIRCLE
  5
148
330
6F
100
AcDbEntity
  8
9-0
  6
Continuous
 62
     4
100
AcDbCircle
 10
1459.167642328072
 20
710.8221771811749
 30
0.0
 40
0.0625
  0
LINE
  5
149
330
6F
100
AcDbEntity
  8
9-0
  6
Continuous
 62
     4
100
AcDbLine
 10
1143.167642
 20
777.3526879999999
 30
0.0
 11
1143.167642
 21
710.822177
 31
0.0
  0
LINE
  5
14A
330
6F
100
AcDbEntity
  8
9-0
  6
Continuous
 62
     4
100
AcDbLine
 10
1148.167642
 20
777.3399369999999
 30
0.0
 11
1148.167642
 21
710.822177
 31
0.0
  0
TEXT
  5
14B
330
6F
100
AcDbEntity
  8
9-0
 62
     4
100
AcDbText
 10
1176.601
 20
643.942
 30
0.0
 40
36.288
  1
5
100
AcDbText
  0
LINE
  5
14C
330
6F
100
AcDbEntity
  8
9-0
  6
Continuous
 62
     4
100
AcDbLine
 10
1148.167642328072
 20
710.8221771811749
 30
0.0
 11
1143.167642328072
 21
710.8221771811749
 31
0.0
  0
CIRCLE
  5
14D
330
6F
100
AcDbEntity
  8
9-0
  6
Continuous
 62
     4
100
AcDbCircle
 10
1148.167642328072
 20
710.8221771811749
 30
0.0
 40
0.25
  0
CIRCLE
  5
14E
330
6F
100
AcDbEntity
  8
9-0
  6
Continuous
 62
     4
100
AcDbCircle
 10
1148.167642328072
 20
710.8221771811749
 30
0.0
 40
0.1875
  0
CIRCLE
  5
14F
330
6F
100
AcDbEntity
  8
9-0
  6
Continuous
 62
     4
100
AcDbCircle
 10
1148.167642328072
 20
710.8221771811749
 30
0.0
 40
0.125
  0
CIRCLE
  5
150
330
6F
100
AcDbEntity
  8
9-0
  6
Continuous
 62
     4
100
AcDbCircle
 10
1148.167642328072
 20
710.8221771811749
 30
0.0
 40
0.0625
  0
CIRCLE
  5
151
330
6F
100
AcDbEntity
  8
9-0
  6
Continuous
 62
     4
100
AcDbCircle
 10
1143.167642328072
 20
710.8221771811749
 30
0.0
 40
0.25
  0
CIRCLE
  5
152
330
6F
100
AcDbEntity
  8
9-0
  6
Continuous
 62
     4
100
AcDbCircle
 10
1143.167642328072
 20
710.8221771811749
 30
0.0
 40
0.1875
  0
CIRCLE
  5
153
330
6F
100
AcDbEntity
  8
9-0
  6
Continuous
 62
     4
100
AcDbCircle
 10
1143.167642328072
 20
710.8221771811749
 30
0.0
 40
0.125
  0
CIRCLE
  5
154
330
6F
100
AcDbEntity
  8
9-0
  6
Continuous
 62
     4
100
AcDbCircle
 10
1143.167642328072
 20
710.8221771811749
 30
0.0
 40
0.0625
  0
LINE
  5
155
330
6F
100
AcDbEntity
  8
9-0
  6
Continuous
 62
     4
100
AcDbLine
 10
1143.167642
 20
777.3526879999999
 30
0.0
 11
1143.167642
 21
710.822177
 31
0.0
  0
LINE
  5
156
330
6F
100
AcDbEntity
  8
9-0
  6
Continuous
 62
     4
100
AcDbLine
 10
832.1676419999999
 20
775.962752
 30
0.0
 11
832.1676419999999
 21
710.822177
 31
0.0
  0
TEXT
  5
157
330
6F
100
AcDbEntity
  8
9-0
 62
     4
100
AcDbText
 10
956.8899999999999
 20
711.4419999999999
 30
0.0
 40
36.288
  1
311
100
AcDbText
  0
LINE
  5
158
330
6F
100
AcDbEntity
  8
9-0
  6
Continuous
 62
     4
100
AcDbLine
 10
832.1676423280729
 20
710.8221771811749
 30
0.0
 11
1143.167642328072
 21
710.8221771811749
 31
0.0
  0
CIRCLE
  5
159
330
6F
100
AcDbEntity
  8
9-0
  6
Continuous
 62
     4
100
AcDbCircle
 10
832.1676423280729
 20
710.8221771811749
 30
0.0
 40
0.25
  0
CIRCLE
  5
15A
330
6F
100
AcDbEntity
  8
9-0
  6
Continuous
 62
     4
100
AcDbCircle
 10
832.1676423280729
 20
710.8221771811749
 30
0.0
 40
0.1875
  0
CIRCLE
  5
15B
330
6F
100
AcDbEntity
  8
9-0
  6
Continuous
 62
     4
100
AcDbCircle
 10
832.1676423280729
 20
710.8221771811749
 30
0.0
 40
0.125
  0
CIRCLE
  5
15C
330
6F
100
AcDbEntity
  8
9-0
  6
Continuous
 62
     4
100
AcDbCircle
 10
832.1676423280729
 20
710.8221771811749
 30
0.0
 40
0.0625
  0
CIRCLE
  5
15D
330
6F
100
AcDbEntity
  8
9-0
  6
Continuous
 62
     4
100
AcDbCircle
 10
1143.167642328072
 20
710.8221771811749
 30
0.0
 40
0.25
  0
CIRCLE
  5
15E
330
6F
100
AcDbEntity
  8
9-0
  6
Continuous
 62
     4
100
AcDbCircle
 10
1143.167642328072
 20
710.8221771811749
 30
0.0
 40
0.1875
  0
CIRCLE
  5
15F
330
6F
100
AcDbEntity
  8
9-0
  6
Continuous
 62
     4
100
AcDbCircle
 10
1143.167642328072
 20
710.8221771811749
 30
0.0
 40
0.125
  0
CIRCLE
  5
160
330
6F
100
AcDbEntity
  8
9-0
  6
Continuous
 62
     4
100
AcDbCircle
 10
1143.167642328072
 20
710.8221771811749
 30
0.0
 40
0.0625
  0
LINE
  5
161
330
6F
100
AcDbEntity
  8
9-0
  6
Continuous
 62
     4
100
AcDbLine
 10
830.1676419999999
 20
775.971253
 30
0.0
 11
830.1676419999999
 21
710.822177
 31
0.0
  0
LINE
  5
162
330
6F
100
AcDbEntity
  8
9-0
  6
Continuous
 62
     4
100
AcDbLine
 10
832.1676419999999
 20
775.962752
 30
0.0
 11
832.1676419999999
 21
710.822177
 31
0.0
  0
TEXT
  5
163
330
6F
100
AcDbEntity
  8
9-0
 62
     4
100
AcDbText
 10
862.1010000000001
 20
643.942
 30
0.0
 40
36.288
  1
2
100
AcDbText
  0
LINE
  5
164
330
6F
100
AcDbEntity
  8
9-0
  6
Continuous
 62
     4
100
AcDbLine
 10
832.1676423280729
 20
710.8221771811749
 30
0.0
 11
830.167642328073
 21
710.8221771811749
 31
0.0
  0
CIRCLE
  5
165
330
6F
100
AcDbEntity
  8
9-0
  6
Continuous
 62
     4
100
AcDbCircle
 10
832.1676423280729
 20
710.8221771811749
 30
0.0
 40
0.25
  0
CIRCLE
  5
166
330
6F
100
AcDbEntity
  8
9-0
  6
Continuous
 62
     4
100
AcDbCircle
 10
832.1676423280729
 20
710.8221771811749
 30
0.0
 40
0.1875
  0
CIRCLE
  5
167
330
6F
100
AcDbEntity
  8
9-0
  6
Continuous
 62
     4
100
AcDbCircle
 10
832.1676423280729
 20
710.8221771811749
 30
0.0
 40
0.125
  0
CIRCLE
  5
168
330
6F
100
AcDbEntity
  8
9-0
  6
Continuous
 62
     4
100
AcDbCircle
 10
832.1676423280729
 20
710.8221771811749
 30
0.0
 40
0.0625
  0
CIRCLE
  5
169
330
6F
100
AcDbEntity
  8
9-0
  6
Continuous
 62
     4
100
AcDbCircle
 10
830.167642328073
 20
710.8221771811749
 30
0.0
 40
0.25
  0
CIRCLE
  5
16A
330
6F
100
AcDbEntity
  8
9-0
  6
Continuous
 62
     4
100
AcDbCircle
 10
830.167642328073
 20
710.8221771811749
 30
0.0
 40
0.1875
  0
CIRCLE
  5
16B
330
6F
100
AcDbEntity
  8
9-0
  6
Continuous
 62
     4
100
AcDbCircle
 10
830.167642328073
 20
710.8221771811749
 30
0.0
 40
0.125
  0
CIRCLE
  5
16C
330
6F
100
AcDbEntity
  8
9-0
  6
Continuous
 62
     4
100
AcDbCircle
 10
830.167642328073
 20
710.8221771811749
 30
0.0
 40
0.0625
  0
LINE
  5
16D
330
6F
100
AcDbEntity
  8
9-0
  6
Continuous
 62
     4
100
AcDbLine
 10
830.1676419999999
 20
775.971253
 30
0.0
 11
830.1676419999999
 21
710.822177
 31
0.0
  0
LINE
  5
16E
330
6F
100
AcDbEntity
  8
9-0
  6
Continuous
 62
     4
100
AcDbLine
 10
519.167642
 20
774.5813169999999
 30
0.0
 11
519.167642
 21
710.822177
 31
0.0
  0
TEXT
  5
16F
330
6F
100
AcDbEntity
  8
9-0
 62
     4
100
AcDbText
 10
643.89
 20
711.4419999999999
 30
0.0
 40
36.288
  1
311
100
AcDbText
  0
LINE
  5
170
330
6F
100
AcDbEntity
  8
9-0
  6
Continuous
 62
     4
100
AcDbLine
 10
519.1676423280729
 20
710.8221771811749
 30
0.0
 11
830.167642328073
 21
710.8221771811749
 31
0.0
  0
CIRCLE
  5
171
330
6F
100
AcDbEntity
  8
9-0
  6
Continuous
 62
     4
100
AcDbCircle
 10
519.1676423280729
 20
710.8221771811749
 30
0.0
 40
0.25
  0
CIRCLE
  5
172
330
6F
100
AcDbEntity
  8
9-0
  6
Continuous
 62
     4
100
AcDbCircle
 10
519.1676423280729
 20
710.8221771811749
 30
0.0
 40
0.1875
  0
CIRCLE
  5
173
330
6F
100
AcDbEntity
  8
9-0
  6
Continuous
 62
     4
100
AcDbCircle
 10
519.1676423280729
 20
710.8221771811749
 30
0.0
 40
0.125
  0
CIRCLE
  5
174
330
6F
100
AcDbEntity
  8
9-0
  6
Continuous
 62
     4
100
AcDbCircle
 10
519.1676423280729
 20
710.8221771811749
 30
0.0
 40
0.0625
  0
CIRCLE
  5
175
330
6F
100
AcDbEntity
  8
9-0
  6
Continuous
 62
     4
100
AcDbCircle
 10
830.167642328073
 20
710.8221771811749
 30
0.0
 40
0.25
  0
CIRCLE
  5
176
330
6F
100
AcDbEntity
  8
9-0
  6
Continuous
 62
     4
100
AcDbCircle
 10
830.167642328073
 20
710.8221771811749
 30
0.0
 40
0.1875
  0
CIRCLE
  5
177
330
6F
100
AcDbEntity
  8
9-0
  6
Continuous
 62
     4
100
AcDbCircle
 10
830.167642328073
 20
710.8221771811749
 30
0.0
 40
0.125
  0
CIRCLE
  5
178
330
6F
100
AcDbEntity
  8
9-0
  6
Continuous
 62
     4
100
AcDbCircle
 10
830.167642328073
 20
710.8221771811749
 30
0.0
 40
0.0625
  0
LINE
  5
179
330
6F
100
AcDbEntity
  8
9-0
  6
Continuous
 62
     4
100
AcDbLine
 10
514.167642
 20
775.782853
 30
0.0
 11
514.167642
 21
710.822177
 31
0.0
  0
LINE
  5
17A
330
6F
100
AcDbEntity
  8
9-0
  6
Continuous
 62
     4
100
AcDbLine
 10
519.167642
 20
774.5813169999999
 30
0.0
 11
519.167642
 21
710.822177
 31
0.0
  0
TEXT
  5
17B
330
6F
100
AcDbEntity
  8
9-0
 62
     4
100
AcDbText
 10
547.601
 20
643.942
 30
0.0
 40
36.288
  1
5
100
AcDbText
  0
LINE
  5
17C
330
6F
100
AcDbEntity
  8
9-0
  6
Continuous
 62
     4
100
AcDbLine
 10
519.1676423280729
 20
710.8221771811749
 30
0.0
 11
514.1676423280729
 21
710.8221771811749
 31
0.0
  0
CIRCLE
  5
17D
330
6F
100
AcDbEntity
  8
9-0
  6
Continuous
 62
     4
100
AcDbCircle
 10
519.1676423280729
 20
710.8221771811749
 30
0.0
 40
0.25
  0
CIRCLE
  5
17E
330
6F
100
AcDbEntity
  8
9-0
  6
Continuous
 62
     4
100
AcDbCircle
 10
519.1676423280729
 20
710.8221771811749
 30
0.0
 40
0.1875
  0
CIRCLE
  5
17F
330
6F
100
AcDbEntity
  8
9-0
  6
Continuous
 62
     4
100
AcDbCircle
 10
519.1676423280729
 20
710.8221771811749
 30
0.0
 40
0.125
  0
CIRCLE
  5
180
330
6F
100
AcDbEntity
  8
9-0
  6
Continuous
 62
     4
100
AcDbCircle
 10
519.1676423280729
 20
710.8221771811749
 30
0.0
 40
0.0625
  0
CIRCLE
  5
181
330
6F
100
AcDbEntity
  8
9-0
  6
Continuous
 62
     4
100
AcDbCircle
 10
514.1676423280729
 20
710.8221771811749
 30
0.0
 40
0.25
  0
CIRCLE
  5
182
330
6F
100
AcDbEntity
  8
9-0
  6
Continuous
 62
     4
100
AcDbCircle
 10
514.1676423280729
 20
710.8221771811749
 30
0.0
 40
0.1875
  0
CIRCLE
  5
183
330
6F
100
AcDbEntity
  8
9-0
  6
Continuous
 62
     4
100
AcDbCircle
 10
514.1676423280729
 20
710.8221771811749
 30
0.0
 40
0.125
  0
CIRCLE
  5
184
330
6F
100
AcDbEntity
  8
9-0
  6
Continuous
 62
     4
100
AcDbCircle
 10
514.1676423280729
 20
710.8221771811749
 30
0.0
 40
0.0625
  0
LINE
  5
185
330
6F
100
AcDbEntity
  8
2-0
  6
CENTER
 62
     8
100
AcDbLine
 10
1459.167642
 20
1131.843904
 30
0.0
 11
1148.167642
 21
871.8439039999999
 31
0.0
  0
LINE
  5
186
330
6F
100
AcDbEntity
  8
2-0
  6
CENTER
 62
     8
100
AcDbLine
 10
1148.167642
 20
1391.843904
 30
0.0
 11
1459.167642
 21
1131.843904
 31
0.0
  0
LINE
  5
187
330
6F
100
AcDbEntity
  8
2-0
  6
CENTER
 62
     8
100
AcDbLine
 10
1143.167642
 20
1131.843904
 30
0.0
 11
832.1676419999999
 21
871.8439039999999
 31
0.0
  0
LINE
  5
188
330
6F
100
AcDbEntity
  8
2-0
  6
CENTER
 62
     8
100
AcDbLine
 10
832.1676419999999
 20
1391.843904
 30
0.0
 11
1143.167642
 21
1131.843904
 31
0.0
  0
LINE
  5
189
330
6F
100
AcDbEntity
  8
2-0
  6
CENTER
 62
     8
100
AcDbLine
 10
519.167642
 20
1131.843904
 30
0.0
 11
830.1676419999999
 21
871.8439039999999
 31
0.0
  0
LINE
  5
18A
330
6F
100
AcDbEntity
  8
2-0
  6
CENTER
 62
     8
100
AcDbLine
 10
830.1676419999999
 20
1391.843904
 30
0.0
 11
519.167642
 21
1131.843904
 31
0.0
  0
LINE
  5
18B
330
6F
100
AcDbEntity
  8
2-0
  6
Continuous
 62
     7
100
AcDbLine
 10
830.1676419999999
 20
871.8439039999999
 30
0.0
 11
519.167642
 21
871.8439039999999
 31
0.0
  0
LINE
  5
18C
330
6F
100
AcDbEntity
  8
2-0
  6
Continuous
 62
     7
100
AcDbLine
 10
1143.167642
 20
871.8439039999999
 30
0.0
 11
832.1676419999999
 21
871.8439039999999
 31
0.0
  0
LINE
  5
18D
330
6F
100
AcDbEntity
  8
2-0
  6
Continuous
 62
     7
100
AcDbLine
 10
1143.167642
 20
1391.843904
 30
0.0
 11
832.1676419999999
 21
1391.843904
 31
0.0
  0
LINE
  5
18E
330
6F
100
AcDbEntity
  8
2-0
  6
Continuous
 62
     7
100
AcDbLine
 10
830.1676419999999
 20
1391.843904
 30
0.0
 11
519.167642
 21
1391.843904
 31
0.0
  0
LINE
  5
18F
330
6F
100
AcDbEntity
  8
2-0
  6
Continuous
 62
     7
100
AcDbLine
 10
1143.167642
 20
1391.843904
 30
0.0
 11
1143.167642
 21
871.8439039999999
 31
0.0
  0
LINE
  5
190
330
6F
100
AcDbEntity
  8
2-0
  6
Continuous
 62
     7
100
AcDbLine
 10
1148.167642
 20
1391.843904
 30
0.0
 11
1148.167642
 21
871.8439039999999
 31
0.0
  0
LINE
  5
191
330
6F
100
AcDbEntity
  8
2-0
  6
Continuous
 62
     7
100
AcDbLine
 10
830.1676419999999
 20
1391.843904
 30
0.0
 11
830.1676419999999
 21
871.8439039999999
 31
0.0
  0
LINE
  5
192
330
6F
100
AcDbEntity
  8
2-0
  6
Continuous
 62
     7
100
AcDbLine
 10
832.1676419999999
 20
1391.843904
 30
0.0
 11
832.1676419999999
 21
871.8439039999999
 31
0.0
  0
LINE
  5
193
330
6F
100
AcDbEntity
  8
9-0
  6
Continuous
 62
     4
100
AcDbLine
 10
473.812163
 20
1391.843904
 30
0.0
 11
357.331966
 21
1391.843904
 31
0.0
  0
LINE
  5
194
330
6F
100
AcDbEntity
  8
9-0
  6
Continuous
 62
     4
100
AcDbLine
 10
473.796752
 20
1396.843904
 30
0.0
 11
357.331966
 21
1396.843904
 31
0.0
  0
TEXT
  5
195
330
6F
100
AcDbEntity
  8
9-0
 62
     4
100
AcDbText
 10
324.212
 20
1411.955
 30
0.0
 40
36.288
  1
5
 50
90.0
100
AcDbText
  0
LINE
  5
196
330
6F
100
AcDbEntity
  8
9-0
  6
Continuous
 62
     4
100
AcDbLine
 10
357.331966231897
 20
1396.843903935531
 30
0.0
 11
357.331966231897
 21
1391.843903935533
 31
0.0
  0
CIRCLE
  5
197
330
6F
100
AcDbEntity
  8
9-0
  6
Continuous
 62
     4
100
AcDbCircle
 10
357.331966231897
 20
1396.843903935531
 30
0.0
 40
0.25
  0
CIRCLE
  5
198
330
6F
100
AcDbEntity
  8
9-0
  6
Continuous
 62
     4
100
AcDbCircle
 10
357.331966231897
 20
1396.843903935531
 30
0.0
 40
0.1875
  0
CIRCLE
  5
199
330
6F
100
AcDbEntity
  8
9-0
  6
Continuous
 62
     4
100
AcDbCircle
 10
357.331966231897
 20
1396.843903935531
 30
0.0
 40
0.125
  0
CIRCLE
  5
19A
330
6F
100
AcDbEntity
  8
9-0
  6
Continuous
 62
     4
100
AcDbCircle
 10
357.331966231897
 20
1396.843903935531
 30
0.0
 40
0.0625
  0
CIRCLE
  5
19B
330
6F
100
AcDbEntity
  8
9-0
  6
Continuous
 62
     4
100
AcDbCircle
 10
357.331966231897
 20
1391.843903935533
 30
0.0
 40
0.25
  0
CIRCLE
  5
19C
330
6F
100
AcDbEntity
  8
9-0
  6
Continuous
 62
     4
100
AcDbCircle
 10
357.331966231897
 20
1391.843903935533
 30
0.0
 40
0.1875
  0
CIRCLE
  5
19D
330
6F
100
AcDbEntity
  8
9-0
  6
Continuous
 62
     4
100
AcDbCircle
 10
357.331966231897
 20
1391.843903935533
 30
0.0
 40
0.125
  0
CIRCLE
  5
19E
330
6F
100
AcDbEntity
  8
9-0
  6
Continuous
 62
     4
100
AcDbCircle
 10
357.331966231897
 20
1391.843903935533
 30
0.0
 40
0.0625
  0
LINE
  5
19F
330
6F
100
AcDbEntity
  8
9-0
  6
Continuous
 62
     4
100
AcDbLine
 10
473.812163
 20
1391.843904
 30
0.0
 11
357.331966
 21
1391.843904
 31
0.0
  0
LINE
  5
1A0
330
6F
100
AcDbEntity
  8
9-0
  6
Continuous
 62
     4
100
AcDbLine
 10
479.1676419999999
 20
871.8439039999999
 30
0.0
 11
357.331966
 21
871.8439039999999
 31
0.0
  0
TEXT
  5
1A1
330
6F
100
AcDbEntity
  8
9-0
 62
     4
100
AcDbText
 10
356.712
 20
1098.244
 30
0.0
 40
36.288
  1
520
 50
90.0
100
AcDbText
  0
LINE
  5
1A2
330
6F
100
AcDbEntity
  8
9-0
  6
Continuous
 62
     4
100
AcDbLine
 10
357.331966231897
 20
871.843903935531
 30
0.0
 11
357.331966231897
 21
1391.843903935533
 31
0.0
  0
CIRCLE
  5
1A3
330
6F
100
AcDbEntity
  8
9-0
  6
Continuous
 62
     4
100
AcDbCircle
 10
357.331966231897
 20
871.843903935531
 30
0.0
 40
0.25
  0
CIRCLE
  5
1A4
330
6F
100
AcDbEntity
  8
9-0
  6
Continuous
 62
     4
100
AcDbCircle
 10
357.331966231897
 20
871.843903935531
 30
0.0
 40
0.1875
  0
CIRCLE
  5
1A5
330
6F
100
AcDbEntity
  8
9-0
  6
Continuous
 62
     4
100
AcDbCircle
 10
357.331966231897
 20
871.843903935531
 30
0.0
 40
0.125
  0
CIRCLE
  5
1A6
330
6F
100
AcDbEntity
  8
9-0
  6
Continuous
 62
     4
100
AcDbCircle
 10
357.331966231897
 20
871.843903935531
 30
0.0
 40
0.0625
  0
CIRCLE
  5
1A7
330
6F
100
AcDbEntity
  8
9-0
  6
Continuous
 62
     4
100
AcDbCircle
 10
357.331966231897
 20
1391.843903935533
 30
0.0
 40
0.25
  0
CIRCLE
  5
1A8
330
6F
100
AcDbEntity
  8
9-0
  6
Continuous
 62
     4
100
AcDbCircle
 10
357.331966231897
 20
1391.843903935533
 30
0.0
 40
0.1875
  0
CIRCLE
  5
1A9
330
6F
100
AcDbEntity
  8
9-0
  6
Continuous
 62
     4
100
AcDbCircle
 10
357.331966231897
 20
1391.843903935533
 30
0.0
 40
0.125
  0
CIRCLE
  5
1AA
330
6F
100
AcDbEntity
  8
9-0
  6
Continuous
 62
     4
100
AcDbCircle
 10
357.331966231897
 20
1391.843903935533
 30
0.0
 40
0.0625
  0
LINE
  5
1AB
330
6F
100
AcDbEntity
  8
9-0
  6
Continuous
 62
     4
100
AcDbLine
 10
337.331966
 20
871.8439039999999
 30
0.0
 11
257.331966
 21
871.8439039999999
 31
0.0
  0
LINE
  5
1AC
330
6F
100
AcDbEntity
  8
9-0
  6
Continuous
 62
     4
100
AcDbLine
 10
337.331966
 20
1396.843904
 30
0.0
 11
257.331966
 21
1396.843904
 31
0.0
  0
TEXT
  5
1AD
330
6F
100
AcDbEntity
  8
9-0
 62
     4
100
AcDbText
 10
256.712
 20
1100.744
 30
0.0
 40
36.288
  1
525
 50
90.0
100
AcDbText
  0
LINE
  5
1AE
330
6F
100
AcDbEntity
  8
9-0
  6
Continuous
 62
     4
100
AcDbLine
 10
257.331966231897
 20
1396.843903935531
 30
0.0
 11
257.3319662318961
 21
871.843903935531
 31
0.0
  0
CIRCLE
  5
1AF
330
6F
100
AcDbEntity
  8
9-0
  6
Continuous
 62
     4
100
AcDbCircle
 10
257.331966231897
 20
1396.843903935531
 30
0.0
 40
0.25
  0
CIRCLE
  5
1B0
330
6F
100
AcDbEntity
  8
9-0
  6
Continuous
 62
     4
100
AcDbCircle
 10
257.331966231897
 20
1396.843903935531
 30
0.0
 40
0.1875
  0
CIRCLE
  5
1B1
330
6F
100
AcDbEntity
  8
9-0
  6
Continuous
 62
     4
100
AcDbCircle
 10
257.331966231897
 20
1396.843903935531
 30
0.0
 40
0.125
  0
CIRCLE
  5
1B2
330
6F
100
AcDbEntity
  8
9-0
  6
Continuous
 62
     4
100
AcDbCircle
 10
257.331966231897
 20
1396.843903935531
 30
0.0
 40
0.0625
  0
CIRCLE
  5
1B3
330
6F
100
AcDbEntity
  8
9-0
  6
Continuous
 62
     4
100
AcDbCircle
 10
257.3319662318961
 20
871.843903935531
 30
0.0
 40
0.25
  0
CIRCLE
  5
1B4
330
6F
100
AcDbEntity
  8
9-0
  6
Continuous
 62
     4
100
AcDbCircle
 10
257.3319662318961
 20
871.843903935531
 30
0.0
 40
0.1875
  0
CIRCLE
  5
1B5
330
6F
100
AcDbEntity
  8
9-0
  6
Continuous
 62
     4
100
AcDbCircle
 10
257.3319662318961
 20
871.843903935531
 30
0.0
 40
0.125
  0
CIRCLE
  5
1B6
330
6F
100
AcDbEntity
  8
9-0
  6
Continuous
 62
     4
100
AcDbCircle
 10
257.3319662318961
 20
871.843903935531
 30
0.0
 40
0.0625
  0
LINE
  5
1B7
330
6F
100
AcDbEntity
  8
2-0
  6
DASHED2
 62
     7
100
AcDbLine
 10
1139.667642
 20
1149.843904
 30
0.0
 11
530.1676419999999
 21
1149.843904
 31
0.0
  0
LINE
  5
1B8
330
6F
100
AcDbEntity
  8
2-0
  6
DASHED2
 62
     7
100
AcDbLine
 10
1139.667642
 20
1161.843904
 30
0.0
 11
530.1676419999999
 21
1161.843904
 31
0.0
  0
LINE
  5
1B9
330
6F
100
AcDbEntity
  8
2-0
  6
DASHED2
 62
     7
100
AcDbLine
 10
1139.667642
 20
1381.843904
 30
0.0
 11
530.1676419999999
 21
1381.843904
 31
0.0
  0
LINE
  5
1BA
330
6F
100
AcDbEntity
  8
2-0
  6
DASHED2
 62
     7
100
AcDbLine
 10
1445.667642
 20
1381.843904
 30
0.0
 11
1156.667642
 21
1381.843904
 31
0.0
  0
LINE
  5
1BB
330
6F
100
AcDbEntity
  8
2-0
  6
DASHED2
 62
     7
100
AcDbLine
 10
1153.667642
 20
914.343904
 30
0.0
 11
1153.667642
 21
1396.843904
 31
0.0
  0
LINE
  5
1BC
330
6F
100
AcDbEntity
  8
2-0
  6
DASHED2
 62
     7
100
AcDbLine
 10
1139.667642
 20
914.343904
 30
0.0
 11
1139.667642
 21
1396.843904
 31
0.0
  0
LINE
  5
1BD
330
6F
100
AcDbEntity
  8
2-0
  6
Continuous
 62
     7
100
AcDbLine
 10
1459.167642
 20
871.8439039999999
 30
0.0
 11
1459.167642
 21
1391.843904
 31
0.0
  0
LINE
  5
1BE
330
6F
100
AcDbEntity
  8
2-0
  6
Continuous
 62
     7
100
AcDbLine
 10
519.167642
 20
1391.843904
 30
0.0
 11
519.167642
 21
871.8439039999999
 31
0.0
  0
LINE
  5
1BF
330
6F
100
AcDbEntity
  8
2-0
  6
Continuous
 62
     7
100
AcDbLine
 10
1459.167642
 20
871.8439039999999
 30
0.0
 11
1148.167642
 21
871.8439039999999
 31
0.0
  0
LINE
  5
1C0
330
6F
100
AcDbEntity
  8
2-0
  6
Continuous
 62
     7
100
AcDbLine
 10
1459.167642
 20
1391.843904
 30
0.0
 11
1148.167642
 21
1391.843904
 31
0.0
  0
LINE
  5
1C1
330
6F
100
AcDbEntity
  8
2-0
  6
DASHED2
 62
     7
100
AcDbLine
 10
1464.167642
 20
896.8439039999999
 30
0.0
 11
514.167642
 21
896.8439039999999
 31
0.0
  0
LINE
  5
1C2
330
6F
100
AcDbEntity
  8
2-0
  6
Continuous
 62
     7
100
AcDbLine
 10
1464.167642
 20
1396.843904
 30
0.0
 11
514.167642
 21
1396.843904
 31
0.0
  0
LINE
  5
1C3
330
6F
100
AcDbEntity
  8
2-0
  6
DASHED2
 62
     7
100
AcDbLine
 10
1445.667642
 20
914.343904
 30
0.0
 11
1445.667642
 21
1396.843904
 31
0.0
  0
LINE
  5
1C4
330
6F
100
AcDbEntity
  8
2-0
  6
DASHED2
 62
     7
100
AcDbLine
 10
530.1676419999999
 20
1396.843904
 30
0.0
 11
530.1676419999999
 21
914.343904
 31
0.0
  0
LINE
  5
1C5
330
6F
100
AcDbEntity
  8
2-0
  6
Continuous
 62
     7
100
AcDbLine
 10
514.167642
 20
1396.843904
 30
0.0
 11
514.167642
 21
896.8439039999999
 31
0.0
  0
LINE
  5
1C6
330
6F
100
AcDbEntity
  8
2-0
  6
Continuous
 62
     7
100
AcDbLine
 10
1464.167642
 20
896.8439039999999
 30
0.0
 11
1464.167642
 21
1396.843904
 31
0.0
  0
LINE
  5
1C7
330
6F
100
AcDbEntity
  8
9-0
  6
Continuous
 62
     4
100
AcDbLine
 10
477.167642
 20
1968.846341
 30
0.0
 11
357.331966
 21
1968.846341
 31
0.0
  0
LINE
  5
1C8
330
6F
100
AcDbEntity
  8
9-0
  6
Continuous
 62
     4
100
AcDbLine
 10
471.1676419999999
 20
2330.846341
 30
0.0
 11
357.331966
 21
2330.846341
 31
0.0
  0
TEXT
  5
1C9
330
6F
100
AcDbEntity
  8
9-0
 62
     4
100
AcDbText
 10
356.712
 20
2116.246
 30
0.0
 40
36.288
  1
362
 50
90.0
100
AcDbText
  0
LINE
  5
1CA
330
6F
100
AcDbEntity
  8
9-0
  6
Continuous
 62
     4
100
AcDbLine
 10
357.331966231897
 20
2330.84634137812
 30
0.0
 11
357.331966231897
 21
1968.84634137812
 31
0.0
  0
CIRCLE
  5
1CB
330
6F
100
AcDbEntity
  8
9-0
  6
Continuous
 62
     4
100
AcDbCircle
 10
357.331966231897
 20
2330.84634137812
 30
0.0
 40
0.25
  0
CIRCLE
  5
1CC
330
6F
100
AcDbEntity
  8
9-0
  6
Continuous
 62
     4
100
AcDbCircle
 10
357.331966231897
 20
2330.84634137812
 30
0.0
 40
0.1875
  0
CIRCLE
  5
1CD
330
6F
100
AcDbEntity
  8
9-0
  6
Continuous
 62
     4
100
AcDbCircle
 10
357.331966231897
 20
2330.84634137812
 30
0.0
 40
0.125
  0
CIRCLE
  5
1CE
330
6F
100
AcDbEntity
  8
9-0
  6
Continuous
 62
     4
100
AcDbCircle
 10
357.331966231897
 20
2330.84634137812
 30
0.0
 40
0.0625
  0
CIRCLE
  5
1CF
330
6F
100
AcDbEntity
  8
9-0
  6
Continuous
 62
     4
100
AcDbCircle
 10
357.331966231897
 20
1968.84634137812
 30
0.0
 40
0.25
  0
CIRCLE
  5
1D0
330
6F
100
AcDbEntity
  8
9-0
  6
Continuous
 62
     4
100
AcDbCircle
 10
357.331966231897
 20
1968.84634137812
 30
0.0
 40
0.1875
  0
CIRCLE
  5
1D1
330
6F
100
AcDbEntity
  8
9-0
  6
Continuous
 62
     4
100
AcDbCircle
 10
357.331966231897
 20
1968.84634137812
 30
0.0
 40
0.125
  0
CIRCLE
  5
1D2
330
6F
100
AcDbEntity
  8
9-0
  6
Continuous
 62
     4
100
AcDbCircle
 10
357.331966231897
 20
1968.84634137812
 30
0.0
 40
0.0625
  0
LINE
  5
1D3
330
6F
100
AcDbEntity
  8
9-0
  6
Continuous
 62
     4
100
AcDbLine
 10
1464.167642
 20
2428.402512
 30
0.0
 11
1464.167642
 21
2535.191954
 31
0.0
  0
LINE
  5
1D4
330
6F
100
AcDbEntity
  8
9-0
  6
Continuous
 62
     4
100
AcDbLine
 10
1146.167642
 20
2534.72056
 30
0.0
 11
1146.167642
 21
2535.191954
 31
0.0
  0
TEXT
  5
1D5
330
6F
100
AcDbEntity
  8
9-0
 62
     4
100
AcDbText
 10
1274.39
 20
2535.812
 30
0.0
 40
36.288
  1
318
100
AcDbText
  0
LINE
  5
1D6
330
6F
100
AcDbEntity
  8
9-0
  6
Continuous
 62
     4
100
AcDbLine
 10
1146.167642328072
 20
2535.19195430384
 30
0.0
 11
1464.167642328072
 21
2535.19195430384
 31
0.0
  0
CIRCLE
  5
1D7
330
6F
100
AcDbEntity
  8
9-0
  6
Continuous
 62
     4
100
AcDbCircle
 10
1146.167642328072
 20
2535.19195430384
 30
0.0
 40
0.25
  0
CIRCLE
  5
1D8
330
6F
100
AcDbEntity
  8
9-0
  6
Continuous
 62
     4
100
AcDbCircle
 10
1146.167642328072
 20
2535.19195430384
 30
0.0
 40
0.1875
  0
CIRCLE
  5
1D9
330
6F
100
AcDbEntity
  8
9-0
  6
Continuous
 62
     4
100
AcDbCircle
 10
1146.167642328072
 20
2535.19195430384
 30
0.0
 40
0.125
  0
CIRCLE
  5
1DA
330
6F
100
AcDbEntity
  8
9-0
  6
Continuous
 62
     4
100
AcDbCircle
 10
1146.167642328072
 20
2535.19195430384
 30
0.0
 40
0.0625
  0
CIRCLE
  5
1DB
330
6F
100
AcDbEntity
  8
9-0
  6
Continuous
 62
     4
100
AcDbCircle
 10
1464.167642328072
 20
2535.19195430384
 30
0.0
 40
0.25
  0
CIRCLE
  5
1DC
330
6F
100
AcDbEntity
  8
9-0
  6
Continuous
 62
     4
100
AcDbCircle
 10
1464.167642328072
 20
2535.19195430384
 30
0.0
 40
0.1875
  0
CIRCLE
  5
1DD
330
6F
100
AcDbEntity
  8
9-0
  6
Continuous
 62
     4
100
AcDbCircle
 10
1464.167642328072
 20
2535.19195430384
 30
0.0
 40
0.125
  0
CIRCLE
  5
1DE
330
6F
100
AcDbEntity
  8
9-0
  6
Continuous
 62
     4
100
AcDbCircle
 10
1464.167642328072
 20
2535.19195430384
 30
0.0
 40
0.0625
  0
LINE
  5
1DF
330
6F
100
AcDbEntity
  8
9-0
  6
Continuous
 62
     4
100
AcDbLine
 10
514.167642
 20
2370.231278
 30
0.0
 11
514.167642
 21
2535.191954
 31
0.0
  0
LINE
  5
1E0
330
6F
100
AcDbEntity
  8
9-0
  6
Continuous
 62
     4
100
AcDbLine
 10
1146.167642
 20
2534.72056
 30
0.0
 11
1146.167642
 21
2535.191954
 31
0.0
  0
TEXT
  5
1E1
330
6F
100
AcDbEntity
  8
9-0
 62
     4
100
AcDbText
 10
799.39
 20
2535.812
 30
0.0
 40
36.288
  1
632
100
AcDbText
  0
LINE
  5
1E2
330
6F
100
AcDbEntity
  8
9-0
  6
Continuous
 62
     4
100
AcDbLine
 10
1146.167642328072
 20
2535.19195430384
 30
0.0
 11
514.1676423280729
 21
2535.19195430384
 31
0.0
  0
CIRCLE
  5
1E3
330
6F
100
AcDbEntity
  8
9-0
  6
Continuous
 62
     4
100
AcDbCircle
 10
1146.167642328072
 20
2535.19195430384
 30
0.0
 40
0.25
  0
CIRCLE
  5
1E4
330
6F
100
AcDbEntity
  8
9-0
  6
Continuous
 62
     4
100
AcDbCircle
 10
1146.167642328072
 20
2535.19195430384
 30
0.0
 40
0.1875
  0
CIRCLE
  5
1E5
330
6F
100
AcDbEntity
  8
9-0
  6
Continuous
 62
     4
100
AcDbCircle
 10
1146.167642328072
 20
2535.19195430384
 30
0.0
 40
0.125
  0
CIRCLE
  5
1E6
330
6F
100
AcDbEntity
  8
9-0
  6
Continuous
 62
     4
100
AcDbCircle
 10
1146.167642328072
 20
2535.19195430384
 30
0.0
 40
0.0625
  0
CIRCLE
  5
1E7
330
6F
100
AcDbEntity
  8
9-0
  6
Continuous
 62
     4
100
AcDbCircle
 10
514.1676423280729
 20
2535.19195430384
 30
0.0
 40
0.25
  0
CIRCLE
  5
1E8
330
6F
100
AcDbEntity
  8
9-0
  6
Continuous
 62
     4
100
AcDbCircle
 10
514.1676423280729
 20
2535.19195430384
 30
0.0
 40
0.1875
  0
CIRCLE
  5
1E9
330
6F
100
AcDbEntity
  8
9-0
  6
Continuous
 62
     4
100
AcDbCircle
 10
514.1676423280729
 20
2535.19195430384
 30
0.0
 40
0.125
  0
CIRCLE
  5
1EA
330
6F
100
AcDbEntity
  8
9-0
  6
Continuous
 62
     4
100
AcDbCircle
 10
514.1676423280729
 20
2535.19195430384
 30
0.0
 40
0.0625
  0
LINE
  5
1EB
330
6F
100
AcDbEntity
  8
2-0
  6
Continuous
 62
     7
100
AcDbLine
 10
832.1676419999999
 20
1968.846341
 30
0.0
 11
1143.167642
 21
1968.846341
 31
0.0
  0
LINE
  5
1EC
330
6F
100
AcDbEntity
  8
2-0
  6
Continuous
 62
     7
100
AcDbLine
 10
832.1676419999999
 20
1983.846341
 30
0.0
 11
1143.167642
 21
1983.846341
 31
0.0
  0
LINE
  5
1ED
330
6F
100
AcDbEntity
  8
2-0
  6
Continuous
 62
     7
100
AcDbLine
 10
830.1676419999999
 20
1983.846341
 30
0.0
 11
830.1676419999999
 21
1968.846341
 31
0.0
  0
LINE
  5
1EE
330
6F
100
AcDbEntity
  8
2-0
  6
Continuous
 62
     7
100
AcDbLine
 10
832.1676419999999
 20
1983.846341
 30
0.0
 11
832.1676419999999
 21
1968.846341
 31
0.0
  0
LINE
  5
1EF
330
6F
100
AcDbEntity
  8
2-0
  6
Continuous
 62
     7
100
AcDbLine
 10
1148.167642
 20
1983.846341
 30
0.0
 11
1461.167642
 21
1983.846341
 31
0.0
  0
LINE
  5
1F0
330
6F
100
AcDbEntity
  8
2-0
  6
Continuous
 62
     7
100
AcDbLine
 10
1148.167642
 20
1968.846341
 30
0.0
 11
1461.167642
 21
1968.846341
 31
0.0
  0
LINE
  5
1F1
330
6F
100
AcDbEntity
  8
2-0
  6
Continuous
 62
     7
100
AcDbLine
 10
1143.167642
 20
1983.846341
 30
0.0
 11
1143.167642
 21
1968.846341
 31
0.0
  0
LINE
  5
1F2
330
6F
100
AcDbEntity
  8
2-0
  6
Continuous
 62
     7
100
AcDbLine
 10
1148.167642
 20
1983.846341
 30
0.0
 11
1148.167642
 21
1968.846341
 31
0.0
  0
LINE
  5
1F3
330
6F
100
AcDbEntity
  8
2-0
  6
DASHED2
 62
     7
100
AcDbLine
 10
1406.667642
 20
2310.846341
 30
0.0
 11
1446.667642
 21
2330.846341
 31
0.0
  0
LINE
  5
1F4
330
6F
100
AcDbEntity
  8
2-0
  6
DASHED2
 62
     7
100
AcDbLine
 10
1166.167642
 20
2330.846341
 30
0.0
 11
1126.167642
 21
2310.846341
 31
0.0
  0
LINE
  5
1F5
330
6F
100
AcDbEntity
  8
2-0
  6
DASHED2
 62
     7
100
AcDbLine
 10
1153.667642
 20
1985.846341
 30
0.0
 11
1153.667642
 21
2308.146341
 31
0.0
  0
LINE
  5
1F6
330
6F
100
AcDbEntity
  8
2-0
  6
DASHED2
 62
     7
100
AcDbLine
 10
1138.667642
 20
1985.846341
 30
0.0
 11
1138.667642
 21
2308.146341
 31
0.0
  0
LINE
  5
1F7
330
6F
100
AcDbEntity
  8
2-0
  6
DASHED2
 62
     7
100
AcDbLine
 10
1138.667642
 20
2023.146341
 30
0.0
 11
529.1676419999999
 21
2023.146341
 31
0.0
  0
LINE
  5
1F8
330
6F
100
AcDbEntity
  8
2-0
  6
DASHED2
 62
     7
100
AcDbLine
 10
1446.667642
 20
2308.146341
 30
0.0
 11
531.667642
 21
2308.146341
 31
0.0
  0
LINE
  5
1F9
330
6F
100
AcDbEntity
  8
2-0
  6
DASHED2
 62
     7
100
AcDbLine
 10
1166.167642
 20
2310.846341
 30
0.0
 11
1166.167642
 21
2330.846341
 31
0.0
  0
LINE
  5
1FA
330
6F
100
AcDbEntity
  8
2-0
  6
DASHED2
 62
     7
100
AcDbLine
 10
1126.167642
 20
2310.846341
 30
0.0
 11
1126.167642
 21
2330.846341
 31
0.0
  0
LINE
  5
1FB
330
6F
100
AcDbEntity
  8
A-0
  6
CENTER
 62
     6
100
AcDbLine
 10
1146.167642
 20
2310.846341
 30
0.0
 11
1146.167642
 21
2531.503084
 31
0.0
  0
LINE
  5
1FC
330
6F
100
AcDbEntity
  8
2-0
  6
DASHED2
 62
     7
100
AcDbLine
 10
1406.667642
 20
2330.846341
 30
0.0
 11
1406.667642
 21
2310.846341
 31
0.0
  0
LINE
  5
1FD
330
6F
100
AcDbEntity
  8
2-0
  6
Continuous
 62
     7
100
AcDbLine
 10
1461.167642
 20
1983.846341
 30
0.0
 11
1461.167642
 21
1968.846341
 31
0.0
  0
LINE
  5
1FE
330
6F
100
AcDbEntity
  8
2-0
  6
Continuous
 62
     7
100
AcDbLine
 10
514.167642
 20
1985.846341
 30
0.0
 11
1464.167642
 21
1985.846341
 31
0.0
  0
LINE
  5
1FF
330
6F
100
AcDbEntity
  8
2-0
  6
Continuous
 62
     7
100
AcDbLine
 10
517.1676419999999
 20
1983.846341
 30
0.0
 11
830.1676419999999
 21
1983.846341
 31
0.0
  0
LINE
  5
200
330
6F
100
AcDbEntity
  8
2-0
  6
DASHED2
 62
     7
100
AcDbLine
 10
1446.667642
 20
2310.846341
 30
0.0
 11
531.667642
 21
2310.846341
 31
0.0
  0
LINE
  5
201
330
6F
100
AcDbEntity
  8
2-0
  6
Continuous
 62
     7
100
AcDbLine
 10
1446.667642
 20
1985.846341
 30
0.0
 11
1446.667642
 21
2330.846341
 31
0.0
  0
LINE
  5
202
330
6F
100
AcDbEntity
  8
2-0
  6
Continuous
 62
     7
100
AcDbLine
 10
1464.167642
 20
1985.846341
 30
0.0
 11
1464.167642
 21
2330.846341
 31
0.0
  0
LINE
  5
203
330
6F
100
AcDbEntity
  8
2-0
  6
Continuous
 62
     7
100
AcDbLine
 10
517.1676419999999
 20
1968.846341
 30
0.0
 11
830.1676419999999
 21
1968.846341
 31
0.0
  0
LINE
  5
204
330
6F
100
AcDbEntity
  8
2-0
  6
Continuous
 62
     7
100
AcDbLine
 10
1464.167642
 20
2330.846341
 30
0.0
 11
514.167642
 21
2330.846341
 31
0.0
  0
LINE
  5
205
330
6F
100
AcDbEntity
  8
2-0
  6
DASHED2
 62
     7
100
AcDbLine
 10
531.667642
 20
2310.846341
 30
0.0
 11
571.6676419999999
 21
2330.846341
 31
0.0
  0
TEXT
  5
206
330
6F
100
AcDbEntity
  8
D-0
 62
     5
100
AcDbText
 10
3251.803
 20
577.394
 30
0.0
 40
20.736
  1
火山性ガラス質複層板 6t（化粧仕上）
100
AcDbText
  0
LINE
  5
207
330
6F
100
AcDbEntity
  8
2-0
  6
Continuous
 62
     7
100
AcDbLine
 10
3168.165640924847
 20
679.5197759341359
 30
0.0
 11
3230.190369863681
 21
569.004344419507
 31
0.0
  0
LINE
  5
208
330
6F
100
AcDbEntity
  8
2-0
  6
Continuous
 62
     7
100
AcDbLine
 10
3230.190369863681
 20
569.004344419507
 30
0.0
 11
3718.734742158055
 21
569.004344419507
 31
0.0
  0
LINE
  5
209
330
6F
100
AcDbEntity
  8
2-0
  6
Continuous
 62
     7
100
AcDbLine
 10
3264.051087
 20
962.2655149999999
 30
0.0
 11
3349.051087
 21
962.2655149999999
 31
0.0
  0
LINE
  5
20A
330
6F
100
AcDbEntity
  8
2-0
  6
Continuous
 62
     7
100
AcDbLine
 10
2996.171994
 20
668.253095
 30
0.0
 11
3349.051087
 21
668.253095
 31
0.0
  0
LINE
  5
20B
330
6F
100
AcDbEntity
  8
2-0
  6
Continuous
 62
     7
100
AcDbLine
 10
2996.171994
 20
698.253095
 30
0.0
 11
3304.051087
 21
698.253095
 31
0.0
  0
LINE
  5
20C
330
6F
100
AcDbEntity
  8
2-0
  6
Continuous
 62
     7
100
AcDbLine
 10
2996.171994
 20
755.753095
 30
0.0
 11
2996.171994
 21
668.253095
 31
0.0
  0
LINE
  5
20D
330
6F
100
AcDbEntity
  8
2-0
  6
Continuous
 62
     7
100
AcDbLine
 10
3280.200567
 20
698.253095
 30
0.0
 11
3280.200567
 21
962.2655149999999
 31
0.0
  0
LINE
  5
20E
330
6F
100
AcDbEntity
  8
2-0
  6
Continuous
 62
     7
100
AcDbLine
 10
3264.051087
 20
698.253095
 30
0.0
 11
3264.051087
 21
962.2655149999999
 31
0.0
  0
LINE
  5
20F
330
6F
100
AcDbEntity
  8
2-0
  6
Continuous
 62
     7
100
AcDbLine
 10
3276.551087
 20
698.253095
 30
0.0
 11
3276.551087
 21
962.2655149999999
 31
0.0
  0
TEXT
  5
210
330
6F
100
AcDbEntity
  8
D-0
 62
     5
100
AcDbText
 10
2929.493
 20
820.7549999999999
 30
0.0
 40
20.736
  1
パーチクルボード
100
AcDbText
  0
LINE
  5
211
330
6F
100
AcDbEntity
  8
2-0
  6
Continuous
 62
     7
100
AcDbLine
 10
3210.913513307655
 20
722.1179530595329
 30
0.0
 11
3152.680608374448
 21
812.8760645875258
 31
0.0
  0
LINE
  5
212
330
6F
100
AcDbEntity
  8
2-0
  6
Continuous
 62
     7
100
AcDbLine
 10
3152.680608374448
 20
812.8760645875258
 30
0.0
 11
2922.566972010812
 21
812.8760645875258
 31
0.0
  0
LINE
  5
213
330
6F
100
AcDbEntity
  8
2-0
  6
Continuous
 62
     7
100
AcDbLine
 10
2996.171994
 20
743.253095
 30
0.0
 11
3264.051087
 21
743.253095
 31
0.0
  0
LINE
  5
214
330
6F
100
AcDbEntity
  8
2-0
  6
Continuous
 62
     7
100
AcDbLine
 10
2996.171994
 20
755.753095
 30
0.0
 11
3264.051087
 21
755.753095
 31
0.0
  0
LINE
  5
215
330
6F
100
AcDbEntity
  8
2-0
  6
Continuous
 62
     7
100
AcDbLine
 10
3304.051087
 20
668.253095
 30
0.0
 11
3304.051087
 21
962.2655149999999
 31
0.0
  0
LINE
  5
216
330
6F
100
AcDbEntity
  8
2-0
  6
Continuous
 62
     7
100
AcDbLine
 10
3349.051087
 20
668.253095
 30
0.0
 11
3349.051087
 21
962.2655149999999
 31
0.0
  0
TEXT
  5
217
330
6F
100
AcDbEntity
  8
D-0
 62
     5
100
AcDbText
 10
3317.557
 20
529.64
 30
0.0
 40
20.736
  1
(不燃認定品)
100
AcDbText
  0
LINE
  5
218
330
6F
100
AcDbEntity
  8
2-0
  6
Continuous
 62
     7
100
AcDbLine
 10
3300.200567
 20
698.253095
 30
0.0
 11
3300.200567
 21
962.2655149999999
 31
0.0
  0
LINE
  5
219
330
6F
100
AcDbEntity
  8
2-0
  6
Continuous
 62
     7
100
AcDbLine
 10
3295.200567
 20
698.253095
 30
0.0
 11
3295.200567
 21
962.2655149999999
 31
0.0
  0
LINE
  5
21A
330
6F
100
AcDbEntity
  8
2-0
  6
Continuous
 62
     7
100
AcDbLine
 10
3290.200567
 20
698.253095
 30
0.0
 11
3290.200567
 21
962.2655149999999
 31
0.0
  0
LINE
  5
21B
330
6F
100
AcDbEntity
  8
2-0
  6
Continuous
 62
     7
100
AcDbLine
 10
3285.200567
 20
698.253095
 30
0.0
 11
3285.200567
 21
962.2655149999999
 31
0.0
  0
LINE
  5
21C
330
6F
100
AcDbEntity
  8
2-0
  6
Continuous
 62
     7
100
AcDbLine
 10
3286.990222991567
 20
833.224107414531
 30
0.0
 11
3228.757318058359
 21
924.891309851616
 31
0.0
  0
LINE
  5
21D
330
6F
100
AcDbEntity
  8
2-0
  6
Continuous
 62
     7
100
AcDbLine
 10
3228.757318058359
 20
924.891309851616
 30
0.0
 11
3053.075499876542
 21
924.891309851616
 31
0.0
  0
TEXT
  5
21E
330
6F
100
AcDbEntity
  8
D-0
 62
     5
100
AcDbText
 10
3056.77
 20
931.8610000000001
 30
0.0
 40
20.736
  1
ラワンベニヤ
100
AcDbText
  0
LINE
  5
21F
330
6F
100
AcDbEntity
  8
2-0
  6
Continuous
 62
     7
100
AcDbLine
 10
3334.482340616516
 20
836.8724526665758
 30
0.0
 11
3396.507069555351
 21
726.3570211519439
 31
0.0
  0
LINE
  5
220
330
6F
100
AcDbEntity
  8
2-0
  6
Continuous
 62
     7
100
AcDbLine
 10
3396.507069555351
 20
726.3570211519439
 30
0.0
 11
3885.051441849724
 21
726.3570211519439
 31
0.0
  0
TEXT
  5
221
330
6F
100
AcDbEntity
  8
D-0
 62
     5
100
AcDbText
 10
3418.12
 20
734.7469999999999
 30
0.0
 40
20.736
  1
火山性ガラス質複層板 9t（化粧仕上）
100
AcDbText
  0
TEXT
  5
222
330
6F
100
AcDbEntity
  8
D-0
 62
     5
100
AcDbText
 10
3433.873
 20
686.993
 30
0.0
 40
20.736
  1
(不燃認定品)
100
AcDbText
  0
TEXT
  5
223
330
6F
100
AcDbEntity
  8
D-0
 62
     5
100
AcDbText
 10
3244.693
 20
434.6309999999999
 30
0.0
 40
25.92
  1
Ａ部 詳細図
100
AcDbText
  0
LINE
  5
224
330
6F
100
AcDbEntity
  8
2-0
  6
Continuous
 62
     7
100
AcDbLine
 10
3165.607388
 20
475.027277
 30
0.0
 11
3498.387917
 21
475.027277
 31
0.0
  0
LINE
  5
225
330
6F
100
AcDbEntity
  8
2-0
  6
Continuous
 62
     7
100
AcDbLine
 10
3165.607388
 20
425.027277
 30
0.0
 11
3498.387917
 21
425.027277
 31
0.0
  0
LINE
  5
226
330
6F
100
AcDbEntity
  8
2-0
  6
Continuous
 62
     7
100
AcDbLine
 10
3165.607388
 20
475.027277
 30
0.0
 11
3165.607388
 21
425.027277
 31
0.0
  0
LINE
  5
227
330
6F
100
AcDbEntity
  8
2-0
  6
Continuous
 62
     7
100
AcDbLine
 10
3498.387917
 20
475.027277
 30
0.0
 11
3498.387917
 21
425.027277
 31
0.0
  0
LINE
  5
228
330
6F
100
AcDbEntity
  8
2-0
  6
Continuous
 62
     7
100
AcDbLine
 10
2741.911741
 20
1180.813674
 30
0.0
 11
2741.911741
 21
450.027277
 31
0.0
  0
LINE
  5
229
330
6F
100
AcDbEntity
  8
2-0
  6
Continuous
 62
     7
100
AcDbLine
 10
2741.911741
 20
1180.813674
 30
0.0
 11
3949.872123
 21
1180.813674
 31
0.0
  0
LINE
  5
22A
330
6F
100
AcDbEntity
  8
2-0
  6
Continuous
 62
     7
100
AcDbLine
 10
2741.911741
 20
450.027277
 30
0.0
 11
3165.607388
 21
450.027277
 31
0.0
  0
LINE
  5
22B
330
6F
100
AcDbEntity
  8
2-0
  6
Continuous
 62
     7
100
AcDbLine
 10
3949.872123
 20
1180.813674
 30
0.0
 11
3949.872123
 21
450.027277
 31
0.0
  0
LINE
  5
22C
330
6F
100
AcDbEntity
  8
2-0
  6
Continuous
 62
     7
100
AcDbLine
 10
3498.387917
 20
450.027277
 30
0.0
 11
3949.872123
 21
450.027277
 31
0.0
  0
LINE
  5
22D
330
6F
100
AcDbEntity
  8
2-0
  6
Continuous
 62
     4
100
AcDbLine
 10
3006.205684
 20
698.253095
 30
0.0
 11
2910.937599
 21
698.253095
 31
0.0
  0
LINE
  5
22E
330
6F
100
AcDbEntity
  8
2-0
  6
Continuous
 62
     4
100
AcDbLine
 10
3006.078167
 20
668.253095
 30
0.0
 11
2910.937599
 21
668.253095
 31
0.0
  0
LINE
  5
22F
330
6F
100
AcDbEntity
  8
2-0
  6
Continuous
 62
     4
100
AcDbLine
 10
2910.937599
 20
708.253095
 30
0.0
 11
2910.937599
 21
718.253095
 31
0.0
  0
LINE
  5
230
330
6F
100
AcDbEntity
  8
2-0
  6
Continuous
 62
     4
100
AcDbLine
 10
2910.937599
 20
658.253095
 30
0.0
 11
2910.937599
 21
648.253095
 31
0.0
  0
TEXT
  5
231
330
6F
100
AcDbEntity
  8
2-0
 62
     4
100
AcDbText
 10
2907.638
 20
675.253
 30
0.0
 40
25.92
  1
6
 50
90.0
100
AcDbText
  0
LINE
  5
232
330
6F
100
AcDbEntity
  8
2-0
  6
Continuous
 62
     4
100
AcDbLine
 10
2910.937599
 20
698.253095
 30
0.0
 11
2910.937599
 21
668.253095
 31
0.0
  0
CIRCLE
  5
233
330
6F
100
AcDbEntity
  8
2-0
  6
Continuous
 62
     4
100
AcDbCircle
 10
2910.937598762647
 20
698.253094829954
 30
0.0
 40
0.25
  0
CIRCLE
  5
234
330
6F
100
AcDbEntity
  8
2-0
  6
Continuous
 62
     4
100
AcDbCircle
 10
2910.937598762647
 20
698.253094829954
 30
0.0
 40
0.1875
  0
CIRCLE
  5
235
330
6F
100
AcDbEntity
  8
2-0
  6
Continuous
 62
     4
100
AcDbCircle
 10
2910.937598762647
 20
698.253094829954
 30
0.0
 40
0.125
  0
CIRCLE
  5
236
330
6F
100
AcDbEntity
  8
2-0
  6
Continuous
 62
     4
100
AcDbCircle
 10
2910.937598762647
 20
698.253094829954
 30
0.0
 40
0.0625
  0
ARC
  5
237
330
6F
100
AcDbEntity
  8
2-0
 62
     4
100
AcDbCircle
 10
2910.942598762647
 20
698.253094829954
 30
0.0
 40
2.5
100
AcDbArc
 50
270.1145914065301
 51
90.11459140594496
  0
LINE
  5
238
330
6F
100
AcDbEntity
  8
2-0
 62
     4
100
AcDbLine
 10
2910.937598762571
 20
703.253094829954
 30
0.0
 11
2910.937598762494
 21
708.2530948299541
 31
0.0
  0
CIRCLE
  5
239
330
6F
100
AcDbEntity
  8
2-0
  6
Continuous
 62
     4
100
AcDbCircle
 10
2910.937598762647
 20
668.253094829954
 30
0.0
 40
0.25
  0
CIRCLE
  5
23A
330
6F
100
AcDbEntity
  8
2-0
  6
Continuous
 62
     4
100
AcDbCircle
 10
2910.937598762647
 20
668.253094829954
 30
0.0
 40
0.1875
  0
CIRCLE
  5
23B
330
6F
100
AcDbEntity
  8
2-0
  6
Continuous
 62
     4
100
AcDbCircle
 10
2910.937598762647
 20
668.253094829954
 30
0.0
 40
0.125
  0
CIRCLE
  5
23C
330
6F
100
AcDbEntity
  8
2-0
  6
Continuous
 62
     4
100
AcDbCircle
 10
2910.937598762647
 20
668.253094829954
 30
0.0
 40
0.0625
  0
ARC
  5
23D
330
6F
100
AcDbEntity
  8
2-0
 62
     4
100
AcDbCircle
 10
2910.932598762647
 20
668.253094829954
 30
0.0
 40
2.5
100
AcDbArc
 50
90.11459140653
 51
270.114591405945
  0
LINE
  5
23E
330
6F
100
AcDbEntity
  8
2-0
 62
     4
100
AcDbLine
 10
2910.937598762673
 20
663.2530948299539
 30
0.0
 11
2910.937598762698
 21
658.2530948299539
 31
0.0
  0
LINE
  5
23F
330
6F
100
AcDbEntity
  8
2-0
  6
Continuous
 62
     4
100
AcDbLine
 10
3006.205684
 20
698.253095
 30
0.0
 11
2910.937599
 21
698.253095
 31
0.0
  0
LINE
  5
240
330
6F
100
AcDbEntity
  8
2-0
  6
Continuous
 62
     4
100
AcDbLine
 10
3006.014408
 20
743.253095
 30
0.0
 11
2910.937599
 21
743.253095
 31
0.0
  0
LINE
  5
241
330
6F
100
AcDbEntity
  8
2-0
  6
Continuous
 62
     4
100
AcDbLine
 10
2910.937599
 20
708.253095
 30
0.0
 11
2910.937599
 21
733.253095
 31
0.0
  0
TEXT
  5
242
330
6F
100
AcDbEntity
  8
2-0
 62
     4
100
AcDbText
 10
2907.638
 20
712.753
 30
0.0
 40
25.92
  1
9
 50
90.0
100
AcDbText
  0
CIRCLE
  5
243
330
6F
100
AcDbEntity
  8
2-0
  6
Continuous
 62
     4
100
AcDbCircle
 10
2910.937598762647
 20
698.253094829954
 30
0.0
 40
0.25
  0
CIRCLE
  5
244
330
6F
100
AcDbEntity
  8
2-0
  6
Continuous
 62
     4
100
AcDbCircle
 10
2910.937598762647
 20
698.253094829954
 30
0.0
 40
0.1875
  0
CIRCLE
  5
245
330
6F
100
AcDbEntity
  8
2-0
  6
Continuous
 62
     4
100
AcDbCircle
 10
2910.937598762647
 20
698.253094829954
 30
0.0
 40
0.125
  0
CIRCLE
  5
246
330
6F
100
AcDbEntity
  8
2-0
  6
Continuous
 62
     4
100
AcDbCircle
 10
2910.937598762647
 20
698.253094829954
 30
0.0
 40
0.0625
  0
ARC
  5
247
330
6F
100
AcDbEntity
  8
2-0
 62
     4
100
AcDbCircle
 10
2910.942598762647
 20
698.253094829954
 30
0.0
 40
2.5
100
AcDbArc
 50
270.1145914065301
 51
90.11459140594496
  0
LINE
  5
248
330
6F
100
AcDbEntity
  8
2-0
 62
     4
100
AcDbLine
 10
2910.937598762571
 20
703.253094829954
 30
0.0
 11
2910.937598762494
 21
708.2530948299541
 31
0.0
  0
CIRCLE
  5
249
330
6F
100
AcDbEntity
  8
2-0
  6
Continuous
 62
     4
100
AcDbCircle
 10
2910.937598762647
 20
743.253094829954
 30
0.0
 40
0.25
  0
CIRCLE
  5
24A
330
6F
100
AcDbEntity
  8
2-0
  6
Continuous
 62
     4
100
AcDbCircle
 10
2910.937598762647
 20
743.253094829954
 30
0.0
 40
0.1875
  0
CIRCLE
  5
24B
330
6F
100
AcDbEntity
  8
2-0
  6
Continuous
 62
     4
100
AcDbCircle
 10
2910.937598762647
 20
743.253094829954
 30
0.0
 40
0.125
  0
CIRCLE
  5
24C
330
6F
100
AcDbEntity
  8
2-0
  6
Continuous
 62
     4
100
AcDbCircle
 10
2910.937598762647
 20
743.253094829954
 30
0.0
 40
0.0625
  0
ARC
  5
24D
330
6F
100
AcDbEntity
  8
2-0
 62
     4
100
AcDbCircle
 10
2910.932598762647
 20
743.253094829954
 30
0.0
 40
2.5
100
AcDbArc
 50
90.11459140653
 51
270.114591405945
  0
LINE
  5
24E
330
6F
100
AcDbEntity
  8
2-0
 62
     4
100
AcDbLine
 10
2910.937598762673
 20
738.2530948299541
 30
0.0
 11
2910.937598762698
 21
733.2530948299541
 31
0.0
  0
LINE
  5
24F
330
6F
100
AcDbEntity
  8
2-0
  6
Continuous
 62
     4
100
AcDbLine
 10
3006.06754
 20
755.753095
 30
0.0
 11
2910.937599
 21
755.753095
 31
0.0
  0
LINE
  5
250
330
6F
100
AcDbEntity
  8
2-0
  6
Continuous
 62
     4
100
AcDbLine
 10
3006.014408
 20
743.253095
 30
0.0
 11
2910.937599
 21
743.253095
 31
0.0
  0
LINE
  5
251
330
6F
100
AcDbEntity
  8
2-0
  6
Continuous
 62
     4
100
AcDbLine
 10
2910.937599
 20
765.753095
 30
0.0
 11
2910.937599
 21
775.753095
 31
0.0
  0
LINE
  5
252
330
6F
100
AcDbEntity
  8
2-0
  6
Continuous
 62
     4
100
AcDbLine
 10
2910.937599
 20
733.253095
 30
0.0
 11
2910.937599
 21
723.253095
 31
0.0
  0
TEXT
  5
253
330
6F
100
AcDbEntity
  8
2-0
 62
     4
100
AcDbText
 10
2909.424000000001
 20
770.3039999999999
 30
0.0
 40
25.92
  1
2.5
 50
90.0
100
AcDbText
  0
LINE
  5
254
330
6F
100
AcDbEntity
  8
2-0
  6
Continuous
 62
     4
100
AcDbLine
 10
2910.937599
 20
755.753095
 30
0.0
 11
2910.937599
 21
743.253095
 31
0.0
  0
CIRCLE
  5
255
330
6F
100
AcDbEntity
  8
2-0
  6
Continuous
 62
     4
100
AcDbCircle
 10
2910.937598762647
 20
755.753094829954
 30
0.0
 40
0.25
  0
CIRCLE
  5
256
330
6F
100
AcDbEntity
  8
2-0
  6
Continuous
 62
     4
100
AcDbCircle
 10
2910.937598762647
 20
755.753094829954
 30
0.0
 40
0.1875
  0
CIRCLE
  5
257
330
6F
100
AcDbEntity
  8
2-0
  6
Continuous
 62
     4
100
AcDbCircle
 10
2910.937598762647
 20
755.753094829954
 30
0.0
 40
0.125
  0
CIRCLE
  5
258
330
6F
100
AcDbEntity
  8
2-0
  6
Continuous
 62
     4
100
AcDbCircle
 10
2910.937598762647
 20
755.753094829954
 30
0.0
 40
0.0625
  0
ARC
  5
259
330
6F
100
AcDbEntity
  8
2-0
 62
     4
100
AcDbCircle
 10
2910.942598762647
 20
755.753094829954
 30
0.0
 40
2.5
100
AcDbArc
 50
270.1145914065301
 51
90.11459140594496
  0
LINE
  5
25A
330
6F
100
AcDbEntity
  8
2-0
 62
     4
100
AcDbLine
 10
2910.937598762571
 20
760.753094829954
 30
0.0
 11
2910.937598762494
 21
765.753094829954
 31
0.0
  0
CIRCLE
  5
25B
330
6F
100
AcDbEntity
  8
2-0
  6
Continuous
 62
     4
100
AcDbCircle
 10
2910.937598762647
 20
743.253094829954
 30
0.0
 40
0.25
  0
CIRCLE
  5
25C
330
6F
100
AcDbEntity
  8
2-0
  6
Continuous
 62
     4
100
AcDbCircle
 10
2910.937598762647
 20
743.253094829954
 30
0.0
 40
0.1875
  0
CIRCLE
  5
25D
330
6F
100
AcDbEntity
  8
2-0
  6
Continuous
 62
     4
100
AcDbCircle
 10
2910.937598762647
 20
743.253094829954
 30
0.0
 40
0.125
  0
CIRCLE
  5
25E
330
6F
100
AcDbEntity
  8
2-0
  6
Continuous
 62
     4
100
AcDbCircle
 10
2910.937598762647
 20
743.253094829954
 30
0.0
 40
0.0625
  0
ARC
  5
25F
330
6F
100
AcDbEntity
  8
2-0
 62
     4
100
AcDbCircle
 10
2910.932598762647
 20
743.253094829954
 30
0.0
 40
2.5
100
AcDbArc
 50
90.11459140653
 51
270.114591405945
  0
LINE
  5
260
330
6F
100
AcDbEntity
  8
2-0
 62
     4
100
AcDbLine
 10
2910.937598762673
 20
738.2530948299541
 30
0.0
 11
2910.937598762698
 21
733.2530948299541
 31
0.0
  0
LINE
  5
261
330
6F
100
AcDbEntity
  8
2-0
  6
Continuous
 62
     4
100
AcDbLine
 10
2984.293715
 20
755.753095
 30
0.0
 11
2860.937599
 21
755.753095
 31
0.0
  0
LINE
  5
262
330
6F
100
AcDbEntity
  8
2-0
  6
Continuous
 62
     4
100
AcDbLine
 10
2983.92179
 20
668.253095
 30
0.0
 11
2860.937599
 21
668.253095
 31
0.0
  0
LINE
  5
263
330
6F
100
AcDbEntity
  8
2-0
  6
Continuous
 62
     4
100
AcDbLine
 10
2860.937599
 20
745.753095
 30
0.0
 11
2860.937599
 21
678.253095
 31
0.0
  0
TEXT
  5
264
330
6F
100
AcDbEntity
  8
2-0
 62
     4
100
AcDbText
 10
2857.638
 20
680.003
 30
0.0
 40
25.92
  1
17.5
 50
90.0
100
AcDbText
  0
CIRCLE
  5
265
330
6F
100
AcDbEntity
  8
2-0
  6
Continuous
 62
     4
100
AcDbCircle
 10
2860.937598762647
 20
755.75309482995
 30
0.0
 40
0.25
  0
CIRCLE
  5
266
330
6F
100
AcDbEntity
  8
2-0
  6
Continuous
 62
     4
100
AcDbCircle
 10
2860.937598762647
 20
755.75309482995
 30
0.0
 40
0.1875
  0
CIRCLE
  5
267
330
6F
100
AcDbEntity
  8
2-0
  6
Continuous
 62
     4
100
AcDbCircle
 10
2860.937598762647
 20
755.75309482995
 30
0.0
 40
0.125
  0
CIRCLE
  5
268
330
6F
100
AcDbEntity
  8
2-0
  6
Continuous
 62
     4
100
AcDbCircle
 10
2860.937598762647
 20
755.75309482995
 30
0.0
 40
0.0625
  0
ARC
  5
269
330
6F
100
AcDbEntity
  8
2-0
 62
     4
100
AcDbCircle
 10
2860.932598762648
 20
755.75309482995
 30
0.0
 40
2.5
100
AcDbArc
 50
90.11459140653
 51
270.114591405945
  0
LINE
  5
26A
330
6F
100
AcDbEntity
  8
2-0
 62
     4
100
AcDbLine
 10
2860.937598762673
 20
750.75309482995
 30
0.0
 11
2860.937598762698
 21
745.7530948299499
 31
0.0
  0
CIRCLE
  5
26B
330
6F
100
AcDbEntity
  8
2-0
  6
Continuous
 62
     4
100
AcDbCircle
 10
2860.937598762647
 20
668.253094829954
 30
0.0
 40
0.25
  0
CIRCLE
  5
26C
330
6F
100
AcDbEntity
  8
2-0
  6
Continuous
 62
     4
100
AcDbCircle
 10
2860.937598762647
 20
668.253094829954
 30
0.0
 40
0.1875
  0
CIRCLE
  5
26D
330
6F
100
AcDbEntity
  8
2-0
  6
Continuous
 62
     4
100
AcDbCircle
 10
2860.937598762647
 20
668.253094829954
 30
0.0
 40
0.125
  0
CIRCLE
  5
26E
330
6F
100
AcDbEntity
  8
2-0
  6
Continuous
 62
     4
100
AcDbCircle
 10
2860.937598762647
 20
668.253094829954
 30
0.0
 40
0.0625
  0
ARC
  5
26F
330
6F
100
AcDbEntity
  8
2-0
 62
     4
100
AcDbCircle
 10
2860.942598762648
 20
668.253094829954
 30
0.0
 40
2.5
100
AcDbArc
 50
270.1145914065301
 51
90.11459140594496
  0
LINE
  5
270
330
6F
100
AcDbEntity
  8
2-0
 62
     4
100
AcDbLine
 10
2860.937598762571
 20
673.2530948299539
 30
0.0
 11
2860.937598762494
 21
678.2530948299539
 31
0.0
  0
LINE
  5
271
330
6F
100
AcDbEntity
  8
2-0
  6
Continuous
 62
     4
100
AcDbLine
 10
3261.551087
 20
970.420159
 30
0.0
 11
3261.551087
 21
1093.776275
 31
0.0
  0
LINE
  5
272
330
6F
100
AcDbEntity
  8
2-0
  6
Continuous
 62
     4
100
AcDbLine
 10
3349.051087
 20
970.7920839999999
 30
0.0
 11
3349.051087
 21
1093.776275
 31
0.0
  0
LINE
  5
273
330
6F
100
AcDbEntity
  8
2-0
  6
Continuous
 62
     4
100
AcDbLine
 10
3271.551087
 20
1093.776275
 30
0.0
 11
3339.051087
 21
1093.776275
 31
0.0
  0
TEXT
  5
274
330
6F
100
AcDbEntity
  8
2-0
 62
     4
100
AcDbText
 10
3275.317
 20
1097.076
 30
0.0
 40
25.92
  1
17.5
100
AcDbText
  0
CIRCLE
  5
275
330
6F
100
AcDbEntity
  8
2-0
  6
Continuous
 62
     4
100
AcDbCircle
 10
3261.551086669963
 20
1093.77627534018
 30
0.0
 40
0.25
  0
CIRCLE
  5
276
330
6F
100
AcDbEntity
  8
2-0
  6
Continuous
 62
     4
100
AcDbCircle
 10
3261.551086669963
 20
1093.77627534018
 30
0.0
 40
0.1875
  0
CIRCLE
  5
277
330
6F
100
AcDbEntity
  8
2-0
  6
Continuous
 62
     4
100
AcDbCircle
 10
3261.551086669963
 20
1093.77627534018
 30
0.0
 40
0.125
  0
CIRCLE
  5
278
330
6F
100
AcDbEntity
  8
2-0
  6
Continuous
 62
     4
100
AcDbCircle
 10
3261.551086669963
 20
1093.77627534018
 30
0.0
 40
0.0625
  0
ARC
  5
279
330
6F
100
AcDbEntity
  8
2-0
 62
     4
100
AcDbCircle
 10
3261.551086669963
 20
1093.77127534018
 30
0.0
 40
2.5
100
AcDbArc
 50
180.1145914065301
 51
0.1145914059449637
  0
LINE
  5
27A
330
6F
100
AcDbEntity
  8
2-0
 62
     4
100
AcDbLine
 10
3266.551086669962
 20
1093.776275340231
 30
0.0
 11
3271.551086669962
 21
1093.776275340282
 31
0.0
  0
CIRCLE
  5
27B
330
6F
100
AcDbEntity
  8
2-0
  6
Continuous
 62
     4
100
AcDbCircle
 10
3349.051086669958
 20
1093.77627534018
 30
0.0
 40
0.25
  0
CIRCLE
  5
27C
330
6F
100
AcDbEntity
  8
2-0
  6
Continuous
 62
     4
100
AcDbCircle
 10
3349.051086669958
 20
1093.77627534018
 30
0.0
 40
0.1875
  0
CIRCLE
  5
27D
330
6F
100
AcDbEntity
  8
2-0
  6
Continuous
 62
     4
100
AcDbCircle
 10
3349.051086669958
 20
1093.77627534018
 30
0.0
 40
0.125
  0
CIRCLE
  5
27E
330
6F
100
AcDbEntity
  8
2-0
  6
Continuous
 62
     4
100
AcDbCircle
 10
3349.051086669958
 20
1093.77627534018
 30
0.0
 40
0.0625
  0
ARC
  5
27F
330
6F
100
AcDbEntity
  8
2-0
 62
     4
100
AcDbCircle
 10
3349.051086669958
 20
1093.78127534018
 30
0.0
 40
2.5
100
AcDbArc
 50
0.1145914065300158
 51
180.114591405945
  0
LINE
  5
280
330
6F
100
AcDbEntity
  8
2-0
 62
     4
100
AcDbLine
 10
3344.051086669958
 20
1093.77627534018
 30
0.0
 11
3339.051086669958
 21
1093.77627534018
 31
0.0
  0
LINE
  5
281
330
6F
100
AcDbEntity
  8
2-0
  6
Continuous
 62
     4
100
AcDbLine
 10
3261.551087
 20
948.646334
 30
0.0
 11
3261.551087
 21
1043.776275
 31
0.0
  0
LINE
  5
282
330
6F
100
AcDbEntity
  8
2-0
  6
Continuous
 62
     4
100
AcDbLine
 10
3274.051087
 20
948.699466
 30
0.0
 11
3274.051087
 21
1043.776275
 31
0.0
  0
LINE
  5
283
330
6F
100
AcDbEntity
  8
2-0
  6
Continuous
 62
     4
100
AcDbLine
 10
3251.551087
 20
1043.776275
 30
0.0
 11
3241.551087
 21
1043.776275
 31
0.0
  0
LINE
  5
284
330
6F
100
AcDbEntity
  8
2-0
  6
Continuous
 62
     4
100
AcDbLine
 10
3284.051087
 20
1043.776275
 30
0.0
 11
3294.051087
 21
1043.776275
 31
0.0
  0
TEXT
  5
285
330
6F
100
AcDbEntity
  8
2-0
 62
     4
100
AcDbText
 10
3197.877
 20
1047.076
 30
0.0
 40
25.92
  1
2.5
100
AcDbText
  0
LINE
  5
286
330
6F
100
AcDbEntity
  8
2-0
  6
Continuous
 62
     4
100
AcDbLine
 10
3261.551087
 20
1043.776275
 30
0.0
 11
3274.051087
 21
1043.776275
 31
0.0
  0
CIRCLE
  5
287
330
6F
100
AcDbEntity
  8
2-0
  6
Continuous
 62
     4
100
AcDbCircle
 10
3261.551086669958
 20
1043.77627534018
 30
0.0
 40
0.25
  0
CIRCLE
  5
288
330
6F
100
AcDbEntity
  8
2-0
  6
Continuous
 62
     4
100
AcDbCircle
 10
3261.551086669958
 20
1043.77627534018
 30
0.0
 40
0.1875
  0
CIRCLE
  5
289
330
6F
100
AcDbEntity
  8
2-0
  6
Continuous
 62
     4
100
AcDbCircle
 10
3261.551086669958
 20
1043.77627534018
 30
0.0
 40
0.125
  0
CIRCLE
  5
28A
330
6F
100
AcDbEntity
  8
2-0
  6
Continuous
 62
     4
100
AcDbCircle
 10
3261.551086669958
 20
1043.77627534018
 30
0.0
 40
0.0625
  0
ARC
  5
28B
330
6F
100
AcDbEntity
  8
2-0
 62
     4
100
AcDbCircle
 10
3261.551086669958
 20
1043.78127534018
 30
0.0
 40
2.5
100
AcDbArc
 50
0.1145914065300158
 51
180.114591405945
  0
LINE
  5
28C
330
6F
100
AcDbEntity
  8
2-0
 62
     4
100
AcDbLine
 10
3256.551086669958
 20
1043.77627534018
 30
0.0
 11
3251.551086669958
 21
1043.77627534018
 31
0.0
  0
CIRCLE
  5
28D
330
6F
100
AcDbEntity
  8
2-0
  6
Continuous
 62
     4
100
AcDbCircle
 10
3274.051086669958
 20
1043.77627534018
 30
0.0
 40
0.25
  0
CIRCLE
  5
28E
330
6F
100
AcDbEntity
  8
2-0
  6
Continuous
 62
     4
100
AcDbCircle
 10
3274.051086669958
 20
1043.77627534018
 30
0.0
 40
0.1875
  0
CIRCLE
  5
28F
330
6F
100
AcDbEntity
  8
2-0
  6
Continuous
 62
     4
100
AcDbCircle
 10
3274.051086669958
 20
1043.77627534018
 30
0.0
 40
0.125
  0
CIRCLE
  5
290
330
6F
100
AcDbEntity
  8
2-0
  6
Continuous
 62
     4
100
AcDbCircle
 10
3274.051086669958
 20
1043.77627534018
 30
0.0
 40
0.0625
  0
ARC
  5
291
330
6F
100
AcDbEntity
  8
2-0
 62
     4
100
AcDbCircle
 10
3274.051086669958
 20
1043.77127534018
 30
0.0
 40
2.5
100
AcDbArc
 50
180.1145914065301
 51
0.1145914059449637
  0
LINE
  5
292
330
6F
100
AcDbEntity
  8
2-0
 62
     4
100
AcDbLine
 10
3279.051086669958
 20
1043.776275340231
 30
0.0
 11
3284.051086669958
 21
1043.776275340282
 31
0.0
  0
LINE
  5
293
330
6F
100
AcDbEntity
  8
2-0
  6
Continuous
 62
     4
100
AcDbLine
 10
3304.051087
 20
948.50819
 30
0.0
 11
3304.051087
 21
1043.776275
 31
0.0
  0
LINE
  5
294
330
6F
100
AcDbEntity
  8
2-0
  6
Continuous
 62
     4
100
AcDbLine
 10
3274.051087
 20
948.699466
 30
0.0
 11
3274.051087
 21
1043.776275
 31
0.0
  0
LINE
  5
295
330
6F
100
AcDbEntity
  8
2-0
  6
Continuous
 62
     4
100
AcDbLine
 10
3314.051087
 20
1043.776275
 30
0.0
 11
3324.051087
 21
1043.776275
 31
0.0
  0
LINE
  5
296
330
6F
100
AcDbEntity
  8
2-0
  6
Continuous
 62
     4
100
AcDbLine
 10
3264.051087
 20
1043.776275
 30
0.0
 11
3254.051087
 21
1043.776275
 31
0.0
  0
TEXT
  5
297
330
6F
100
AcDbEntity
  8
2-0
 62
     4
100
AcDbText
 10
3283.067
 20
1047.076
 30
0.0
 40
25.92
  1
6
100
AcDbText
  0
LINE
  5
298
330
6F
100
AcDbEntity
  8
2-0
  6
Continuous
 62
     4
100
AcDbLine
 10
3304.051087
 20
1043.776275
 30
0.0
 11
3274.051087
 21
1043.776275
 31
0.0
  0
CIRCLE
  5
299
330
6F
100
AcDbEntity
  8
2-0
  6
Continuous
 62
     4
100
AcDbCircle
 10
3304.051086669958
 20
1043.77627534018
 30
0.0
 40
0.25
  0
CIRCLE
  5
29A
330
6F
100
AcDbEntity
  8
2-0
  6
Continuous
 62
     4
100
AcDbCircle
 10
3304.051086669958
 20
1043.77627534018
 30
0.0
 40
0.1875
  0
CIRCLE
  5
29B
330
6F
100
AcDbEntity
  8
2-0
  6
Continuous
 62
     4
100
AcDbCircle
 10
3304.051086669958
 20
1043.77627534018
 30
0.0
 40
0.125
  0
CIRCLE
  5
29C
330
6F
100
AcDbEntity
  8
2-0
  6
Continuous
 62
     4
100
AcDbCircle
 10
3304.051086669958
 20
1043.77627534018
 30
0.0
 40
0.0625
  0
ARC
  5
29D
330
6F
100
AcDbEntity
  8
2-0
 62
     4
100
AcDbCircle
 10
3304.051086669958
 20
1043.77127534018
 30
0.0
 40
2.5
100
AcDbArc
 50
180.1145914065301
 51
0.1145914059449637
  0
LINE
  5
29E
330
6F
100
AcDbEntity
  8
2-0
 62
     4
100
AcDbLine
 10
3309.051086669958
 20
1043.776275340231
 30
0.0
 11
3314.051086669958
 21
1043.776275340282
 31
0.0
  0
CIRCLE
  5
29F
330
6F
100
AcDbEntity
  8
2-0
  6
Continuous
 62
     4
100
AcDbCircle
 10
3274.051086669958
 20
1043.77627534018
 30
0.0
 40
0.25
  0
CIRCLE
  5
2A0
330
6F
100
AcDbEntity
  8
2-0
  6
Continuous
 62
     4
100
AcDbCircle
 10
3274.051086669958
 20
1043.77627534018
 30
0.0
 40
0.1875
  0
CIRCLE
  5
2A1
330
6F
100
AcDbEntity
  8
2-0
  6
Continuous
 62
     4
100
AcDbCircle
 10
3274.051086669958
 20
1043.77627534018
 30
0.0
 40
0.125
  0
CIRCLE
  5
2A2
330
6F
100
AcDbEntity
  8
2-0
  6
Continuous
 62
     4
100
AcDbCircle
 10
3274.051086669958
 20
1043.77627534018
 30
0.0
 40
0.0625
  0
ARC
  5
2A3
330
6F
100
AcDbEntity
  8
2-0
 62
     4
100
AcDbCircle
 10
3274.051086669958
 20
1043.78127534018
 30
0.0
 40
2.5
100
AcDbArc
 50
0.1145914065300158
 51
180.114591405945
  0
LINE
  5
2A4
330
6F
100
AcDbEntity
  8
2-0
 62
     4
100
AcDbLine
 10
3269.051086669958
 20
1043.77627534018
 30
0.0
 11
3264.051086669958
 21
1043.77627534018
 31
0.0
  0
LINE
  5
2A5
330
6F
100
AcDbEntity
  8
2-0
  6
Continuous
 62
     4
100
AcDbLine
 10
3304.051087
 20
948.50819
 30
0.0
 11
3304.051087
 21
1043.776275
 31
0.0
  0
LINE
  5
2A6
330
6F
100
AcDbEntity
  8
2-0
  6
Continuous
 62
     4
100
AcDbLine
 10
3349.051087
 20
948.635707
 30
0.0
 11
3349.051087
 21
1043.776275
 31
0.0
  0
LINE
  5
2A7
330
6F
100
AcDbEntity
  8
2-0
  6
Continuous
 62
     4
100
AcDbLine
 10
3314.051087
 20
1043.776275
 30
0.0
 11
3339.051087
 21
1043.776275
 31
0.0
  0
TEXT
  5
2A8
330
6F
100
AcDbEntity
  8
2-0
 62
     4
100
AcDbText
 10
3320.567
 20
1047.076
 30
0.0
 40
25.92
  1
9
100
AcDbText
  0
CIRCLE
  5
2A9
330
6F
100
AcDbEntity
  8
2-0
  6
Continuous
 62
     4
100
AcDbCircle
 10
3304.051086669958
 20
1043.77627534018
 30
0.0
 40
0.25
  0
CIRCLE
  5
2AA
330
6F
100
AcDbEntity
  8
2-0
  6
Continuous
 62
     4
100
AcDbCircle
 10
3304.051086669958
 20
1043.77627534018
 30
0.0
 40
0.1875
  0
CIRCLE
  5
2AB
330
6F
100
AcDbEntity
  8
2-0
  6
Continuous
 62
     4
100
AcDbCircle
 10
3304.051086669958
 20
1043.77627534018
 30
0.0
 40
0.125
  0
CIRCLE
  5
2AC
330
6F
100
AcDbEntity
  8
2-0
  6
Continuous
 62
     4
100
AcDbCircle
 10
3304.051086669958
 20
1043.77627534018
 30
0.0
 40
0.0625
  0
ARC
  5
2AD
330
6F
100
AcDbEntity
  8
2-0
 62
     4
100
AcDbCircle
 10
3304.051086669958
 20
1043.77127534018
 30
0.0
 40
2.5
100
AcDbArc
 50
180.1145914065301
 51
0.1145914059449637
  0
LINE
  5
2AE
330
6F
100
AcDbEntity
  8
2-0
 62
     4
100
AcDbLine
 10
3309.051086669958
 20
1043.776275340231
 30
0.0
 11
3314.051086669958
 21
1043.776275340282
 31
0.0
  0
CIRCLE
  5
2AF
330
6F
100
AcDbEntity
  8
2-0
  6
Continuous
 62
     4
100
AcDbCircle
 10
3349.051086669958
 20
1043.77627534018
 30
0.0
 40
0.25
  0
CIRCLE
  5
2B0
330
6F
100
AcDbEntity
  8
2-0
  6
Continuous
 62
     4
100
AcDbCircle
 10
3349.051086669958
 20
1043.77627534018
 30
0.0
 40
0.1875
  0
CIRCLE
  5
2B1
330
6F
100
AcDbEntity
  8
2-0
  6
Continuous
 62
     4
100
AcDbCircle
 10
3349.051086669958
 20
1043.77627534018
 30
0.0
 40
0.125
  0
CIRCLE
  5
2B2
330
6F
100
AcDbEntity
  8
2-0
  6
Continuous
 62
     4
100
AcDbCircle
 10
3349.051086669958
 20
1043.77627534018
 30
0.0
 40
0.0625
  0
ARC
  5
2B3
330
6F
100
AcDbEntity
  8
2-0
 62
     4
100
AcDbCircle
 10
3349.051086669958
 20
1043.78127534018
 30
0.0
 40
2.5
100
AcDbArc
 50
0.1145914065300158
 51
180.114591405945
  0
LINE
  5
2B4
330
6F
100
AcDbEntity
  8
2-0
 62
     4
100
AcDbLine
 10
3344.051086669958
 20
1043.77627534018
 30
0.0
 11
3339.051086669958
 21
1043.77627534018
 31
0.0
  0
LINE
  5
2B5
330
6F
100
AcDbEntity
  8
2-0
  6
Continuous
 62
     7
100
AcDbLine
 10
3168.165641
 20
679.5197759999999
 30
0.0
 11
3183.398564
 21
663.81375
 31
0.0
  0
LINE
  5
2B6
330
6F
100
AcDbEntity
  8
2-0
  6
Continuous
 62
     7
100
AcDbLine
 10
3168.165641
 20
679.5197759999999
 30
0.0
 11
3173.636887000001
 21
658.335191
 31
0.0
  0
LINE
  5
2B7
330
6F
100
AcDbEntity
  8
2-0
  6
Continuous
 62
     7
100
AcDbLine
 10
3210.913513
 20
722.117953
 30
0.0
 11
3206.436406
 21
738.454688
 31
0.0
  0
LINE
  5
2B8
330
6F
100
AcDbEntity
  8
2-0
  6
Continuous
 62
     7
100
AcDbLine
 10
3210.913513
 20
722.117953
 30
0.0
 11
3197.92886
 21
732.9960119999999
 31
0.0
  0
LINE
  5
2B9
330
6F
100
AcDbEntity
  8
2-0
  6
Continuous
 62
     7
100
AcDbLine
 10
3286.990223
 20
833.224107
 30
0.0
 11
3281.876092
 21
852.745368
 31
0.0
  0
LINE
  5
2BA
330
6F
100
AcDbEntity
  8
2-0
  6
Continuous
 62
     7
100
AcDbLine
 10
3286.990223
 20
833.224107
 30
0.0
 11
3271.492459
 21
846.1490169999999
 31
0.0
  0
LINE
  5
2BB
330
6F
100
AcDbEntity
  8
2-0
  6
Continuous
 62
     7
100
AcDbLine
 10
3334.482341
 20
836.8724529999999
 30
0.0
 11
3348.180347
 21
821.9909699999998
 31
0.0
  0
LINE
  5
2BC
330
6F
100
AcDbEntity
  8
2-0
  6
Continuous
 62
     7
100
AcDbLine
 10
3334.482341
 20
836.8724529999999
 30
0.0
 11
3340.049351000001
 21
817.4276
 31
0.0
  0
TEXT
  5
2BD
330
6F
100
AcDbEntity
  8
D-0
 62
     5
100
AcDbText
 10
2744.998
 20
1291.24
 30
0.0
 40
25.92
  1
ご注意
100
AcDbText
  0
TEXT
  5
2BE
330
6F
100
AcDbEntity
  8
D-0
 62
     5
100
AcDbText
 10
2810.873
 20
1227.133
 30
0.0
 40
25.92
  1
〇　底板6ｍｍ、側板9ｍｍの不燃加工となっております。
100
AcDbText
  0
LINE
  5
2BF
330
6F
100
AcDbEntity
  8
9-0
  6
Continuous
 62
     4
100
AcDbLine
 10
2408.126606
 20
1439.296335
 30
0.0
 11
2408.126606
 21
1505.846259
 31
0.0
  0
LINE
  5
2C0
330
6F
100
AcDbEntity
  8
9-0
  6
Continuous
 62
     4
100
AcDbLine
 10
2063.126606
 20
1440.762782
 30
0.0
 11
2063.126606
 21
1505.846259
 31
0.0
  0
TEXT
  5
2C1
330
6F
100
AcDbEntity
  8
9-0
 62
     4
100
AcDbText
 10
2204.849
 20
1506.466
 30
0.0
 40
36.288
  1
345
100
AcDbText
  0
LINE
  5
2C2
330
6F
100
AcDbEntity
  8
9-0
  6
Continuous
 62
     4
100
AcDbLine
 10
2063.126605993742
 20
1505.846258882333
 30
0.0
 11
2408.126605993742
 21
1505.846258882333
 31
0.0
  0
CIRCLE
  5
2C3
330
6F
100
AcDbEntity
  8
9-0
  6
Continuous
 62
     4
100
AcDbCircle
 10
2063.126605993742
 20
1505.846258882333
 30
0.0
 40
0.25
  0
CIRCLE
  5
2C4
330
6F
100
AcDbEntity
  8
9-0
  6
Continuous
 62
     4
100
AcDbCircle
 10
2063.126605993742
 20
1505.846258882333
 30
0.0
 40
0.1875
  0
CIRCLE
  5
2C5
330
6F
100
AcDbEntity
  8
9-0
  6
Continuous
 62
     4
100
AcDbCircle
 10
2063.126605993742
 20
1505.846258882333
 30
0.0
 40
0.125
  0
CIRCLE
  5
2C6
330
6F
100
AcDbEntity
  8
9-0
  6
Continuous
 62
     4
100
AcDbCircle
 10
2063.126605993742
 20
1505.846258882333
 30
0.0
 40
0.0625
  0
CIRCLE
  5
2C7
330
6F
100
AcDbEntity
  8
9-0
  6
Continuous
 62
     4
100
AcDbCircle
 10
2408.126605993742
 20
1505.846258882333
 30
0.0
 40
0.25
  0
CIRCLE
  5
2C8
330
6F
100
AcDbEntity
  8
9-0
  6
Continuous
 62
     4
100
AcDbCircle
 10
2408.126605993742
 20
1505.846258882333
 30
0.0
 40
0.1875
  0
CIRCLE
  5
2C9
330
6F
100
AcDbEntity
  8
9-0
  6
Continuous
 62
     4
100
AcDbCircle
 10
2408.126605993742
 20
1505.846258882333
 30
0.0
 40
0.125
  0
CIRCLE
  5
2CA
330
6F
100
AcDbEntity
  8
9-0
  6
Continuous
 62
     4
100
AcDbCircle
 10
2408.126605993742
 20
1505.846258882333
 30
0.0
 40
0.0625
  0
LINE
  5
2CB
330
6F
100
AcDbEntity
  8
9-0
  6
Continuous
 62
     4
100
AcDbLine
 10
2425.126606
 20
742.8415489999999
 30
0.0
 11
2425.126606
 21
662.841549
 31
0.0
  0
LINE
  5
2CC
330
6F
100
AcDbEntity
  8
9-0
  6
Continuous
 62
     4
100
AcDbLine
 10
2063.126606
 20
777.942029
 30
0.0
 11
2063.126606
 21
662.841549
 31
0.0
  0
TEXT
  5
2CD
330
6F
100
AcDbEntity
  8
9-0
 62
     4
100
AcDbText
 10
2213.349
 20
663.4619999999999
 30
0.0
 40
36.288
  1
362
100
AcDbText
  0
LINE
  5
2CE
330
6F
100
AcDbEntity
  8
9-0
  6
Continuous
 62
     4
100
AcDbLine
 10
2063.126605993742
 20
662.841548988732
 30
0.0
 11
2425.126605993742
 21
662.841548988732
 31
0.0
  0
CIRCLE
  5
2CF
330
6F
100
AcDbEntity
  8
9-0
  6
Continuous
 62
     4
100
AcDbCircle
 10
2063.126605993742
 20
662.841548988732
 30
0.0
 40
0.25
  0
CIRCLE
  5
2D0
330
6F
100
AcDbEntity
  8
9-0
  6
Continuous
 62
     4
100
AcDbCircle
 10
2063.126605993742
 20
662.841548988732
 30
0.0
 40
0.1875
  0
CIRCLE
  5
2D1
330
6F
100
AcDbEntity
  8
9-0
  6
Continuous
 62
     4
100
AcDbCircle
 10
2063.126605993742
 20
662.841548988732
 30
0.0
 40
0.125
  0
CIRCLE
  5
2D2
330
6F
100
AcDbEntity
  8
9-0
  6
Continuous
 62
     4
100
AcDbCircle
 10
2063.126605993742
 20
662.841548988732
 30
0.0
 40
0.0625
  0
CIRCLE
  5
2D3
330
6F
100
AcDbEntity
  8
9-0
  6
Continuous
 62
     4
100
AcDbCircle
 10
2425.126605993742
 20
662.841548988732
 30
0.0
 40
0.25
  0
CIRCLE
  5
2D4
330
6F
100
AcDbEntity
  8
9-0
  6
Continuous
 62
     4
100
AcDbCircle
 10
2425.126605993742
 20
662.841548988732
 30
0.0
 40
0.1875
  0
CIRCLE
  5
2D5
330
6F
100
AcDbEntity
  8
9-0
  6
Continuous
 62
     4
100
AcDbCircle
 10
2425.126605993742
 20
662.841548988732
 30
0.0
 40
0.125
  0
CIRCLE
  5
2D6
330
6F
100
AcDbEntity
  8
9-0
  6
Continuous
 62
     4
100
AcDbCircle
 10
2425.126605993742
 20
662.841548988732
 30
0.0
 40
0.0625
  0
LINE
  5
2D7
330
6F
100
AcDbEntity
  8
9-0
  6
Continuous
 62
     4
100
AcDbLine
 10
2408.126606
 20
854.391473
 30
0.0
 11
2408.126606
 21
762.841549
 31
0.0
  0
LINE
  5
2D8
330
6F
100
AcDbEntity
  8
9-0
  6
Continuous
 62
     4
100
AcDbLine
 10
2063.126606
 20
852.9250259999999
 30
0.0
 11
2063.126606
 21
762.841549
 31
0.0
  0
TEXT
  5
2D9
330
6F
100
AcDbEntity
  8
9-0
 62
     4
100
AcDbText
 10
2204.849
 20
763.4619999999999
 30
0.0
 40
36.288
  1
345
100
AcDbText
  0
LINE
  5
2DA
330
6F
100
AcDbEntity
  8
9-0
  6
Continuous
 62
     4
100
AcDbLine
 10
2063.126605993742
 20
762.841548988732
 30
0.0
 11
2408.126605993742
 21
762.841548988732
 31
0.0
  0
CIRCLE
  5
2DB
330
6F
100
AcDbEntity
  8
9-0
  6
Continuous
 62
     4
100
AcDbCircle
 10
2063.126605993742
 20
762.841548988732
 30
0.0
 40
0.25
  0
CIRCLE
  5
2DC
330
6F
100
AcDbEntity
  8
9-0
  6
Continuous
 62
     4
100
AcDbCircle
 10
2063.126605993742
 20
762.841548988732
 30
0.0
 40
0.1875
  0
CIRCLE
  5
2DD
330
6F
100
AcDbEntity
  8
9-0
  6
Continuous
 62
     4
100
AcDbCircle
 10
2063.126605993742
 20
762.841548988732
 30
0.0
 40
0.125
  0
CIRCLE
  5
2DE
330
6F
100
AcDbEntity
  8
9-0
  6
Continuous
 62
     4
100
AcDbCircle
 10
2063.126605993742
 20
762.841548988732
 30
0.0
 40
0.0625
  0
CIRCLE
  5
2DF
330
6F
100
AcDbEntity
  8
9-0
  6
Continuous
 62
     4
100
AcDbCircle
 10
2408.126605993742
 20
762.841548988732
 30
0.0
 40
0.25
  0
CIRCLE
  5
2E0
330
6F
100
AcDbEntity
  8
9-0
  6
Continuous
 62
     4
100
AcDbCircle
 10
2408.126605993742
 20
762.841548988732
 30
0.0
 40
0.1875
  0
CIRCLE
  5
2E1
330
6F
100
AcDbEntity
  8
9-0
  6
Continuous
 62
     4
100
AcDbCircle
 10
2408.126605993742
 20
762.841548988732
 30
0.0
 40
0.125
  0
CIRCLE
  5
2E2
330
6F
100
AcDbEntity
  8
9-0
  6
Continuous
 62
     4
100
AcDbCircle
 10
2408.126605993742
 20
762.841548988732
 30
0.0
 40
0.0625
  0
LINE
  5
2E3
330
6F
100
AcDbEntity
  8
2-0
  6
Continuous
 62
     7
100
AcDbLine
 10
2063.126606
 20
914.343904
 30
0.0
 11
2408.126606
 21
914.343904
 31
0.0
  0
LINE
  5
2E4
330
6F
100
AcDbEntity
  8
2-0
  6
Continuous
 62
     7
100
AcDbLine
 10
2063.126606
 20
1381.843904
 30
0.0
 11
2408.126606
 21
1381.843904
 31
0.0
  0
LINE
  5
2E5
330
6F
100
AcDbEntity
  8
2-0
  6
Continuous
 62
     7
100
AcDbLine
 10
2063.126606
 20
896.8439039999999
 30
0.0
 11
2408.126606
 21
896.8439039999999
 31
0.0
  0
LINE
  5
2E6
330
6F
100
AcDbEntity
  8
2-0
  6
Continuous
 62
     7
100
AcDbLine
 10
2063.126606
 20
1396.843904
 30
0.0
 11
2408.126606
 21
1396.843904
 31
0.0
  0
LINE
  5
2E7
330
6F
100
AcDbEntity
  8
9-0
  6
Continuous
 62
     4
100
AcDbLine
 10
1925.517455
 20
896.8439039999999
 30
0.0
 11
1810.556779
 21
896.8439039999999
 31
0.0
  0
LINE
  5
2E8
330
6F
100
AcDbEntity
  8
9-0
  6
Continuous
 62
     4
100
AcDbLine
 10
1794.644928
 20
1146.843904
 30
0.0
 11
1810.556779
 21
1146.843904
 31
0.0
  0
TEXT
  5
2E9
330
6F
100
AcDbEntity
  8
9-0
 62
     4
100
AcDbText
 10
1809.937
 20
988.2439999999999
 30
0.0
 40
36.288
  1
250
 50
90.0
100
AcDbText
  0
LINE
  5
2EA
330
6F
100
AcDbEntity
  8
9-0
  6
Continuous
 62
     4
100
AcDbLine
 10
1810.556779161569
 20
1146.843903935533
 30
0.0
 11
1810.556779161569
 21
896.8439039355329
 31
0.0
  0
CIRCLE
  5
2EB
330
6F
100
AcDbEntity
  8
9-0
  6
Continuous
 62
     4
100
AcDbCircle
 10
1810.556779161569
 20
1146.843903935533
 30
0.0
 40
0.25
  0
CIRCLE
  5
2EC
330
6F
100
AcDbEntity
  8
9-0
  6
Continuous
 62
     4
100
AcDbCircle
 10
1810.556779161569
 20
1146.843903935533
 30
0.0
 40
0.1875
  0
CIRCLE
  5
2ED
330
6F
100
AcDbEntity
  8
9-0
  6
Continuous
 62
     4
100
AcDbCircle
 10
1810.556779161569
 20
1146.843903935533
 30
0.0
 40
0.125
  0
CIRCLE
  5
2EE
330
6F
100
AcDbEntity
  8
9-0
  6
Continuous
 62
     4
100
AcDbCircle
 10
1810.556779161569
 20
1146.843903935533
 30
0.0
 40
0.0625
  0
CIRCLE
  5
2EF
330
6F
100
AcDbEntity
  8
9-0
  6
Continuous
 62
     4
100
AcDbCircle
 10
1810.556779161569
 20
896.8439039355329
 30
0.0
 40
0.25
  0
CIRCLE
  5
2F0
330
6F
100
AcDbEntity
  8
9-0
  6
Continuous
 62
     4
100
AcDbCircle
 10
1810.556779161569
 20
896.8439039355329
 30
0.0
 40
0.1875
  0
CIRCLE
  5
2F1
330
6F
100
AcDbEntity
  8
9-0
  6
Continuous
 62
     4
100
AcDbCircle
 10
1810.556779161569
 20
896.8439039355329
 30
0.0
 40
0.125
  0
CIRCLE
  5
2F2
330
6F
100
AcDbEntity
  8
9-0
  6
Continuous
 62
     4
100
AcDbCircle
 10
1810.556779161569
 20
896.8439039355329
 30
0.0
 40
0.0625
  0
LINE
  5
2F3
330
6F
100
AcDbEntity
  8
2-0
  6
Continuous
 62
     7
100
AcDbLine
 10
2085.826606
 20
914.343904
 30
0.0
 11
2085.826606
 21
1381.843904
 31
0.0
  0
LINE
  5
2F4
330
6F
100
AcDbEntity
  8
2-0
  6
Continuous
 62
     7
100
AcDbLine
 10
2083.126606
 20
914.343904
 30
0.0
 11
2083.126606
 21
1381.843904
 31
0.0
  0
LINE
  5
2F5
330
6F
100
AcDbEntity
  8
2-0
  6
Continuous
 62
     7
100
AcDbLine
 10
2063.126606
 20
896.8439039999999
 30
0.0
 11
2063.126606
 21
1396.843904
 31
0.0
  0
LINE
  5
2F6
330
6F
100
AcDbEntity
  8
9-0
  6
Continuous
 62
     4
100
AcDbLine
 10
2025.563688
 20
949.343904
 30
0.0
 11
1910.556779
 21
949.343904
 31
0.0
  0
LINE
  5
2F7
330
6F
100
AcDbEntity
  8
9-0
  6
Continuous
 62
     4
100
AcDbLine
 10
2025.471222
 20
914.343904
 30
0.0
 11
1910.556779
 21
914.343904
 31
0.0
  0
TEXT
  5
2F8
330
6F
100
AcDbEntity
  8
9-0
 62
     4
100
AcDbText
 10
1877.437
 20
949.6249999999999
 30
0.0
 40
36.288
  1
35
 50
90.0
100
AcDbText
  0
LINE
  5
2F9
330
6F
100
AcDbEntity
  8
9-0
  6
Continuous
 62
     4
100
AcDbLine
 10
1910.556779161569
 20
914.343903935533
 30
0.0
 11
1910.556779161569
 21
949.3439039355321
 31
0.0
  0
CIRCLE
  5
2FA
330
6F
100
AcDbEntity
  8
9-0
  6
Continuous
 62
     4
100
AcDbCircle
 10
1910.556779161569
 20
914.343903935533
 30
0.0
 40
0.25
  0
CIRCLE
  5
2FB
330
6F
100
AcDbEntity
  8
9-0
  6
Continuous
 62
     4
100
AcDbCircle
 10
1910.556779161569
 20
914.343903935533
 30
0.0
 40
0.1875
  0
CIRCLE
  5
2FC
330
6F
100
AcDbEntity
  8
9-0
  6
Continuous
 62
     4
100
AcDbCircle
 10
1910.556779161569
 20
914.343903935533
 30
0.0
 40
0.125
  0
CIRCLE
  5
2FD
330
6F
100
AcDbEntity
  8
9-0
  6
Continuous
 62
     4
100
AcDbCircle
 10
1910.556779161569
 20
914.343903935533
 30
0.0
 40
0.0625
  0
CIRCLE
  5
2FE
330
6F
100
AcDbEntity
  8
9-0
  6
Continuous
 62
     4
100
AcDbCircle
 10
1910.556779161569
 20
949.3439039355321
 30
0.0
 40
0.25
  0
CIRCLE
  5
2FF
330
6F
100
AcDbEntity
  8
9-0
  6
Continuous
 62
     4
100
AcDbCircle
 10
1910.556779161569
 20
949.3439039355321
 30
0.0
 40
0.1875
  0
CIRCLE
  5
300
330
6F
100
AcDbEntity
  8
9-0
  6
Continuous
 62
     4
100
AcDbCircle
 10
1910.556779161569
 20
949.3439039355321
 30
0.0
 40
0.125
  0
CIRCLE
  5
301
330
6F
100
AcDbEntity
  8
9-0
  6
Continuous
 62
     4
100
AcDbCircle
 10
1910.556779161569
 20
949.3439039355321
 30
0.0
 40
0.0625
  0
LINE
  5
302
330
6F
100
AcDbEntity
  8
9-0
  6
Continuous
 62
     4
100
AcDbLine
 10
2025.517455
 20
896.8439039999999
 30
0.0
 11
1910.556779
 21
896.8439039999999
 31
0.0
  0
LINE
  5
303
330
6F
100
AcDbEntity
  8
9-0
  6
Continuous
 62
     4
100
AcDbLine
 10
2005.471222
 20
914.343904
 30
0.0
 11
1910.556779
 21
914.343904
 31
0.0
  0
LINE
  5
304
330
6F
100
AcDbEntity
  8
9-0
  6
Continuous
 62
     4
100
AcDbLine
 10
1910.556779
 20
886.843904
 30
0.0
 11
1910.556779
 21
876.843904
 31
0.0
  0
LINE
  5
305
330
6F
100
AcDbEntity
  8
9-0
  6
Continuous
 62
     4
100
AcDbLine
 10
1910.556779
 20
924.343904
 30
0.0
 11
1910.556779
 21
934.3439039999999
 31
0.0
  0
LINE
  5
306
330
6F
100
AcDbEntity
  8
9-0
  6
Continuous
 62
     4
100
AcDbLine
 10
1910.556779
 20
905.593904
 30
0.0
 11
1880.285671
 21
886.126044
 31
0.0
  0
LINE
  5
307
330
6F
100
AcDbEntity
  8
9-0
  6
Continuous
 62
     4
100
AcDbLine
 10
1880.285671
 20
886.126044
 30
0.0
 11
1880.285671
 21
782.268176
 31
0.0
  0
TEXT
  5
308
330
6F
100
AcDbEntity
  8
9-0
 62
     4
100
AcDbText
 10
1879.666
 20
789.3969999999999
 30
0.0
 40
36.288
  1
17.5
 50
90.0
100
AcDbText
  0
LINE
  5
309
330
6F
100
AcDbEntity
  8
9-0
  6
Continuous
 62
     4
100
AcDbLine
 10
1910.556779
 20
896.8439039999999
 30
0.0
 11
1910.556779
 21
914.343904
 31
0.0
  0
LINE
  5
30A
330
6F
100
AcDbEntity
  8
9-0
  6
Continuous
 62
     4
100
AcDbLine
 10
1910.556779
 20
896.8439039999999
 30
0.0
 11
1910.556779
 21
914.343904
 31
0.0
  0
CIRCLE
  5
30B
330
6F
100
AcDbEntity
  8
9-0
  6
Continuous
 62
     4
100
AcDbCircle
 10
1910.556779161569
 20
896.8439039355329
 30
0.0
 40
0.25
  0
CIRCLE
  5
30C
330
6F
100
AcDbEntity
  8
9-0
  6
Continuous
 62
     4
100
AcDbCircle
 10
1910.556779161569
 20
896.8439039355329
 30
0.0
 40
0.1875
  0
CIRCLE
  5
30D
330
6F
100
AcDbEntity
  8
9-0
  6
Continuous
 62
     4
100
AcDbCircle
 10
1910.556779161569
 20
896.8439039355329
 30
0.0
 40
0.125
  0
CIRCLE
  5
30E
330
6F
100
AcDbEntity
  8
9-0
  6
Continuous
 62
     4
100
AcDbCircle
 10
1910.556779161569
 20
896.8439039355329
 30
0.0
 40
0.0625
  0
ARC
  5
30F
330
6F
100
AcDbEntity
  8
9-0
 62
     4
100
AcDbCircle
 10
1910.551779161569
 20
896.8439039355329
 30
0.0
 40
2.5
100
AcDbArc
 50
90.11459140653
 51
270.114591405945
  0
LINE
  5
310
330
6F
100
AcDbEntity
  8
9-0
 62
     4
100
AcDbLine
 10
1910.556779161595
 20
891.843903935533
 30
0.0
 11
1910.55677916162
 21
886.843903935533
 31
0.0
  0
CIRCLE
  5
311
330
6F
100
AcDbEntity
  8
9-0
  6
Continuous
 62
     4
100
AcDbCircle
 10
1910.556779161569
 20
914.343903935533
 30
0.0
 40
0.25
  0
CIRCLE
  5
312
330
6F
100
AcDbEntity
  8
9-0
  6
Continuous
 62
     4
100
AcDbCircle
 10
1910.556779161569
 20
914.343903935533
 30
0.0
 40
0.1875
  0
CIRCLE
  5
313
330
6F
100
AcDbEntity
  8
9-0
  6
Continuous
 62
     4
100
AcDbCircle
 10
1910.556779161569
 20
914.343903935533
 30
0.0
 40
0.125
  0
CIRCLE
  5
314
330
6F
100
AcDbEntity
  8
9-0
  6
Continuous
 62
     4
100
AcDbCircle
 10
1910.556779161569
 20
914.343903935533
 30
0.0
 40
0.0625
  0
ARC
  5
315
330
6F
100
AcDbEntity
  8
9-0
 62
     4
100
AcDbCircle
 10
1910.561779161569
 20
914.343903935533
 30
0.0
 40
2.5
100
AcDbArc
 50
270.1145914065301
 51
90.11459140594496
  0
LINE
  5
316
330
6F
100
AcDbEntity
  8
9-0
 62
     4
100
AcDbLine
 10
1910.556779161492
 20
919.3439039355331
 30
0.0
 11
1910.556779161416
 21
924.343903935533
 31
0.0
  0
LINE
  5
317
330
6F
100
AcDbEntity
  8
2-0
  6
DASHED2
 62
     7
100
AcDbLine
 10
2063.126606
 20
914.343904
 30
0.0
 11
2083.126606
 21
949.343904
 31
0.0
  0
LINE
  5
318
330
6F
100
AcDbEntity
  8
2-0
  6
DASHED2
 62
     7
100
AcDbLine
 10
2063.126606
 20
949.343904
 30
0.0
 11
2083.126606
 21
949.343904
 31
0.0
  0
LINE
  5
319
330
6F
100
AcDbEntity
  8
A-0
  6
CENTER
 62
     6
100
AcDbLine
 10
2146.347962
 20
1146.843904
 30
0.0
 11
1814.644928
 21
1146.843904
 31
0.0
  0
LINE
  5
31A
330
6F
100
AcDbEntity
  8
9-0
  6
Continuous
 62
     4
100
AcDbLine
 10
2025.471222
 20
1381.843904
 30
0.0
 11
1910.464313
 21
1381.843904
 31
0.0
  0
LINE
  5
31B
330
6F
100
AcDbEntity
  8
9-0
  6
Continuous
 62
     4
100
AcDbLine
 10
2024.443825
 20
1341.843904
 30
0.0
 11
1910.464313
 21
1341.843904
 31
0.0
  0
LINE
  5
31C
330
6F
100
AcDbEntity
  8
9-0
  6
Continuous
 62
     4
100
AcDbLine
 10
1910.464313
 20
1371.843904
 30
0.0
 11
1910.464313
 21
1351.843904
 31
0.0
  0
LINE
  5
31D
330
6F
100
AcDbEntity
  8
9-0
  6
Continuous
 62
     4
100
AcDbLine
 10
1910.464313
 20
1361.843904
 30
0.0
 11
1880.404839
 21
1340.769077
 31
0.0
  0
LINE
  5
31E
330
6F
100
AcDbEntity
  8
9-0
  6
Continuous
 62
     4
100
AcDbLine
 10
1880.404839
 20
1340.769077
 30
0.0
 11
1880.404839
 21
1278.484813
 31
0.0
  0
TEXT
  5
31F
330
6F
100
AcDbEntity
  8
9-0
 62
     4
100
AcDbText
 10
1879.785
 20
1287.227
 30
0.0
 40
36.288
  1
40
 50
90.0
100
AcDbText
  0
CIRCLE
  5
320
330
6F
100
AcDbEntity
  8
9-0
  6
Continuous
 62
     4
100
AcDbCircle
 10
1910.464313408142
 20
1381.843903935533
 30
0.0
 40
0.25
  0
CIRCLE
  5
321
330
6F
100
AcDbEntity
  8
9-0
  6
Continuous
 62
     4
100
AcDbCircle
 10
1910.464313408142
 20
1381.843903935533
 30
0.0
 40
0.1875
  0
CIRCLE
  5
322
330
6F
100
AcDbEntity
  8
9-0
  6
Continuous
 62
     4
100
AcDbCircle
 10
1910.464313408142
 20
1381.843903935533
 30
0.0
 40
0.125
  0
CIRCLE
  5
323
330
6F
100
AcDbEntity
  8
9-0
  6
Continuous
 62
     4
100
AcDbCircle
 10
1910.464313408142
 20
1381.843903935533
 30
0.0
 40
0.0625
  0
ARC
  5
324
330
6F
100
AcDbEntity
  8
9-0
 62
     4
100
AcDbCircle
 10
1910.459313408142
 20
1381.843903935533
 30
0.0
 40
2.5
100
AcDbArc
 50
90.11459140653
 51
270.114591405945
  0
LINE
  5
325
330
6F
100
AcDbEntity
  8
9-0
 62
     4
100
AcDbLine
 10
1910.464313408168
 20
1376.843903935533
 30
0.0
 11
1910.464313408193
 21
1371.843903935533
 31
0.0
  0
CIRCLE
  5
326
330
6F
100
AcDbEntity
  8
9-0
  6
Continuous
 62
     4
100
AcDbCircle
 10
1910.464313408142
 20
1341.843903935533
 30
0.0
 40
0.25
  0
CIRCLE
  5
327
330
6F
100
AcDbEntity
  8
9-0
  6
Continuous
 62
     4
100
AcDbCircle
 10
1910.464313408142
 20
1341.843903935533
 30
0.0
 40
0.1875
  0
CIRCLE
  5
328
330
6F
100
AcDbEntity
  8
9-0
  6
Continuous
 62
     4
100
AcDbCircle
 10
1910.464313408142
 20
1341.843903935533
 30
0.0
 40
0.125
  0
CIRCLE
  5
329
330
6F
100
AcDbEntity
  8
9-0
  6
Continuous
 62
     4
100
AcDbCircle
 10
1910.464313408142
 20
1341.843903935533
 30
0.0
 40
0.0625
  0
ARC
  5
32A
330
6F
100
AcDbEntity
  8
9-0
 62
     4
100
AcDbCircle
 10
1910.469313408142
 20
1341.843903935533
 30
0.0
 40
2.5
100
AcDbArc
 50
270.1145914065301
 51
90.11459140594496
  0
LINE
  5
32B
330
6F
100
AcDbEntity
  8
9-0
 62
     4
100
AcDbLine
 10
1910.464313408065
 20
1346.843903935533
 30
0.0
 11
1910.464313407989
 21
1351.843903935533
 31
0.0
  0
LINE
  5
32C
330
6F
100
AcDbEntity
  8
9-0
  6
Continuous
 62
     4
100
AcDbLine
 10
2025.517455
 20
1396.843904
 30
0.0
 11
1910.556779
 21
1396.843904
 31
0.0
  0
LINE
  5
32D
330
6F
100
AcDbEntity
  8
9-0
  6
Continuous
 62
     4
100
AcDbLine
 10
2025.471222
 20
1381.843904
 30
0.0
 11
1910.556779
 21
1381.843904
 31
0.0
  0
LINE
  5
32E
330
6F
100
AcDbEntity
  8
9-0
  6
Continuous
 62
     4
100
AcDbLine
 10
1910.556779
 20
1406.843904
 30
0.0
 11
1910.556779
 21
1416.843904
 31
0.0
  0
LINE
  5
32F
330
6F
100
AcDbEntity
  8
9-0
  6
Continuous
 62
     4
100
AcDbLine
 10
1910.556779
 20
1371.843904
 30
0.0
 11
1910.556779
 21
1361.843904
 31
0.0
  0
LINE
  5
330
330
6F
100
AcDbEntity
  8
9-0
  6
Continuous
 62
     4
100
AcDbLine
 10
1910.556779
 20
1389.343904
 30
0.0
 11
1880.285671
 21
1407.561764
 31
0.0
  0
LINE
  5
331
330
6F
100
AcDbEntity
  8
9-0
  6
Continuous
 62
     4
100
AcDbLine
 10
1880.285671
 20
1407.561764
 30
0.0
 11
1880.285671
 21
1465.937398
 31
0.0
  0
TEXT
  5
332
330
6F
100
AcDbEntity
  8
9-0
 62
     4
100
AcDbText
 10
1879.666
 20
1414.35
 30
0.0
 40
36.288
  1
15
 50
90.0
100
AcDbText
  0
LINE
  5
333
330
6F
100
AcDbEntity
  8
9-0
  6
Continuous
 62
     4
100
AcDbLine
 10
1910.556779
 20
1396.843904
 30
0.0
 11
1910.556779
 21
1381.843904
 31
0.0
  0
LINE
  5
334
330
6F
100
AcDbEntity
  8
9-0
  6
Continuous
 62
     4
100
AcDbLine
 10
1910.556779
 20
1396.843904
 30
0.0
 11
1910.556779
 21
1381.843904
 31
0.0
  0
CIRCLE
  5
335
330
6F
100
AcDbEntity
  8
9-0
  6
Continuous
 62
     4
100
AcDbCircle
 10
1910.556779161569
 20
1396.843903935533
 30
0.0
 40
0.25
  0
CIRCLE
  5
336
330
6F
100
AcDbEntity
  8
9-0
  6
Continuous
 62
     4
100
AcDbCircle
 10
1910.556779161569
 20
1396.843903935533
 30
0.0
 40
0.1875
  0
CIRCLE
  5
337
330
6F
100
AcDbEntity
  8
9-0
  6
Continuous
 62
     4
100
AcDbCircle
 10
1910.556779161569
 20
1396.843903935533
 30
0.0
 40
0.125
  0
CIRCLE
  5
338
330
6F
100
AcDbEntity
  8
9-0
  6
Continuous
 62
     4
100
AcDbCircle
 10
1910.556779161569
 20
1396.843903935533
 30
0.0
 40
0.0625
  0
ARC
  5
339
330
6F
100
AcDbEntity
  8
9-0
 62
     4
100
AcDbCircle
 10
1910.561779161569
 20
1396.843903935533
 30
0.0
 40
2.5
100
AcDbArc
 50
270.1145914065301
 51
90.11459140594496
  0
LINE
  5
33A
330
6F
100
AcDbEntity
  8
9-0
 62
     4
100
AcDbLine
 10
1910.556779161492
 20
1401.843903935533
 30
0.0
 11
1910.556779161416
 21
1406.843903935533
 31
0.0
  0
CIRCLE
  5
33B
330
6F
100
AcDbEntity
  8
9-0
  6
Continuous
 62
     4
100
AcDbCircle
 10
1910.556779161569
 20
1381.843903935533
 30
0.0
 40
0.25
  0
CIRCLE
  5
33C
330
6F
100
AcDbEntity
  8
9-0
  6
Continuous
 62
     4
100
AcDbCircle
 10
1910.556779161569
 20
1381.843903935533
 30
0.0
 40
0.1875
  0
CIRCLE
  5
33D
330
6F
100
AcDbEntity
  8
9-0
  6
Continuous
 62
     4
100
AcDbCircle
 10
1910.556779161569
 20
1381.843903935533
 30
0.0
 40
0.125
  0
CIRCLE
  5
33E
330
6F
100
AcDbEntity
  8
9-0
  6
Continuous
 62
     4
100
AcDbCircle
 10
1910.556779161569
 20
1381.843903935533
 30
0.0
 40
0.0625
  0
ARC
  5
33F
330
6F
100
AcDbEntity
  8
9-0
 62
     4
100
AcDbCircle
 10
1910.551779161569
 20
1381.843903935533
 30
0.0
 40
2.5
100
AcDbArc
 50
90.11459140653
 51
270.114591405945
  0
LINE
  5
340
330
6F
100
AcDbEntity
  8
9-0
 62
     4
100
AcDbLine
 10
1910.556779161595
 20
1376.843903935533
 30
0.0
 11
1910.55677916162
 21
1371.843903935533
 31
0.0
  0
LINE
  5
341
330
6F
100
AcDbEntity
  8
2-0
  6
DASHED2
 62
     7
100
AcDbLine
 10
2083.126606
 20
1379.143904
 30
0.0
 11
2063.126606
 21
1339.143904
 31
0.0
  0
LINE
  5
342
330
6F
100
AcDbEntity
  8
2-0
  6
DASHED2
 62
     7
100
AcDbLine
 10
2063.126606
 20
1339.143904
 30
0.0
 11
2083.126606
 21
1339.143904
 31
0.0
  0
LINE
  5
343
330
6F
100
AcDbEntity
  8
9-0
  6
Continuous
 62
     4
100
AcDbLine
 10
2465.126606
 20
1391.843904
 30
0.0
 11
2599.08882
 21
1391.843904
 31
0.0
  0
LINE
  5
344
330
6F
100
AcDbEntity
  8
9-0
  6
Continuous
 62
     4
100
AcDbLine
 10
2468.126606
 20
871.8439039999999
 30
0.0
 11
2599.08882
 21
871.8439039999999
 31
0.0
  0
TEXT
  5
345
330
6F
100
AcDbEntity
  8
9-0
 62
     4
100
AcDbText
 10
2598.469
 20
1098.244
 30
0.0
 40
36.288
  1
520
 50
90.0
100
AcDbText
  0
LINE
  5
346
330
6F
100
AcDbEntity
  8
9-0
  6
Continuous
 62
     4
100
AcDbLine
 10
2599.088819526144
 20
871.8439039355329
 30
0.0
 11
2599.088819526145
 21
1391.843903935532
 31
0.0
  0
CIRCLE
  5
347
330
6F
100
AcDbEntity
  8
9-0
  6
Continuous
 62
     4
100
AcDbCircle
 10
2599.088819526144
 20
871.8439039355329
 30
0.0
 40
0.25
  0
CIRCLE
  5
348
330
6F
100
AcDbEntity
  8
9-0
  6
Continuous
 62
     4
100
AcDbCircle
 10
2599.088819526144
 20
871.8439039355329
 30
0.0
 40
0.1875
  0
CIRCLE
  5
349
330
6F
100
AcDbEntity
  8
9-0
  6
Continuous
 62
     4
100
AcDbCircle
 10
2599.088819526144
 20
871.8439039355329
 30
0.0
 40
0.125
  0
CIRCLE
  5
34A
330
6F
100
AcDbEntity
  8
9-0
  6
Continuous
 62
     4
100
AcDbCircle
 10
2599.088819526144
 20
871.8439039355329
 30
0.0
 40
0.0625
  0
CIRCLE
  5
34B
330
6F
100
AcDbEntity
  8
9-0
  6
Continuous
 62
     4
100
AcDbCircle
 10
2599.088819526145
 20
1391.843903935532
 30
0.0
 40
0.25
  0
CIRCLE
  5
34C
330
6F
100
AcDbEntity
  8
9-0
  6
Continuous
 62
     4
100
AcDbCircle
 10
2599.088819526145
 20
1391.843903935532
 30
0.0
 40
0.1875
  0
CIRCLE
  5
34D
330
6F
100
AcDbEntity
  8
9-0
  6
Continuous
 62
     4
100
AcDbCircle
 10
2599.088819526145
 20
1391.843903935532
 30
0.0
 40
0.125
  0
CIRCLE
  5
34E
330
6F
100
AcDbEntity
  8
9-0
  6
Continuous
 62
     4
100
AcDbCircle
 10
2599.088819526145
 20
1391.843903935532
 30
0.0
 40
0.0625
  0
LINE
  5
34F
330
6F
100
AcDbEntity
  8
2-0
  6
Continuous
 62
     7
100
AcDbLine
 10
2408.126606
 20
896.8439039999999
 30
0.0
 11
2408.126606
 21
1396.843904
 31
0.0
  0
LINE
  5
350
330
6F
100
AcDbEntity
  8
2-0
  6
Continuous
 62
     7
100
AcDbLine
 10
2410.126606
 20
871.8439039999999
 30
0.0
 11
2410.126606
 21
1391.843904
 31
0.0
  0
LINE
  5
351
330
6F
100
AcDbEntity
  8
2-0
  6
Continuous
 62
     7
100
AcDbLine
 10
2425.126606
 20
871.8439039999999
 30
0.0
 11
2425.126606
 21
1391.843904
 31
0.0
  0
LINE
  5
352
330
6F
100
AcDbEntity
  8
9-0
  6
Continuous
 62
     4
100
AcDbLine
 10
2425.126606
 20
851.843904
 30
0.0
 11
2425.126606
 21
762.841549
 31
0.0
  0
LINE
  5
353
330
6F
100
AcDbEntity
  8
9-0
  6
Continuous
 62
     4
100
AcDbLine
 10
2410.126606
 20
854.3829719999999
 30
0.0
 11
2410.126606
 21
762.841549
 31
0.0
  0
LINE
  5
354
330
6F
100
AcDbEntity
  8
9-0
  6
Continuous
 62
     4
100
AcDbLine
 10
2435.126606
 20
762.841549
 30
0.0
 11
2445.126606
 21
762.841549
 31
0.0
  0
LINE
  5
355
330
6F
100
AcDbEntity
  8
9-0
  6
Continuous
 62
     4
100
AcDbLine
 10
2400.126606
 20
762.841549
 30
0.0
 11
2390.126606
 21
762.841549
 31
0.0
  0
LINE
  5
356
330
6F
100
AcDbEntity
  8
9-0
  6
Continuous
 62
     4
100
AcDbLine
 10
2417.626606
 20
762.841549
 30
0.0
 11
2447.276105
 21
708.541549
 31
0.0
  0
LINE
  5
357
330
6F
100
AcDbEntity
  8
9-0
  6
Continuous
 62
     4
100
AcDbLine
 10
2447.276105
 20
708.541549
 30
0.0
 11
2505.651739
 21
708.541549
 31
0.0
  0
TEXT
  5
358
330
6F
100
AcDbEntity
  8
9-0
 62
     4
100
AcDbText
 10
2456.886
 20
709.1619999999998
 30
0.0
 40
36.288
  1
15
100
AcDbText
  0
LINE
  5
359
330
6F
100
AcDbEntity
  8
9-0
  6
Continuous
 62
     4
100
AcDbLine
 10
2425.126606
 20
762.841549
 30
0.0
 11
2410.126606
 21
762.841549
 31
0.0
  0
LINE
  5
35A
330
6F
100
AcDbEntity
  8
9-0
  6
Continuous
 62
     4
100
AcDbLine
 10
2425.126606
 20
762.841549
 30
0.0
 11
2410.126606
 21
762.841549
 31
0.0
  0
CIRCLE
  5
35B
330
6F
100
AcDbEntity
  8
9-0
  6
Continuous
 62
     4
100
AcDbCircle
 10
2425.126605993742
 20
762.841548988732
 30
0.0
 40
0.25
  0
CIRCLE
  5
35C
330
6F
100
AcDbEntity
  8
9-0
  6
Continuous
 62
     4
100
AcDbCircle
 10
2425.126605993742
 20
762.841548988732
 30
0.0
 40
0.1875
  0
CIRCLE
  5
35D
330
6F
100
AcDbEntity
  8
9-0
  6
Continuous
 62
     4
100
AcDbCircle
 10
2425.126605993742
 20
762.841548988732
 30
0.0
 40
0.125
  0
CIRCLE
  5
35E
330
6F
100
AcDbEntity
  8
9-0
  6
Continuous
 62
     4
100
AcDbCircle
 10
2425.126605993742
 20
762.841548988732
 30
0.0
 40
0.0625
  0
ARC
  5
35F
330
6F
100
AcDbEntity
  8
9-0
 62
     4
100
AcDbCircle
 10
2425.126605993742
 20
762.836548988732
 30
0.0
 40
2.5
100
AcDbArc
 50
180.1145914065301
 51
0.1145914059449637
  0
LINE
  5
360
330
6F
100
AcDbEntity
  8
9-0
 62
     4
100
AcDbLine
 10
2430.126605993742
 20
762.8415489887829
 30
0.0
 11
2435.126605993742
 21
762.841548988834
 31
0.0
  0
CIRCLE
  5
361
330
6F
100
AcDbEntity
  8
9-0
  6
Continuous
 62
     4
100
AcDbCircle
 10
2410.126605993742
 20
762.841548988732
 30
0.0
 40
0.25
  0
CIRCLE
  5
362
330
6F
100
AcDbEntity
  8
9-0
  6
Continuous
 62
     4
100
AcDbCircle
 10
2410.126605993742
 20
762.841548988732
 30
0.0
 40
0.1875
  0
CIRCLE
  5
363
330
6F
100
AcDbEntity
  8
9-0
  6
Continuous
 62
     4
100
AcDbCircle
 10
2410.126605993742
 20
762.841548988732
 30
0.0
 40
0.125
  0
CIRCLE
  5
364
330
6F
100
AcDbEntity
  8
9-0
  6
Continuous
 62
     4
100
AcDbCircle
 10
2410.126605993742
 20
762.841548988732
 30
0.0
 40
0.0625
  0
ARC
  5
365
330
6F
100
AcDbEntity
  8
9-0
 62
     4
100
AcDbCircle
 10
2410.126605993742
 20
762.846548988732
 30
0.0
 40
2.5
100
AcDbArc
 50
0.1145914065300158
 51
180.114591405945
  0
LINE
  5
366
330
6F
100
AcDbEntity
  8
9-0
 62
     4
100
AcDbLine
 10
2405.126605993742
 20
762.841548988732
 30
0.0
 11
2400.126605993742
 21
762.841548988732
 31
0.0
  0
LINE
  5
367
330
6F
100
AcDbEntity
  8
9-0
  6
Continuous
 62
     4
100
AcDbLine
 10
2408.126606
 20
854.391473
 30
0.0
 11
2408.126606
 21
762.841549
 31
0.0
  0
LINE
  5
368
330
6F
100
AcDbEntity
  8
9-0
  6
Continuous
 62
     4
100
AcDbLine
 10
2410.126606
 20
854.3829719999999
 30
0.0
 11
2410.126606
 21
762.841549
 31
0.0
  0
LINE
  5
369
330
6F
100
AcDbEntity
  8
9-0
  6
Continuous
 62
     4
100
AcDbLine
 10
2398.126606
 20
762.841549
 30
0.0
 11
2388.126606
 21
762.841549
 31
0.0
  0
LINE
  5
36A
330
6F
100
AcDbEntity
  8
9-0
  6
Continuous
 62
     4
100
AcDbLine
 10
2420.126606
 20
762.841549
 30
0.0
 11
2430.126606
 21
762.841549
 31
0.0
  0
LINE
  5
36B
330
6F
100
AcDbEntity
  8
9-0
  6
Continuous
 62
     4
100
AcDbLine
 10
2409.126606
 20
762.841549
 30
0.0
 11
2382.939426
 21
708.541549
 31
0.0
  0
LINE
  5
36C
330
6F
100
AcDbEntity
  8
9-0
  6
Continuous
 62
     4
100
AcDbLine
 10
2382.939426
 20
708.541549
 30
0.0
 11
2344.817598
 21
708.541549
 31
0.0
  0
TEXT
  5
36D
330
6F
100
AcDbEntity
  8
9-0
 62
     4
100
AcDbText
 10
2355.501
 20
709.1619999999998
 30
0.0
 40
36.288
  1
2
100
AcDbText
  0
LINE
  5
36E
330
6F
100
AcDbEntity
  8
9-0
  6
Continuous
 62
     4
100
AcDbLine
 10
2408.126606
 20
762.841549
 30
0.0
 11
2410.126606
 21
762.841549
 31
0.0
  0
LINE
  5
36F
330
6F
100
AcDbEntity
  8
9-0
  6
Continuous
 62
     4
100
AcDbLine
 10
2408.126606
 20
762.841549
 30
0.0
 11
2410.126606
 21
762.841549
 31
0.0
  0
CIRCLE
  5
370
330
6F
100
AcDbEntity
  8
9-0
  6
Continuous
 62
     4
100
AcDbCircle
 10
2408.126605993742
 20
762.841548988732
 30
0.0
 40
0.25
  0
CIRCLE
  5
371
330
6F
100
AcDbEntity
  8
9-0
  6
Continuous
 62
     4
100
AcDbCircle
 10
2408.126605993742
 20
762.841548988732
 30
0.0
 40
0.1875
  0
CIRCLE
  5
372
330
6F
100
AcDbEntity
  8
9-0
  6
Continuous
 62
     4
100
AcDbCircle
 10
2408.126605993742
 20
762.841548988732
 30
0.0
 40
0.125
  0
CIRCLE
  5
373
330
6F
100
AcDbEntity
  8
9-0
  6
Continuous
 62
     4
100
AcDbCircle
 10
2408.126605993742
 20
762.841548988732
 30
0.0
 40
0.0625
  0
ARC
  5
374
330
6F
100
AcDbEntity
  8
9-0
 62
     4
100
AcDbCircle
 10
2408.126605993742
 20
762.846548988732
 30
0.0
 40
2.5
100
AcDbArc
 50
0.1145914065300158
 51
180.114591405945
  0
LINE
  5
375
330
6F
100
AcDbEntity
  8
9-0
 62
     4
100
AcDbLine
 10
2403.126605993743
 20
762.841548988732
 30
0.0
 11
2398.126605993742
 21
762.841548988732
 31
0.0
  0
CIRCLE
  5
376
330
6F
100
AcDbEntity
  8
9-0
  6
Continuous
 62
     4
100
AcDbCircle
 10
2410.126605993742
 20
762.841548988732
 30
0.0
 40
0.25
  0
CIRCLE
  5
377
330
6F
100
AcDbEntity
  8
9-0
  6
Continuous
 62
     4
100
AcDbCircle
 10
2410.126605993742
 20
762.841548988732
 30
0.0
 40
0.1875
  0
CIRCLE
  5
378
330
6F
100
AcDbEntity
  8
9-0
  6
Continuous
 62
     4
100
AcDbCircle
 10
2410.126605993742
 20
762.841548988732
 30
0.0
 40
0.125
  0
CIRCLE
  5
379
330
6F
100
AcDbEntity
  8
9-0
  6
Continuous
 62
     4
100
AcDbCircle
 10
2410.126605993742
 20
762.841548988732
 30
0.0
 40
0.0625
  0
ARC
  5
37A
330
6F
100
AcDbEntity
  8
9-0
 62
     4
100
AcDbCircle
 10
2410.126605993742
 20
762.836548988732
 30
0.0
 40
2.5
100
AcDbArc
 50
180.1145914065301
 51
0.1145914059449637
  0
LINE
  5
37B
330
6F
100
AcDbEntity
  8
9-0
 62
     4
100
AcDbLine
 10
2415.126605993742
 20
762.8415489887829
 30
0.0
 11
2420.126605993742
 21
762.841548988834
 31
0.0
  0
LINE
  5
37C
330
6F
100
AcDbEntity
  8
9-0
  6
Continuous
 62
     4
100
AcDbLine
 10
2484.128143
 20
1391.843904
 30
0.0
 11
2599.08882
 21
1391.843904
 31
0.0
  0
LINE
  5
37D
330
6F
100
AcDbEntity
  8
9-0
  6
Continuous
 62
     4
100
AcDbLine
 10
2484.131626
 20
1396.843904
 30
0.0
 11
2599.08882
 21
1396.843904
 31
0.0
  0
TEXT
  5
37E
330
6F
100
AcDbEntity
  8
9-0
 62
     4
100
AcDbText
 10
2665.969
 20
1422.455
 30
0.0
 40
36.288
  1
5
 50
90.0
100
AcDbText
  0
LINE
  5
37F
330
6F
100
AcDbEntity
  8
9-0
  6
Continuous
 62
     4
100
AcDbLine
 10
2599.088819526144
 20
1396.843903935533
 30
0.0
 11
2599.088819526144
 21
1391.843903935533
 31
0.0
  0
CIRCLE
  5
380
330
6F
100
AcDbEntity
  8
9-0
  6
Continuous
 62
     4
100
AcDbCircle
 10
2599.088819526144
 20
1396.843903935533
 30
0.0
 40
0.25
  0
CIRCLE
  5
381
330
6F
100
AcDbEntity
  8
9-0
  6
Continuous
 62
     4
100
AcDbCircle
 10
2599.088819526144
 20
1396.843903935533
 30
0.0
 40
0.1875
  0
CIRCLE
  5
382
330
6F
100
AcDbEntity
  8
9-0
  6
Continuous
 62
     4
100
AcDbCircle
 10
2599.088819526144
 20
1396.843903935533
 30
0.0
 40
0.125
  0
CIRCLE
  5
383
330
6F
100
AcDbEntity
  8
9-0
  6
Continuous
 62
     4
100
AcDbCircle
 10
2599.088819526144
 20
1396.843903935533
 30
0.0
 40
0.0625
  0
CIRCLE
  5
384
330
6F
100
AcDbEntity
  8
9-0
  6
Continuous
 62
     4
100
AcDbCircle
 10
2599.088819526144
 20
1391.843903935533
 30
0.0
 40
0.25
  0
CIRCLE
  5
385
330
6F
100
AcDbEntity
  8
9-0
  6
Continuous
 62
     4
100
AcDbCircle
 10
2599.088819526144
 20
1391.843903935533
 30
0.0
 40
0.1875
  0
CIRCLE
  5
386
330
6F
100
AcDbEntity
  8
9-0
  6
Continuous
 62
     4
100
AcDbCircle
 10
2599.088819526144
 20
1391.843903935533
 30
0.0
 40
0.125
  0
CIRCLE
  5
387
330
6F
100
AcDbEntity
  8
9-0
  6
Continuous
 62
     4
100
AcDbCircle
 10
2599.088819526144
 20
1391.843903935533
 30
0.0
 40
0.0625
  0
LINE
  5
388
330
6F
100
AcDbEntity
  8
2-0
  6
Continuous
 62
     7
100
AcDbLine
 10
2410.126606
 20
1391.843904
 30
0.0
 11
2425.126606
 21
1391.843904
 31
0.0
  0
CIRCLE
  5
389
330
6F
100
AcDbEntity
  8
2-0
  6
Continuous
 62
     7
100
AcDbCircle
 10
2103.326606
 20
1146.843904
 30
0.0
 40
2.5
  0
ARC
  5
38A
330
6F
100
AcDbEntity
  8
2-0
  6
Continuous
 62
     7
100
AcDbCircle
 10
2363.139106
 20
1152.843904
 30
0.0
 40
7.6875
100
AcDbArc
 50
282.68
 51
77.31999999999999
  0
LINE
  5
38B
330
6F
100
AcDbEntity
  8
2-0
  6
Continuous
 62
     7
100
AcDbLine
 10
2086.826606
 20
1160.343904
 30
0.0
 11
2364.826606
 21
1160.343904
 31
0.0
  0
CIRCLE
  5
38C
330
6F
100
AcDbEntity
  8
2-0
  6
Continuous
 62
     7
100
AcDbCircle
 10
2342.326606
 20
1146.843904
 30
0.0
 40
2.5
  0
ARC
  5
38D
330
6F
100
AcDbEntity
  8
2-0
  6
Continuous
 62
     7
100
AcDbCircle
 10
2086.826606
 20
1146.343904
 30
0.0
 40
1.0
100
AcDbArc
 50
180.0
 51
270.0
  0
ARC
  5
38E
330
6F
100
AcDbEntity
  8
2-0
  6
Continuous
 62
     7
100
AcDbCircle
 10
2086.826606
 20
1159.343904
 30
0.0
 40
1.0
100
AcDbArc
 50
90.0
 51
180.0
  0
LINE
  5
38F
330
6F
100
AcDbEntity
  8
2-0
  6
Continuous
 62
     7
100
AcDbLine
 10
2086.826606
 20
1145.343904
 30
0.0
 11
2093.826606
 21
1145.343904
 31
0.0
  0
LINE
  5
390
330
6F
100
AcDbEntity
  8
2-0
  6
Continuous
 62
     7
100
AcDbLine
 10
2096.826606
 20
1149.343904
 30
0.0
 11
2109.826606
 21
1149.343904
 31
0.0
  0
ARC
  5
391
330
6F
100
AcDbEntity
  8
2-0
  6
Continuous
 62
     7
100
AcDbCircle
 10
2096.826606
 20
1147.343904
 30
0.0
 40
2.0
100
AcDbArc
 50
90.0
 51
180.0
  0
LINE
  5
392
330
6F
100
AcDbEntity
  8
2-0
  6
Continuous
 62
     7
100
AcDbLine
 10
2111.826606
 20
1147.343904
 30
0.0
 11
2111.826606
 21
1146.343904
 31
0.0
  0
ARC
  5
393
330
6F
100
AcDbEntity
  8
2-0
  6
Continuous
 62
     7
100
AcDbCircle
 10
2109.826606
 20
1147.343904
 30
0.0
 40
2.0
100
AcDbArc
 50
0.0
 51
90.0
  0
LINE
  5
394
330
6F
100
AcDbEntity
  8
2-0
  6
Continuous
 62
     7
100
AcDbLine
 10
2112.826606
 20
1145.343904
 30
0.0
 11
2122.826606
 21
1145.343904
 31
0.0
  0
ARC
  5
395
330
6F
100
AcDbEntity
  8
2-0
  6
Continuous
 62
     7
100
AcDbCircle
 10
2112.826606
 20
1146.343904
 30
0.0
 40
1.0
100
AcDbArc
 50
180.0
 51
270.0
  0
LINE
  5
396
330
6F
100
AcDbEntity
  8
2-0
  6
Continuous
 62
     7
100
AcDbLine
 10
2123.826606
 20
1146.343904
 30
0.0
 11
2123.826606
 21
1147.843904
 31
0.0
  0
ARC
  5
397
330
6F
100
AcDbEntity
  8
2-0
  6
Continuous
 62
     7
100
AcDbCircle
 10
2122.826606
 20
1146.343904
 30
0.0
 40
1.0
100
AcDbArc
 50
270.0
 51
0.0
  0
LINE
  5
398
330
6F
100
AcDbEntity
  8
2-0
  6
Continuous
 62
     7
100
AcDbLine
 10
2320.826606
 20
1147.843904
 30
0.0
 11
2123.826606
 21
1147.843904
 31
0.0
  0
LINE
  5
399
330
6F
100
AcDbEntity
  8
2-0
  6
Continuous
 62
     7
100
AcDbLine
 10
2322.826606
 20
1145.343904
 30
0.0
 11
2332.826606
 21
1145.343904
 31
0.0
  0
ARC
  5
39A
330
6F
100
AcDbEntity
  8
2-0
  6
Continuous
 62
     7
100
AcDbCircle
 10
2322.826606
 20
1146.343904
 30
0.0
 40
1.0
100
AcDbArc
 50
180.0
 51
270.0
  0
LINE
  5
39B
330
6F
100
AcDbEntity
  8
2-0
  6
Continuous
 62
     7
100
AcDbLine
 10
2321.826606
 20
1146.843904
 30
0.0
 11
2321.826606
 21
1146.343904
 31
0.0
  0
ARC
  5
39C
330
6F
100
AcDbEntity
  8
2-0
  6
Continuous
 62
     7
100
AcDbCircle
 10
2320.826606
 20
1146.843904
 30
0.0
 40
1.0
100
AcDbArc
 50
0.0
 51
90.0
  0
LINE
  5
39D
330
6F
100
AcDbEntity
  8
2-0
  6
Continuous
 62
     7
100
AcDbLine
 10
2333.826606
 20
1146.343904
 30
0.0
 11
2333.826606
 21
1147.343904
 31
0.0
  0
ARC
  5
39E
330
6F
100
AcDbEntity
  8
2-0
  6
Continuous
 62
     7
100
AcDbCircle
 10
2332.826606
 20
1146.343904
 30
0.0
 40
1.0
100
AcDbArc
 50
270.0
 51
0.0
  0
LINE
  5
39F
330
6F
100
AcDbEntity
  8
2-0
  6
Continuous
 62
     7
100
AcDbLine
 10
2335.826606
 20
1149.343904
 30
0.0
 11
2348.826606
 21
1149.343904
 31
0.0
  0
ARC
  5
3A0
330
6F
100
AcDbEntity
  8
2-0
  6
Continuous
 62
     7
100
AcDbCircle
 10
2335.826606
 20
1147.343904
 30
0.0
 40
2.0
100
AcDbArc
 50
90.0
 51
180.0
  0
LINE
  5
3A1
330
6F
100
AcDbEntity
  8
2-0
  6
Continuous
 62
     7
100
AcDbLine
 10
2350.826606
 20
1147.343904
 30
0.0
 11
2350.826606
 21
1146.343904
 31
0.0
  0
ARC
  5
3A2
330
6F
100
AcDbEntity
  8
2-0
  6
Continuous
 62
     7
100
AcDbCircle
 10
2348.826606
 20
1147.343904
 30
0.0
 40
2.0
100
AcDbArc
 50
0.0
 51
90.0
  0
LINE
  5
3A3
330
6F
100
AcDbEntity
  8
2-0
  6
Continuous
 62
     7
100
AcDbLine
 10
2351.826606
 20
1145.343904
 30
0.0
 11
2364.826606
 21
1145.343904
 31
0.0
  0
ARC
  5
3A4
330
6F
100
AcDbEntity
  8
2-0
  6
Continuous
 62
     7
100
AcDbCircle
 10
2351.826606
 20
1146.343904
 30
0.0
 40
1.0
100
AcDbArc
 50
180.0
 51
270.0
  0
LINE
  5
3A5
330
6F
100
AcDbEntity
  8
2-0
  6
Continuous
 62
     7
100
AcDbLine
 10
2094.826606
 20
1147.343904
 30
0.0
 11
2094.826606
 21
1146.343904
 31
0.0
  0
ARC
  5
3A6
330
6F
100
AcDbEntity
  8
2-0
  6
Continuous
 62
     7
100
AcDbCircle
 10
2093.826606
 20
1146.343904
 30
0.0
 40
1.0
100
AcDbArc
 50
270.0
 51
0.0
  0
LINE
  5
3A7
330
6F
100
AcDbEntity
  8
9-0
  6
Continuous
 62
     4
100
AcDbLine
 10
2085.826606
 20
1126.343904
 30
0.0
 11
2085.826606
 21
1061.405531
 31
0.0
  0
LINE
  5
3A8
330
6F
100
AcDbEntity
  8
9-0
  6
Continuous
 62
     4
100
AcDbLine
 10
2370.826606
 20
1132.843904
 30
0.0
 11
2370.826606
 21
1061.405531
 31
0.0
  0
TEXT
  5
3A9
330
6F
100
AcDbEntity
  8
9-0
 62
     4
100
AcDbText
 10
2197.549
 20
1062.026
 30
0.0
 40
36.288
  1
285
100
AcDbText
  0
LINE
  5
3AA
330
6F
100
AcDbEntity
  8
9-0
  6
Continuous
 62
     4
100
AcDbLine
 10
2370.82660599374
 20
1061.405531251226
 30
0.0
 11
2085.826605993743
 21
1061.405531251226
 31
0.0
  0
CIRCLE
  5
3AB
330
6F
100
AcDbEntity
  8
9-0
  6
Continuous
 62
     4
100
AcDbCircle
 10
2370.82660599374
 20
1061.405531251226
 30
0.0
 40
0.25
  0
CIRCLE
  5
3AC
330
6F
100
AcDbEntity
  8
9-0
  6
Continuous
 62
     4
100
AcDbCircle
 10
2370.82660599374
 20
1061.405531251226
 30
0.0
 40
0.1875
  0
CIRCLE
  5
3AD
330
6F
100
AcDbEntity
  8
9-0
  6
Continuous
 62
     4
100
AcDbCircle
 10
2370.82660599374
 20
1061.405531251226
 30
0.0
 40
0.125
  0
CIRCLE
  5
3AE
330
6F
100
AcDbEntity
  8
9-0
  6
Continuous
 62
     4
100
AcDbCircle
 10
2370.82660599374
 20
1061.405531251226
 30
0.0
 40
0.0625
  0
CIRCLE
  5
3AF
330
6F
100
AcDbEntity
  8
9-0
  6
Continuous
 62
     4
100
AcDbCircle
 10
2085.826605993743
 20
1061.405531251226
 30
0.0
 40
0.25
  0
CIRCLE
  5
3B0
330
6F
100
AcDbEntity
  8
9-0
  6
Continuous
 62
     4
100
AcDbCircle
 10
2085.826605993743
 20
1061.405531251226
 30
0.0
 40
0.1875
  0
CIRCLE
  5
3B1
330
6F
100
AcDbEntity
  8
9-0
  6
Continuous
 62
     4
100
AcDbCircle
 10
2085.826605993743
 20
1061.405531251226
 30
0.0
 40
0.125
  0
CIRCLE
  5
3B2
330
6F
100
AcDbEntity
  8
9-0
  6
Continuous
 62
     4
100
AcDbCircle
 10
2085.826605993743
 20
1061.405531251226
 30
0.0
 40
0.0625
  0
LINE
  5
3B3
330
6F
100
AcDbEntity
  8
9-0
  6
Continuous
 62
     4
100
AcDbLine
 10
2408.126606
 20
854.391473
 30
0.0
 11
2408.126606
 21
762.841549
 31
0.0
  0
LINE
  5
3B4
330
6F
100
AcDbEntity
  8
9-0
  6
Continuous
 62
     4
100
AcDbLine
 10
2063.126606
 20
852.9250259999999
 30
0.0
 11
2063.126606
 21
762.841549
 31
0.0
  0
TEXT
  5
3B5
330
6F
100
AcDbEntity
  8
9-0
 62
     4
100
AcDbText
 10
2204.849
 20
763.4619999999999
 30
0.0
 40
36.288
  1
345
100
AcDbText
  0
LINE
  5
3B6
330
6F
100
AcDbEntity
  8
9-0
  6
Continuous
 62
     4
100
AcDbLine
 10
2063.126605993742
 20
762.841548988732
 30
0.0
 11
2408.126605993742
 21
762.841548988732
 31
0.0
  0
CIRCLE
  5
3B7
330
6F
100
AcDbEntity
  8
9-0
  6
Continuous
 62
     4
100
AcDbCircle
 10
2063.126605993742
 20
762.841548988732
 30
0.0
 40
0.25
  0
CIRCLE
  5
3B8
330
6F
100
AcDbEntity
  8
9-0
  6
Continuous
 62
     4
100
AcDbCircle
 10
2063.126605993742
 20
762.841548988732
 30
0.0
 40
0.1875
  0
CIRCLE
  5
3B9
330
6F
100
AcDbEntity
  8
9-0
  6
Continuous
 62
     4
100
AcDbCircle
 10
2063.126605993742
 20
762.841548988732
 30
0.0
 40
0.125
  0
CIRCLE
  5
3BA
330
6F
100
AcDbEntity
  8
9-0
  6
Continuous
 62
     4
100
AcDbCircle
 10
2063.126605993742
 20
762.841548988732
 30
0.0
 40
0.0625
  0
CIRCLE
  5
3BB
330
6F
100
AcDbEntity
  8
9-0
  6
Continuous
 62
     4
100
AcDbCircle
 10
2408.126605993742
 20
762.841548988732
 30
0.0
 40
0.25
  0
CIRCLE
  5
3BC
330
6F
100
AcDbEntity
  8
9-0
  6
Continuous
 62
     4
100
AcDbCircle
 10
2408.126605993742
 20
762.841548988732
 30
0.0
 40
0.1875
  0
CIRCLE
  5
3BD
330
6F
100
AcDbEntity
  8
9-0
  6
Continuous
 62
     4
100
AcDbCircle
 10
2408.126605993742
 20
762.841548988732
 30
0.0
 40
0.125
  0
CIRCLE
  5
3BE
330
6F
100
AcDbEntity
  8
9-0
  6
Continuous
 62
     4
100
AcDbCircle
 10
2408.126605993742
 20
762.841548988732
 30
0.0
 40
0.0625
  0
LINE
  5
3BF
330
6F
100
AcDbEntity
  8
2-0
  6
Continuous
 62
     7
100
AcDbLine
 10
2410.126606
 20
871.8439039999999
 30
0.0
 11
2410.126606
 21
1391.843904
 31
0.0
  0
LINE
  5
3C0
330
6F
100
AcDbEntity
  8
9-0
  6
Continuous
 62
     4
100
AcDbLine
 10
2425.126606
 20
851.843904
 30
0.0
 11
2425.126606
 21
762.841549
 31
0.0
  0
LINE
  5
3C1
330
6F
100
AcDbEntity
  8
9-0
  6
Continuous
 62
     4
100
AcDbLine
 10
2410.126606
 20
854.3829719999999
 30
0.0
 11
2410.126606
 21
762.841549
 31
0.0
  0
LINE
  5
3C2
330
6F
100
AcDbEntity
  8
9-0
  6
Continuous
 62
     4
100
AcDbLine
 10
2435.126606
 20
762.841549
 30
0.0
 11
2445.126606
 21
762.841549
 31
0.0
  0
LINE
  5
3C3
330
6F
100
AcDbEntity
  8
9-0
  6
Continuous
 62
     4
100
AcDbLine
 10
2400.126606
 20
762.841549
 30
0.0
 11
2390.126606
 21
762.841549
 31
0.0
  0
LINE
  5
3C4
330
6F
100
AcDbEntity
  8
9-0
  6
Continuous
 62
     4
100
AcDbLine
 10
2417.626606
 20
762.841549
 30
0.0
 11
2447.276105
 21
708.541549
 31
0.0
  0
LINE
  5
3C5
330
6F
100
AcDbEntity
  8
9-0
  6
Continuous
 62
     4
100
AcDbLine
 10
2447.276105
 20
708.541549
 30
0.0
 11
2505.651739
 21
708.541549
 31
0.0
  0
TEXT
  5
3C6
330
6F
100
AcDbEntity
  8
9-0
 62
     4
100
AcDbText
 10
2456.886
 20
709.1619999999998
 30
0.0
 40
36.288
  1
15
100
AcDbText
  0
LINE
  5
3C7
330
6F
100
AcDbEntity
  8
9-0
  6
Continuous
 62
     4
100
AcDbLine
 10
2425.126606
 20
762.841549
 30
0.0
 11
2410.126606
 21
762.841549
 31
0.0
  0
LINE
  5
3C8
330
6F
100
AcDbEntity
  8
9-0
  6
Continuous
 62
     4
100
AcDbLine
 10
2425.126606
 20
762.841549
 30
0.0
 11
2410.126606
 21
762.841549
 31
0.0
  0
CIRCLE
  5
3C9
330
6F
100
AcDbEntity
  8
9-0
  6
Continuous
 62
     4
100
AcDbCircle
 10
2425.126605993742
 20
762.841548988732
 30
0.0
 40
0.25
  0
CIRCLE
  5
3CA
330
6F
100
AcDbEntity
  8
9-0
  6
Continuous
 62
     4
100
AcDbCircle
 10
2425.126605993742
 20
762.841548988732
 30
0.0
 40
0.1875
  0
CIRCLE
  5
3CB
330
6F
100
AcDbEntity
  8
9-0
  6
Continuous
 62
     4
100
AcDbCircle
 10
2425.126605993742
 20
762.841548988732
 30
0.0
 40
0.125
  0
CIRCLE
  5
3CC
330
6F
100
AcDbEntity
  8
9-0
  6
Continuous
 62
     4
100
AcDbCircle
 10
2425.126605993742
 20
762.841548988732
 30
0.0
 40
0.0625
  0
ARC
  5
3CD
330
6F
100
AcDbEntity
  8
9-0
 62
     4
100
AcDbCircle
 10
2425.126605993742
 20
762.836548988732
 30
0.0
 40
2.5
100
AcDbArc
 50
180.1145914065301
 51
0.1145914059449637
  0
LINE
  5
3CE
330
6F
100
AcDbEntity
  8
9-0
 62
     4
100
AcDbLine
 10
2430.126605993742
 20
762.8415489887829
 30
0.0
 11
2435.126605993742
 21
762.841548988834
 31
0.0
  0
CIRCLE
  5
3CF
330
6F
100
AcDbEntity
  8
9-0
  6
Continuous
 62
     4
100
AcDbCircle
 10
2410.126605993742
 20
762.841548988732
 30
0.0
 40
0.25
  0
CIRCLE
  5
3D0
330
6F
100
AcDbEntity
  8
9-0
  6
Continuous
 62
     4
100
AcDbCircle
 10
2410.126605993742
 20
762.841548988732
 30
0.0
 40
0.1875
  0
CIRCLE
  5
3D1
330
6F
100
AcDbEntity
  8
9-0
  6
Continuous
 62
     4
100
AcDbCircle
 10
2410.126605993742
 20
762.841548988732
 30
0.0
 40
0.125
  0
CIRCLE
  5
3D2
330
6F
100
AcDbEntity
  8
9-0
  6
Continuous
 62
     4
100
AcDbCircle
 10
2410.126605993742
 20
762.841548988732
 30
0.0
 40
0.0625
  0
ARC
  5
3D3
330
6F
100
AcDbEntity
  8
9-0
 62
     4
100
AcDbCircle
 10
2410.126605993742
 20
762.846548988732
 30
0.0
 40
2.5
100
AcDbArc
 50
0.1145914065300158
 51
180.114591405945
  0
LINE
  5
3D4
330
6F
100
AcDbEntity
  8
9-0
 62
     4
100
AcDbLine
 10
2405.126605993742
 20
762.841548988732
 30
0.0
 11
2400.126605993742
 21
762.841548988732
 31
0.0
  0
LINE
  5
3D5
330
6F
100
AcDbEntity
  8
9-0
  6
Continuous
 62
     4
100
AcDbLine
 10
2408.126606
 20
854.391473
 30
0.0
 11
2408.126606
 21
762.841549
 31
0.0
  0
LINE
  5
3D6
330
6F
100
AcDbEntity
  8
9-0
  6
Continuous
 62
     4
100
AcDbLine
 10
2410.126606
 20
854.3829719999999
 30
0.0
 11
2410.126606
 21
762.841549
 31
0.0
  0
LINE
  5
3D7
330
6F
100
AcDbEntity
  8
9-0
  6
Continuous
 62
     4
100
AcDbLine
 10
2398.126606
 20
762.841549
 30
0.0
 11
2388.126606
 21
762.841549
 31
0.0
  0
LINE
  5
3D8
330
6F
100
AcDbEntity
  8
9-0
  6
Continuous
 62
     4
100
AcDbLine
 10
2420.126606
 20
762.841549
 30
0.0
 11
2430.126606
 21
762.841549
 31
0.0
  0
LINE
  5
3D9
330
6F
100
AcDbEntity
  8
9-0
  6
Continuous
 62
     4
100
AcDbLine
 10
2409.126606
 20
762.841549
 30
0.0
 11
2382.939426
 21
708.541549
 31
0.0
  0
LINE
  5
3DA
330
6F
100
AcDbEntity
  8
9-0
  6
Continuous
 62
     4
100
AcDbLine
 10
2382.939426
 20
708.541549
 30
0.0
 11
2344.817598
 21
708.541549
 31
0.0
  0
TEXT
  5
3DB
330
6F
100
AcDbEntity
  8
9-0
 62
     4
100
AcDbText
 10
2355.501
 20
709.1619999999998
 30
0.0
 40
36.288
  1
2
100
AcDbText
  0
LINE
  5
3DC
330
6F
100
AcDbEntity
  8
9-0
  6
Continuous
 62
     4
100
AcDbLine
 10
2408.126606
 20
762.841549
 30
0.0
 11
2410.126606
 21
762.841549
 31
0.0
  0
LINE
  5
3DD
330
6F
100
AcDbEntity
  8
9-0
  6
Continuous
 62
     4
100
AcDbLine
 10
2408.126606
 20
762.841549
 30
0.0
 11
2410.126606
 21
762.841549
 31
0.0
  0
CIRCLE
  5
3DE
330
6F
100
AcDbEntity
  8
9-0
  6
Continuous
 62
     4
100
AcDbCircle
 10
2408.126605993742
 20
762.841548988732
 30
0.0
 40
0.25
  0
CIRCLE
  5
3DF
330
6F
100
AcDbEntity
  8
9-0
  6
Continuous
 62
     4
100
AcDbCircle
 10
2408.126605993742
 20
762.841548988732
 30
0.0
 40
0.1875
  0
CIRCLE
  5
3E0
330
6F
100
AcDbEntity
  8
9-0
  6
Continuous
 62
     4
100
AcDbCircle
 10
2408.126605993742
 20
762.841548988732
 30
0.0
 40
0.125
  0
CIRCLE
  5
3E1
330
6F
100
AcDbEntity
  8
9-0
  6
Continuous
 62
     4
100
AcDbCircle
 10
2408.126605993742
 20
762.841548988732
 30
0.0
 40
0.0625
  0
ARC
  5
3E2
330
6F
100
AcDbEntity
  8
9-0
 62
     4
100
AcDbCircle
 10
2408.126605993742
 20
762.846548988732
 30
0.0
 40
2.5
100
AcDbArc
 50
0.1145914065300158
 51
180.114591405945
  0
LINE
  5
3E3
330
6F
100
AcDbEntity
  8
9-0
 62
     4
100
AcDbLine
 10
2403.126605993743
 20
762.841548988732
 30
0.0
 11
2398.126605993742
 21
762.841548988732
 31
0.0
  0
CIRCLE
  5
3E4
330
6F
100
AcDbEntity
  8
9-0
  6
Continuous
 62
     4
100
AcDbCircle
 10
2410.126605993742
 20
762.841548988732
 30
0.0
 40
0.25
  0
CIRCLE
  5
3E5
330
6F
100
AcDbEntity
  8
9-0
  6
Continuous
 62
     4
100
AcDbCircle
 10
2410.126605993742
 20
762.841548988732
 30
0.0
 40
0.1875
  0
CIRCLE
  5
3E6
330
6F
100
AcDbEntity
  8
9-0
  6
Continuous
 62
     4
100
AcDbCircle
 10
2410.126605993742
 20
762.841548988732
 30
0.0
 40
0.125
  0
CIRCLE
  5
3E7
330
6F
100
AcDbEntity
  8
9-0
  6
Continuous
 62
     4
100
AcDbCircle
 10
2410.126605993742
 20
762.841548988732
 30
0.0
 40
0.0625
  0
ARC
  5
3E8
330
6F
100
AcDbEntity
  8
9-0
 62
     4
100
AcDbCircle
 10
2410.126605993742
 20
762.836548988732
 30
0.0
 40
2.5
100
AcDbArc
 50
180.1145914065301
 51
0.1145914059449637
  0
LINE
  5
3E9
330
6F
100
AcDbEntity
  8
9-0
 62
     4
100
AcDbLine
 10
2415.126605993742
 20
762.8415489887829
 30
0.0
 11
2420.126605993742
 21
762.841548988834
 31
0.0
  0
LINE
  5
3EA
330
6F
100
AcDbEntity
  8
2-0
  6
Continuous
 62
     7
100
AcDbLine
 10
2407.626606
 20
875.7432239999999
 30
0.0
 11
2407.626606
 21
894.7432240000001
 31
0.0
  0
LINE
  5
3EB
330
6F
100
AcDbEntity
  8
2-0
  6
Continuous
 62
     7
100
AcDbLine
 10
2410.126606
 20
871.8439039999999
 30
0.0
 11
2425.126606
 21
871.8439039999999
 31
0.0
  0
LINE
  5
3EC
330
6F
100
AcDbEntity
  8
1-0
  6
Continuous
 62
     7
100
AcDbLine
 10
2410.126606
 20
875.7432239999999
 30
0.0
 11
2407.626606
 21
875.7432239999999
 31
0.0
  0
LINE
  5
3ED
330
6F
100
AcDbEntity
  8
1-0
  6
Continuous
 62
     7
100
AcDbLine
 10
2410.126606
 20
894.7432240000001
 30
0.0
 11
2407.626606
 21
894.7432240000001
 31
0.0
  0
LINE
  5
3EE
330
6F
100
AcDbEntity
  8
1-0
  6
Continuous
 62
     7
100
AcDbLine
 10
2407.626606
 20
894.7432240000001
 30
0.0
 11
2402.126606
 21
894.7432240000001
 31
0.0
  0
LINE
  5
3EF
330
6F
100
AcDbEntity
  8
1-0
  6
Continuous
 62
     7
100
AcDbLine
 10
2404.626606
 20
883.743224
 30
0.0
 11
2407.626606
 21
883.743224
 31
0.0
  0
ARC
  5
3F0
330
6F
100
AcDbEntity
  8
1-0
  6
Continuous
 62
     7
100
AcDbCircle
 10
2404.626606
 20
886.7432240000001
 30
0.0
 40
3.0
100
AcDbArc
 50
180.0
 51
270.0
  0
LINE
  5
3F1
330
6F
100
AcDbEntity
  8
1-0
  6
Continuous
 62
     7
100
AcDbLine
 10
2401.626606
 20
894.243224
 30
0.0
 11
2401.626606
 21
886.7432240000001
 31
0.0
  0
ARC
  5
3F2
330
6F
100
AcDbEntity
  8
1-0
  6
Continuous
 62
     7
100
AcDbCircle
 10
2402.126606
 20
894.243224
 30
0.0
 40
0.5
100
AcDbArc
 50
90.0
 51
180.0
  0
LINE
  5
3F3
330
6F
100
AcDbEntity
  8
1-0
  6
Continuous
 62
     7
100
AcDbLine
 10
2407.626606
 20
885.243224
 30
0.0
 11
2407.626606
 21
894.7432240000001
 31
0.0
  0
ARC
  5
3F4
330
6F
100
AcDbEntity
  8
1-0
  6
Continuous
 62
     7
100
AcDbCircle
 10
2410.889106
 20
889.993224
 30
0.0
 40
5.7625
100
AcDbArc
 50
124.483
 51
235.517
  0
ARC
  5
3F5
330
6F
100
AcDbEntity
  8
1-0
  6
Continuous
 62
     7
100
AcDbCircle
 10
2404.874592
 20
886.8634029999999
 30
0.0
 40
1.451915
100
AcDbArc
 50
68.435
 51
346.548
  0
LINE
  5
3F6
330
6F
100
AcDbEntity
  8
1-0
  6
Continuous
 62
     7
100
AcDbLine
 10
2380.490054
 20
896.8099269999999
 30
0.0
 11
2395.847505
 21
896.8099269999999
 31
0.0
  0
LINE
  5
3F7
330
6F
100
AcDbEntity
  8
1-0
  6
Continuous
 62
     7
100
AcDbLine
 10
2380.490054
 20
895.309927
 30
0.0
 11
2395.847505
 21
895.309927
 31
0.0
  0
LINE
  5
3F8
330
6F
100
AcDbEntity
  8
1-0
  6
Continuous
 62
     7
100
AcDbLine
 10
2396.490054
 20
885.809927
 30
0.0
 11
2397.341345
 21
895.174124
 31
0.0
  0
ARC
  5
3F9
330
6F
100
AcDbEntity
  8
1-0
  6
Continuous
 62
     7
100
AcDbCircle
 10
2395.847505
 20
895.309927
 30
0.0
 40
1.5
100
AcDbArc
 50
354.806
 51
90.0
  0
LINE
  5
3FA
330
6F
100
AcDbEntity
  8
1-0
  6
Continuous
 62
     7
100
AcDbLine
 10
2394.996214
 20
885.9457309999999
 30
0.0
 11
2395.847505
 21
895.309927
 31
0.0
  0
LINE
  5
3FB
330
6F
100
AcDbEntity
  8
1-0
  6
Continuous
 62
     7
100
AcDbLine
 10
2380.490054
 20
896.8099269999999
 30
0.0
 11
2380.490054
 21
895.309927
 31
0.0
  0
LINE
  5
3FC
330
6F
100
AcDbEntity
  8
1-0
  6
Continuous
 62
     7
100
AcDbLine
 10
2394.996214
 20
885.9457309999999
 30
0.0
 11
2396.490054
 21
885.809927
 31
0.0
  0
ARC
  5
3FD
330
6F
100
AcDbEntity
  8
1-0
  6
Continuous
 62
     7
100
AcDbCircle
 10
2386.594734
 20
898.4915289999999
 30
0.0
 40
5.7625
100
AcDbArc
 50
214.483
 51
325.517
  0
LINE
  5
3FE
330
6F
100
AcDbEntity
  8
1-0
  6
Continuous
 62
     7
100
AcDbLine
 10
2398.334157
 20
881.5493770000001
 30
0.0
 11
2387.125644000001
 21
879.6606589999999
 31
0.0
  0
ARC
  5
3FF
330
6F
100
AcDbEntity
  8
1-0
  6
Continuous
 62
     7
100
AcDbCircle
 10
2387.042561
 20
880.1537080000001
 30
0.0
 40
0.5
100
AcDbArc
 50
189.565
 51
279.565
  0
LINE
  5
400
330
6F
100
AcDbEntity
  8
1-0
  6
Continuous
 62
     7
100
AcDbLine
 10
2386.549512
 20
880.070626
 30
0.0
 11
2385.80177
 21
884.5080669999999
 31
0.0
  0
LINE
  5
401
330
6F
100
AcDbEntity
  8
1-0
  6
Continuous
 62
     7
100
AcDbLine
 10
2385.80177
 20
884.5080669999999
 30
0.0
 11
2392.036753
 21
893.263126
 31
0.0
  0
LINE
  5
402
330
6F
100
AcDbEntity
  8
1-0
  6
Continuous
 62
     7
100
AcDbLine
 10
2392.940225
 20
893.0346469999999
 30
0.0
 11
2393.889256
 21
885.385866
 31
0.0
  0
ARC
  5
403
330
6F
100
AcDbEntity
  8
1-0
  6
Continuous
 62
     7
100
AcDbCircle
 10
2392.44403
 20
892.973081
 30
0.0
 40
0.5
100
AcDbArc
 50
7.073
 51
144.543
  0
LINE
  5
404
330
6F
100
AcDbEntity
  8
1-0
  6
Continuous
 62
     7
100
AcDbLine
 10
2394.468533
 20
884.9543829999999
 30
0.0
 11
2401.745503
 21
886.180607
 31
0.0
  0
ARC
  5
405
330
6F
100
AcDbEntity
  8
1-0
  6
Continuous
 62
     7
100
AcDbCircle
 10
2394.385451
 20
885.4474320000001
 30
0.0
 40
0.5
100
AcDbArc
 50
187.073
 51
279.565
  0
CIRCLE
  5
406
330
6F
100
AcDbEntity
  8
1-0
  6
Continuous
 62
     7
100
AcDbCircle
 10
2390.316434
 20
884.151967
 30
0.0
 40
1.451915
  0
LINE
  5
407
330
6F
100
AcDbEntity
  8
1-0
  6
Continuous
 62
     7
100
AcDbLine
 10
2402.022654
 20
885.333192
 30
0.0
 11
2394.012491
 21
873.894692
 31
0.0
  0
LINE
  5
408
330
6F
100
AcDbEntity
  8
1-0
  6
Continuous
 62
     7
100
AcDbLine
 10
2404.30158
 20
883.7061869999999
 30
0.0
 11
2396.306037
 21
872.288565
 31
0.0
  0
ARC
  5
409
330
6F
100
AcDbEntity
  8
1-0
  6
Continuous
 62
     7
100
AcDbCircle
 10
2395.486914
 20
872.8621819999998
 30
0.0
 40
1.0
100
AcDbArc
 50
234.997
 51
324.997
  0
LINE
  5
40A
330
6F
100
AcDbEntity
  8
1-0
  6
Continuous
 62
     7
100
AcDbLine
 10
2394.257998
 20
872.501952
 30
0.0
 11
2394.913297
 21
872.043058
 31
0.0
  0
ARC
  5
40B
330
6F
100
AcDbEntity
  8
1-0
  6
Continuous
 62
     7
100
AcDbCircle
 10
2394.831615
 20
873.3210749999999
 30
0.0
 40
1.0
100
AcDbArc
 50
144.997
 51
234.997
  0
LINE
  5
40C
330
6F
100
AcDbEntity
  8
1-0
  6
Continuous
 62
     7
100
AcDbLine
 10
2398.826801
 20
880.7695200000001
 30
0.0
 11
2394.012491
 21
873.894692
 31
0.0
  0
ARC
  5
40D
330
6F
100
AcDbEntity
  8
1-0
  6
Continuous
 62
     7
100
AcDbCircle
 10
2398.417239
 20
881.056328
 30
0.0
 40
0.5
100
AcDbArc
 50
324.997
 51
99.56500000000001
  0
TEXT
  5
40E
330
6F
100
AcDbEntity
  8
D-0
 62
     5
100
AcDbText
 10
3151.058
 20
2498.403
 30
0.0
 40
25.92
  1
火山性ガラス質複層板
100
AcDbText
  0
TEXT
  5
40F
330
6F
100
AcDbEntity
  8
D-0
 62
     5
100
AcDbText
 10
3151.058
 20
2548.403
 30
0.0
 40
25.92
  1
火山性ガラス質複層板
100
AcDbText
  0
LINE
  5
410
330
6F
100
AcDbEntity
  8
D-0
  6
Continuous
 62
     5
100
AcDbLine
 10
2777.047246
 20
2585.95789
 30
0.0
 11
3801.281639
 21
2585.95789
 31
0.0
  0
TEXT
  5
411
330
6F
100
AcDbEntity
  8
D-0
 62
     5
100
AcDbText
 10
3151.058
 20
2258.403
 30
0.0
 40
25.92
  1
耐震レハ゛ーラッチ
100
AcDbText
  0
LINE
  5
412
330
6F
100
AcDbEntity
  8
D-0
  6
Continuous
 62
     5
100
AcDbLine
 10
2777.047246
 20
2245.95789
 30
0.0
 11
3801.281639
 21
2245.95789
 31
0.0
  0
LINE
  5
413
330
6F
100
AcDbEntity
  8
D-0
  6
Continuous
 62
     5
100
AcDbLine
 10
2777.047246
 20
2195.95789
 30
0.0
 11
3801.281639
 21
2195.95789
 31
0.0
  0
LINE
  5
414
330
6F
100
AcDbEntity
  8
D-0
  6
Continuous
 62
     5
100
AcDbLine
 10
2777.047246
 20
2485.95789
 30
0.0
 11
3801.281639
 21
2485.95789
 31
0.0
  0
TEXT
  5
415
330
6F
100
AcDbEntity
  8
D-0
 62
     5
100
AcDbText
 10
3151.058
 20
2448.403
 30
0.0
 40
25.92
  1
プレコート（PB）
100
AcDbText
  0
TEXT
  5
416
330
6F
100
AcDbEntity
  8
D-0
 62
     5
100
AcDbText
 10
3151.058
 20
2308.403
 30
0.0
 40
25.92
  1
木口テープ仕上
100
AcDbText
  0
TEXT
  5
417
330
6F
100
AcDbEntity
  8
D-0
 62
     5
100
AcDbText
 10
3151.058
 20
2358.403
 30
0.0
 40
25.92
  1
ウレタンコート化粧ボード（PB)
100
AcDbText
  0
TEXT
  5
418
330
6F
100
AcDbEntity
  8
D-0
 62
     5
100
AcDbText
 10
3151.058
 20
2648.403
 30
0.0
 40
25.92
  1
ウレタンコート化粧ボード（PB)
100
AcDbText
  0
LINE
  5
419
330
6F
100
AcDbEntity
  8
D-0
  6
Continuous
 62
     5
100
AcDbLine
 10
2777.047246
 20
2685.95789
 30
0.0
 11
3801.281639
 21
2685.95789
 31
0.0
  0
LINE
  5
41A
330
6F
100
AcDbEntity
  8
D-0
  6
Continuous
 62
     5
100
AcDbLine
 10
2969.458198
 20
2685.95789
 30
0.0
 11
2969.458198
 21
2245.95789
 31
0.0
  0
LINE
  5
41B
330
6F
100
AcDbEntity
  8
D-0
  6
Continuous
 62
     5
100
AcDbLine
 10
3120.930624
 20
2685.95789
 30
0.0
 11
3120.930624
 21
2195.95789
 31
0.0
  0
LINE
  5
41C
330
6F
100
AcDbEntity
  8
D-0
  6
Continuous
 62
     5
100
AcDbLine
 10
2777.047246
 20
2685.95789
 30
0.0
 11
2777.047246
 21
2195.95789
 31
0.0
  0
TEXT
  5
41D
330
6F
100
AcDbEntity
  8
D-0
 62
     5
100
AcDbText
 10
2816.638
 20
2208.403
 30
0.0
 40
25.92
  1
丁番
100
AcDbText
  0
TEXT
  5
41E
330
6F
100
AcDbEntity
  8
D-0
 62
     5
100
AcDbText
 10
2816.638
 20
2448.403
 30
0.0
 40
25.92
  1
扉
100
AcDbText
  0
TEXT
  5
41F
330
6F
100
AcDbEntity
  8
D-0
 62
     5
100
AcDbText
 10
2989.397
 20
2358.403
 30
0.0
 40
25.92
  1
裏
100
AcDbText
  0
TEXT
  5
420
330
6F
100
AcDbEntity
  8
D-0
 62
     5
100
AcDbText
 10
2989.397
 20
2258.403
 30
0.0
 40
25.92
  1
ラッチ
100
AcDbText
  0
TEXT
  5
421
330
6F
100
AcDbEntity
  8
D-0
 62
     5
100
AcDbText
 10
2989.397
 20
2308.403
 30
0.0
 40
25.92
  1
木口
100
AcDbText
  0
TEXT
  5
422
330
6F
100
AcDbEntity
  8
D-0
 62
     5
100
AcDbText
 10
2989.397
 20
2498.403
 30
0.0
 40
25.92
  1
地板
100
AcDbText
  0
TEXT
  5
423
330
6F
100
AcDbEntity
  8
D-0
 62
     5
100
AcDbText
 10
2989.397
 20
2448.403
 30
0.0
 40
25.92
  1
表
100
AcDbText
  0
TEXT
  5
424
330
6F
100
AcDbEntity
  8
D-0
 62
     5
100
AcDbText
 10
2816.638
 20
2548.403
 30
0.0
 40
25.92
  1
不燃部
100
AcDbText
  0
TEXT
  5
425
330
6F
100
AcDbEntity
  8
D-0
 62
     5
100
AcDbText
 10
2816.638
 20
2648.403
 30
0.0
 40
25.92
  1
木部本体
100
AcDbText
  0
TEXT
  5
426
330
6F
100
AcDbEntity
  8
D-0
 62
     5
100
AcDbText
 10
2989.397
 20
2648.403
 30
0.0
 40
25.92
  1
側板
100
AcDbText
  0
TEXT
  5
427
330
6F
100
AcDbEntity
  8
D-0
 62
     5
100
AcDbText
 10
3151.058
 20
2598.403
 30
0.0
 40
25.92
  1
クリーンイーゴスMDF
100
AcDbText
  0
TEXT
  5
428
330
6F
100
AcDbEntity
  8
D-0
 62
     5
100
AcDbText
 10
2989.397
 20
2548.403
 30
0.0
 40
25.92
  1
側板
100
AcDbText
  0
TEXT
  5
429
330
6F
100
AcDbEntity
  8
D-0
 62
     5
100
AcDbText
 10
2989.397
 20
2598.403
 30
0.0
 40
25.92
  1
背板
100
AcDbText
  0
LINE
  5
42A
330
6F
100
AcDbEntity
  8
D-0
  6
Continuous
 62
     5
100
AcDbLine
 10
3801.281639
 20
2685.95789
 30
0.0
 11
3801.281639
 21
2195.95789
 31
0.0
  0
TEXT
  5
42B
330
6F
100
AcDbEntity
  8
D-0
 62
     5
100
AcDbText
 10
2776.567
 20
2122.953
 30
0.0
 40
25.92
  1
※　弊社製品はすべてF☆☆☆☆に対応しております。
100
AcDbText
  0
TEXT
  5
42C
330
6F
100
AcDbEntity
  8
D-0
 62
     5
100
AcDbText
 10
3152.665
 20
2207.656
 30
0.0
 40
25.92
  1
スライドヒンジ
100
AcDbText
  0
LINE
  5
42D
330
6F
100
AcDbEntity
  8
1-0
  6
Continuous
 62
     4
100
AcDbLine
 10
1506.482304
 20
2330.846341
 30
0.0
 11
1577.200766
 21
2330.846341
 31
0.0
  0
LINE
  5
42E
330
6F
100
AcDbEntity
  8
1-0
  6
Continuous
 62
     4
100
AcDbLine
 10
1506.482304
 20
1985.846341
 30
0.0
 11
1577.200766
 21
1985.846341
 31
0.0
  0
TEXT
  5
42F
330
6F
100
AcDbEntity
  8
1-0
 62
     4
100
AcDbText
 10
1576.581
 20
2124.746
 30
0.0
 40
36.288
  1
345
 50
90.0
100
AcDbText
  0
LINE
  5
430
330
6F
100
AcDbEntity
  8
1-0
  6
Continuous
 62
     4
100
AcDbLine
 10
1577.20076649415
 20
1985.84634137812
 30
0.0
 11
1577.20076649415
 21
2330.84634137812
 31
0.0
  0
CIRCLE
  5
431
330
6F
100
AcDbEntity
  8
1-0
  6
Continuous
 62
     4
100
AcDbCircle
 10
1577.20076649415
 20
1985.84634137812
 30
0.0
 40
0.25
  0
CIRCLE
  5
432
330
6F
100
AcDbEntity
  8
1-0
  6
Continuous
 62
     4
100
AcDbCircle
 10
1577.20076649415
 20
1985.84634137812
 30
0.0
 40
0.1875
  0
CIRCLE
  5
433
330
6F
100
AcDbEntity
  8
1-0
  6
Continuous
 62
     4
100
AcDbCircle
 10
1577.20076649415
 20
1985.84634137812
 30
0.0
 40
0.125
  0
CIRCLE
  5
434
330
6F
100
AcDbEntity
  8
1-0
  6
Continuous
 62
     4
100
AcDbCircle
 10
1577.20076649415
 20
1985.84634137812
 30
0.0
 40
0.0625
  0
CIRCLE
  5
435
330
6F
100
AcDbEntity
  8
1-0
  6
Continuous
 62
     4
100
AcDbCircle
 10
1577.20076649415
 20
2330.84634137812
 30
0.0
 40
0.25
  0
CIRCLE
  5
436
330
6F
100
AcDbEntity
  8
1-0
  6
Continuous
 62
     4
100
AcDbCircle
 10
1577.20076649415
 20
2330.84634137812
 30
0.0
 40
0.1875
  0
CIRCLE
  5
437
330
6F
100
AcDbEntity
  8
1-0
  6
Continuous
 62
     4
100
AcDbCircle
 10
1577.20076649415
 20
2330.84634137812
 30
0.0
 40
0.125
  0
CIRCLE
  5
438
330
6F
100
AcDbEntity
  8
1-0
  6
Continuous
 62
     4
100
AcDbCircle
 10
1577.20076649415
 20
2330.84634137812
 30
0.0
 40
0.0625
  0
LINE
  5
439
330
6F
100
AcDbEntity
  8
1-0
  6
Continuous
 62
     4
100
AcDbLine
 10
1529.263441
 20
1396.843904
 30
0.0
 11
1604.559541
 21
1396.843904
 31
0.0
  0
LINE
  5
43A
330
6F
100
AcDbEntity
  8
1-0
  6
Continuous
 62
     4
100
AcDbLine
 10
1529.263441
 20
896.8439039999999
 30
0.0
 11
1604.559541
 21
896.8439039999999
 31
0.0
  0
TEXT
  5
43B
330
6F
100
AcDbEntity
  8
1-0
 62
     4
100
AcDbText
 10
1603.94
 20
1113.244
 30
0.0
 40
36.288
  1
500
 50
90.0
100
AcDbText
  0
LINE
  5
43C
330
6F
100
AcDbEntity
  8
1-0
  6
Continuous
 62
     4
100
AcDbLine
 10
1604.559541157868
 20
896.8439039355329
 30
0.0
 11
1604.559541157868
 21
1396.843903935531
 31
0.0
  0
CIRCLE
  5
43D
330
6F
100
AcDbEntity
  8
1-0
  6
Continuous
 62
     4
100
AcDbCircle
 10
1604.559541157868
 20
896.8439039355329
 30
0.0
 40
0.25
  0
CIRCLE
  5
43E
330
6F
100
AcDbEntity
  8
1-0
  6
Continuous
 62
     4
100
AcDbCircle
 10
1604.559541157868
 20
896.8439039355329
 30
0.0
 40
0.1875
  0
CIRCLE
  5
43F
330
6F
100
AcDbEntity
  8
1-0
  6
Continuous
 62
     4
100
AcDbCircle
 10
1604.559541157868
 20
896.8439039355329
 30
0.0
 40
0.125
  0
CIRCLE
  5
440
330
6F
100
AcDbEntity
  8
1-0
  6
Continuous
 62
     4
100
AcDbCircle
 10
1604.559541157868
 20
896.8439039355329
 30
0.0
 40
0.0625
  0
CIRCLE
  5
441
330
6F
100
AcDbEntity
  8
1-0
  6
Continuous
 62
     4
100
AcDbCircle
 10
1604.559541157868
 20
1396.843903935531
 30
0.0
 40
0.25
  0
CIRCLE
  5
442
330
6F
100
AcDbEntity
  8
1-0
  6
Continuous
 62
     4
100
AcDbCircle
 10
1604.559541157868
 20
1396.843903935531
 30
0.0
 40
0.1875
  0
CIRCLE
  5
443
330
6F
100
AcDbEntity
  8
1-0
  6
Continuous
 62
     4
100
AcDbCircle
 10
1604.559541157868
 20
1396.843903935531
 30
0.0
 40
0.125
  0
CIRCLE
  5
444
330
6F
100
AcDbEntity
  8
1-0
  6
Continuous
 62
     4
100
AcDbCircle
 10
1604.559541157868
 20
1396.843903935531
 30
0.0
 40
0.0625
  0
TEXT
  5
445
330
6F
100
AcDbEntity
  8
D-0
 62
     5
100
AcDbText
 10
3977.866
 20
48.607
 30
0.0
 40
31.104
  1
2022.1
100
AcDbText
  0
TEXT
  5
446
330
6F
100
AcDbEntity
  8
D-0
 62
     5
100
AcDbText
 10
3148.061
 20
2406.168
 30
0.0
 40
25.92
  1
(SW）は鏡面仕上げ
100
AcDbText
  0
ENDSEC
  0
SECTION
  2
OBJECTS
  0
DICTIONARY
  5
C
330
0
100
AcDbDictionary
281
     1
  3
ACAD_CIP_PREVIOUS_PRODUCT_INFO
350
448
  3
ACAD_COLOR
350
62
  3
ACAD_DETAILVIEWSTYLE
350
69
  3
ACAD_GROUP
350
D
  3
ACAD_LAYOUT
350
61
  3
ACAD_MATERIAL
350
10
  3
ACAD_MLEADERSTYLE
350
65
  3
ACAD_MLINESTYLE
350
5E
  3
ACAD_PLOTSETTINGS
350
60
  3
ACAD_PLOTSTYLENAME
350
E
  3
ACAD_SCALELIST
350
42
  3
ACAD_SECTIONVIEWSTYLE
350
67
  3
ACAD_TABLESTYLE
350
63
  3
ACAD_VISUALSTYLE
350
29
  3
ACDB_RECOMPOSE_DATA
350
46C
  3
AcDbVariableDictionary
350
45F
  3
DWGPROPS
350
46D
  0
DICTIONARY
  5
449
330
54
100
AcDbDictionary
280
     1
281
     1
  3
ADSK_XREC_LAYER_RECONCILED
360
44A
  0
DICTIONARY
  5
44B
330
7F
100
AcDbDictionary
280
     1
281
     1
  3
ADSK_XREC_LAYER_RECONCILED
360
44C
  0
DICTIONARY
  5
44D
330
80
100
AcDbDictionary
280
     1
281
     1
  3
ADSK_XREC_LAYER_RECONCILED
360
44E
  0
DICTIONARY
  5
44F
330
81
100
AcDbDictionary
280
     1
281
     1
  3
ADSK_XREC_LAYER_RECONCILED
360
450
  0
DICTIONARY
  5
451
330
82
100
AcDbDictionary
280
     1
281
     1
  3
ADSK_XREC_LAYER_RECONCILED
360
452
  0
DICTIONARY
  5
453
330
83
100
AcDbDictionary
280
     1
281
     1
  3
ADSK_XREC_LAYER_RECONCILED
360
454
  0
DICTIONARY
  5
455
330
84
100
AcDbDictionary
280
     1
281
     1
  3
ADSK_XREC_LAYER_RECONCILED
360
456
  0
DICTIONARY
  5
457
330
85
100
AcDbDictionary
280
     1
281
     1
  3
ADSK_XREC_LAYER_RECONCILED
360
458
  0
DICTIONARY
  5
459
330
86
100
AcDbDictionary
280
     1
281
     1
  3
ADSK_XREC_LAYER_RECONCILED
360
45A
  0
DICTIONARY
  5
45B
330
87
100
AcDbDictionary
280
     1
281
     1
  3
ADSK_XREC_LAYER_RECONCILED
360
45C
  0
DICTIONARY
  5
45D
330
8D
100
AcDbDictionary
280
     1
281
     1
  3
ADSK_XREC_LAYER_RECONCILED
360
45E
  0
XRECORD
  5
448
102
{ACAD_REACTORS
330
C
102
}
330
C
100
AcDbXrecord
280
     1
300
ACDLT
300
2020
300

  0
DICTIONARY
  5
62
102
{ACAD_REACTORS
330
C
102
}
330
C
100
AcDbDictionary
281
     1
  0
DICTIONARY
  5
69
102
{ACAD_REACTORS
330
C
102
}
330
C
100
AcDbDictionary
281
     1
  3
Imperial24
350
6A
  0
DICTIONARY
  5
D
102
{ACAD_REACTORS
330
C
102
}
330
C
100
AcDbDictionary
281
     1
  0
DICTIONARY
  5
61
102
{ACAD_REACTORS
330
C
102
}
330
C
100
AcDbDictionary
281
     1
  3
Model
350
72
  3
レイアウト1
350
6E
  0
DICTIONARY
  5
10
102
{ACAD_REACTORS
330
C
102
}
330
C
100
AcDbDictionary
281
     1
  3
ByBlock
350
19
  3
ByLayer
350
11
  3
Global
350
21
  0
DICTIONARY
  5
65
102
{ACAD_REACTORS
330
C
102
}
330
C
100
AcDbDictionary
281
     1
  3
Standard
350
66
  0
DICTIONARY
  5
5E
102
{ACAD_REACTORS
330
C
102
}
330
C
100
AcDbDictionary
281
     1
  3
Standard
350
5F
  0
DICTIONARY
  5
60
102
{ACAD_REACTORS
330
C
102
}
330
C
100
AcDbDictionary
281
     1
  0
ACDBDICTIONARYWDFLT
  5
E
102
{ACAD_REACTORS
330
C
102
}
330
C
100
AcDbDictionary
281
     1
  3
Normal
350
F
100
AcDbDictionaryWithDefault
340
F
  0
DICTIONARY
  5
42
102
{ACAD_REACTORS
330
C
102
}
330
C
100
AcDbDictionary
281
     1
  3
A0
350
43
  3
A1
350
44
  3
A2
350
45
  3
A3
350
46
  3
A4
350
47
  3
A5
350
48
  3
A6
350
49
  3
A7
350
4A
  3
A8
350
4B
  3
A9
350
4C
  3
B0
350
4D
  3
B1
350
4E
  3
B2
350
4F
  3
B3
350
50
  3
B4
350
51
  3
B5
350
52
  3
B6
350
53
  0
DICTIONARY
  5
67
102
{ACAD_REACTORS
330
C
102
}
330
C
100
AcDbDictionary
281
     1
  3
Imperial24
350
68
  0
DICTIONARY
  5
63
102
{ACAD_REACTORS
330
C
102
}
330
C
100
AcDbDictionary
281
     1
  3
Standard
350
64
  0
DICTIONARY
  5
29
102
{ACAD_REACTORS
330
C
102
}
330
C
100
AcDbDictionary
281
     1
  3
2dWireframe
350
2F
  3
Basic
350
2E
  3
Brighten
350
35
  3
ColorChange
350
39
  3
Conceptual
350
32
  3
Dim
350
34
  3
EdgeColorOff
350
41
  3
Facepattern
350
38
  3
Flat
350
2A
  3
FlatWithEdges
350
2B
  3
Gouraud
350
2C
  3
GouraudWithEdges
350
2D
  3
Hidden
350
31
  3
JitterOff
350
3F
  3
Linepattern
350
37
  3
OverhangOff
350
40
  3
Realistic
350
33
  3
Shaded
350
3E
  3
Shaded with edges
350
3D
  3
Shades of Gray
350
3A
  3
Sketchy
350
3B
  3
Thicken
350
36
  3
Wireframe
350
30
  3
X-Ray
350
3C
  0
XRECORD
  5
46C
102
{ACAD_REACTORS
330
C
102
}
330
C
100
AcDbXrecord
280
     1
 90
        1
330
64
  0
DICTIONARY
  5
45F
102
{ACAD_REACTORS
330
C
102
}
330
C
100
AcDbDictionary
281
     1
  3
CANNOSCALE
350
464
  3
CMLEADERSTYLE
350
461
  3
CTABLESTYLE
350
460
  3
CVIEWDETAILSTYLE
350
462
  3
CVIEWSECTIONSTYLE
350
463
  3
DIMASSOC
350
467
  3
INDEXCTL
350
466
  3
SORTENTS
350
465
  3
XCLIPFRAME
350
468
  0
XRECORD
  5
46D
102
{ACAD_REACTORS
330
C
102
}
330
C
100
AcDbXrecord
280
     1
  1
DWGPROPS COOKIE
  2

  3

  4

  6

  7

  8
suzuki
  9

300
=
301
=
302
=
303
=
304
=
305
=
306
=
307
=
308
=
309
=
 40
0.0005439814814815
 41
2459642.747743056
 42
2459642.748287037
  1

 90
        0
  0
XRECORD
  5
44A
102
{ACAD_REACTORS
330
449
102
}
330
449
100
AcDbXrecord
280
     1
290
     1
  0
XRECORD
  5
44C
102
{ACAD_REACTORS
330
44B
102
}
330
44B
100
AcDbXrecord
280
     1
290
     1
  0
XRECORD
  5
44E
102
{ACAD_REACTORS
330
44D
102
}
330
44D
100
AcDbXrecord
280
     1
290
     1
  0
XRECORD
  5
450
102
{ACAD_REACTORS
330
44F
102
}
330
44F
100
AcDbXrecord
280
     1
290
     1
  0
XRECORD
  5
452
102
{ACAD_REACTORS
330
451
102
}
330
451
100
AcDbXrecord
280
     1
290
     1
  0
XRECORD
  5
454
102
{ACAD_REACTORS
330
453
102
}
330
453
100
AcDbXrecord
280
     1
290
     1
  0
XRECORD
  5
456
102
{ACAD_REACTORS
330
455
102
}
330
455
100
AcDbXrecord
280
     1
290
     1
  0
XRECORD
  5
458
102
{ACAD_REACTORS
330
457
102
}
330
457
100
AcDbXrecord
280
     1
290
     1
  0
XRECORD
  5
45A
102
{ACAD_REACTORS
330
459
102
}
330
459
100
AcDbXrecord
280
     1
290
     1
  0
XRECORD
  5
45C
102
{ACAD_REACTORS
330
45B
102
}
330
45B
100
AcDbXrecord
280
     1
290
     1
  0
XRECORD
  5
45E
102
{ACAD_REACTORS
330
45D
102
}
330
45D
100
AcDbXrecord
280
     1
290
     1
  0
ACDBDETAILVIEWSTYLE
  5
6A
102
{ACAD_XDICTIONARY
360
4A5
102
}
102
{ACAD_REACTORS
330
69
102
}
330
69
100
AcDbModelDocViewStyle
 70
     0
  3
Imperial24
290
     0
100
AcDbDetailViewStyle
 70
     0
 71
     0
 90
        3
 71
     1
340
55
 40
0.24
340
0
 40
0.24
300

 40
0.36
280
     3
 71
     2
340
5C
 90
       25
 71
     3
340
55
 40
0.24
 90
        1
 40
0.75
 90
        1
300
%<\AcVar ViewType \f "%tc1">% %<\AcVar ViewDetailId>%\PSCALE %<\AcVar ViewScale \f "%sn">%
 71
     4
340
5C
 90
       25
340
5C
 90
       25
280
     0
  0
LAYOUT
  5
72
102
{ACAD_XDICTIONARY
360
4A9
102
}
102
{ACAD_REACTORS
330
61
102
}
330
61
100
AcDbPlotSettings
  1

  2
DocuCentre-V 4070
  4

  6

 40
0.0
 41
0.0
 42
0.0
 43
0.0
 44
0.0
 45
0.0
 46
0.0
 47
0.0
 48
0.0
 49
0.0
140
0.0
141
0.0
142
1.0
143
1.0
 70
  1712
 72
     0
 73
     0
 74
     0
  7

 75
     0
147
1.0
148
0.0
149
0.0
100
AcDbLayout
  1
Model
 70
     1
 71
     0
 10
0.0
 20
0.0
 11
12.0
 21
9.0
 12
0.0
 22
0.0
 32
0.0
 14
0.0
 24
0.0
 34
0.0
 15
0.0
 25
0.0
 35
0.0
146
0.0
 13
0.0
 23
0.0
 33
0.0
 16
1.0
 26
0.0
 36
0.0
 17
0.0
 27
1.0
 37
0.0
 76
     0
330
6F
331
8C
  0
LAYOUT
  5
6E
102
{ACAD_XDICTIONARY
360
4A7
102
}
102
{ACAD_REACTORS
330
61
102
}
330
61
100
AcDbPlotSettings
  1

  2
DocuCentre-V 4070
  4

  6

 40
0.0
 41
0.0
 42
0.0
 43
0.0
 44
0.0
 45
0.0
 46
0.0
 47
0.0
 48
0.0
 49
0.0
140
0.0
141
0.0
142
1.0
143
1.0
 70
   688
 72
     0
 73
     0
 74
     5
  7

 75
    16
147
1.0
148
0.0
149
0.0
100
AcDbLayout
  1
レイアウト1
 70
     1
 71
     1
 10
0.0
 20
0.0
 11
12.0
 21
9.0
 12
0.0
 22
0.0
 32
0.0
 14
1.000000000000000E+20
 24
1.000000000000000E+20
 34
1.000000000000000E+20
 15
-1.000000000000000E+20
 25
-1.000000000000000E+20
 35
-1.000000000000000E+20
146
0.0
 13
0.0
 23
0.0
 33
0.0
 16
1.0
 26
0.0
 36
0.0
 17
0.0
 27
1.0
 37
0.0
 76
     0
330
6B
  0
MATERIAL
  5
19
102
{ACAD_XDICTIONARY
360
1A
102
}
102
{ACAD_REACTORS
330
10
102
}
330
10
100
AcDbMaterial
  1
ByBlock
 72
     0
 43
0.0208333333333333
 43
0.0
 43
0.0
 43
0.0
 43
0.0
 43
0.0208333333333333
 43
0.0
 43
0.0
 43
0.0
 43
0.0
 43
1.0
 43
0.0
 43
0.0
 43
0.0
 43
0.0
 43
1.0
 77
     0
 47
0.0208333333333333
 47
0.0
 47
0.0
 47
0.0
 47
0.0
 47
0.0208333333333333
 47
0.0
 47
0.0
 47
0.0
 47
0.0
 47
1.0
 47
0.0
 47
0.0
 47
0.0
 47
0.0
 47
1.0
171
     0
 49
0.0208333333333333
 49
0.0
 49
0.0
 49
0.0
 49
0.0
 49
0.0208333333333333
 49
0.0
 49
0.0
 49
0.0
 49
0.0
 49
1.0
 49
0.0
 49
0.0
 49
0.0
 49
0.0
 49
1.0
175
     0
142
0.0208333333333333
142
0.0
142
0.0
142
0.0
142
0.0
142
0.0208333333333333
142
0.0
142
0.0
142
0.0
142
0.0
142
1.0
142
0.0
142
0.0
142
0.0
142
0.0
142
1.0
179
     0
144
0.0208333333333333
144
0.0
144
0.0
144
0.0
144
0.0
144
0.0208333333333333
144
0.0
144
0.0
144
0.0
144
0.0
144
1.0
144
0.0
144
0.0
144
0.0
144
0.0
144
1.0
147
0.0208333333333333
147
0.0
147
0.0
147
0.0
147
0.0
147
0.0208333333333333
147
0.0
147
0.0
147
0.0
147
0.0
147
1.0
147
0.0
147
0.0
147
0.0
147
0.0
147
1.0
  0
MATERIAL
  5
11
102
{ACAD_XDICTIONARY
360
12
102
}
102
{ACAD_REACTORS
330
10
102
}
330
10
100
AcDbMaterial
  1
ByLayer
 72
     0
 43
0.0208333333333333
 43
0.0
 43
0.0
 43
0.0
 43
0.0
 43
0.0208333333333333
 43
0.0
 43
0.0
 43
0.0
 43
0.0
 43
1.0
 43
0.0
 43
0.0
 43
0.0
 43
0.0
 43
1.0
 77
     0
 47
0.0208333333333333
 47
0.0
 47
0.0
 47
0.0
 47
0.0
 47
0.0208333333333333
 47
0.0
 47
0.0
 47
0.0
 47
0.0
 47
1.0
 47
0.0
 47
0.0
 47
0.0
 47
0.0
 47
1.0
171
     0
 49
0.0208333333333333
 49
0.0
 49
0.0
 49
0.0
 49
0.0
 49
0.0208333333333333
 49
0.0
 49
0.0
 49
0.0
 49
0.0
 49
1.0
 49
0.0
 49
0.0
 49
0.0
 49
0.0
 49
1.0
175
     0
142
0.0208333333333333
142
0.0
142
0.0
142
0.0
142
0.0
142
0.0208333333333333
142
0.0
142
0.0
142
0.0
142
0.0
142
1.0
142
0.0
142
0.0
142
0.0
142
0.0
142
1.0
179
     0
144
0.0208333333333333
144
0.0
144
0.0
144
0.0
144
0.0
144
0.0208333333333333
144
0.0
144
0.0
144
0.0
144
0.0
144
1.0
144
0.0
144
0.0
144
0.0
144
0.0
144
1.0
147
0.0208333333333333
147
0.0
147
0.0
147
0.0
147
0.0
147
0.0208333333333333
147
0.0
147
0.0
147
0.0
147
0.0
147
1.0
147
0.0
147
0.0
147
0.0
147
0.0
147
1.0
  0
MATERIAL
  5
21
102
{ACAD_XDICTIONARY
360
22
102
}
102
{ACAD_REACTORS
330
10
102
}
330
10
100
AcDbMaterial
  1
Global
 72
     0
 43
0.0208333333333333
 43
0.0
 43
0.0
 43
0.0
 43
0.0
 43
0.0208333333333333
 43
0.0
 43
0.0
 43
0.0
 43
0.0
 43
1.0
 43
0.0
 43
0.0
 43
0.0
 43
0.0
 43
1.0
 77
     0
 47
0.0208333333333333
 47
0.0
 47
0.0
 47
0.0
 47
0.0
 47
0.0208333333333333
 47
0.0
 47
0.0
 47
0.0
 47
0.0
 47
1.0
 47
0.0
 47
0.0
 47
0.0
 47
0.0
 47
1.0
171
     0
 49
0.0208333333333333
 49
0.0
 49
0.0
 49
0.0
 49
0.0
 49
0.0208333333333333
 49
0.0
 49
0.0
 49
0.0
 49
0.0
 49
1.0
 49
0.0
 49
0.0
 49
0.0
 49
0.0
 49
1.0
175
     0
142
0.0208333333333333
142
0.0
142
0.0
142
0.0
142
0.0
142
0.0208333333333333
142
0.0
142
0.0
142
0.0
142
0.0
142
1.0
142
0.0
142
0.0
142
0.0
142
0.0
142
1.0
179
     0
144
0.0208333333333333
144
0.0
144
0.0
144
0.0
144
0.0
144
0.0208333333333333
144
0.0
144
0.0
144
0.0
144
0.0
144
1.0
144
0.0
144
0.0
144
0.0
144
0.0
144
1.0
147
0.0208333333333333
147
0.0
147
0.0
147
0.0
147
0.0
147
0.0208333333333333
147
0.0
147
0.0
147
0.0
147
0.0
147
1.0
147
0.0
147
0.0
147
0.0
147
0.0
147
1.0
  0
MLEADERSTYLE
  5
66
102
{ACAD_REACTORS
330
65
102
}
330
65
100
AcDbMLeaderStyle
170
     2
171
     1
172
     0
 90
        2
 40
0.0
 41
0.0
173
     1
 91
-1056964608
340
5A
 92
       -2
290
     1
 42
0.09
291
     1
 43
0.36
  3
Standard
 44
0.18
300

342
55
174
     1
178
     6
175
     1
176
     0
 93
-1056964608
 45
0.18
292
     0
297
     0
 46
0.18
 94
-1056964608
 47
1.0
 49
1.0
140
1.0
293
     1
141
0.0
294
     1
177
     0
142
1.0
295
     0
296
     0
143
0.125
1001
ACAD_MLEADERVER
1070
     2
  0
MLINESTYLE
  5
5F
102
{ACAD_REACTORS
330
5E
102
}
330
5E
100
AcDbMlineStyle
  2
STANDARD
 70
     0
  3

 62
   256
 51
90.0
 52
90.0
 71
     2
 49
0.5
 62
   256
  6
BYLAYER
 49
-0.5
 62
   256
  6
BYLAYER
  0
ACDBPLACEHOLDER
  5
F
102
{ACAD_REACTORS
330
E
102
}
330
E
  0
SCALE
  5
43
102
{ACAD_REACTORS
330
42
102
}
330
42
100
AcDbScale
 70
     0
300
1:1
140
1.0
141
1.0
290
     1
  0
SCALE
  5
44
102
{ACAD_REACTORS
330
42
102
}
330
42
100
AcDbScale
 70
     0
300
1/128" = 1'-0"
140
0.0078125
141
12.0
290
     0
  0
SCALE
  5
45
102
{ACAD_REACTORS
330
42
102
}
330
42
100
AcDbScale
 70
     0
300
1/64" = 1'-0"
140
0.015625
141
12.0
290
     0
  0
SCALE
  5
46
102
{ACAD_REACTORS
330
42
102
}
330
42
100
AcDbScale
 70
     0
300
1/32" = 1'-0"
140
0.03125
141
12.0
290
     0
  0
SCALE
  5
47
102
{ACAD_REACTORS
330
42
102
}
330
42
100
AcDbScale
 70
     0
300
1/16" = 1'-0"
140
0.0625
141
12.0
290
     0
  0
SCALE
  5
48
102
{ACAD_REACTORS
330
42
102
}
330
42
100
AcDbScale
 70
     0
300
3/32" = 1'-0"
140
0.09375
141
12.0
290
     0
  0
SCALE
  5
49
102
{ACAD_REACTORS
330
42
102
}
330
42
100
AcDbScale
 70
     0
300
1/8" = 1'-0"
140
0.125
141
12.0
290
     0
  0
SCALE
  5
4A
102
{ACAD_REACTORS
330
42
102
}
330
42
100
AcDbScale
 70
     0
300
3/16" = 1'-0"
140
0.1875
141
12.0
290
     0
  0
SCALE
  5
4B
102
{ACAD_REACTORS
330
42
102
}
330
42
100
AcDbScale
 70
     0
300
1/4" = 1'-0"
140
0.25
141
12.0
290
     0
  0
SCALE
  5
4C
102
{ACAD_REACTORS
330
42
102
}
330
42
100
AcDbScale
 70
     0
300
3/8" = 1'-0"
140
0.375
141
12.0
290
     0
  0
SCALE
  5
4D
102
{ACAD_REACTORS
330
42
102
}
330
42
100
AcDbScale
 70
     0
300
1/2" = 1'-0"
140
0.5
141
12.0
290
     0
  0
SCALE
  5
4E
102
{ACAD_REACTORS
330
42
102
}
330
42
100
AcDbScale
 70
     0
300
3/4" = 1'-0"
140
0.75
141
12.0
290
     0
  0
SCALE
  5
4F
102
{ACAD_REACTORS
330
42
102
}
330
42
100
AcDbScale
 70
     0
300
1" = 1'-0"
140
1.0
141
12.0
290
     0
  0
SCALE
  5
50
102
{ACAD_REACTORS
330
42
102
}
330
42
100
AcDbScale
 70
     0
300
1-1/2" = 1'-0"
140
1.5
141
12.0
290
     0
  0
SCALE
  5
51
102
{ACAD_REACTORS
330
42
102
}
330
42
100
AcDbScale
 70
     0
300
3" = 1'-0"
140
3.0
141
12.0
290
     0
  0
SCALE
  5
52
102
{ACAD_REACTORS
330
42
102
}
330
42
100
AcDbScale
 70
     0
300
6" = 1'-0"
140
6.0
141
12.0
290
     0
  0
SCALE
  5
53
102
{ACAD_REACTORS
330
42
102
}
330
42
100
AcDbScale
 70
     0
300
1'-0" = 1'-0"
140
12.0
141
12.0
290
     0
  0
ACDBSECTIONVIEWSTYLE
  5
68
102
{ACAD_XDICTIONARY
360
4A3
102
}
102
{ACAD_REACTORS
330
67
102
}
330
67
100
AcDbModelDocViewStyle
 70
     0
  3
Imperial24
290
     0
100
AcDbSectionViewStyle
 70
     0
 71
     0
 90
       78
 71
     1
340
55
 40
0.24
340
0
340
0
 40
0.24
300
I, O, Q, S, X, Z
 40
0.48
 90
        3
 40
0.18
 90
        1
 71
     2
340
5C
 90
       25
340
5C
 90
       50
 40
0.24
 40
0.0
 40
0.24
 71
     3
340
55
 40
0.24
 90
        1
 40
0.75
 90
        1
300
%<\AcVar ViewType \f "%tc1">% %<\AcVar ViewSectionStartId>%-%<\AcVar ViewSectionEndId>%\PSCALE %<\AcVar ViewScale \f "%sn">%
 71
     4
300
ANSI31
 40
1.0
 90
        0
290
     0
290
     0
 90
        6
 40
0.0
 40
1.570796326794896
 40
0.2617993877991494
 40
1.308996938995747
 40
-0.2617993877991494
 40
1.832595714594046
  0
TABLESTYLE
  5
64
102
{ACAD_XDICTIONARY
360
46A
102
}
102
{ACAD_REACTORS
330
63
102
}
330
63
100
AcDbTableStyle
  3
Standard
 70
     0
 71
     0
 40
0.06
 41
0.06
280
     0
281
     0
  7
STANDARD
140
0.18
170
     2
 62
     0
 63
     7
283
     0
274
    -2
284
     1
 64
     0
275
    -2
285
     1
 65
     0
276
    -2
286
     1
 66
     0
277
    -2
287
     1
 67
     0
278
    -2
288
     1
 68
     0
279
    -2
289
     1
 69
     0
  7
STANDARD
140
0.25
170
     5
 62
     0
 63
     7
283
     0
274
    -2
284
     1
 64
     0
275
    -2
285
     1
 65
     0
276
    -2
286
     1
 66
     0
277
    -2
287
     1
 67
     0
278
    -2
288
     1
 68
     0
279
    -2
289
     1
 69
     0
  7
STANDARD
140
0.18
170
     5
 62
     0
 63
     7
283
     0
274
    -2
284
     1
 64
     0
275
    -2
285
     1
 65
     0
276
    -2
286
     1
 66
     0
277
    -2
287
     1
 67
     0
278
    -2
288
     1
 68
     0
279
    -2
289
     1
 69
     0
  0
VISUALSTYLE
  5
2F
102
{ACAD_XDICTIONARY
360
47B
102
}
102
{ACAD_REACTORS
330
29
102
}
330
29
100
AcDbVisualStyle
  2
2dWireframe
 70
     4
 71
     0
 72
     2
 73
     0
 90
        0
 40
-0.6
 41
-30.0
 62
     5
 63
     7
 74
     1
 91
        4
 64
     7
 65
   257
 75
     1
175
     1
 42
1.0
 92
        0
 66
   257
 43
1.0
 76
     1
 77
     6
 78
     2
 67
     7
 79
     5
170
     0
171
     0
290
     0
174
     0
 93
        1
 44
0.0
173
     0
291
     0
 45
0.0
1001
ACAD
1000
AcDbSavedByObjectVersion
1070
     0
  0
VISUALSTYLE
  5
2E
102
{ACAD_XDICTIONARY
360
479
102
}
102
{ACAD_REACTORS
330
29
102
}
330
29
100
AcDbVisualStyle
  2
Basic
 70
     7
 71
     1
 72
     0
 73
     1
 90
        0
 40
-0.6
 41
-30.0
 62
     5
 63
     7
 74
     0
 91
        4
 64
     7
 65
   257
 75
     1
175
     1
 42
1.0
 92
        8
 66
     7
 43
1.0
 76
     1
 77
     6
 78
     2
 67
     7
 79
     5
170
     0
171
     0
290
     0
174
     0
 93
        1
 44
0.0
173
     0
291
     1
 45
0.0
1001
ACAD
1000
AcDbSavedByObjectVersion
1070
     0
  0
VISUALSTYLE
  5
35
102
{ACAD_XDICTIONARY
360
487
102
}
102
{ACAD_REACTORS
330
29
102
}
330
29
100
AcDbVisualStyle
  2
Brighten
 70
    12
 71
     2
 72
     2
 73
     0
 90
        0
 40
-0.6
 41
-30.0
 62
     5
 63
     7
 74
     1
 91
        4
 64
     7
 65
   257
 75
     1
175
     1
 42
1.0
 92
        8
 66
     7
 43
1.0
 76
     1
 77
     6
 78
     2
 67
     7
 79
     5
170
     0
171
     0
290
     0
174
     0
 93
        1
 44
50.0
173
     0
291
     1
 45
0.0
1001
ACAD
1000
AcDbSavedByObjectVersion
1070
     0
  0
VISUALSTYLE
  5
39
102
{ACAD_XDICTIONARY
360
48F
102
}
102
{ACAD_REACTORS
330
29
102
}
330
29
100
AcDbVisualStyle
  2
ColorChange
 70
    16
 71
     2
 72
     2
 73
     3
 90
        0
 40
-0.6
 41
-30.0
 62
     5
 63
     8
 74
     1
 91
        4
 64
     7
 65
   257
 75
     1
175
     1
 42
1.0
 92
        8
 66
     8
 43
1.0
 76
     1
 77
     6
 78
     2
 67
     7
 79
     5
170
     0
171
     0
290
     0
174
     0
 93
        1
 44
0.0
173
     0
291
     1
 45
0.0
1001
ACAD
1000
AcDbSavedByObjectVersion
1070
     0
  0
VISUALSTYLE
  5
32
102
{ACAD_XDICTIONARY
360
481
102
}
102
{ACAD_REACTORS
330
29
102
}
330
29
100
AcDbVisualStyle
  2
Conceptual
 70
     9
 71
     3
 72
     2
 73
     0
 90
        0
 40
-0.6
 41
-30.0
 62
     5
 63
     7
 74
     2
 91
        2
 64
     7
 65
   257
 75
     1
175
     1
 42
179.0
 92
        8
 66
     7
 43
1.0
 76
     1
 77
     6
 78
     2
 67
     7
 79
     3
170
     0
171
     0
290
     0
174
     0
 93
        1
 44
0.0
173
     0
291
     0
 45
0.0
1001
ACAD
1000
AcDbSavedByObjectVersion
1070
     0
  0
VISUALSTYLE
  5
34
102
{ACAD_XDICTIONARY
360
485
102
}
102
{ACAD_REACTORS
330
29
102
}
330
29
100
AcDbVisualStyle
  2
Dim
 70
    11
 71
     2
 72
     2
 73
     0
 90
        0
 40
-0.6
 41
-30.0
 62
     5
 63
     7
 74
     1
 91
        4
 64
     7
 65
   257
 75
     1
175
     1
 42
1.0
 92
        8
 66
     7
 43
1.0
 76
     1
 77
     6
 78
     2
 67
     7
 79
     5
170
     0
171
     0
290
     0
174
     0
 93
        1
 44
-50.0
173
     0
291
     1
 45
0.0
1001
ACAD
1000
AcDbSavedByObjectVersion
1070
     0
  0
VISUALSTYLE
  5
41
102
{ACAD_XDICTIONARY
360
49F
102
}
102
{ACAD_REACTORS
330
29
102
}
330
29
100
AcDbVisualStyle
  2
EdgeColorOff
 70
    22
 71
     2
 72
     2
 73
     0
 90
        0
 40
-0.6
 41
-30.0
 62
     5
 63
     7
 74
     1
 91
        4
 64
     7
 65
   257
 75
     1
175
     1
 42
1.0
 92
        8
 66
     7
 43
1.0
 76
     1
 77
     6
 78
     2
 67
     7
 79
     5
170
     0
171
     0
290
     0
174
     0
 93
        1
 44
0.0
173
     0
291
     1
 45
0.0
1001
ACAD
1000
AcDbSavedByObjectVersion
1070
     0
  0
VISUALSTYLE
  5
38
102
{ACAD_XDICTIONARY
360
48D
102
}
102
{ACAD_REACTORS
330
29
102
}
330
29
100
AcDbVisualStyle
  2
Facepattern
 70
    15
 71
     2
 72
     2
 73
     0
 90
        0
 40
-0.6
 41
-30.0
 62
     5
 63
     7
 74
     1
 91
        4
 64
     7
 65
   257
 75
     1
175
     1
 42
1.0
 92
        8
 66
     7
 43
1.0
 76
     1
 77
     6
 78
     2
 67
     7
 79
     5
170
     0
171
     0
290
     0
174
     0
 93
        1
 44
0.0
173
     0
291
     1
 45
0.0
1001
ACAD
1000
AcDbSavedByObjectVersion
1070
     0
  0
VISUALSTYLE
  5
2A
102
{ACAD_XDICTIONARY
360
471
102
}
102
{ACAD_REACTORS
330
29
102
}
330
29
100
AcDbVisualStyle
  2
Flat
 70
     0
 71
     2
 72
     1
 73
     1
 90
        2
 40
-0.6
 41
30.0
 62
     5
 63
     7
 74
     0
 91
        0
 64
     7
 65
   257
 75
     1
175
     1
 42
1.0
 92
        8
 66
     7
 43
1.0
 76
     1
 77
     6
 78
     2
 67
     7
 79
     5
170
     0
171
     0
290
     0
174
     0
 93
       13
 44
0.0
173
     0
291
     1
 45
0.0
1001
ACAD
1000
AcDbSavedByObjectVersion
1070
     0
  0
VISUALSTYLE
  5
2B
102
{ACAD_XDICTIONARY
360
473
102
}
102
{ACAD_REACTORS
330
29
102
}
330
29
100
AcDbVisualStyle
  2
FlatWithEdges
 70
     1
 71
     2
 72
     1
 73
     1
 90
        2
 40
-0.6
 41
30.0
 62
     5
 63
     7
 74
     1
 91
        0
 64
     7
 65
   257
 75
     1
175
     1
 42
1.0
 92
        0
 66
   257
 43
1.0
 76
     1
 77
     6
 78
     2
 67
     7
 79
     5
170
     0
171
     0
290
     0
174
     0
 93
       13
 44
0.0
173
     0
291
     1
 45
0.0
1001
ACAD
1000
AcDbSavedByObjectVersion
1070
     0
  0
VISUALSTYLE
  5
2C
102
{ACAD_XDICTIONARY
360
475
102
}
102
{ACAD_REACTORS
330
29
102
}
330
29
100
AcDbVisualStyle
  2
Gouraud
 70
     2
 71
     2
 72
     2
 73
     1
 90
        2
 40
-0.6
 41
30.0
 62
     5
 63
     7
 74
     0
 91
        0
 64
     7
 65
   257
 75
     1
175
     1
 42
1.0
 92
        0
 66
     7
 43
1.0
 76
     1
 77
     6
 78
     2
 67
     7
 79
     5
170
     0
171
     0
290
     0
174
     0
 93
       13
 44
0.0
173
     0
291
     1
 45
0.0
1001
ACAD
1000
AcDbSavedByObjectVersion
1070
     0
  0
VISUALSTYLE
  5
2D
102
{ACAD_XDICTIONARY
360
477
102
}
102
{ACAD_REACTORS
330
29
102
}
330
29
100
AcDbVisualStyle
  2
GouraudWithEdges
 70
     3
 71
     2
 72
     2
 73
     1
 90
        2
 40
-0.6
 41
30.0
 62
     5
 63
     7
 74
     1
 91
        0
 64
     7
 65
   257
 75
     1
175
     1
 42
1.0
 92
        0
 66
   257
 43
1.0
 76
     1
 77
     6
 78
     2
 67
     7
 79
     5
170
     0
171
     0
290
     0
174
     0
 93
       13
 44
0.0
173
     0
291
     1
 45
0.0
1001
ACAD
1000
AcDbSavedByObjectVersion
1070
     0
  0
VISUALSTYLE
  5
31
102
{ACAD_XDICTIONARY
360
47F
102
}
102
{ACAD_REACTORS
330
29
102
}
330
29
100
AcDbVisualStyle
  2
Hidden
 70
     6
 71
     1
 72
     2
 73
     2
 90
        0
 40
-0.6
 41
-30.0
 62
     5
 63
     7
 74
     2
 91
        2
 64
     7
 65
   257
 75
     2
175
     1
 42
40.0
 92
        0
 66
   257
 43
1.0
 76
     1
 77
     6
 78
     2
 67
     7
 79
     3
170
     0
171
     0
290
     0
174
     0
 93
        1
 44
0.0
173
     0
291
     0
 45
0.0
1001
ACAD
1000
AcDbSavedByObjectVersion
1070
     0
  0
VISUALSTYLE
  5
3F
102
{ACAD_XDICTIONARY
360
49B
102
}
102
{ACAD_REACTORS
330
29
102
}
330
29
100
AcDbVisualStyle
  2
JitterOff
 70
    20
 71
     2
 72
     2
 73
     0
 90
        0
 40
-0.6
 41
-30.0
 62
     5
 63
     7
 74
     1
 91
        4
 64
     7
 65
   257
 75
     1
175
     1
 42
1.0
 92
       10
 66
     7
 43
1.0
 76
     1
 77
     6
 78
     2
 67
     7
 79
     5
170
     0
171
     0
290
     0
174
     0
 93
        1
 44
0.0
173
     0
291
     1
 45
0.0
1001
ACAD
1000
AcDbSavedByObjectVersion
1070
     0
  0
VISUALSTYLE
  5
37
102
{ACAD_XDICTIONARY
360
48B
102
}
102
{ACAD_REACTORS
330
29
102
}
330
29
100
AcDbVisualStyle
  2
Linepattern
 70
    14
 71
     2
 72
     2
 73
     0
 90
        0
 40
-0.6
 41
-30.0
 62
     5
 63
     7
 74
     1
 91
        4
 64
     7
 65
   257
 75
     7
175
     7
 42
1.0
 92
        8
 66
     7
 43
1.0
 76
     1
 77
     6
 78
     2
 67
     7
 79
     5
170
     0
171
     0
290
     0
174
     0
 93
        1
 44
0.0
173
     0
291
     1
 45
0.0
1001
ACAD
1000
AcDbSavedByObjectVersion
1070
     0
  0
VISUALSTYLE
  5
40
102
{ACAD_XDICTIONARY
360
49D
102
}
102
{ACAD_REACTORS
330
29
102
}
330
29
100
AcDbVisualStyle
  2
OverhangOff
 70
    21
 71
     2
 72
     2
 73
     0
 90
        0
 40
-0.6
 41
-30.0
 62
     5
 63
     7
 74
     1
 91
        4
 64
     7
 65
   257
 75
     1
175
     1
 42
1.0
 92
        9
 66
     7
 43
1.0
 76
     1
 77
     6
 78
     2
 67
     7
 79
     5
170
     0
171
     0
290
     0
174
     0
 93
        1
 44
0.0
173
     0
291
     1
 45
0.0
1001
ACAD
1000
AcDbSavedByObjectVersion
1070
     0
  0
VISUALSTYLE
  5
33
102
{ACAD_XDICTIONARY
360
483
102
}
102
{ACAD_REACTORS
330
29
102
}
330
29
100
AcDbVisualStyle
  2
Realistic
 70
     8
 71
     2
 72
     3
 73
     0
 90
        2
 40
-0.6
 41
30.0
 62
     5
 63
     7
 74
     0
 91
        0
 64
     7
 65
   257
 75
     1
175
     1
 42
1.0
 92
        8
 66
   257
 43
1.0
 76
     1
 77
     6
 78
     2
 67
     7
 79
     3
170
     0
171
     0
290
     0
174
     0
 93
       13
 44
0.0
173
     0
291
     0
 45
0.0
1001
ACAD
1000
AcDbSavedByObjectVersion
1070
     0
  0
VISUALSTYLE
  5
3E
102
{ACAD_XDICTIONARY
360
499
102
}
102
{ACAD_REACTORS
330
29
102
}
330
29
100
AcDbVisualStyle
  2
Shaded
 70
    27
 71
     2
 72
     2
 73
     1
 90
        2
 40
-0.6
 41
30.0
 62
     5
 63
     7
 74
     0
 91
        4
 64
     7
 65
   257
 75
     1
175
     1
 42
1.0
 92
        8
 66
   257
 43
1.0
 76
     1
 77
     6
 78
     2
 67
     8
 79
     3
170
     0
171
     0
290
     0
174
     0
 93
        5
 44
0.0
173
     0
291
     0
 45
0.0
1001
ACAD
1000
AcDbSavedByObjectVersion
1070
     0
  0
VISUALSTYLE
  5
3D
102
{ACAD_XDICTIONARY
360
497
102
}
102
{ACAD_REACTORS
330
29
102
}
330
29
100
AcDbVisualStyle
  2
Shaded with edges
 70
    26
 71
     2
 72
     2
 73
     1
 90
        2
 40
-0.6
 41
30.0
 62
     5
 63
     7
 74
     1
 91
        2
 64
     7
 65
   257
 75
     2
175
     1
 42
1.0
 92
        8
 66
   257
 43
1.0
 76
     1
 77
     6
 78
     2
 67
     7
 79
     3
170
     0
171
     0
290
     0
174
     0
 93
        5
 44
0.0
173
     0
291
     0
 45
0.0
1001
ACAD
1000
AcDbSavedByObjectVersion
1070
     0
  0
VISUALSTYLE
  5
3A
102
{ACAD_XDICTIONARY
360
491
102
}
102
{ACAD_REACTORS
330
29
102
}
330
29
100
AcDbVisualStyle
  2
Shades of Gray
 70
    23
 71
     2
 72
     2
 73
     3
 90
        0
 40
-0.6
 41
-30.0
 62
     5
 63
     7
 74
     2
 91
        2
 64
     7
 65
     7
 75
     1
175
     1
 42
40.0
 92
        8
 66
     7
 43
1.0
 76
     1
 77
     6
 78
     2
 67
     7
 79
     3
170
     0
171
     0
290
     0
174
     0
 93
        1
 44
0.0
173
     0
291
     0
 45
0.0
1001
ACAD
1000
AcDbSavedByObjectVersion
1070
     0
  0
VISUALSTYLE
  5
3B
102
{ACAD_XDICTIONARY
360
493
102
}
102
{ACAD_REACTORS
330
29
102
}
330
29
100
AcDbVisualStyle
  2
Sketchy
 70
    24
 71
     1
 72
     2
 73
     2
 90
        0
 40
-0.6
 41
-30.0
 62
     5
 63
     7
 74
     2
 91
        2
 64
     7
 65
     7
 75
     1
175
     1
 42
40.0
 92
       11
 66
     7
 43
1.0
 76
     1
 77
     6
 78
     2
 67
     7
 79
     6
170
     0
171
     0
290
     0
174
     0
 93
        1
 44
0.0
173
     0
291
     0
 45
0.0
1001
ACAD
1000
AcDbSavedByObjectVersion
1070
     0
  0
VISUALSTYLE
  5
36
102
{ACAD_XDICTIONARY
360
489
102
}
102
{ACAD_REACTORS
330
29
102
}
330
29
100
AcDbVisualStyle
  2
Thicken
 70
    13
 71
     2
 72
     2
 73
     0
 90
        0
 40
-0.6
 41
-30.0
 62
     5
 63
     7
 74
     1
 91
        4
 64
     7
 65
   257
 75
     1
175
     1
 42
1.0
 92
       12
 66
     7
 43
1.0
 76
     1
 77
     6
 78
     2
 67
     7
 79
     5
170
     0
171
     0
290
     0
174
     0
 93
        1
 44
0.0
173
     0
291
     1
 45
0.0
1001
ACAD
1000
AcDbSavedByObjectVersion
1070
     0
  0
VISUALSTYLE
  5
30
102
{ACAD_XDICTIONARY
360
47D
102
}
102
{ACAD_REACTORS
330
29
102
}
330
29
100
AcDbVisualStyle
  2
Wireframe
 70
     5
 71
     0
 72
     2
 73
     0
 90
        0
 40
-0.6
 41
-30.0
 62
     5
 63
     7
 74
     1
 91
        4
 64
     7
 65
   257
 75
     1
175
     1
 42
1.0
 92
        0
 66
   257
 43
1.0
 76
     1
 77
     6
 78
     2
 67
     7
 79
     3
170
     0
171
     0
290
     0
174
     0
 93
        1
 44
0.0
173
     0
291
     0
 45
0.0
1001
ACAD
1000
AcDbSavedByObjectVersion
1070
     0
  0
VISUALSTYLE
  5
3C
102
{ACAD_XDICTIONARY
360
495
102
}
102
{ACAD_REACTORS
330
29
102
}
330
29
100
AcDbVisualStyle
  2
X-Ray
 70
    25
 71
     2
 72
     2
 73
     1
 90
        1
 40
0.5
 41
-30.0
 62
     5
 63
     7
 74
     1
 91
        0
 64
     7
 65
   257
 75
     1
175
     1
 42
1.0
 92
        8
 66
     7
 43
1.0
 76
     1
 77
     6
 78
     2
 67
     7
 79
     3
170
     0
171
     0
290
     0
174
     0
 93
       13
 44
0.0
173
     0
291
     0
 45
0.0
1001
ACAD
1000
AcDbSavedByObjectVersion
1070
     0
  0
DICTIONARYVAR
  5
464
102
{ACAD_REACTORS
330
45F
102
}
330
45F
100
DictionaryVariables
280
     0
  1
1:1
  0
DICTIONARYVAR
  5
461
102
{ACAD_REACTORS
330
45F
102
}
330
45F
100
DictionaryVariables
280
     0
  1
STANDARD
  0
DICTIONARYVAR
  5
460
102
{ACAD_REACTORS
330
45F
102
}
330
45F
100
DictionaryVariables
280
     0
  1
STANDARD
  0
DICTIONARYVAR
  5
462
102
{ACAD_REACTORS
330
45F
102
}
330
45F
100
DictionaryVariables
280
     0
  1
Imperial24
  0
DICTIONARYVAR
  5
463
102
{ACAD_REACTORS
330
45F
102
}
330
45F
100
DictionaryVariables
280
     0
  1
Imperial24
  0
DICTIONARYVAR
  5
467
102
{ACAD_REACTORS
330
45F
102
}
330
45F
100
DictionaryVariables
280
     0
  1
1
  0
DICTIONARYVAR
  5
466
102
{ACAD_REACTORS
330
45F
102
}
330
45F
100
DictionaryVariables
280
     0
  1
0
  0
DICTIONARYVAR
  5
465
102
{ACAD_REACTORS
330
45F
102
}
330
45F
100
DictionaryVariables
280
     0
  1
127
  0
DICTIONARYVAR
  5
468
102
{ACAD_REACTORS
330
45F
102
}
330
45F
100
DictionaryVariables
280
     0
  1
2
  0
DICTIONARY
  5
4A5
330
6A
100
AcDbDictionary
280
     1
281
     1
  3
ACAD_XREC_ROUNDTRIP
360
4A6
  0
DICTIONARY
  5
4A9
330
72
100
AcDbDictionary
280
     1
281
     1
  3
ACAD_XREC_ROUNDTRIP
360
4AA
  0
DICTIONARY
  5
4A7
330
6E
100
AcDbDictionary
280
     1
281
     1
  3
ACAD_XREC_ROUNDTRIP
360
4A8
  0
DICTIONARY
  5
1A
330
19
100
AcDbDictionary
280
     1
281
     1
  3
ACAD_XREC_ROUNDTRIP
360
46F
  3
BUMPTILE
360
1C
  3
DIFFUSETILE
360
1B
  3
OPACITYTILE
360
1F
  3
REFLECTIONTILE
360
1E
  3
REFRACTIONTILE
360
20
  3
SPECULARTILE
360
1D
  0
DICTIONARY
  5
12
330
11
100
AcDbDictionary
280
     1
281
     1
  3
ACAD_XREC_ROUNDTRIP
360
46E
  3
BUMPTILE
360
14
  3
DIFFUSETILE
360
13
  3
OPACITYTILE
360
17
  3
REFLECTIONTILE
360
16
  3
REFRACTIONTILE
360
18
  3
SPECULARTILE
360
15
  0
DICTIONARY
  5
22
330
21
100
AcDbDictionary
280
     1
281
     1
  3
ACAD_XREC_ROUNDTRIP
360
470
  3
BUMPTILE
360
24
  3
DIFFUSETILE
360
23
  3
OPACITYTILE
360
27
  3
REFLECTIONTILE
360
26
  3
REFRACTIONTILE
360
28
  3
SPECULARTILE
360
25
  0
DICTIONARY
  5
4A3
330
68
100
AcDbDictionary
280
     1
281
     1
  3
ACAD_XREC_ROUNDTRIP
360
4A4
  0
DICTIONARY
  5
46A
330
64
100
AcDbDictionary
280
     1
281
     1
  3
ACAD_ROUNDTRIP_2008_TABLESTYLE_CELLSTYLEMAP
360
46B
  3
ACAD_XREC_ROUNDTRIP
360
4A1
  0
DICTIONARY
  5
47B
330
2F
100
AcDbDictionary
280
     1
281
     1
  3
ACAD_XREC_ROUNDTRIP
360
47C
  0
DICTIONARY
  5
479
330
2E
100
AcDbDictionary
280
     1
281
     1
  3
ACAD_XREC_ROUNDTRIP
360
47A
  0
DICTIONARY
  5
487
330
35
100
AcDbDictionary
280
     1
281
     1
  3
ACAD_XREC_ROUNDTRIP
360
488
  0
DICTIONARY
  5
48F
330
39
100
AcDbDictionary
280
     1
281
     1
  3
ACAD_XREC_ROUNDTRIP
360
490
  0
DICTIONARY
  5
481
330
32
100
AcDbDictionary
280
     1
281
     1
  3
ACAD_XREC_ROUNDTRIP
360
482
  0
DICTIONARY
  5
485
330
34
100
AcDbDictionary
280
     1
281
     1
  3
ACAD_XREC_ROUNDTRIP
360
486
  0
DICTIONARY
  5
49F
330
41
100
AcDbDictionary
280
     1
281
     1
  3
ACAD_XREC_ROUNDTRIP
360
4A0
  0
DICTIONARY
  5
48D
330
38
100
AcDbDictionary
280
     1
281
     1
  3
ACAD_XREC_ROUNDTRIP
360
48E
  0
DICTIONARY
  5
471
330
2A
100
AcDbDictionary
280
     1
281
     1
  3
ACAD_XREC_ROUNDTRIP
360
472
  0
DICTIONARY
  5
473
330
2B
100
AcDbDictionary
280
     1
281
     1
  3
ACAD_XREC_ROUNDTRIP
360
474
  0
DICTIONARY
  5
475
330
2C
100
AcDbDictionary
280
     1
281
     1
  3
ACAD_XREC_ROUNDTRIP
360
476
  0
DICTIONARY
  5
477
330
2D
100
AcDbDictionary
280
     1
281
     1
  3
ACAD_XREC_ROUNDTRIP
360
478
  0
DICTIONARY
  5
47F
330
31
100
AcDbDictionary
280
     1
281
     1
  3
ACAD_XREC_ROUNDTRIP
360
480
  0
DICTIONARY
  5
49B
330
3F
100
AcDbDictionary
280
     1
281
     1
  3
ACAD_XREC_ROUNDTRIP
360
49C
  0
DICTIONARY
  5
48B
330
37
100
AcDbDictionary
280
     1
281
     1
  3
ACAD_XREC_ROUNDTRIP
360
48C
  0
DICTIONARY
  5
49D
330
40
100
AcDbDictionary
280
     1
281
     1
  3
ACAD_XREC_ROUNDTRIP
360
49E
  0
DICTIONARY
  5
483
330
33
100
AcDbDictionary
280
     1
281
     1
  3
ACAD_XREC_ROUNDTRIP
360
484
  0
DICTIONARY
  5
499
330
3E
100
AcDbDictionary
280
     1
281
     1
  3
ACAD_XREC_ROUNDTRIP
360
49A
  0
DICTIONARY
  5
497
330
3D
100
AcDbDictionary
280
     1
281
     1
  3
ACAD_XREC_ROUNDTRIP
360
498
  0
DICTIONARY
  5
491
330
3A
100
AcDbDictionary
280
     1
281
     1
  3
ACAD_XREC_ROUNDTRIP
360
492
  0
DICTIONARY
  5
493
330
3B
100
AcDbDictionary
280
     1
281
     1
  3
ACAD_XREC_ROUNDTRIP
360
494
  0
DICTIONARY
  5
489
330
36
100
AcDbDictionary
280
     1
281
     1
  3
ACAD_XREC_ROUNDTRIP
360
48A
  0
DICTIONARY
  5
47D
330
30
100
AcDbDictionary
280
     1
281
     1
  3
ACAD_XREC_ROUNDTRIP
360
47E
  0
DICTIONARY
  5
495
330
3C
100
AcDbDictionary
280
     1
281
     1
  3
ACAD_XREC_ROUNDTRIP
360
496
  0
XRECORD
  5
4A6
102
{ACAD_REACTORS
330
4A5
102
}
330
4A5
100
AcDbXrecord
280
     1
102
DISPLAYNAME
  1
Imperial24
102
FLAGS
 90
        0
  0
XRECORD
  5
4AA
102
{ACAD_REACTORS
330
4A9
102
}
330
4A9
100
AcDbXrecord
280
     1
102
SHADEPLOT
 70
     0
102
SHADEPLOTRESLEVEL
 70
     2
102
SHADEPLOTCUSTOMDPI
 70
   300
  0
XRECORD
  5
4A8
102
{ACAD_REACTORS
330
4A7
102
}
330
4A7
100
AcDbXrecord
280
     1
102
SHADEPLOT
 70
     0
102
SHADEPLOTRESLEVEL
 70
     2
102
SHADEPLOTCUSTOMDPI
 70
   300
  0
XRECORD
  5
46F
102
{ACAD_REACTORS
330
1A
102
}
330
1A
100
AcDbXrecord
280
     1
102
MATERIAL
148
0.0
149
0.0
149
0.0
 93
        0
 94
      127
282
     0
 72
     0
 77
     0
171
     0
175
     0
179
     0
273
     0
  0
XRECORD
  5
1C
102
{ACAD_REACTORS
330
1A
102
}
330
1A
100
AcDbXrecord
280
     1
270
     1
271
     1
  0
XRECORD
  5
1B
102
{ACAD_REACTORS
330
1A
102
}
330
1A
100
AcDbXrecord
280
     1
270
     1
271
     1
  0
XRECORD
  5
1F
102
{ACAD_REACTORS
330
1A
102
}
330
1A
100
AcDbXrecord
280
     1
270
     1
271
     1
  0
XRECORD
  5
1E
102
{ACAD_REACTORS
330
1A
102
}
330
1A
100
AcDbXrecord
280
     1
270
     1
271
     1
  0
XRECORD
  5
20
102
{ACAD_REACTORS
330
1A
102
}
330
1A
100
AcDbXrecord
280
     1
270
     1
271
     1
  0
XRECORD
  5
1D
102
{ACAD_REACTORS
330
1A
102
}
330
1A
100
AcDbXrecord
280
     1
270
     1
271
     1
  0
XRECORD
  5
46E
102
{ACAD_REACTORS
330
12
102
}
330
12
100
AcDbXrecord
280
     1
102
MATERIAL
148
0.0
149
0.0
149
0.0
 93
        0
 94
      127
282
     0
 72
     0
 77
     0
171
     0
175
     0
179
     0
273
     0
  0
XRECORD
  5
14
102
{ACAD_REACTORS
330
12
102
}
330
12
100
AcDbXrecord
280
     1
270
     1
271
     1
  0
XRECORD
  5
13
102
{ACAD_REACTORS
330
12
102
}
330
12
100
AcDbXrecord
280
     1
270
     1
271
     1
  0
XRECORD
  5
17
102
{ACAD_REACTORS
330
12
102
}
330
12
100
AcDbXrecord
280
     1
270
     1
271
     1
  0
XRECORD
  5
16
102
{ACAD_REACTORS
330
12
102
}
330
12
100
AcDbXrecord
280
     1
270
     1
271
     1
  0
XRECORD
  5
18
102
{ACAD_REACTORS
330
12
102
}
330
12
100
AcDbXrecord
280
     1
270
     1
271
     1
  0
XRECORD
  5
15
102
{ACAD_REACTORS
330
12
102
}
330
12
100
AcDbXrecord
280
     1
270
     1
271
     1
  0
XRECORD
  5
470
102
{ACAD_REACTORS
330
22
102
}
330
22
100
AcDbXrecord
280
     1
102
MATERIAL
148
0.0
149
0.0
149
0.0
 93
        0
 94
      127
282
     0
 72
     0
 77
     0
171
     0
175
     0
179
     0
273
     0
  0
XRECORD
  5
24
102
{ACAD_REACTORS
330
22
102
}
330
22
100
AcDbXrecord
280
     1
270
     1
271
     1
  0
XRECORD
  5
23
102
{ACAD_REACTORS
330
22
102
}
330
22
100
AcDbXrecord
280
     1
270
     1
271
     1
  0
XRECORD
  5
27
102
{ACAD_REACTORS
330
22
102
}
330
22
100
AcDbXrecord
280
     1
270
     1
271
     1
  0
XRECORD
  5
26
102
{ACAD_REACTORS
330
22
102
}
330
22
100
AcDbXrecord
280
     1
270
     1
271
     1
  0
XRECORD
  5
28
102
{ACAD_REACTORS
330
22
102
}
330
22
100
AcDbXrecord
280
     1
270
     1
271
     1
  0
XRECORD
  5
25
102
{ACAD_REACTORS
330
22
102
}
330
22
100
AcDbXrecord
280
     1
270
     1
271
     1
  0
XRECORD
  5
4A4
102
{ACAD_REACTORS
330
4A3
102
}
330
4A3
100
AcDbXrecord
280
     1
102
DISPLAYNAME
  1
Imperial24
102
FLAGS
 90
        0
  0
CELLSTYLEMAP
  5
46B
102
{ACAD_REACTORS
330
46A
102
}
330
46A
100
AcDbCellStyleMap
 90
        3
300
CELLSTYLE
  1
TABLEFORMAT_BEGIN
 90
        5
170
     1
 91
        0
 92
    32768
 62
   257
 93
        1
300
CONTENTFORMAT
  1
CONTENTFORMAT_BEGIN
 90
        0
 91
        0
 92
      512
 93
        0
300

 40
0.0
140
1.0
 94
        5
 62
     0
340
55
144
0.25
309
CONTENTFORMAT_END
171
     0
 94
        0
309
TABLEFORMAT_END
  1
CELLSTYLE_BEGIN
 90
        1
 91
        1
300
_TITLE
309
CELLSTYLE_END
300
CELLSTYLE
  1
TABLEFORMAT_BEGIN
 90
        5
170
     1
 91
        0
 92
        0
 62
   257
 93
        1
300
CONTENTFORMAT
  1
CONTENTFORMAT_BEGIN
 90
        0
 91
        0
 92
      512
 93
        0
300

 40
0.0
140
1.0
 94
        5
 62
     0
340
55
144
0.18
309
CONTENTFORMAT_END
171
     0
 94
        0
309
TABLEFORMAT_END
  1
CELLSTYLE_BEGIN
 90
        2
 91
        1
300
_HEADER
309
CELLSTYLE_END
300
CELLSTYLE
  1
TABLEFORMAT_BEGIN
 90
        5
170
     1
 91
        0
 92
        0
 62
   257
 93
        1
300
CONTENTFORMAT
  1
CONTENTFORMAT_BEGIN
 90
        0
 91
        0
 92
      512
 93
        0
300

 40
0.0
140
1.0
 94
        2
 62
     0
340
55
144
0.18
309
CONTENTFORMAT_END
171
     0
 94
        0
309
TABLEFORMAT_END
  1
CELLSTYLE_BEGIN
 90
        3
 91
        2
300
_DATA
309
CELLSTYLE_END
  0
XRECORD
  5
4A1
102
{ACAD_REACTORS
330
46A
102
}
330
46A
100
AcDbXrecord
280
     1
102
ACAD_ROUNDTRIP_PRE2007_TABLESTYLE
 90
      512
 91
        0
  1

 92
      512
 93
        0
  2

 94
      512
 95
        0
  3

  0
XRECORD
  5
47C
102
{ACAD_REACTORS
330
47B
102
}
330
47B
100
AcDbXrecord
280
     1
102
RTVSPost2010Prop28
280
     1
102
RTVSPost2010PropOp28
 70
     1
102
RTVSPost2010Prop29
280
     1
102
RTVSPost2010PropOp29
 70
     1
102
RTVSPost2010Prop30
280
     0
102
RTVSPost2010PropOp30
 70
     1
102
RTVSPost2010Prop31
280
     0
102
RTVSPost2010PropOp31
 70
     1
102
RTVSPost2010Prop32
280
     0
102
RTVSPost2010PropOp32
 70
     1
102
RTVSPost2010Prop33
280
     0
102
RTVSPost2010PropOp33
 70
     1
102
RTVSPost2010Prop34
280
     0
102
RTVSPost2010PropOp34
 70
     1
102
RTVSPost2010Prop35
280
     0
102
RTVSPost2010PropOp35
 70
     1
102
RTVSPost2010Prop36
280
     0
102
RTVSPost2010PropOp36
 70
     1
102
RTVSPost2010Prop37
 90
       50
102
RTVSPost2010PropOp37
 70
     1
102
RTVSPost2010Prop38
140
0.0
102
RTVSPost2010PropOp38
 70
     1
102
RTVSPost2010Prop39
140
1.0
102
RTVSPost2010PropOp39
 70
     1
102
RTVSPost2010Prop40
 90
        0
102
RTVSPost2010PropOp40
 70
     1
102
RTVSPost2010Prop41ColorIndex
 90
       18
102
RTVSPost2010Prop41ColorRGB
 90
        0
102
RTVSPost2010PropOp41
 70
     1
102
RTVSPost2010Prop42
 90
       50
102
RTVSPost2010PropOp42
 70
     1
102
RTVSPost2010Prop43
 90
        3
102
RTVSPost2010PropOp43
 70
     1
102
RTVSPost2010Prop44ColorIndex
 90
        5
102
RTVSPost2010Prop44ColorRGB
 90
      255
102
RTVSPost2010PropOp44
 70
     1
102
RTVSPost2010Prop45
280
     0
102
RTVSPost2010PropOp45
 70
     1
102
RTVSPost2010Prop46
 90
       50
102
RTVSPost2010PropOp46
 70
     1
102
RTVSPost2010Prop47
 90
       50
102
RTVSPost2010PropOp47
 70
     1
102
RTVSPost2010Prop48
 90
       50
102
RTVSPost2010PropOp48
 70
     1
102
RTVSPost2010Prop49
280
     0
102
RTVSPost2010PropOp49
 70
     1
102
RTVSPost2010Prop50
 90
       50
102
RTVSPost2010PropOp50
 70
     1
102
RTVSPost2010Prop51ColorIndex
 90
      256
102
RTVSPost2010Prop51ColorRGB
 90
-16777216
102
RTVSPost2010PropOp51
 70
     0
102
RTVSPost2010Prop52
140
1.0
102
RTVSPost2010PropOp52
 70
     0
102
RTVSPost2010Prop53
 90
        2
102
RTVSPost2010PropOp53
 70
     1
102
RTVSPost2010Prop54
  1
strokes_ogs.tif
102
RTVSPost2010PropOp54
 70
     1
102
RTVSPost2010Prop55
280
     0
102
RTVSPost2010PropOp55
 70
     1
102
RTVSPost2010Prop56
140
1.0
102
RTVSPost2010PropOp56
 70
     1
102
RTVSPost2010Prop57
140
1.0
102
RTVSPost2010PropOp57
 70
     1
102
RTVSPropertyOp0
 70
     1
102
RTVSPropertyOp1
 70
     1
102
RTVSPropertyOp2
 70
     1
102
RTVSPropertyOp3
 70
     1
102
RTVSPropertyOp4
 70
     1
102
RTVSPropertyOp5
 70
     1
102
RTVSPropertyOp6
 70
     1
102
RTVSPropertyOp7
 70
     1
102
RTVSPropertyOp8
 70
     1
102
RTVSPropertyOp9
 70
     1
102
RTVSPropertyOp10
 70
     1
102
RTVSPropertyOp11
 70
     1
102
RTVSPropertyOp12
 70
     1
102
RTVSPropertyOp13
 70
     1
102
RTVSPropertyOp14
 70
     1
102
RTVSPropertyOp15
 70
     1
102
RTVSPropertyOp16
 70
     1
102
RTVSPropertyOp17
 70
     1
102
RTVSPropertyOp18
 70
     1
102
RTVSPropertyOp19
 70
     1
102
RTVSPropertyOp20
 70
     1
102
RTVSPropertyOp21
 70
     1
102
RTVSPropertyOp22
 70
     1
102
RTVSPropertyOp23
 70
     1
102
RTVSPropertyOp24
 70
     1
102
RTVSPropertyOp25
 70
     1
102
RTVSPropertyOp26
 70
     1
102
RTVSPropertyOp27
 70
     1
102
RTVSPropertyOp28
 70
     1
102
RTVSPropertyOp29
 70
     1
102
RTVSPropertyOp30
 70
     1
102
RTVSPropertyOp31
 70
     1
102
RTVSPropertyOp32
 70
     1
102
RTVSPropertyOp33
 70
     1
102
RTVSPropertyOp34
 70
     1
102
RTVSPropertyOp35
 70
     1
102
RTVSPropertyOp36
 70
     1
102
RTVSPropertyOp37
 70
     1
102
RTVSPropertyOp38
 70
     1
102
RTVSPropertyOp39
 70
     1
102
RTVSPropertyOp40
 70
     1
102
RTVSPropertyOp41
 70
     1
102
RTVSPropertyOp42
 70
     1
102
RTVSPropertyOp43
 70
     1
102
RTVSPropertyOp44
 70
     1
102
RTVSPropertyOp45
 70
     1
102
RTVSPropertyOp46
 70
     1
102
RTVSPropertyOp47
 70
     1
102
RTVSPropertyOp48
 70
     1
102
RTVSPropertyOp49
 70
     1
102
RTVSPropertyOp50
 70
     1
102
RTVSPropertyOp51
 70
     0
102
RTVSPropertyOp52
 70
     0
102
RTVSPropertyOp53
 70
     1
102
RTVSPropertyOp54
 70
     1
102
RTVSPropertyOp55
 70
     1
102
RTVSPropertyOp56
 70
     1
102
RTVSPropertyOp57
 70
     1
102
RTVSPropertyOp58
 70
     1
102
RTVSPropertyOp59
 70
     1
102
RTVSPropertyOp60
 70
     1
102
RTVSPropertyOp61
 70
     1
102
RTVSPropertyOp62
 70
     1
  0
XRECORD
  5
47A
102
{ACAD_REACTORS
330
479
102
}
330
479
100
AcDbXrecord
280
     1
102
RTVSPost2010Prop28
280
     0
102
RTVSPost2010PropOp28
 70
     1
102
RTVSPost2010Prop29
280
     1
102
RTVSPost2010PropOp29
 70
     1
102
RTVSPost2010Prop30
280
     1
102
RTVSPost2010PropOp30
 70
     1
102
RTVSPost2010Prop31
280
     0
102
RTVSPost2010PropOp31
 70
     1
102
RTVSPost2010Prop32
280
     0
102
RTVSPost2010PropOp32
 70
     1
102
RTVSPost2010Prop33
280
     0
102
RTVSPost2010PropOp33
 70
     1
102
RTVSPost2010Prop34
280
     0
102
RTVSPost2010PropOp34
 70
     1
102
RTVSPost2010Prop35
280
     0
102
RTVSPost2010PropOp35
 70
     1
102
RTVSPost2010Prop36
280
     0
102
RTVSPost2010PropOp36
 70
     1
102
RTVSPost2010Prop37
 90
       50
102
RTVSPost2010PropOp37
 70
     1
102
RTVSPost2010Prop38
140
0.0
102
RTVSPost2010PropOp38
 70
     1
102
RTVSPost2010Prop39
140
1.0
102
RTVSPost2010PropOp39
 70
     1
102
RTVSPost2010Prop40
 90
        0
102
RTVSPost2010PropOp40
 70
     1
102
RTVSPost2010Prop41ColorIndex
 90
       18
102
RTVSPost2010Prop41ColorRGB
 90
        0
102
RTVSPost2010PropOp41
 70
     1
102
RTVSPost2010Prop42
 90
       50
102
RTVSPost2010PropOp42
 70
     1
102
RTVSPost2010Prop43
 90
        3
102
RTVSPost2010PropOp43
 70
     1
102
RTVSPost2010Prop44ColorIndex
 90
        5
102
RTVSPost2010Prop44ColorRGB
 90
      255
102
RTVSPost2010PropOp44
 70
     1
102
RTVSPost2010Prop45
280
     0
102
RTVSPost2010PropOp45
 70
     1
102
RTVSPost2010Prop46
 90
       50
102
RTVSPost2010PropOp46
 70
     1
102
RTVSPost2010Prop47
 90
       50
102
RTVSPost2010PropOp47
 70
     1
102
RTVSPost2010Prop48
 90
       50
102
RTVSPost2010PropOp48
 70
     1
102
RTVSPost2010Prop49
280
     0
102
RTVSPost2010PropOp49
 70
     1
102
RTVSPost2010Prop50
 90
       50
102
RTVSPost2010PropOp50
 70
     1
102
RTVSPost2010Prop51ColorIndex
 90
      256
102
RTVSPost2010Prop51ColorRGB
 90
-16777216
102
RTVSPost2010PropOp51
 70
     0
102
RTVSPost2010Prop52
140
1.0
102
RTVSPost2010PropOp52
 70
     0
102
RTVSPost2010Prop53
 90
        2
102
RTVSPost2010PropOp53
 70
     1
102
RTVSPost2010Prop54
  1
strokes_ogs.tif
102
RTVSPost2010PropOp54
 70
     1
102
RTVSPost2010Prop55
280
     0
102
RTVSPost2010PropOp55
 70
     1
102
RTVSPost2010Prop56
140
1.0
102
RTVSPost2010PropOp56
 70
     1
102
RTVSPost2010Prop57
140
1.0
102
RTVSPost2010PropOp57
 70
     1
102
RTVSPropertyOp0
 70
     1
102
RTVSPropertyOp1
 70
     1
102
RTVSPropertyOp2
 70
     1
102
RTVSPropertyOp3
 70
     1
102
RTVSPropertyOp4
 70
     1
102
RTVSPropertyOp5
 70
     1
102
RTVSPropertyOp6
 70
     1
102
RTVSPropertyOp7
 70
     1
102
RTVSPropertyOp8
 70
     1
102
RTVSPropertyOp9
 70
     1
102
RTVSPropertyOp10
 70
     1
102
RTVSPropertyOp11
 70
     1
102
RTVSPropertyOp12
 70
     1
102
RTVSPropertyOp13
 70
     1
102
RTVSPropertyOp14
 70
     1
102
RTVSPropertyOp15
 70
     1
102
RTVSPropertyOp16
 70
     1
102
RTVSPropertyOp17
 70
     1
102
RTVSPropertyOp18
 70
     1
102
RTVSPropertyOp19
 70
     1
102
RTVSPropertyOp20
 70
     1
102
RTVSPropertyOp21
 70
     1
102
RTVSPropertyOp22
 70
     1
102
RTVSPropertyOp23
 70
     1
102
RTVSPropertyOp24
 70
     1
102
RTVSPropertyOp25
 70
     1
102
RTVSPropertyOp26
 70
     1
102
RTVSPropertyOp27
 70
     1
102
RTVSPropertyOp28
 70
     1
102
RTVSPropertyOp29
 70
     1
102
RTVSPropertyOp30
 70
     1
102
RTVSPropertyOp31
 70
     1
102
RTVSPropertyOp32
 70
     1
102
RTVSPropertyOp33
 70
     1
102
RTVSPropertyOp34
 70
     1
102
RTVSPropertyOp35
 70
     1
102
RTVSPropertyOp36
 70
     1
102
RTVSPropertyOp37
 70
     1
102
RTVSPropertyOp38
 70
     1
102
RTVSPropertyOp39
 70
     1
102
RTVSPropertyOp40
 70
     1
102
RTVSPropertyOp41
 70
     1
102
RTVSPropertyOp42
 70
     1
102
RTVSPropertyOp43
 70
     1
102
RTVSPropertyOp44
 70
     1
102
RTVSPropertyOp45
 70
     1
102
RTVSPropertyOp46
 70
     1
102
RTVSPropertyOp47
 70
     1
102
RTVSPropertyOp48
 70
     1
102
RTVSPropertyOp49
 70
     1
102
RTVSPropertyOp50
 70
     1
102
RTVSPropertyOp51
 70
     0
102
RTVSPropertyOp52
 70
     0
102
RTVSPropertyOp53
 70
     1
102
RTVSPropertyOp54
 70
     1
102
RTVSPropertyOp55
 70
     1
102
RTVSPropertyOp56
 70
     1
102
RTVSPropertyOp57
 70
     1
102
RTVSPropertyOp58
 70
     1
102
RTVSPropertyOp59
 70
     1
102
RTVSPropertyOp60
 70
     1
102
RTVSPropertyOp61
 70
     1
102
RTVSPropertyOp62
 70
     1
  0
XRECORD
  5
488
102
{ACAD_REACTORS
330
487
102
}
330
487
100
AcDbXrecord
280
     1
102
RTVSPost2010Prop28
280
     0
102
RTVSPost2010PropOp28
 70
     1
102
RTVSPost2010Prop29
280
     1
102
RTVSPost2010PropOp29
 70
     1
102
RTVSPost2010Prop30
280
     1
102
RTVSPost2010PropOp30
 70
     1
102
RTVSPost2010Prop31
280
     0
102
RTVSPost2010PropOp31
 70
     1
102
RTVSPost2010Prop32
280
     0
102
RTVSPost2010PropOp32
 70
     1
102
RTVSPost2010Prop33
280
     0
102
RTVSPost2010PropOp33
 70
     1
102
RTVSPost2010Prop34
280
     0
102
RTVSPost2010PropOp34
 70
     1
102
RTVSPost2010Prop35
280
     0
102
RTVSPost2010PropOp35
 70
     1
102
RTVSPost2010Prop36
280
     0
102
RTVSPost2010PropOp36
 70
     1
102
RTVSPost2010Prop37
 90
       50
102
RTVSPost2010PropOp37
 70
     1
102
RTVSPost2010Prop38
140
0.0
102
RTVSPost2010PropOp38
 70
     1
102
RTVSPost2010Prop39
140
1.0
102
RTVSPost2010PropOp39
 70
     1
102
RTVSPost2010Prop40
 90
        0
102
RTVSPost2010PropOp40
 70
     1
102
RTVSPost2010Prop41ColorIndex
 90
       18
102
RTVSPost2010Prop41ColorRGB
 90
        0
102
RTVSPost2010PropOp41
 70
     1
102
RTVSPost2010Prop42
 90
       50
102
RTVSPost2010PropOp42
 70
     1
102
RTVSPost2010Prop43
 90
        3
102
RTVSPost2010PropOp43
 70
     1
102
RTVSPost2010Prop44ColorIndex
 90
        5
102
RTVSPost2010Prop44ColorRGB
 90
      255
102
RTVSPost2010PropOp44
 70
     1
102
RTVSPost2010Prop45
280
     0
102
RTVSPost2010PropOp45
 70
     1
102
RTVSPost2010Prop46
 90
       50
102
RTVSPost2010PropOp46
 70
     1
102
RTVSPost2010Prop47
 90
       50
102
RTVSPost2010PropOp47
 70
     1
102
RTVSPost2010Prop48
 90
       50
102
RTVSPost2010PropOp48
 70
     1
102
RTVSPost2010Prop49
280
     0
102
RTVSPost2010PropOp49
 70
     1
102
RTVSPost2010Prop50
 90
       50
102
RTVSPost2010PropOp50
 70
     1
102
RTVSPost2010Prop51ColorIndex
 90
      256
102
RTVSPost2010Prop51ColorRGB
 90
-16777216
102
RTVSPost2010PropOp51
 70
     0
102
RTVSPost2010Prop52
140
1.0
102
RTVSPost2010PropOp52
 70
     0
102
RTVSPost2010Prop53
 90
        2
102
RTVSPost2010PropOp53
 70
     1
102
RTVSPost2010Prop54
  1
strokes_ogs.tif
102
RTVSPost2010PropOp54
 70
     1
102
RTVSPost2010Prop55
280
     0
102
RTVSPost2010PropOp55
 70
     1
102
RTVSPost2010Prop56
140
1.0
102
RTVSPost2010PropOp56
 70
     1
102
RTVSPost2010Prop57
140
1.0
102
RTVSPost2010PropOp57
 70
     1
102
RTVSPropertyOp0
 70
     1
102
RTVSPropertyOp1
 70
     1
102
RTVSPropertyOp2
 70
     1
102
RTVSPropertyOp3
 70
     1
102
RTVSPropertyOp4
 70
     1
102
RTVSPropertyOp5
 70
     1
102
RTVSPropertyOp6
 70
     1
102
RTVSPropertyOp7
 70
     1
102
RTVSPropertyOp8
 70
     1
102
RTVSPropertyOp9
 70
     1
102
RTVSPropertyOp10
 70
     1
102
RTVSPropertyOp11
 70
     1
102
RTVSPropertyOp12
 70
     1
102
RTVSPropertyOp13
 70
     1
102
RTVSPropertyOp14
 70
     1
102
RTVSPropertyOp15
 70
     1
102
RTVSPropertyOp16
 70
     1
102
RTVSPropertyOp17
 70
     1
102
RTVSPropertyOp18
 70
     1
102
RTVSPropertyOp19
 70
     1
102
RTVSPropertyOp20
 70
     1
102
RTVSPropertyOp21
 70
     1
102
RTVSPropertyOp22
 70
     1
102
RTVSPropertyOp23
 70
     1
102
RTVSPropertyOp24
 70
     1
102
RTVSPropertyOp25
 70
     1
102
RTVSPropertyOp26
 70
     1
102
RTVSPropertyOp27
 70
     1
102
RTVSPropertyOp28
 70
     1
102
RTVSPropertyOp29
 70
     1
102
RTVSPropertyOp30
 70
     1
102
RTVSPropertyOp31
 70
     1
102
RTVSPropertyOp32
 70
     1
102
RTVSPropertyOp33
 70
     1
102
RTVSPropertyOp34
 70
     1
102
RTVSPropertyOp35
 70
     1
102
RTVSPropertyOp36
 70
     1
102
RTVSPropertyOp37
 70
     1
102
RTVSPropertyOp38
 70
     1
102
RTVSPropertyOp39
 70
     1
102
RTVSPropertyOp40
 70
     1
102
RTVSPropertyOp41
 70
     1
102
RTVSPropertyOp42
 70
     1
102
RTVSPropertyOp43
 70
     1
102
RTVSPropertyOp44
 70
     1
102
RTVSPropertyOp45
 70
     1
102
RTVSPropertyOp46
 70
     1
102
RTVSPropertyOp47
 70
     1
102
RTVSPropertyOp48
 70
     1
102
RTVSPropertyOp49
 70
     1
102
RTVSPropertyOp50
 70
     1
102
RTVSPropertyOp51
 70
     0
102
RTVSPropertyOp52
 70
     0
102
RTVSPropertyOp53
 70
     1
102
RTVSPropertyOp54
 70
     1
102
RTVSPropertyOp55
 70
     1
102
RTVSPropertyOp56
 70
     1
102
RTVSPropertyOp57
 70
     1
102
RTVSPropertyOp58
 70
     1
102
RTVSPropertyOp59
 70
     1
102
RTVSPropertyOp60
 70
     1
102
RTVSPropertyOp61
 70
     1
102
RTVSPropertyOp62
 70
     1
  0
XRECORD
  5
490
102
{ACAD_REACTORS
330
48F
102
}
330
48F
100
AcDbXrecord
280
     1
102
RTVSPost2010Prop28
280
     0
102
RTVSPost2010PropOp28
 70
     1
102
RTVSPost2010Prop29
280
     1
102
RTVSPost2010PropOp29
 70
     1
102
RTVSPost2010Prop30
280
     1
102
RTVSPost2010PropOp30
 70
     1
102
RTVSPost2010Prop31
280
     0
102
RTVSPost2010PropOp31
 70
     1
102
RTVSPost2010Prop32
280
     0
102
RTVSPost2010PropOp32
 70
     1
102
RTVSPost2010Prop33
280
     0
102
RTVSPost2010PropOp33
 70
     1
102
RTVSPost2010Prop34
280
     0
102
RTVSPost2010PropOp34
 70
     1
102
RTVSPost2010Prop35
280
     0
102
RTVSPost2010PropOp35
 70
     1
102
RTVSPost2010Prop36
280
     0
102
RTVSPost2010PropOp36
 70
     1
102
RTVSPost2010Prop37
 90
       50
102
RTVSPost2010PropOp37
 70
     1
102
RTVSPost2010Prop38
140
0.0
102
RTVSPost2010PropOp38
 70
     1
102
RTVSPost2010Prop39
140
1.0
102
RTVSPost2010PropOp39
 70
     1
102
RTVSPost2010Prop40
 90
        0
102
RTVSPost2010PropOp40
 70
     1
102
RTVSPost2010Prop41ColorIndex
 90
       18
102
RTVSPost2010Prop41ColorRGB
 90
        0
102
RTVSPost2010PropOp41
 70
     1
102
RTVSPost2010Prop42
 90
       50
102
RTVSPost2010PropOp42
 70
     1
102
RTVSPost2010Prop43
 90
        3
102
RTVSPost2010PropOp43
 70
     1
102
RTVSPost2010Prop44ColorIndex
 90
        5
102
RTVSPost2010Prop44ColorRGB
 90
      255
102
RTVSPost2010PropOp44
 70
     1
102
RTVSPost2010Prop45
280
     0
102
RTVSPost2010PropOp45
 70
     1
102
RTVSPost2010Prop46
 90
       50
102
RTVSPost2010PropOp46
 70
     1
102
RTVSPost2010Prop47
 90
       50
102
RTVSPost2010PropOp47
 70
     1
102
RTVSPost2010Prop48
 90
       50
102
RTVSPost2010PropOp48
 70
     1
102
RTVSPost2010Prop49
280
     0
102
RTVSPost2010PropOp49
 70
     1
102
RTVSPost2010Prop50
 90
       50
102
RTVSPost2010PropOp50
 70
     1
102
RTVSPost2010Prop51ColorIndex
 90
      256
102
RTVSPost2010Prop51ColorRGB
 90
-16777216
102
RTVSPost2010PropOp51
 70
     0
102
RTVSPost2010Prop52
140
1.0
102
RTVSPost2010PropOp52
 70
     0
102
RTVSPost2010Prop53
 90
        2
102
RTVSPost2010PropOp53
 70
     1
102
RTVSPost2010Prop54
  1
strokes_ogs.tif
102
RTVSPost2010PropOp54
 70
     1
102
RTVSPost2010Prop55
280
     0
102
RTVSPost2010PropOp55
 70
     1
102
RTVSPost2010Prop56
140
1.0
102
RTVSPost2010PropOp56
 70
     1
102
RTVSPost2010Prop57
140
1.0
102
RTVSPost2010PropOp57
 70
     1
102
RTVSPropertyOp0
 70
     1
102
RTVSPropertyOp1
 70
     1
102
RTVSPropertyOp2
 70
     1
102
RTVSPropertyOp3
 70
     1
102
RTVSPropertyOp4
 70
     1
102
RTVSPropertyOp5
 70
     1
102
RTVSPropertyOp6
 70
     1
102
RTVSPropertyOp7
 70
     1
102
RTVSPropertyOp8
 70
     1
102
RTVSPropertyOp9
 70
     1
102
RTVSPropertyOp10
 70
     1
102
RTVSPropertyOp11
 70
     1
102
RTVSPropertyOp12
 70
     1
102
RTVSPropertyOp13
 70
     1
102
RTVSPropertyOp14
 70
     1
102
RTVSPropertyOp15
 70
     1
102
RTVSPropertyOp16
 70
     1
102
RTVSPropertyOp17
 70
     1
102
RTVSPropertyOp18
 70
     1
102
RTVSPropertyOp19
 70
     1
102
RTVSPropertyOp20
 70
     1
102
RTVSPropertyOp21
 70
     1
102
RTVSPropertyOp22
 70
     1
102
RTVSPropertyOp23
 70
     1
102
RTVSPropertyOp24
 70
     1
102
RTVSPropertyOp25
 70
     1
102
RTVSPropertyOp26
 70
     1
102
RTVSPropertyOp27
 70
     1
102
RTVSPropertyOp28
 70
     1
102
RTVSPropertyOp29
 70
     1
102
RTVSPropertyOp30
 70
     1
102
RTVSPropertyOp31
 70
     1
102
RTVSPropertyOp32
 70
     1
102
RTVSPropertyOp33
 70
     1
102
RTVSPropertyOp34
 70
     1
102
RTVSPropertyOp35
 70
     1
102
RTVSPropertyOp36
 70
     1
102
RTVSPropertyOp37
 70
     1
102
RTVSPropertyOp38
 70
     1
102
RTVSPropertyOp39
 70
     1
102
RTVSPropertyOp40
 70
     1
102
RTVSPropertyOp41
 70
     1
102
RTVSPropertyOp42
 70
     1
102
RTVSPropertyOp43
 70
     1
102
RTVSPropertyOp44
 70
     1
102
RTVSPropertyOp45
 70
     1
102
RTVSPropertyOp46
 70
     1
102
RTVSPropertyOp47
 70
     1
102
RTVSPropertyOp48
 70
     1
102
RTVSPropertyOp49
 70
     1
102
RTVSPropertyOp50
 70
     1
102
RTVSPropertyOp51
 70
     0
102
RTVSPropertyOp52
 70
     0
102
RTVSPropertyOp53
 70
     1
102
RTVSPropertyOp54
 70
     1
102
RTVSPropertyOp55
 70
     1
102
RTVSPropertyOp56
 70
     1
102
RTVSPropertyOp57
 70
     1
102
RTVSPropertyOp58
 70
     1
102
RTVSPropertyOp59
 70
     1
102
RTVSPropertyOp60
 70
     1
102
RTVSPropertyOp61
 70
     1
102
RTVSPropertyOp62
 70
     1
  0
XRECORD
  5
482
102
{ACAD_REACTORS
330
481
102
}
330
481
100
AcDbXrecord
280
     1
102
RTVSPost2010Prop28
280
     0
102
RTVSPost2010PropOp28
 70
     1
102
RTVSPost2010Prop29
280
     1
102
RTVSPost2010PropOp29
 70
     1
102
RTVSPost2010Prop30
280
     1
102
RTVSPost2010PropOp30
 70
     1
102
RTVSPost2010Prop31
280
     0
102
RTVSPost2010PropOp31
 70
     1
102
RTVSPost2010Prop32
280
     0
102
RTVSPost2010PropOp32
 70
     1
102
RTVSPost2010Prop33
280
     0
102
RTVSPost2010PropOp33
 70
     1
102
RTVSPost2010Prop34
280
     0
102
RTVSPost2010PropOp34
 70
     1
102
RTVSPost2010Prop35
280
     0
102
RTVSPost2010PropOp35
 70
     1
102
RTVSPost2010Prop36
280
     0
102
RTVSPost2010PropOp36
 70
     1
102
RTVSPost2010Prop37
 90
       50
102
RTVSPost2010PropOp37
 70
     1
102
RTVSPost2010Prop38
140
0.0
102
RTVSPost2010PropOp38
 70
     1
102
RTVSPost2010Prop39
140
1.0
102
RTVSPost2010PropOp39
 70
     1
102
RTVSPost2010Prop40
 90
        0
102
RTVSPost2010PropOp40
 70
     1
102
RTVSPost2010Prop41ColorIndex
 90
       18
102
RTVSPost2010Prop41ColorRGB
 90
        0
102
RTVSPost2010PropOp41
 70
     1
102
RTVSPost2010Prop42
 90
       50
102
RTVSPost2010PropOp42
 70
     1
102
RTVSPost2010Prop43
 90
        3
102
RTVSPost2010PropOp43
 70
     1
102
RTVSPost2010Prop44ColorIndex
 90
        5
102
RTVSPost2010Prop44ColorRGB
 90
      255
102
RTVSPost2010PropOp44
 70
     1
102
RTVSPost2010Prop45
280
     0
102
RTVSPost2010PropOp45
 70
     1
102
RTVSPost2010Prop46
 90
       50
102
RTVSPost2010PropOp46
 70
     1
102
RTVSPost2010Prop47
 90
       50
102
RTVSPost2010PropOp47
 70
     1
102
RTVSPost2010Prop48
 90
       50
102
RTVSPost2010PropOp48
 70
     1
102
RTVSPost2010Prop49
280
     0
102
RTVSPost2010PropOp49
 70
     1
102
RTVSPost2010Prop50
 90
       50
102
RTVSPost2010PropOp50
 70
     1
102
RTVSPost2010Prop51ColorIndex
 90
      256
102
RTVSPost2010Prop51ColorRGB
 90
-16777216
102
RTVSPost2010PropOp51
 70
     0
102
RTVSPost2010Prop52
140
1.0
102
RTVSPost2010PropOp52
 70
     0
102
RTVSPost2010Prop53
 90
        2
102
RTVSPost2010PropOp53
 70
     1
102
RTVSPost2010Prop54
  1
strokes_ogs.tif
102
RTVSPost2010PropOp54
 70
     1
102
RTVSPost2010Prop55
280
     0
102
RTVSPost2010PropOp55
 70
     1
102
RTVSPost2010Prop56
140
1.0
102
RTVSPost2010PropOp56
 70
     1
102
RTVSPost2010Prop57
140
1.0
102
RTVSPost2010PropOp57
 70
     1
102
RTVSPropertyOp0
 70
     1
102
RTVSPropertyOp1
 70
     1
102
RTVSPropertyOp2
 70
     1
102
RTVSPropertyOp3
 70
     1
102
RTVSPropertyOp4
 70
     1
102
RTVSPropertyOp5
 70
     1
102
RTVSPropertyOp6
 70
     1
102
RTVSPropertyOp7
 70
     1
102
RTVSPropertyOp8
 70
     1
102
RTVSPropertyOp9
 70
     1
102
RTVSPropertyOp10
 70
     1
102
RTVSPropertyOp11
 70
     1
102
RTVSPropertyOp12
 70
     1
102
RTVSPropertyOp13
 70
     1
102
RTVSPropertyOp14
 70
     1
102
RTVSPropertyOp15
 70
     1
102
RTVSPropertyOp16
 70
     1
102
RTVSPropertyOp17
 70
     1
102
RTVSPropertyOp18
 70
     1
102
RTVSPropertyOp19
 70
     1
102
RTVSPropertyOp20
 70
     1
102
RTVSPropertyOp21
 70
     1
102
RTVSPropertyOp22
 70
     1
102
RTVSPropertyOp23
 70
     1
102
RTVSPropertyOp24
 70
     1
102
RTVSPropertyOp25
 70
     1
102
RTVSPropertyOp26
 70
     1
102
RTVSPropertyOp27
 70
     1
102
RTVSPropertyOp28
 70
     1
102
RTVSPropertyOp29
 70
     1
102
RTVSPropertyOp30
 70
     1
102
RTVSPropertyOp31
 70
     1
102
RTVSPropertyOp32
 70
     1
102
RTVSPropertyOp33
 70
     1
102
RTVSPropertyOp34
 70
     1
102
RTVSPropertyOp35
 70
     1
102
RTVSPropertyOp36
 70
     1
102
RTVSPropertyOp37
 70
     1
102
RTVSPropertyOp38
 70
     1
102
RTVSPropertyOp39
 70
     1
102
RTVSPropertyOp40
 70
     1
102
RTVSPropertyOp41
 70
     1
102
RTVSPropertyOp42
 70
     1
102
RTVSPropertyOp43
 70
     1
102
RTVSPropertyOp44
 70
     1
102
RTVSPropertyOp45
 70
     1
102
RTVSPropertyOp46
 70
     1
102
RTVSPropertyOp47
 70
     1
102
RTVSPropertyOp48
 70
     1
102
RTVSPropertyOp49
 70
     1
102
RTVSPropertyOp50
 70
     1
102
RTVSPropertyOp51
 70
     0
102
RTVSPropertyOp52
 70
     0
102
RTVSPropertyOp53
 70
     1
102
RTVSPropertyOp54
 70
     1
102
RTVSPropertyOp55
 70
     1
102
RTVSPropertyOp56
 70
     1
102
RTVSPropertyOp57
 70
     1
102
RTVSPropertyOp58
 70
     1
102
RTVSPropertyOp59
 70
     1
102
RTVSPropertyOp60
 70
     1
102
RTVSPropertyOp61
 70
     1
102
RTVSPropertyOp62
 70
     1
  0
XRECORD
  5
486
102
{ACAD_REACTORS
330
485
102
}
330
485
100
AcDbXrecord
280
     1
102
RTVSPost2010Prop28
280
     0
102
RTVSPost2010PropOp28
 70
     1
102
RTVSPost2010Prop29
280
     1
102
RTVSPost2010PropOp29
 70
     1
102
RTVSPost2010Prop30
280
     1
102
RTVSPost2010PropOp30
 70
     1
102
RTVSPost2010Prop31
280
     0
102
RTVSPost2010PropOp31
 70
     1
102
RTVSPost2010Prop32
280
     0
102
RTVSPost2010PropOp32
 70
     1
102
RTVSPost2010Prop33
280
     0
102
RTVSPost2010PropOp33
 70
     1
102
RTVSPost2010Prop34
280
     0
102
RTVSPost2010PropOp34
 70
     1
102
RTVSPost2010Prop35
280
     0
102
RTVSPost2010PropOp35
 70
     1
102
RTVSPost2010Prop36
280
     0
102
RTVSPost2010PropOp36
 70
     1
102
RTVSPost2010Prop37
 90
       50
102
RTVSPost2010PropOp37
 70
     1
102
RTVSPost2010Prop38
140
0.0
102
RTVSPost2010PropOp38
 70
     1
102
RTVSPost2010Prop39
140
1.0
102
RTVSPost2010PropOp39
 70
     1
102
RTVSPost2010Prop40
 90
        0
102
RTVSPost2010PropOp40
 70
     1
102
RTVSPost2010Prop41ColorIndex
 90
       18
102
RTVSPost2010Prop41ColorRGB
 90
        0
102
RTVSPost2010PropOp41
 70
     1
102
RTVSPost2010Prop42
 90
       50
102
RTVSPost2010PropOp42
 70
     1
102
RTVSPost2010Prop43
 90
        3
102
RTVSPost2010PropOp43
 70
     1
102
RTVSPost2010Prop44ColorIndex
 90
        5
102
RTVSPost2010Prop44ColorRGB
 90
      255
102
RTVSPost2010PropOp44
 70
     1
102
RTVSPost2010Prop45
280
     0
102
RTVSPost2010PropOp45
 70
     1
102
RTVSPost2010Prop46
 90
       50
102
RTVSPost2010PropOp46
 70
     1
102
RTVSPost2010Prop47
 90
       50
102
RTVSPost2010PropOp47
 70
     1
102
RTVSPost2010Prop48
 90
       50
102
RTVSPost2010PropOp48
 70
     1
102
RTVSPost2010Prop49
280
     0
102
RTVSPost2010PropOp49
 70
     1
102
RTVSPost2010Prop50
 90
       50
102
RTVSPost2010PropOp50
 70
     1
102
RTVSPost2010Prop51ColorIndex
 90
      256
102
RTVSPost2010Prop51ColorRGB
 90
-16777216
102
RTVSPost2010PropOp51
 70
     0
102
RTVSPost2010Prop52
140
1.0
102
RTVSPost2010PropOp52
 70
     0
102
RTVSPost2010Prop53
 90
        2
102
RTVSPost2010PropOp53
 70
     1
102
RTVSPost2010Prop54
  1
strokes_ogs.tif
102
RTVSPost2010PropOp54
 70
     1
102
RTVSPost2010Prop55
280
     0
102
RTVSPost2010PropOp55
 70
     1
102
RTVSPost2010Prop56
140
1.0
102
RTVSPost2010PropOp56
 70
     1
102
RTVSPost2010Prop57
140
1.0
102
RTVSPost2010PropOp57
 70
     1
102
RTVSPropertyOp0
 70
     1
102
RTVSPropertyOp1
 70
     1
102
RTVSPropertyOp2
 70
     1
102
RTVSPropertyOp3
 70
     1
102
RTVSPropertyOp4
 70
     1
102
RTVSPropertyOp5
 70
     1
102
RTVSPropertyOp6
 70
     1
102
RTVSPropertyOp7
 70
     1
102
RTVSPropertyOp8
 70
     1
102
RTVSPropertyOp9
 70
     1
102
RTVSPropertyOp10
 70
     1
102
RTVSPropertyOp11
 70
     1
102
RTVSPropertyOp12
 70
     1
102
RTVSPropertyOp13
 70
     1
102
RTVSPropertyOp14
 70
     1
102
RTVSPropertyOp15
 70
     1
102
RTVSPropertyOp16
 70
     1
102
RTVSPropertyOp17
 70
     1
102
RTVSPropertyOp18
 70
     1
102
RTVSPropertyOp19
 70
     1
102
RTVSPropertyOp20
 70
     1
102
RTVSPropertyOp21
 70
     1
102
RTVSPropertyOp22
 70
     1
102
RTVSPropertyOp23
 70
     1
102
RTVSPropertyOp24
 70
     1
102
RTVSPropertyOp25
 70
     1
102
RTVSPropertyOp26
 70
     1
102
RTVSPropertyOp27
 70
     1
102
RTVSPropertyOp28
 70
     1
102
RTVSPropertyOp29
 70
     1
102
RTVSPropertyOp30
 70
     1
102
RTVSPropertyOp31
 70
     1
102
RTVSPropertyOp32
 70
     1
102
RTVSPropertyOp33
 70
     1
102
RTVSPropertyOp34
 70
     1
102
RTVSPropertyOp35
 70
     1
102
RTVSPropertyOp36
 70
     1
102
RTVSPropertyOp37
 70
     1
102
RTVSPropertyOp38
 70
     1
102
RTVSPropertyOp39
 70
     1
102
RTVSPropertyOp40
 70
     1
102
RTVSPropertyOp41
 70
     1
102
RTVSPropertyOp42
 70
     1
102
RTVSPropertyOp43
 70
     1
102
RTVSPropertyOp44
 70
     1
102
RTVSPropertyOp45
 70
     1
102
RTVSPropertyOp46
 70
     1
102
RTVSPropertyOp47
 70
     1
102
RTVSPropertyOp48
 70
     1
102
RTVSPropertyOp49
 70
     1
102
RTVSPropertyOp50
 70
     1
102
RTVSPropertyOp51
 70
     0
102
RTVSPropertyOp52
 70
     0
102
RTVSPropertyOp53
 70
     1
102
RTVSPropertyOp54
 70
     1
102
RTVSPropertyOp55
 70
     1
102
RTVSPropertyOp56
 70
     1
102
RTVSPropertyOp57
 70
     1
102
RTVSPropertyOp58
 70
     1
102
RTVSPropertyOp59
 70
     1
102
RTVSPropertyOp60
 70
     1
102
RTVSPropertyOp61
 70
     1
102
RTVSPropertyOp62
 70
     1
  0
XRECORD
  5
4A0
102
{ACAD_REACTORS
330
49F
102
}
330
49F
100
AcDbXrecord
280
     1
102
RTVSPost2010Prop28
280
     0
102
RTVSPost2010PropOp28
 70
     1
102
RTVSPost2010Prop29
280
     1
102
RTVSPost2010PropOp29
 70
     1
102
RTVSPost2010Prop30
280
     1
102
RTVSPost2010PropOp30
 70
     1
102
RTVSPost2010Prop31
280
     0
102
RTVSPost2010PropOp31
 70
     1
102
RTVSPost2010Prop32
280
     0
102
RTVSPost2010PropOp32
 70
     1
102
RTVSPost2010Prop33
280
     0
102
RTVSPost2010PropOp33
 70
     1
102
RTVSPost2010Prop34
280
     0
102
RTVSPost2010PropOp34
 70
     1
102
RTVSPost2010Prop35
280
     0
102
RTVSPost2010PropOp35
 70
     1
102
RTVSPost2010Prop36
280
     0
102
RTVSPost2010PropOp36
 70
     1
102
RTVSPost2010Prop37
 90
       50
102
RTVSPost2010PropOp37
 70
     0
102
RTVSPost2010Prop38
140
0.0
102
RTVSPost2010PropOp38
 70
     0
102
RTVSPost2010Prop39
140
1.0
102
RTVSPost2010PropOp39
 70
     0
102
RTVSPost2010Prop40
 90
        0
102
RTVSPost2010PropOp40
 70
     0
102
RTVSPost2010Prop41ColorIndex
 90
       18
102
RTVSPost2010Prop41ColorRGB
 90
        0
102
RTVSPost2010PropOp41
 70
     0
102
RTVSPost2010Prop42
 90
       50
102
RTVSPost2010PropOp42
 70
     0
102
RTVSPost2010Prop43
 90
        3
102
RTVSPost2010PropOp43
 70
     0
102
RTVSPost2010Prop44ColorIndex
 90
        5
102
RTVSPost2010Prop44ColorRGB
 90
      255
102
RTVSPost2010PropOp44
 70
     0
102
RTVSPost2010Prop45
280
     0
102
RTVSPost2010PropOp45
 70
     1
102
RTVSPost2010Prop46
 90
       50
102
RTVSPost2010PropOp46
 70
     0
102
RTVSPost2010Prop47
 90
       50
102
RTVSPost2010PropOp47
 70
     0
102
RTVSPost2010Prop48
 90
       50
102
RTVSPost2010PropOp48
 70
     0
102
RTVSPost2010Prop49
280
     0
102
RTVSPost2010PropOp49
 70
     1
102
RTVSPost2010Prop50
 90
       50
102
RTVSPost2010PropOp50
 70
     0
102
RTVSPost2010Prop51ColorIndex
 90
      256
102
RTVSPost2010Prop51ColorRGB
 90
-16777216
102
RTVSPost2010PropOp51
 70
     0
102
RTVSPost2010Prop52
140
1.0
102
RTVSPost2010PropOp52
 70
     0
102
RTVSPost2010Prop53
 90
        2
102
RTVSPost2010PropOp53
 70
     0
102
RTVSPost2010Prop54
  1
strokes_ogs.tif
102
RTVSPost2010PropOp54
 70
     0
102
RTVSPost2010Prop55
280
     0
102
RTVSPost2010PropOp55
 70
     1
102
RTVSPost2010Prop56
140
1.0
102
RTVSPost2010PropOp56
 70
     0
102
RTVSPost2010Prop57
140
1.0
102
RTVSPost2010PropOp57
 70
     0
102
RTVSPropertyOp0
 70
     0
102
RTVSPropertyOp1
 70
     0
102
RTVSPropertyOp2
 70
     0
102
RTVSPropertyOp3
 70
     0
102
RTVSPropertyOp4
 70
     0
102
RTVSPropertyOp5
 70
     0
102
RTVSPropertyOp6
 70
     0
102
RTVSPropertyOp7
 70
     0
102
RTVSPropertyOp8
 70
     0
102
RTVSPropertyOp9
 70
     0
102
RTVSPropertyOp10
 70
     0
102
RTVSPropertyOp11
 70
     0
102
RTVSPropertyOp12
 70
     0
102
RTVSPropertyOp13
 70
     0
102
RTVSPropertyOp14
 70
     2
102
RTVSPropertyOp15
 70
     0
102
RTVSPropertyOp16
 70
     0
102
RTVSPropertyOp17
 70
     0
102
RTVSPropertyOp18
 70
     0
102
RTVSPropertyOp19
 70
     0
102
RTVSPropertyOp20
 70
     0
102
RTVSPropertyOp21
 70
     0
102
RTVSPropertyOp22
 70
     0
102
RTVSPropertyOp23
 70
     0
102
RTVSPropertyOp24
 70
     0
102
RTVSPropertyOp25
 70
     0
102
RTVSPropertyOp26
 70
     0
102
RTVSPropertyOp27
 70
     0
102
RTVSPropertyOp28
 70
     1
102
RTVSPropertyOp29
 70
     1
102
RTVSPropertyOp30
 70
     1
102
RTVSPropertyOp31
 70
     1
102
RTVSPropertyOp32
 70
     1
102
RTVSPropertyOp33
 70
     1
102
RTVSPropertyOp34
 70
     1
102
RTVSPropertyOp35
 70
     1
102
RTVSPropertyOp36
 70
     1
102
RTVSPropertyOp37
 70
     0
102
RTVSPropertyOp38
 70
     0
102
RTVSPropertyOp39
 70
     0
102
RTVSPropertyOp40
 70
     0
102
RTVSPropertyOp41
 70
     0
102
RTVSPropertyOp42
 70
     0
102
RTVSPropertyOp43
 70
     0
102
RTVSPropertyOp44
 70
     0
102
RTVSPropertyOp45
 70
     1
102
RTVSPropertyOp46
 70
     0
102
RTVSPropertyOp47
 70
     0
102
RTVSPropertyOp48
 70
     0
102
RTVSPropertyOp49
 70
     1
102
RTVSPropertyOp50
 70
     0
102
RTVSPropertyOp51
 70
     0
102
RTVSPropertyOp52
 70
     0
102
RTVSPropertyOp53
 70
     0
102
RTVSPropertyOp54
 70
     0
102
RTVSPropertyOp55
 70
     1
102
RTVSPropertyOp56
 70
     0
102
RTVSPropertyOp57
 70
     0
102
RTVSPropertyOp58
 70
     0
102
RTVSPropertyOp59
 70
     0
102
RTVSPropertyOp60
 70
     0
102
RTVSPropertyOp61
 70
     0
102
RTVSPropertyOp62
 70
     0
  0
XRECORD
  5
48E
102
{ACAD_REACTORS
330
48D
102
}
330
48D
100
AcDbXrecord
280
     1
102
RTVSPost2010Prop28
280
     0
102
RTVSPost2010PropOp28
 70
     1
102
RTVSPost2010Prop29
280
     1
102
RTVSPost2010PropOp29
 70
     1
102
RTVSPost2010Prop30
280
     1
102
RTVSPost2010PropOp30
 70
     1
102
RTVSPost2010Prop31
280
     0
102
RTVSPost2010PropOp31
 70
     1
102
RTVSPost2010Prop32
280
     0
102
RTVSPost2010PropOp32
 70
     1
102
RTVSPost2010Prop33
280
     0
102
RTVSPost2010PropOp33
 70
     1
102
RTVSPost2010Prop34
280
     0
102
RTVSPost2010PropOp34
 70
     1
102
RTVSPost2010Prop35
280
     0
102
RTVSPost2010PropOp35
 70
     1
102
RTVSPost2010Prop36
280
     0
102
RTVSPost2010PropOp36
 70
     1
102
RTVSPost2010Prop37
 90
       50
102
RTVSPost2010PropOp37
 70
     1
102
RTVSPost2010Prop38
140
0.0
102
RTVSPost2010PropOp38
 70
     1
102
RTVSPost2010Prop39
140
1.0
102
RTVSPost2010PropOp39
 70
     1
102
RTVSPost2010Prop40
 90
        0
102
RTVSPost2010PropOp40
 70
     1
102
RTVSPost2010Prop41ColorIndex
 90
       18
102
RTVSPost2010Prop41ColorRGB
 90
        0
102
RTVSPost2010PropOp41
 70
     1
102
RTVSPost2010Prop42
 90
       50
102
RTVSPost2010PropOp42
 70
     1
102
RTVSPost2010Prop43
 90
        3
102
RTVSPost2010PropOp43
 70
     1
102
RTVSPost2010Prop44ColorIndex
 90
        5
102
RTVSPost2010Prop44ColorRGB
 90
      255
102
RTVSPost2010PropOp44
 70
     1
102
RTVSPost2010Prop45
280
     0
102
RTVSPost2010PropOp45
 70
     1
102
RTVSPost2010Prop46
 90
       50
102
RTVSPost2010PropOp46
 70
     1
102
RTVSPost2010Prop47
 90
       50
102
RTVSPost2010PropOp47
 70
     1
102
RTVSPost2010Prop48
 90
       50
102
RTVSPost2010PropOp48
 70
     1
102
RTVSPost2010Prop49
280
     0
102
RTVSPost2010PropOp49
 70
     1
102
RTVSPost2010Prop50
 90
       50
102
RTVSPost2010PropOp50
 70
     1
102
RTVSPost2010Prop51ColorIndex
 90
      256
102
RTVSPost2010Prop51ColorRGB
 90
-16777216
102
RTVSPost2010PropOp51
 70
     0
102
RTVSPost2010Prop52
140
1.0
102
RTVSPost2010PropOp52
 70
     0
102
RTVSPost2010Prop53
 90
        2
102
RTVSPost2010PropOp53
 70
     1
102
RTVSPost2010Prop54
  1
strokes_ogs.tif
102
RTVSPost2010PropOp54
 70
     1
102
RTVSPost2010Prop55
280
     0
102
RTVSPost2010PropOp55
 70
     1
102
RTVSPost2010Prop56
140
1.0
102
RTVSPost2010PropOp56
 70
     1
102
RTVSPost2010Prop57
140
1.0
102
RTVSPost2010PropOp57
 70
     1
102
RTVSPropertyOp0
 70
     1
102
RTVSPropertyOp1
 70
     1
102
RTVSPropertyOp2
 70
     1
102
RTVSPropertyOp3
 70
     1
102
RTVSPropertyOp4
 70
     1
102
RTVSPropertyOp5
 70
     1
102
RTVSPropertyOp6
 70
     1
102
RTVSPropertyOp7
 70
     1
102
RTVSPropertyOp8
 70
     1
102
RTVSPropertyOp9
 70
     1
102
RTVSPropertyOp10
 70
     1
102
RTVSPropertyOp11
 70
     1
102
RTVSPropertyOp12
 70
     1
102
RTVSPropertyOp13
 70
     1
102
RTVSPropertyOp14
 70
     1
102
RTVSPropertyOp15
 70
     1
102
RTVSPropertyOp16
 70
     1
102
RTVSPropertyOp17
 70
     1
102
RTVSPropertyOp18
 70
     1
102
RTVSPropertyOp19
 70
     1
102
RTVSPropertyOp20
 70
     1
102
RTVSPropertyOp21
 70
     1
102
RTVSPropertyOp22
 70
     1
102
RTVSPropertyOp23
 70
     1
102
RTVSPropertyOp24
 70
     1
102
RTVSPropertyOp25
 70
     1
102
RTVSPropertyOp26
 70
     1
102
RTVSPropertyOp27
 70
     1
102
RTVSPropertyOp28
 70
     1
102
RTVSPropertyOp29
 70
     1
102
RTVSPropertyOp30
 70
     1
102
RTVSPropertyOp31
 70
     1
102
RTVSPropertyOp32
 70
     1
102
RTVSPropertyOp33
 70
     1
102
RTVSPropertyOp34
 70
     1
102
RTVSPropertyOp35
 70
     1
102
RTVSPropertyOp36
 70
     1
102
RTVSPropertyOp37
 70
     1
102
RTVSPropertyOp38
 70
     1
102
RTVSPropertyOp39
 70
     1
102
RTVSPropertyOp40
 70
     1
102
RTVSPropertyOp41
 70
     1
102
RTVSPropertyOp42
 70
     1
102
RTVSPropertyOp43
 70
     1
102
RTVSPropertyOp44
 70
     1
102
RTVSPropertyOp45
 70
     1
102
RTVSPropertyOp46
 70
     1
102
RTVSPropertyOp47
 70
     1
102
RTVSPropertyOp48
 70
     1
102
RTVSPropertyOp49
 70
     1
102
RTVSPropertyOp50
 70
     1
102
RTVSPropertyOp51
 70
     0
102
RTVSPropertyOp52
 70
     0
102
RTVSPropertyOp53
 70
     1
102
RTVSPropertyOp54
 70
     1
102
RTVSPropertyOp55
 70
     1
102
RTVSPropertyOp56
 70
     1
102
RTVSPropertyOp57
 70
     1
102
RTVSPropertyOp58
 70
     1
102
RTVSPropertyOp59
 70
     1
102
RTVSPropertyOp60
 70
     1
102
RTVSPropertyOp61
 70
     1
102
RTVSPropertyOp62
 70
     1
  0
XRECORD
  5
472
102
{ACAD_REACTORS
330
471
102
}
330
471
100
AcDbXrecord
280
     1
102
RTVSPost2010Prop28
280
     0
102
RTVSPost2010PropOp28
 70
     1
102
RTVSPost2010Prop29
280
     1
102
RTVSPost2010PropOp29
 70
     1
102
RTVSPost2010Prop30
280
     1
102
RTVSPost2010PropOp30
 70
     1
102
RTVSPost2010Prop31
280
     0
102
RTVSPost2010PropOp31
 70
     1
102
RTVSPost2010Prop32
280
     0
102
RTVSPost2010PropOp32
 70
     1
102
RTVSPost2010Prop33
280
     0
102
RTVSPost2010PropOp33
 70
     1
102
RTVSPost2010Prop34
280
     0
102
RTVSPost2010PropOp34
 70
     1
102
RTVSPost2010Prop35
280
     0
102
RTVSPost2010PropOp35
 70
     1
102
RTVSPost2010Prop36
280
     0
102
RTVSPost2010PropOp36
 70
     1
102
RTVSPost2010Prop37
 90
       50
102
RTVSPost2010PropOp37
 70
     1
102
RTVSPost2010Prop38
140
0.0
102
RTVSPost2010PropOp38
 70
     1
102
RTVSPost2010Prop39
140
1.0
102
RTVSPost2010PropOp39
 70
     1
102
RTVSPost2010Prop40
 90
        0
102
RTVSPost2010PropOp40
 70
     1
102
RTVSPost2010Prop41ColorIndex
 90
       18
102
RTVSPost2010Prop41ColorRGB
 90
        0
102
RTVSPost2010PropOp41
 70
     1
102
RTVSPost2010Prop42
 90
       50
102
RTVSPost2010PropOp42
 70
     1
102
RTVSPost2010Prop43
 90
        3
102
RTVSPost2010PropOp43
 70
     1
102
RTVSPost2010Prop44ColorIndex
 90
        5
102
RTVSPost2010Prop44ColorRGB
 90
      255
102
RTVSPost2010PropOp44
 70
     1
102
RTVSPost2010Prop45
280
     0
102
RTVSPost2010PropOp45
 70
     1
102
RTVSPost2010Prop46
 90
       50
102
RTVSPost2010PropOp46
 70
     1
102
RTVSPost2010Prop47
 90
       50
102
RTVSPost2010PropOp47
 70
     1
102
RTVSPost2010Prop48
 90
       50
102
RTVSPost2010PropOp48
 70
     1
102
RTVSPost2010Prop49
280
     0
102
RTVSPost2010PropOp49
 70
     1
102
RTVSPost2010Prop50
 90
       50
102
RTVSPost2010PropOp50
 70
     1
102
RTVSPost2010Prop51ColorIndex
 90
      256
102
RTVSPost2010Prop51ColorRGB
 90
-16777216
102
RTVSPost2010PropOp51
 70
     0
102
RTVSPost2010Prop52
140
1.0
102
RTVSPost2010PropOp52
 70
     0
102
RTVSPost2010Prop53
 90
        2
102
RTVSPost2010PropOp53
 70
     1
102
RTVSPost2010Prop54
  1
strokes_ogs.tif
102
RTVSPost2010PropOp54
 70
     1
102
RTVSPost2010Prop55
280
     0
102
RTVSPost2010PropOp55
 70
     1
102
RTVSPost2010Prop56
140
1.0
102
RTVSPost2010PropOp56
 70
     1
102
RTVSPost2010Prop57
140
1.0
102
RTVSPost2010PropOp57
 70
     1
102
RTVSPropertyOp0
 70
     1
102
RTVSPropertyOp1
 70
     1
102
RTVSPropertyOp2
 70
     1
102
RTVSPropertyOp3
 70
     1
102
RTVSPropertyOp4
 70
     1
102
RTVSPropertyOp5
 70
     1
102
RTVSPropertyOp6
 70
     1
102
RTVSPropertyOp7
 70
     1
102
RTVSPropertyOp8
 70
     1
102
RTVSPropertyOp9
 70
     1
102
RTVSPropertyOp10
 70
     1
102
RTVSPropertyOp11
 70
     1
102
RTVSPropertyOp12
 70
     1
102
RTVSPropertyOp13
 70
     1
102
RTVSPropertyOp14
 70
     1
102
RTVSPropertyOp15
 70
     1
102
RTVSPropertyOp16
 70
     1
102
RTVSPropertyOp17
 70
     1
102
RTVSPropertyOp18
 70
     1
102
RTVSPropertyOp19
 70
     1
102
RTVSPropertyOp20
 70
     1
102
RTVSPropertyOp21
 70
     1
102
RTVSPropertyOp22
 70
     1
102
RTVSPropertyOp23
 70
     1
102
RTVSPropertyOp24
 70
     1
102
RTVSPropertyOp25
 70
     1
102
RTVSPropertyOp26
 70
     1
102
RTVSPropertyOp27
 70
     1
102
RTVSPropertyOp28
 70
     1
102
RTVSPropertyOp29
 70
     1
102
RTVSPropertyOp30
 70
     1
102
RTVSPropertyOp31
 70
     1
102
RTVSPropertyOp32
 70
     1
102
RTVSPropertyOp33
 70
     1
102
RTVSPropertyOp34
 70
     1
102
RTVSPropertyOp35
 70
     1
102
RTVSPropertyOp36
 70
     1
102
RTVSPropertyOp37
 70
     1
102
RTVSPropertyOp38
 70
     1
102
RTVSPropertyOp39
 70
     1
102
RTVSPropertyOp40
 70
     1
102
RTVSPropertyOp41
 70
     1
102
RTVSPropertyOp42
 70
     1
102
RTVSPropertyOp43
 70
     1
102
RTVSPropertyOp44
 70
     1
102
RTVSPropertyOp45
 70
     1
102
RTVSPropertyOp46
 70
     1
102
RTVSPropertyOp47
 70
     1
102
RTVSPropertyOp48
 70
     1
102
RTVSPropertyOp49
 70
     1
102
RTVSPropertyOp50
 70
     1
102
RTVSPropertyOp51
 70
     0
102
RTVSPropertyOp52
 70
     0
102
RTVSPropertyOp53
 70
     1
102
RTVSPropertyOp54
 70
     1
102
RTVSPropertyOp55
 70
     1
102
RTVSPropertyOp56
 70
     1
102
RTVSPropertyOp57
 70
     1
102
RTVSPropertyOp58
 70
     1
102
RTVSPropertyOp59
 70
     1
102
RTVSPropertyOp60
 70
     1
102
RTVSPropertyOp61
 70
     1
102
RTVSPropertyOp62
 70
     1
  0
XRECORD
  5
474
102
{ACAD_REACTORS
330
473
102
}
330
473
100
AcDbXrecord
280
     1
102
RTVSPost2010Prop28
280
     0
102
RTVSPost2010PropOp28
 70
     1
102
RTVSPost2010Prop29
280
     1
102
RTVSPost2010PropOp29
 70
     1
102
RTVSPost2010Prop30
280
     1
102
RTVSPost2010PropOp30
 70
     1
102
RTVSPost2010Prop31
280
     0
102
RTVSPost2010PropOp31
 70
     1
102
RTVSPost2010Prop32
280
     0
102
RTVSPost2010PropOp32
 70
     1
102
RTVSPost2010Prop33
280
     0
102
RTVSPost2010PropOp33
 70
     1
102
RTVSPost2010Prop34
280
     0
102
RTVSPost2010PropOp34
 70
     1
102
RTVSPost2010Prop35
280
     0
102
RTVSPost2010PropOp35
 70
     1
102
RTVSPost2010Prop36
280
     0
102
RTVSPost2010PropOp36
 70
     1
102
RTVSPost2010Prop37
 90
       50
102
RTVSPost2010PropOp37
 70
     1
102
RTVSPost2010Prop38
140
0.0
102
RTVSPost2010PropOp38
 70
     1
102
RTVSPost2010Prop39
140
1.0
102
RTVSPost2010PropOp39
 70
     1
102
RTVSPost2010Prop40
 90
        0
102
RTVSPost2010PropOp40
 70
     1
102
RTVSPost2010Prop41ColorIndex
 90
       18
102
RTVSPost2010Prop41ColorRGB
 90
        0
102
RTVSPost2010PropOp41
 70
     1
102
RTVSPost2010Prop42
 90
       50
102
RTVSPost2010PropOp42
 70
     1
102
RTVSPost2010Prop43
 90
        3
102
RTVSPost2010PropOp43
 70
     1
102
RTVSPost2010Prop44ColorIndex
 90
        5
102
RTVSPost2010Prop44ColorRGB
 90
      255
102
RTVSPost2010PropOp44
 70
     1
102
RTVSPost2010Prop45
280
     0
102
RTVSPost2010PropOp45
 70
     1
102
RTVSPost2010Prop46
 90
       50
102
RTVSPost2010PropOp46
 70
     1
102
RTVSPost2010Prop47
 90
       50
102
RTVSPost2010PropOp47
 70
     1
102
RTVSPost2010Prop48
 90
       50
102
RTVSPost2010PropOp48
 70
     1
102
RTVSPost2010Prop49
280
     0
102
RTVSPost2010PropOp49
 70
     1
102
RTVSPost2010Prop50
 90
       50
102
RTVSPost2010PropOp50
 70
     1
102
RTVSPost2010Prop51ColorIndex
 90
      256
102
RTVSPost2010Prop51ColorRGB
 90
-16777216
102
RTVSPost2010PropOp51
 70
     0
102
RTVSPost2010Prop52
140
1.0
102
RTVSPost2010PropOp52
 70
     0
102
RTVSPost2010Prop53
 90
        2
102
RTVSPost2010PropOp53
 70
     1
102
RTVSPost2010Prop54
  1
strokes_ogs.tif
102
RTVSPost2010PropOp54
 70
     1
102
RTVSPost2010Prop55
280
     0
102
RTVSPost2010PropOp55
 70
     1
102
RTVSPost2010Prop56
140
1.0
102
RTVSPost2010PropOp56
 70
     1
102
RTVSPost2010Prop57
140
1.0
102
RTVSPost2010PropOp57
 70
     1
102
RTVSPropertyOp0
 70
     1
102
RTVSPropertyOp1
 70
     1
102
RTVSPropertyOp2
 70
     1
102
RTVSPropertyOp3
 70
     1
102
RTVSPropertyOp4
 70
     1
102
RTVSPropertyOp5
 70
     1
102
RTVSPropertyOp6
 70
     1
102
RTVSPropertyOp7
 70
     1
102
RTVSPropertyOp8
 70
     1
102
RTVSPropertyOp9
 70
     1
102
RTVSPropertyOp10
 70
     1
102
RTVSPropertyOp11
 70
     1
102
RTVSPropertyOp12
 70
     1
102
RTVSPropertyOp13
 70
     1
102
RTVSPropertyOp14
 70
     1
102
RTVSPropertyOp15
 70
     1
102
RTVSPropertyOp16
 70
     1
102
RTVSPropertyOp17
 70
     1
102
RTVSPropertyOp18
 70
     1
102
RTVSPropertyOp19
 70
     1
102
RTVSPropertyOp20
 70
     1
102
RTVSPropertyOp21
 70
     1
102
RTVSPropertyOp22
 70
     1
102
RTVSPropertyOp23
 70
     1
102
RTVSPropertyOp24
 70
     1
102
RTVSPropertyOp25
 70
     1
102
RTVSPropertyOp26
 70
     1
102
RTVSPropertyOp27
 70
     1
102
RTVSPropertyOp28
 70
     1
102
RTVSPropertyOp29
 70
     1
102
RTVSPropertyOp30
 70
     1
102
RTVSPropertyOp31
 70
     1
102
RTVSPropertyOp32
 70
     1
102
RTVSPropertyOp33
 70
     1
102
RTVSPropertyOp34
 70
     1
102
RTVSPropertyOp35
 70
     1
102
RTVSPropertyOp36
 70
     1
102
RTVSPropertyOp37
 70
     1
102
RTVSPropertyOp38
 70
     1
102
RTVSPropertyOp39
 70
     1
102
RTVSPropertyOp40
 70
     1
102
RTVSPropertyOp41
 70
     1
102
RTVSPropertyOp42
 70
     1
102
RTVSPropertyOp43
 70
     1
102
RTVSPropertyOp44
 70
     1
102
RTVSPropertyOp45
 70
     1
102
RTVSPropertyOp46
 70
     1
102
RTVSPropertyOp47
 70
     1
102
RTVSPropertyOp48
 70
     1
102
RTVSPropertyOp49
 70
     1
102
RTVSPropertyOp50
 70
     1
102
RTVSPropertyOp51
 70
     0
102
RTVSPropertyOp52
 70
     0
102
RTVSPropertyOp53
 70
     1
102
RTVSPropertyOp54
 70
     1
102
RTVSPropertyOp55
 70
     1
102
RTVSPropertyOp56
 70
     1
102
RTVSPropertyOp57
 70
     1
102
RTVSPropertyOp58
 70
     1
102
RTVSPropertyOp59
 70
     1
102
RTVSPropertyOp60
 70
     1
102
RTVSPropertyOp61
 70
     1
102
RTVSPropertyOp62
 70
     1
  0
XRECORD
  5
476
102
{ACAD_REACTORS
330
475
102
}
330
475
100
AcDbXrecord
280
     1
102
RTVSPost2010Prop28
280
     0
102
RTVSPost2010PropOp28
 70
     1
102
RTVSPost2010Prop29
280
     1
102
RTVSPost2010PropOp29
 70
     1
102
RTVSPost2010Prop30
280
     1
102
RTVSPost2010PropOp30
 70
     1
102
RTVSPost2010Prop31
280
     0
102
RTVSPost2010PropOp31
 70
     1
102
RTVSPost2010Prop32
280
     0
102
RTVSPost2010PropOp32
 70
     1
102
RTVSPost2010Prop33
280
     0
102
RTVSPost2010PropOp33
 70
     1
102
RTVSPost2010Prop34
280
     0
102
RTVSPost2010PropOp34
 70
     1
102
RTVSPost2010Prop35
280
     0
102
RTVSPost2010PropOp35
 70
     1
102
RTVSPost2010Prop36
280
     0
102
RTVSPost2010PropOp36
 70
     1
102
RTVSPost2010Prop37
 90
       50
102
RTVSPost2010PropOp37
 70
     1
102
RTVSPost2010Prop38
140
0.0
102
RTVSPost2010PropOp38
 70
     1
102
RTVSPost2010Prop39
140
1.0
102
RTVSPost2010PropOp39
 70
     1
102
RTVSPost2010Prop40
 90
        0
102
RTVSPost2010PropOp40
 70
     1
102
RTVSPost2010Prop41ColorIndex
 90
       18
102
RTVSPost2010Prop41ColorRGB
 90
        0
102
RTVSPost2010PropOp41
 70
     1
102
RTVSPost2010Prop42
 90
       50
102
RTVSPost2010PropOp42
 70
     1
102
RTVSPost2010Prop43
 90
        3
102
RTVSPost2010PropOp43
 70
     1
102
RTVSPost2010Prop44ColorIndex
 90
        5
102
RTVSPost2010Prop44ColorRGB
 90
      255
102
RTVSPost2010PropOp44
 70
     1
102
RTVSPost2010Prop45
280
     0
102
RTVSPost2010PropOp45
 70
     1
102
RTVSPost2010Prop46
 90
       50
102
RTVSPost2010PropOp46
 70
     1
102
RTVSPost2010Prop47
 90
       50
102
RTVSPost2010PropOp47
 70
     1
102
RTVSPost2010Prop48
 90
       50
102
RTVSPost2010PropOp48
 70
     1
102
RTVSPost2010Prop49
280
     0
102
RTVSPost2010PropOp49
 70
     1
102
RTVSPost2010Prop50
 90
       50
102
RTVSPost2010PropOp50
 70
     1
102
RTVSPost2010Prop51ColorIndex
 90
      256
102
RTVSPost2010Prop51ColorRGB
 90
-16777216
102
RTVSPost2010PropOp51
 70
     0
102
RTVSPost2010Prop52
140
1.0
102
RTVSPost2010PropOp52
 70
     0
102
RTVSPost2010Prop53
 90
        2
102
RTVSPost2010PropOp53
 70
     1
102
RTVSPost2010Prop54
  1
strokes_ogs.tif
102
RTVSPost2010PropOp54
 70
     1
102
RTVSPost2010Prop55
280
     0
102
RTVSPost2010PropOp55
 70
     1
102
RTVSPost2010Prop56
140
1.0
102
RTVSPost2010PropOp56
 70
     1
102
RTVSPost2010Prop57
140
1.0
102
RTVSPost2010PropOp57
 70
     1
102
RTVSPropertyOp0
 70
     1
102
RTVSPropertyOp1
 70
     1
102
RTVSPropertyOp2
 70
     1
102
RTVSPropertyOp3
 70
     1
102
RTVSPropertyOp4
 70
     1
102
RTVSPropertyOp5
 70
     1
102
RTVSPropertyOp6
 70
     1
102
RTVSPropertyOp7
 70
     1
102
RTVSPropertyOp8
 70
     1
102
RTVSPropertyOp9
 70
     1
102
RTVSPropertyOp10
 70
     1
102
RTVSPropertyOp11
 70
     1
102
RTVSPropertyOp12
 70
     1
102
RTVSPropertyOp13
 70
     1
102
RTVSPropertyOp14
 70
     1
102
RTVSPropertyOp15
 70
     1
102
RTVSPropertyOp16
 70
     1
102
RTVSPropertyOp17
 70
     1
102
RTVSPropertyOp18
 70
     1
102
RTVSPropertyOp19
 70
     1
102
RTVSPropertyOp20
 70
     1
102
RTVSPropertyOp21
 70
     1
102
RTVSPropertyOp22
 70
     1
102
RTVSPropertyOp23
 70
     1
102
RTVSPropertyOp24
 70
     1
102
RTVSPropertyOp25
 70
     1
102
RTVSPropertyOp26
 70
     1
102
RTVSPropertyOp27
 70
     1
102
RTVSPropertyOp28
 70
     1
102
RTVSPropertyOp29
 70
     1
102
RTVSPropertyOp30
 70
     1
102
RTVSPropertyOp31
 70
     1
102
RTVSPropertyOp32
 70
     1
102
RTVSPropertyOp33
 70
     1
102
RTVSPropertyOp34
 70
     1
102
RTVSPropertyOp35
 70
     1
102
RTVSPropertyOp36
 70
     1
102
RTVSPropertyOp37
 70
     1
102
RTVSPropertyOp38
 70
     1
102
RTVSPropertyOp39
 70
     1
102
RTVSPropertyOp40
 70
     1
102
RTVSPropertyOp41
 70
     1
102
RTVSPropertyOp42
 70
     1
102
RTVSPropertyOp43
 70
     1
102
RTVSPropertyOp44
 70
     1
102
RTVSPropertyOp45
 70
     1
102
RTVSPropertyOp46
 70
     1
102
RTVSPropertyOp47
 70
     1
102
RTVSPropertyOp48
 70
     1
102
RTVSPropertyOp49
 70
     1
102
RTVSPropertyOp50
 70
     1
102
RTVSPropertyOp51
 70
     0
102
RTVSPropertyOp52
 70
     0
102
RTVSPropertyOp53
 70
     1
102
RTVSPropertyOp54
 70
     1
102
RTVSPropertyOp55
 70
     1
102
RTVSPropertyOp56
 70
     1
102
RTVSPropertyOp57
 70
     1
102
RTVSPropertyOp58
 70
     1
102
RTVSPropertyOp59
 70
     1
102
RTVSPropertyOp60
 70
     1
102
RTVSPropertyOp61
 70
     1
102
RTVSPropertyOp62
 70
     1
  0
XRECORD
  5
478
102
{ACAD_REACTORS
330
477
102
}
330
477
100
AcDbXrecord
280
     1
102
RTVSPost2010Prop28
280
     0
102
RTVSPost2010PropOp28
 70
     1
102
RTVSPost2010Prop29
280
     1
102
RTVSPost2010PropOp29
 70
     1
102
RTVSPost2010Prop30
280
     1
102
RTVSPost2010PropOp30
 70
     1
102
RTVSPost2010Prop31
280
     0
102
RTVSPost2010PropOp31
 70
     1
102
RTVSPost2010Prop32
280
     0
102
RTVSPost2010PropOp32
 70
     1
102
RTVSPost2010Prop33
280
     0
102
RTVSPost2010PropOp33
 70
     1
102
RTVSPost2010Prop34
280
     0
102
RTVSPost2010PropOp34
 70
     1
102
RTVSPost2010Prop35
280
     0
102
RTVSPost2010PropOp35
 70
     1
102
RTVSPost2010Prop36
280
     0
102
RTVSPost2010PropOp36
 70
     1
102
RTVSPost2010Prop37
 90
       50
102
RTVSPost2010PropOp37
 70
     1
102
RTVSPost2010Prop38
140
0.0
102
RTVSPost2010PropOp38
 70
     1
102
RTVSPost2010Prop39
140
1.0
102
RTVSPost2010PropOp39
 70
     1
102
RTVSPost2010Prop40
 90
        0
102
RTVSPost2010PropOp40
 70
     1
102
RTVSPost2010Prop41ColorIndex
 90
       18
102
RTVSPost2010Prop41ColorRGB
 90
        0
102
RTVSPost2010PropOp41
 70
     1
102
RTVSPost2010Prop42
 90
       50
102
RTVSPost2010PropOp42
 70
     1
102
RTVSPost2010Prop43
 90
        3
102
RTVSPost2010PropOp43
 70
     1
102
RTVSPost2010Prop44ColorIndex
 90
        5
102
RTVSPost2010Prop44ColorRGB
 90
      255
102
RTVSPost2010PropOp44
 70
     1
102
RTVSPost2010Prop45
280
     0
102
RTVSPost2010PropOp45
 70
     1
102
RTVSPost2010Prop46
 90
       50
102
RTVSPost2010PropOp46
 70
     1
102
RTVSPost2010Prop47
 90
       50
102
RTVSPost2010PropOp47
 70
     1
102
RTVSPost2010Prop48
 90
       50
102
RTVSPost2010PropOp48
 70
     1
102
RTVSPost2010Prop49
280
     0
102
RTVSPost2010PropOp49
 70
     1
102
RTVSPost2010Prop50
 90
       50
102
RTVSPost2010PropOp50
 70
     1
102
RTVSPost2010Prop51ColorIndex
 90
      256
102
RTVSPost2010Prop51ColorRGB
 90
-16777216
102
RTVSPost2010PropOp51
 70
     0
102
RTVSPost2010Prop52
140
1.0
102
RTVSPost2010PropOp52
 70
     0
102
RTVSPost2010Prop53
 90
        2
102
RTVSPost2010PropOp53
 70
     1
102
RTVSPost2010Prop54
  1
strokes_ogs.tif
102
RTVSPost2010PropOp54
 70
     1
102
RTVSPost2010Prop55
280
     0
102
RTVSPost2010PropOp55
 70
     1
102
RTVSPost2010Prop56
140
1.0
102
RTVSPost2010PropOp56
 70
     1
102
RTVSPost2010Prop57
140
1.0
102
RTVSPost2010PropOp57
 70
     1
102
RTVSPropertyOp0
 70
     1
102
RTVSPropertyOp1
 70
     1
102
RTVSPropertyOp2
 70
     1
102
RTVSPropertyOp3
 70
     1
102
RTVSPropertyOp4
 70
     1
102
RTVSPropertyOp5
 70
     1
102
RTVSPropertyOp6
 70
     1
102
RTVSPropertyOp7
 70
     1
102
RTVSPropertyOp8
 70
     1
102
RTVSPropertyOp9
 70
     1
102
RTVSPropertyOp10
 70
     1
102
RTVSPropertyOp11
 70
     1
102
RTVSPropertyOp12
 70
     1
102
RTVSPropertyOp13
 70
     1
102
RTVSPropertyOp14
 70
     1
102
RTVSPropertyOp15
 70
     1
102
RTVSPropertyOp16
 70
     1
102
RTVSPropertyOp17
 70
     1
102
RTVSPropertyOp18
 70
     1
102
RTVSPropertyOp19
 70
     1
102
RTVSPropertyOp20
 70
     1
102
RTVSPropertyOp21
 70
     1
102
RTVSPropertyOp22
 70
     1
102
RTVSPropertyOp23
 70
     1
102
RTVSPropertyOp24
 70
     1
102
RTVSPropertyOp25
 70
     1
102
RTVSPropertyOp26
 70
     1
102
RTVSPropertyOp27
 70
     1
102
RTVSPropertyOp28
 70
     1
102
RTVSPropertyOp29
 70
     1
102
RTVSPropertyOp30
 70
     1
102
RTVSPropertyOp31
 70
     1
102
RTVSPropertyOp32
 70
     1
102
RTVSPropertyOp33
 70
     1
102
RTVSPropertyOp34
 70
     1
102
RTVSPropertyOp35
 70
     1
102
RTVSPropertyOp36
 70
     1
102
RTVSPropertyOp37
 70
     1
102
RTVSPropertyOp38
 70
     1
102
RTVSPropertyOp39
 70
     1
102
RTVSPropertyOp40
 70
     1
102
RTVSPropertyOp41
 70
     1
102
RTVSPropertyOp42
 70
     1
102
RTVSPropertyOp43
 70
     1
102
RTVSPropertyOp44
 70
     1
102
RTVSPropertyOp45
 70
     1
102
RTVSPropertyOp46
 70
     1
102
RTVSPropertyOp47
 70
     1
102
RTVSPropertyOp48
 70
     1
102
RTVSPropertyOp49
 70
     1
102
RTVSPropertyOp50
 70
     1
102
RTVSPropertyOp51
 70
     0
102
RTVSPropertyOp52
 70
     0
102
RTVSPropertyOp53
 70
     1
102
RTVSPropertyOp54
 70
     1
102
RTVSPropertyOp55
 70
     1
102
RTVSPropertyOp56
 70
     1
102
RTVSPropertyOp57
 70
     1
102
RTVSPropertyOp58
 70
     1
102
RTVSPropertyOp59
 70
     1
102
RTVSPropertyOp60
 70
     1
102
RTVSPropertyOp61
 70
     1
102
RTVSPropertyOp62
 70
     1
  0
XRECORD
  5
480
102
{ACAD_REACTORS
330
47F
102
}
330
47F
100
AcDbXrecord
280
     1
102
RTVSPost2010Prop28
280
     0
102
RTVSPost2010PropOp28
 70
     1
102
RTVSPost2010Prop29
280
     1
102
RTVSPost2010PropOp29
 70
     1
102
RTVSPost2010Prop30
280
     1
102
RTVSPost2010PropOp30
 70
     1
102
RTVSPost2010Prop31
280
     0
102
RTVSPost2010PropOp31
 70
     1
102
RTVSPost2010Prop32
280
     0
102
RTVSPost2010PropOp32
 70
     1
102
RTVSPost2010Prop33
280
     0
102
RTVSPost2010PropOp33
 70
     1
102
RTVSPost2010Prop34
280
     0
102
RTVSPost2010PropOp34
 70
     1
102
RTVSPost2010Prop35
280
     0
102
RTVSPost2010PropOp35
 70
     1
102
RTVSPost2010Prop36
280
     0
102
RTVSPost2010PropOp36
 70
     1
102
RTVSPost2010Prop37
 90
       50
102
RTVSPost2010PropOp37
 70
     1
102
RTVSPost2010Prop38
140
0.0
102
RTVSPost2010PropOp38
 70
     1
102
RTVSPost2010Prop39
140
1.0
102
RTVSPost2010PropOp39
 70
     1
102
RTVSPost2010Prop40
 90
        0
102
RTVSPost2010PropOp40
 70
     1
102
RTVSPost2010Prop41ColorIndex
 90
       18
102
RTVSPost2010Prop41ColorRGB
 90
        0
102
RTVSPost2010PropOp41
 70
     1
102
RTVSPost2010Prop42
 90
       50
102
RTVSPost2010PropOp42
 70
     1
102
RTVSPost2010Prop43
 90
        3
102
RTVSPost2010PropOp43
 70
     1
102
RTVSPost2010Prop44ColorIndex
 90
        5
102
RTVSPost2010Prop44ColorRGB
 90
      255
102
RTVSPost2010PropOp44
 70
     1
102
RTVSPost2010Prop45
280
     0
102
RTVSPost2010PropOp45
 70
     1
102
RTVSPost2010Prop46
 90
       50
102
RTVSPost2010PropOp46
 70
     1
102
RTVSPost2010Prop47
 90
       50
102
RTVSPost2010PropOp47
 70
     1
102
RTVSPost2010Prop48
 90
       50
102
RTVSPost2010PropOp48
 70
     1
102
RTVSPost2010Prop49
280
     0
102
RTVSPost2010PropOp49
 70
     1
102
RTVSPost2010Prop50
 90
       50
102
RTVSPost2010PropOp50
 70
     1
102
RTVSPost2010Prop51ColorIndex
 90
      256
102
RTVSPost2010Prop51ColorRGB
 90
-16777216
102
RTVSPost2010PropOp51
 70
     0
102
RTVSPost2010Prop52
140
1.0
102
RTVSPost2010PropOp52
 70
     0
102
RTVSPost2010Prop53
 90
        2
102
RTVSPost2010PropOp53
 70
     1
102
RTVSPost2010Prop54
  1
strokes_ogs.tif
102
RTVSPost2010PropOp54
 70
     1
102
RTVSPost2010Prop55
280
     0
102
RTVSPost2010PropOp55
 70
     1
102
RTVSPost2010Prop56
140
1.0
102
RTVSPost2010PropOp56
 70
     1
102
RTVSPost2010Prop57
140
1.0
102
RTVSPost2010PropOp57
 70
     1
102
RTVSPropertyOp0
 70
     1
102
RTVSPropertyOp1
 70
     1
102
RTVSPropertyOp2
 70
     1
102
RTVSPropertyOp3
 70
     1
102
RTVSPropertyOp4
 70
     1
102
RTVSPropertyOp5
 70
     1
102
RTVSPropertyOp6
 70
     1
102
RTVSPropertyOp7
 70
     1
102
RTVSPropertyOp8
 70
     1
102
RTVSPropertyOp9
 70
     1
102
RTVSPropertyOp10
 70
     1
102
RTVSPropertyOp11
 70
     1
102
RTVSPropertyOp12
 70
     1
102
RTVSPropertyOp13
 70
     1
102
RTVSPropertyOp14
 70
     1
102
RTVSPropertyOp15
 70
     1
102
RTVSPropertyOp16
 70
     1
102
RTVSPropertyOp17
 70
     1
102
RTVSPropertyOp18
 70
     1
102
RTVSPropertyOp19
 70
     1
102
RTVSPropertyOp20
 70
     1
102
RTVSPropertyOp21
 70
     1
102
RTVSPropertyOp22
 70
     1
102
RTVSPropertyOp23
 70
     1
102
RTVSPropertyOp24
 70
     1
102
RTVSPropertyOp25
 70
     1
102
RTVSPropertyOp26
 70
     1
102
RTVSPropertyOp27
 70
     1
102
RTVSPropertyOp28
 70
     1
102
RTVSPropertyOp29
 70
     1
102
RTVSPropertyOp30
 70
     1
102
RTVSPropertyOp31
 70
     1
102
RTVSPropertyOp32
 70
     1
102
RTVSPropertyOp33
 70
     1
102
RTVSPropertyOp34
 70
     1
102
RTVSPropertyOp35
 70
     1
102
RTVSPropertyOp36
 70
     1
102
RTVSPropertyOp37
 70
     1
102
RTVSPropertyOp38
 70
     1
102
RTVSPropertyOp39
 70
     1
102
RTVSPropertyOp40
 70
     1
102
RTVSPropertyOp41
 70
     1
102
RTVSPropertyOp42
 70
     1
102
RTVSPropertyOp43
 70
     1
102
RTVSPropertyOp44
 70
     1
102
RTVSPropertyOp45
 70
     1
102
RTVSPropertyOp46
 70
     1
102
RTVSPropertyOp47
 70
     1
102
RTVSPropertyOp48
 70
     1
102
RTVSPropertyOp49
 70
     1
102
RTVSPropertyOp50
 70
     1
102
RTVSPropertyOp51
 70
     0
102
RTVSPropertyOp52
 70
     0
102
RTVSPropertyOp53
 70
     1
102
RTVSPropertyOp54
 70
     1
102
RTVSPropertyOp55
 70
     1
102
RTVSPropertyOp56
 70
     1
102
RTVSPropertyOp57
 70
     1
102
RTVSPropertyOp58
 70
     1
102
RTVSPropertyOp59
 70
     1
102
RTVSPropertyOp60
 70
     1
102
RTVSPropertyOp61
 70
     1
102
RTVSPropertyOp62
 70
     1
  0
XRECORD
  5
49C
102
{ACAD_REACTORS
330
49B
102
}
330
49B
100
AcDbXrecord
280
     1
102
RTVSPost2010Prop28
280
     0
102
RTVSPost2010PropOp28
 70
     1
102
RTVSPost2010Prop29
280
     1
102
RTVSPost2010PropOp29
 70
     1
102
RTVSPost2010Prop30
280
     1
102
RTVSPost2010PropOp30
 70
     1
102
RTVSPost2010Prop31
280
     0
102
RTVSPost2010PropOp31
 70
     1
102
RTVSPost2010Prop32
280
     0
102
RTVSPost2010PropOp32
 70
     1
102
RTVSPost2010Prop33
280
     0
102
RTVSPost2010PropOp33
 70
     1
102
RTVSPost2010Prop34
280
     0
102
RTVSPost2010PropOp34
 70
     1
102
RTVSPost2010Prop35
280
     0
102
RTVSPost2010PropOp35
 70
     1
102
RTVSPost2010Prop36
280
     0
102
RTVSPost2010PropOp36
 70
     1
102
RTVSPost2010Prop37
 90
       50
102
RTVSPost2010PropOp37
 70
     0
102
RTVSPost2010Prop38
140
0.0
102
RTVSPost2010PropOp38
 70
     0
102
RTVSPost2010Prop39
140
1.0
102
RTVSPost2010PropOp39
 70
     0
102
RTVSPost2010Prop40
 90
        0
102
RTVSPost2010PropOp40
 70
     0
102
RTVSPost2010Prop41ColorIndex
 90
       18
102
RTVSPost2010Prop41ColorRGB
 90
        0
102
RTVSPost2010PropOp41
 70
     0
102
RTVSPost2010Prop42
 90
       50
102
RTVSPost2010PropOp42
 70
     0
102
RTVSPost2010Prop43
 90
        3
102
RTVSPost2010PropOp43
 70
     0
102
RTVSPost2010Prop44ColorIndex
 90
        5
102
RTVSPost2010Prop44ColorRGB
 90
      255
102
RTVSPost2010PropOp44
 70
     0
102
RTVSPost2010Prop45
280
     0
102
RTVSPost2010PropOp45
 70
     1
102
RTVSPost2010Prop46
 90
       50
102
RTVSPost2010PropOp46
 70
     0
102
RTVSPost2010Prop47
 90
       50
102
RTVSPost2010PropOp47
 70
     0
102
RTVSPost2010Prop48
 90
       50
102
RTVSPost2010PropOp48
 70
     0
102
RTVSPost2010Prop49
280
     0
102
RTVSPost2010PropOp49
 70
     1
102
RTVSPost2010Prop50
 90
       50
102
RTVSPost2010PropOp50
 70
     0
102
RTVSPost2010Prop51ColorIndex
 90
      256
102
RTVSPost2010Prop51ColorRGB
 90
-16777216
102
RTVSPost2010PropOp51
 70
     0
102
RTVSPost2010Prop52
140
1.0
102
RTVSPost2010PropOp52
 70
     0
102
RTVSPost2010Prop53
 90
        2
102
RTVSPost2010PropOp53
 70
     0
102
RTVSPost2010Prop54
  1
strokes_ogs.tif
102
RTVSPost2010PropOp54
 70
     0
102
RTVSPost2010Prop55
280
     0
102
RTVSPost2010PropOp55
 70
     1
102
RTVSPost2010Prop56
140
1.0
102
RTVSPost2010PropOp56
 70
     0
102
RTVSPost2010Prop57
140
1.0
102
RTVSPost2010PropOp57
 70
     0
102
RTVSPropertyOp0
 70
     0
102
RTVSPropertyOp1
 70
     0
102
RTVSPropertyOp2
 70
     0
102
RTVSPropertyOp3
 70
     0
102
RTVSPropertyOp4
 70
     0
102
RTVSPropertyOp5
 70
     0
102
RTVSPropertyOp6
 70
     0
102
RTVSPropertyOp7
 70
     0
102
RTVSPropertyOp8
 70
     0
102
RTVSPropertyOp9
 70
     0
102
RTVSPropertyOp10
 70
     0
102
RTVSPropertyOp11
 70
     0
102
RTVSPropertyOp12
 70
     0
102
RTVSPropertyOp13
 70
     0
102
RTVSPropertyOp14
 70
     2
102
RTVSPropertyOp15
 70
     0
102
RTVSPropertyOp16
 70
     0
102
RTVSPropertyOp17
 70
     0
102
RTVSPropertyOp18
 70
     0
102
RTVSPropertyOp19
 70
     0
102
RTVSPropertyOp20
 70
     0
102
RTVSPropertyOp21
 70
     0
102
RTVSPropertyOp22
 70
     0
102
RTVSPropertyOp23
 70
     0
102
RTVSPropertyOp24
 70
     0
102
RTVSPropertyOp25
 70
     0
102
RTVSPropertyOp26
 70
     0
102
RTVSPropertyOp27
 70
     0
102
RTVSPropertyOp28
 70
     1
102
RTVSPropertyOp29
 70
     1
102
RTVSPropertyOp30
 70
     1
102
RTVSPropertyOp31
 70
     1
102
RTVSPropertyOp32
 70
     1
102
RTVSPropertyOp33
 70
     1
102
RTVSPropertyOp34
 70
     1
102
RTVSPropertyOp35
 70
     1
102
RTVSPropertyOp36
 70
     1
102
RTVSPropertyOp37
 70
     0
102
RTVSPropertyOp38
 70
     0
102
RTVSPropertyOp39
 70
     0
102
RTVSPropertyOp40
 70
     0
102
RTVSPropertyOp41
 70
     0
102
RTVSPropertyOp42
 70
     0
102
RTVSPropertyOp43
 70
     0
102
RTVSPropertyOp44
 70
     0
102
RTVSPropertyOp45
 70
     1
102
RTVSPropertyOp46
 70
     0
102
RTVSPropertyOp47
 70
     0
102
RTVSPropertyOp48
 70
     0
102
RTVSPropertyOp49
 70
     1
102
RTVSPropertyOp50
 70
     0
102
RTVSPropertyOp51
 70
     0
102
RTVSPropertyOp52
 70
     0
102
RTVSPropertyOp53
 70
     0
102
RTVSPropertyOp54
 70
     0
102
RTVSPropertyOp55
 70
     1
102
RTVSPropertyOp56
 70
     0
102
RTVSPropertyOp57
 70
     0
102
RTVSPropertyOp58
 70
     0
102
RTVSPropertyOp59
 70
     0
102
RTVSPropertyOp60
 70
     0
102
RTVSPropertyOp61
 70
     0
102
RTVSPropertyOp62
 70
     0
  0
XRECORD
  5
48C
102
{ACAD_REACTORS
330
48B
102
}
330
48B
100
AcDbXrecord
280
     1
102
RTVSPost2010Prop28
280
     0
102
RTVSPost2010PropOp28
 70
     1
102
RTVSPost2010Prop29
280
     1
102
RTVSPost2010PropOp29
 70
     1
102
RTVSPost2010Prop30
280
     1
102
RTVSPost2010PropOp30
 70
     1
102
RTVSPost2010Prop31
280
     0
102
RTVSPost2010PropOp31
 70
     1
102
RTVSPost2010Prop32
280
     0
102
RTVSPost2010PropOp32
 70
     1
102
RTVSPost2010Prop33
280
     0
102
RTVSPost2010PropOp33
 70
     1
102
RTVSPost2010Prop34
280
     0
102
RTVSPost2010PropOp34
 70
     1
102
RTVSPost2010Prop35
280
     0
102
RTVSPost2010PropOp35
 70
     1
102
RTVSPost2010Prop36
280
     0
102
RTVSPost2010PropOp36
 70
     1
102
RTVSPost2010Prop37
 90
       50
102
RTVSPost2010PropOp37
 70
     1
102
RTVSPost2010Prop38
140
0.0
102
RTVSPost2010PropOp38
 70
     1
102
RTVSPost2010Prop39
140
1.0
102
RTVSPost2010PropOp39
 70
     1
102
RTVSPost2010Prop40
 90
        0
102
RTVSPost2010PropOp40
 70
     1
102
RTVSPost2010Prop41ColorIndex
 90
       18
102
RTVSPost2010Prop41ColorRGB
 90
        0
102
RTVSPost2010PropOp41
 70
     1
102
RTVSPost2010Prop42
 90
       50
102
RTVSPost2010PropOp42
 70
     1
102
RTVSPost2010Prop43
 90
        3
102
RTVSPost2010PropOp43
 70
     1
102
RTVSPost2010Prop44ColorIndex
 90
        5
102
RTVSPost2010Prop44ColorRGB
 90
      255
102
RTVSPost2010PropOp44
 70
     1
102
RTVSPost2010Prop45
280
     0
102
RTVSPost2010PropOp45
 70
     1
102
RTVSPost2010Prop46
 90
       50
102
RTVSPost2010PropOp46
 70
     1
102
RTVSPost2010Prop47
 90
       50
102
RTVSPost2010PropOp47
 70
     1
102
RTVSPost2010Prop48
 90
       50
102
RTVSPost2010PropOp48
 70
     1
102
RTVSPost2010Prop49
280
     0
102
RTVSPost2010PropOp49
 70
     1
102
RTVSPost2010Prop50
 90
       50
102
RTVSPost2010PropOp50
 70
     1
102
RTVSPost2010Prop51ColorIndex
 90
      256
102
RTVSPost2010Prop51ColorRGB
 90
-16777216
102
RTVSPost2010PropOp51
 70
     0
102
RTVSPost2010Prop52
140
1.0
102
RTVSPost2010PropOp52
 70
     0
102
RTVSPost2010Prop53
 90
        2
102
RTVSPost2010PropOp53
 70
     1
102
RTVSPost2010Prop54
  1
strokes_ogs.tif
102
RTVSPost2010PropOp54
 70
     1
102
RTVSPost2010Prop55
280
     0
102
RTVSPost2010PropOp55
 70
     1
102
RTVSPost2010Prop56
140
1.0
102
RTVSPost2010PropOp56
 70
     1
102
RTVSPost2010Prop57
140
1.0
102
RTVSPost2010PropOp57
 70
     1
102
RTVSPropertyOp0
 70
     1
102
RTVSPropertyOp1
 70
     1
102
RTVSPropertyOp2
 70
     1
102
RTVSPropertyOp3
 70
     1
102
RTVSPropertyOp4
 70
     1
102
RTVSPropertyOp5
 70
     1
102
RTVSPropertyOp6
 70
     1
102
RTVSPropertyOp7
 70
     1
102
RTVSPropertyOp8
 70
     1
102
RTVSPropertyOp9
 70
     1
102
RTVSPropertyOp10
 70
     1
102
RTVSPropertyOp11
 70
     1
102
RTVSPropertyOp12
 70
     1
102
RTVSPropertyOp13
 70
     1
102
RTVSPropertyOp14
 70
     1
102
RTVSPropertyOp15
 70
     1
102
RTVSPropertyOp16
 70
     1
102
RTVSPropertyOp17
 70
     1
102
RTVSPropertyOp18
 70
     1
102
RTVSPropertyOp19
 70
     1
102
RTVSPropertyOp20
 70
     1
102
RTVSPropertyOp21
 70
     1
102
RTVSPropertyOp22
 70
     1
102
RTVSPropertyOp23
 70
     1
102
RTVSPropertyOp24
 70
     1
102
RTVSPropertyOp25
 70
     1
102
RTVSPropertyOp26
 70
     1
102
RTVSPropertyOp27
 70
     1
102
RTVSPropertyOp28
 70
     1
102
RTVSPropertyOp29
 70
     1
102
RTVSPropertyOp30
 70
     1
102
RTVSPropertyOp31
 70
     1
102
RTVSPropertyOp32
 70
     1
102
RTVSPropertyOp33
 70
     1
102
RTVSPropertyOp34
 70
     1
102
RTVSPropertyOp35
 70
     1
102
RTVSPropertyOp36
 70
     1
102
RTVSPropertyOp37
 70
     1
102
RTVSPropertyOp38
 70
     1
102
RTVSPropertyOp39
 70
     1
102
RTVSPropertyOp40
 70
     1
102
RTVSPropertyOp41
 70
     1
102
RTVSPropertyOp42
 70
     1
102
RTVSPropertyOp43
 70
     1
102
RTVSPropertyOp44
 70
     1
102
RTVSPropertyOp45
 70
     1
102
RTVSPropertyOp46
 70
     1
102
RTVSPropertyOp47
 70
     1
102
RTVSPropertyOp48
 70
     1
102
RTVSPropertyOp49
 70
     1
102
RTVSPropertyOp50
 70
     1
102
RTVSPropertyOp51
 70
     0
102
RTVSPropertyOp52
 70
     0
102
RTVSPropertyOp53
 70
     1
102
RTVSPropertyOp54
 70
     1
102
RTVSPropertyOp55
 70
     1
102
RTVSPropertyOp56
 70
     1
102
RTVSPropertyOp57
 70
     1
102
RTVSPropertyOp58
 70
     1
102
RTVSPropertyOp59
 70
     1
102
RTVSPropertyOp60
 70
     1
102
RTVSPropertyOp61
 70
     1
102
RTVSPropertyOp62
 70
     1
  0
XRECORD
  5
49E
102
{ACAD_REACTORS
330
49D
102
}
330
49D
100
AcDbXrecord
280
     1
102
RTVSPost2010Prop28
280
     0
102
RTVSPost2010PropOp28
 70
     1
102
RTVSPost2010Prop29
280
     1
102
RTVSPost2010PropOp29
 70
     1
102
RTVSPost2010Prop30
280
     1
102
RTVSPost2010PropOp30
 70
     1
102
RTVSPost2010Prop31
280
     0
102
RTVSPost2010PropOp31
 70
     1
102
RTVSPost2010Prop32
280
     0
102
RTVSPost2010PropOp32
 70
     1
102
RTVSPost2010Prop33
280
     0
102
RTVSPost2010PropOp33
 70
     1
102
RTVSPost2010Prop34
280
     0
102
RTVSPost2010PropOp34
 70
     1
102
RTVSPost2010Prop35
280
     0
102
RTVSPost2010PropOp35
 70
     1
102
RTVSPost2010Prop36
280
     0
102
RTVSPost2010PropOp36
 70
     1
102
RTVSPost2010Prop37
 90
       50
102
RTVSPost2010PropOp37
 70
     0
102
RTVSPost2010Prop38
140
0.0
102
RTVSPost2010PropOp38
 70
     0
102
RTVSPost2010Prop39
140
1.0
102
RTVSPost2010PropOp39
 70
     0
102
RTVSPost2010Prop40
 90
        0
102
RTVSPost2010PropOp40
 70
     0
102
RTVSPost2010Prop41ColorIndex
 90
       18
102
RTVSPost2010Prop41ColorRGB
 90
        0
102
RTVSPost2010PropOp41
 70
     0
102
RTVSPost2010Prop42
 90
       50
102
RTVSPost2010PropOp42
 70
     0
102
RTVSPost2010Prop43
 90
        3
102
RTVSPost2010PropOp43
 70
     0
102
RTVSPost2010Prop44ColorIndex
 90
        5
102
RTVSPost2010Prop44ColorRGB
 90
      255
102
RTVSPost2010PropOp44
 70
     0
102
RTVSPost2010Prop45
280
     0
102
RTVSPost2010PropOp45
 70
     1
102
RTVSPost2010Prop46
 90
       50
102
RTVSPost2010PropOp46
 70
     0
102
RTVSPost2010Prop47
 90
       50
102
RTVSPost2010PropOp47
 70
     0
102
RTVSPost2010Prop48
 90
       50
102
RTVSPost2010PropOp48
 70
     0
102
RTVSPost2010Prop49
280
     0
102
RTVSPost2010PropOp49
 70
     1
102
RTVSPost2010Prop50
 90
       50
102
RTVSPost2010PropOp50
 70
     0
102
RTVSPost2010Prop51ColorIndex
 90
      256
102
RTVSPost2010Prop51ColorRGB
 90
-16777216
102
RTVSPost2010PropOp51
 70
     0
102
RTVSPost2010Prop52
140
1.0
102
RTVSPost2010PropOp52
 70
     0
102
RTVSPost2010Prop53
 90
        2
102
RTVSPost2010PropOp53
 70
     0
102
RTVSPost2010Prop54
  1
strokes_ogs.tif
102
RTVSPost2010PropOp54
 70
     0
102
RTVSPost2010Prop55
280
     0
102
RTVSPost2010PropOp55
 70
     1
102
RTVSPost2010Prop56
140
1.0
102
RTVSPost2010PropOp56
 70
     0
102
RTVSPost2010Prop57
140
1.0
102
RTVSPost2010PropOp57
 70
     0
102
RTVSPropertyOp0
 70
     0
102
RTVSPropertyOp1
 70
     0
102
RTVSPropertyOp2
 70
     0
102
RTVSPropertyOp3
 70
     0
102
RTVSPropertyOp4
 70
     0
102
RTVSPropertyOp5
 70
     0
102
RTVSPropertyOp6
 70
     0
102
RTVSPropertyOp7
 70
     0
102
RTVSPropertyOp8
 70
     0
102
RTVSPropertyOp9
 70
     0
102
RTVSPropertyOp10
 70
     0
102
RTVSPropertyOp11
 70
     0
102
RTVSPropertyOp12
 70
     0
102
RTVSPropertyOp13
 70
     0
102
RTVSPropertyOp14
 70
     2
102
RTVSPropertyOp15
 70
     0
102
RTVSPropertyOp16
 70
     0
102
RTVSPropertyOp17
 70
     0
102
RTVSPropertyOp18
 70
     0
102
RTVSPropertyOp19
 70
     0
102
RTVSPropertyOp20
 70
     0
102
RTVSPropertyOp21
 70
     0
102
RTVSPropertyOp22
 70
     0
102
RTVSPropertyOp23
 70
     0
102
RTVSPropertyOp24
 70
     0
102
RTVSPropertyOp25
 70
     0
102
RTVSPropertyOp26
 70
     0
102
RTVSPropertyOp27
 70
     0
102
RTVSPropertyOp28
 70
     1
102
RTVSPropertyOp29
 70
     1
102
RTVSPropertyOp30
 70
     1
102
RTVSPropertyOp31
 70
     1
102
RTVSPropertyOp32
 70
     1
102
RTVSPropertyOp33
 70
     1
102
RTVSPropertyOp34
 70
     1
102
RTVSPropertyOp35
 70
     1
102
RTVSPropertyOp36
 70
     1
102
RTVSPropertyOp37
 70
     0
102
RTVSPropertyOp38
 70
     0
102
RTVSPropertyOp39
 70
     0
102
RTVSPropertyOp40
 70
     0
102
RTVSPropertyOp41
 70
     0
102
RTVSPropertyOp42
 70
     0
102
RTVSPropertyOp43
 70
     0
102
RTVSPropertyOp44
 70
     0
102
RTVSPropertyOp45
 70
     1
102
RTVSPropertyOp46
 70
     0
102
RTVSPropertyOp47
 70
     0
102
RTVSPropertyOp48
 70
     0
102
RTVSPropertyOp49
 70
     1
102
RTVSPropertyOp50
 70
     0
102
RTVSPropertyOp51
 70
     0
102
RTVSPropertyOp52
 70
     0
102
RTVSPropertyOp53
 70
     0
102
RTVSPropertyOp54
 70
     0
102
RTVSPropertyOp55
 70
     1
102
RTVSPropertyOp56
 70
     0
102
RTVSPropertyOp57
 70
     0
102
RTVSPropertyOp58
 70
     0
102
RTVSPropertyOp59
 70
     0
102
RTVSPropertyOp60
 70
     0
102
RTVSPropertyOp61
 70
     0
102
RTVSPropertyOp62
 70
     0
  0
XRECORD
  5
484
102
{ACAD_REACTORS
330
483
102
}
330
483
100
AcDbXrecord
280
     1
102
RTVSPost2010Prop28
280
     0
102
RTVSPost2010PropOp28
 70
     1
102
RTVSPost2010Prop29
280
     1
102
RTVSPost2010PropOp29
 70
     1
102
RTVSPost2010Prop30
280
     1
102
RTVSPost2010PropOp30
 70
     1
102
RTVSPost2010Prop31
280
     0
102
RTVSPost2010PropOp31
 70
     1
102
RTVSPost2010Prop32
280
     0
102
RTVSPost2010PropOp32
 70
     1
102
RTVSPost2010Prop33
280
     0
102
RTVSPost2010PropOp33
 70
     1
102
RTVSPost2010Prop34
280
     0
102
RTVSPost2010PropOp34
 70
     1
102
RTVSPost2010Prop35
280
     0
102
RTVSPost2010PropOp35
 70
     1
102
RTVSPost2010Prop36
280
     0
102
RTVSPost2010PropOp36
 70
     1
102
RTVSPost2010Prop37
 90
       50
102
RTVSPost2010PropOp37
 70
     1
102
RTVSPost2010Prop38
140
0.0
102
RTVSPost2010PropOp38
 70
     1
102
RTVSPost2010Prop39
140
1.0
102
RTVSPost2010PropOp39
 70
     1
102
RTVSPost2010Prop40
 90
        0
102
RTVSPost2010PropOp40
 70
     1
102
RTVSPost2010Prop41ColorIndex
 90
       18
102
RTVSPost2010Prop41ColorRGB
 90
        0
102
RTVSPost2010PropOp41
 70
     1
102
RTVSPost2010Prop42
 90
       50
102
RTVSPost2010PropOp42
 70
     1
102
RTVSPost2010Prop43
 90
        3
102
RTVSPost2010PropOp43
 70
     1
102
RTVSPost2010Prop44ColorIndex
 90
        5
102
RTVSPost2010Prop44ColorRGB
 90
      255
102
RTVSPost2010PropOp44
 70
     1
102
RTVSPost2010Prop45
280
     0
102
RTVSPost2010PropOp45
 70
     1
102
RTVSPost2010Prop46
 90
       50
102
RTVSPost2010PropOp46
 70
     1
102
RTVSPost2010Prop47
 90
       50
102
RTVSPost2010PropOp47
 70
     1
102
RTVSPost2010Prop48
 90
       50
102
RTVSPost2010PropOp48
 70
     1
102
RTVSPost2010Prop49
280
     0
102
RTVSPost2010PropOp49
 70
     1
102
RTVSPost2010Prop50
 90
       50
102
RTVSPost2010PropOp50
 70
     1
102
RTVSPost2010Prop51ColorIndex
 90
      256
102
RTVSPost2010Prop51ColorRGB
 90
-16777216
102
RTVSPost2010PropOp51
 70
     0
102
RTVSPost2010Prop52
140
1.0
102
RTVSPost2010PropOp52
 70
     0
102
RTVSPost2010Prop53
 90
        2
102
RTVSPost2010PropOp53
 70
     1
102
RTVSPost2010Prop54
  1
strokes_ogs.tif
102
RTVSPost2010PropOp54
 70
     1
102
RTVSPost2010Prop55
280
     0
102
RTVSPost2010PropOp55
 70
     1
102
RTVSPost2010Prop56
140
1.0
102
RTVSPost2010PropOp56
 70
     1
102
RTVSPost2010Prop57
140
1.0
102
RTVSPost2010PropOp57
 70
     1
102
RTVSPropertyOp0
 70
     1
102
RTVSPropertyOp1
 70
     1
102
RTVSPropertyOp2
 70
     1
102
RTVSPropertyOp3
 70
     1
102
RTVSPropertyOp4
 70
     1
102
RTVSPropertyOp5
 70
     1
102
RTVSPropertyOp6
 70
     1
102
RTVSPropertyOp7
 70
     1
102
RTVSPropertyOp8
 70
     1
102
RTVSPropertyOp9
 70
     1
102
RTVSPropertyOp10
 70
     1
102
RTVSPropertyOp11
 70
     1
102
RTVSPropertyOp12
 70
     1
102
RTVSPropertyOp13
 70
     1
102
RTVSPropertyOp14
 70
     1
102
RTVSPropertyOp15
 70
     1
102
RTVSPropertyOp16
 70
     1
102
RTVSPropertyOp17
 70
     1
102
RTVSPropertyOp18
 70
     1
102
RTVSPropertyOp19
 70
     1
102
RTVSPropertyOp20
 70
     1
102
RTVSPropertyOp21
 70
     1
102
RTVSPropertyOp22
 70
     1
102
RTVSPropertyOp23
 70
     1
102
RTVSPropertyOp24
 70
     1
102
RTVSPropertyOp25
 70
     1
102
RTVSPropertyOp26
 70
     1
102
RTVSPropertyOp27
 70
     1
102
RTVSPropertyOp28
 70
     1
102
RTVSPropertyOp29
 70
     1
102
RTVSPropertyOp30
 70
     1
102
RTVSPropertyOp31
 70
     1
102
RTVSPropertyOp32
 70
     1
102
RTVSPropertyOp33
 70
     1
102
RTVSPropertyOp34
 70
     1
102
RTVSPropertyOp35
 70
     1
102
RTVSPropertyOp36
 70
     1
102
RTVSPropertyOp37
 70
     1
102
RTVSPropertyOp38
 70
     1
102
RTVSPropertyOp39
 70
     1
102
RTVSPropertyOp40
 70
     1
102
RTVSPropertyOp41
 70
     1
102
RTVSPropertyOp42
 70
     1
102
RTVSPropertyOp43
 70
     1
102
RTVSPropertyOp44
 70
     1
102
RTVSPropertyOp45
 70
     1
102
RTVSPropertyOp46
 70
     1
102
RTVSPropertyOp47
 70
     1
102
RTVSPropertyOp48
 70
     1
102
RTVSPropertyOp49
 70
     1
102
RTVSPropertyOp50
 70
     1
102
RTVSPropertyOp51
 70
     0
102
RTVSPropertyOp52
 70
     0
102
RTVSPropertyOp53
 70
     1
102
RTVSPropertyOp54
 70
     1
102
RTVSPropertyOp55
 70
     1
102
RTVSPropertyOp56
 70
     1
102
RTVSPropertyOp57
 70
     1
102
RTVSPropertyOp58
 70
     1
102
RTVSPropertyOp59
 70
     1
102
RTVSPropertyOp60
 70
     1
102
RTVSPropertyOp61
 70
     1
102
RTVSPropertyOp62
 70
     1
  0
XRECORD
  5
49A
102
{ACAD_REACTORS
330
499
102
}
330
499
100
AcDbXrecord
280
     1
102
RTVSPost2010Prop28
280
     0
102
RTVSPost2010PropOp28
 70
     1
102
RTVSPost2010Prop29
280
     1
102
RTVSPost2010PropOp29
 70
     1
102
RTVSPost2010Prop30
280
     1
102
RTVSPost2010PropOp30
 70
     1
102
RTVSPost2010Prop31
280
     0
102
RTVSPost2010PropOp31
 70
     1
102
RTVSPost2010Prop32
280
     0
102
RTVSPost2010PropOp32
 70
     1
102
RTVSPost2010Prop33
280
     0
102
RTVSPost2010PropOp33
 70
     1
102
RTVSPost2010Prop34
280
     0
102
RTVSPost2010PropOp34
 70
     1
102
RTVSPost2010Prop35
280
     0
102
RTVSPost2010PropOp35
 70
     1
102
RTVSPost2010Prop36
280
     0
102
RTVSPost2010PropOp36
 70
     1
102
RTVSPost2010Prop37
 90
       50
102
RTVSPost2010PropOp37
 70
     1
102
RTVSPost2010Prop38
140
0.0
102
RTVSPost2010PropOp38
 70
     1
102
RTVSPost2010Prop39
140
1.0
102
RTVSPost2010PropOp39
 70
     1
102
RTVSPost2010Prop40
 90
        0
102
RTVSPost2010PropOp40
 70
     1
102
RTVSPost2010Prop41ColorIndex
 90
       18
102
RTVSPost2010Prop41ColorRGB
 90
        0
102
RTVSPost2010PropOp41
 70
     1
102
RTVSPost2010Prop42
 90
       50
102
RTVSPost2010PropOp42
 70
     1
102
RTVSPost2010Prop43
 90
        3
102
RTVSPost2010PropOp43
 70
     1
102
RTVSPost2010Prop44ColorIndex
 90
        5
102
RTVSPost2010Prop44ColorRGB
 90
      255
102
RTVSPost2010PropOp44
 70
     1
102
RTVSPost2010Prop45
280
     0
102
RTVSPost2010PropOp45
 70
     1
102
RTVSPost2010Prop46
 90
       50
102
RTVSPost2010PropOp46
 70
     1
102
RTVSPost2010Prop47
 90
       50
102
RTVSPost2010PropOp47
 70
     1
102
RTVSPost2010Prop48
 90
       50
102
RTVSPost2010PropOp48
 70
     1
102
RTVSPost2010Prop49
280
     0
102
RTVSPost2010PropOp49
 70
     1
102
RTVSPost2010Prop50
 90
       50
102
RTVSPost2010PropOp50
 70
     1
102
RTVSPost2010Prop51ColorIndex
 90
      256
102
RTVSPost2010Prop51ColorRGB
 90
-16777216
102
RTVSPost2010PropOp51
 70
     0
102
RTVSPost2010Prop52
140
1.0
102
RTVSPost2010PropOp52
 70
     0
102
RTVSPost2010Prop53
 90
        2
102
RTVSPost2010PropOp53
 70
     1
102
RTVSPost2010Prop54
  1
strokes_ogs.tif
102
RTVSPost2010PropOp54
 70
     1
102
RTVSPost2010Prop55
280
     0
102
RTVSPost2010PropOp55
 70
     1
102
RTVSPost2010Prop56
140
1.0
102
RTVSPost2010PropOp56
 70
     1
102
RTVSPost2010Prop57
140
1.0
102
RTVSPost2010PropOp57
 70
     1
102
RTVSPropertyOp0
 70
     1
102
RTVSPropertyOp1
 70
     1
102
RTVSPropertyOp2
 70
     1
102
RTVSPropertyOp3
 70
     1
102
RTVSPropertyOp4
 70
     1
102
RTVSPropertyOp5
 70
     1
102
RTVSPropertyOp6
 70
     1
102
RTVSPropertyOp7
 70
     1
102
RTVSPropertyOp8
 70
     1
102
RTVSPropertyOp9
 70
     1
102
RTVSPropertyOp10
 70
     1
102
RTVSPropertyOp11
 70
     1
102
RTVSPropertyOp12
 70
     1
102
RTVSPropertyOp13
 70
     1
102
RTVSPropertyOp14
 70
     1
102
RTVSPropertyOp15
 70
     1
102
RTVSPropertyOp16
 70
     1
102
RTVSPropertyOp17
 70
     1
102
RTVSPropertyOp18
 70
     1
102
RTVSPropertyOp19
 70
     1
102
RTVSPropertyOp20
 70
     1
102
RTVSPropertyOp21
 70
     1
102
RTVSPropertyOp22
 70
     1
102
RTVSPropertyOp23
 70
     1
102
RTVSPropertyOp24
 70
     1
102
RTVSPropertyOp25
 70
     1
102
RTVSPropertyOp26
 70
     1
102
RTVSPropertyOp27
 70
     1
102
RTVSPropertyOp28
 70
     1
102
RTVSPropertyOp29
 70
     1
102
RTVSPropertyOp30
 70
     1
102
RTVSPropertyOp31
 70
     1
102
RTVSPropertyOp32
 70
     1
102
RTVSPropertyOp33
 70
     1
102
RTVSPropertyOp34
 70
     1
102
RTVSPropertyOp35
 70
     1
102
RTVSPropertyOp36
 70
     1
102
RTVSPropertyOp37
 70
     1
102
RTVSPropertyOp38
 70
     1
102
RTVSPropertyOp39
 70
     1
102
RTVSPropertyOp40
 70
     1
102
RTVSPropertyOp41
 70
     1
102
RTVSPropertyOp42
 70
     1
102
RTVSPropertyOp43
 70
     1
102
RTVSPropertyOp44
 70
     1
102
RTVSPropertyOp45
 70
     1
102
RTVSPropertyOp46
 70
     1
102
RTVSPropertyOp47
 70
     1
102
RTVSPropertyOp48
 70
     1
102
RTVSPropertyOp49
 70
     1
102
RTVSPropertyOp50
 70
     1
102
RTVSPropertyOp51
 70
     0
102
RTVSPropertyOp52
 70
     0
102
RTVSPropertyOp53
 70
     1
102
RTVSPropertyOp54
 70
     1
102
RTVSPropertyOp55
 70
     1
102
RTVSPropertyOp56
 70
     1
102
RTVSPropertyOp57
 70
     1
102
RTVSPropertyOp58
 70
     1
102
RTVSPropertyOp59
 70
     1
102
RTVSPropertyOp60
 70
     1
102
RTVSPropertyOp61
 70
     1
102
RTVSPropertyOp62
 70
     1
  0
XRECORD
  5
498
102
{ACAD_REACTORS
330
497
102
}
330
497
100
AcDbXrecord
280
     1
102
RTVSPost2010Prop28
280
     0
102
RTVSPost2010PropOp28
 70
     1
102
RTVSPost2010Prop29
280
     1
102
RTVSPost2010PropOp29
 70
     1
102
RTVSPost2010Prop30
280
     1
102
RTVSPost2010PropOp30
 70
     1
102
RTVSPost2010Prop31
280
     0
102
RTVSPost2010PropOp31
 70
     1
102
RTVSPost2010Prop32
280
     0
102
RTVSPost2010PropOp32
 70
     1
102
RTVSPost2010Prop33
280
     0
102
RTVSPost2010PropOp33
 70
     1
102
RTVSPost2010Prop34
280
     0
102
RTVSPost2010PropOp34
 70
     1
102
RTVSPost2010Prop35
280
     0
102
RTVSPost2010PropOp35
 70
     1
102
RTVSPost2010Prop36
280
     0
102
RTVSPost2010PropOp36
 70
     1
102
RTVSPost2010Prop37
 90
       50
102
RTVSPost2010PropOp37
 70
     1
102
RTVSPost2010Prop38
140
0.0
102
RTVSPost2010PropOp38
 70
     1
102
RTVSPost2010Prop39
140
1.0
102
RTVSPost2010PropOp39
 70
     1
102
RTVSPost2010Prop40
 90
        0
102
RTVSPost2010PropOp40
 70
     1
102
RTVSPost2010Prop41ColorIndex
 90
       18
102
RTVSPost2010Prop41ColorRGB
 90
        0
102
RTVSPost2010PropOp41
 70
     1
102
RTVSPost2010Prop42
 90
       50
102
RTVSPost2010PropOp42
 70
     1
102
RTVSPost2010Prop43
 90
        3
102
RTVSPost2010PropOp43
 70
     1
102
RTVSPost2010Prop44ColorIndex
 90
        5
102
RTVSPost2010Prop44ColorRGB
 90
      255
102
RTVSPost2010PropOp44
 70
     1
102
RTVSPost2010Prop45
280
     0
102
RTVSPost2010PropOp45
 70
     1
102
RTVSPost2010Prop46
 90
       50
102
RTVSPost2010PropOp46
 70
     1
102
RTVSPost2010Prop47
 90
       50
102
RTVSPost2010PropOp47
 70
     1
102
RTVSPost2010Prop48
 90
       50
102
RTVSPost2010PropOp48
 70
     1
102
RTVSPost2010Prop49
280
     0
102
RTVSPost2010PropOp49
 70
     1
102
RTVSPost2010Prop50
 90
       50
102
RTVSPost2010PropOp50
 70
     1
102
RTVSPost2010Prop51ColorIndex
 90
      256
102
RTVSPost2010Prop51ColorRGB
 90
-16777216
102
RTVSPost2010PropOp51
 70
     0
102
RTVSPost2010Prop52
140
1.0
102
RTVSPost2010PropOp52
 70
     0
102
RTVSPost2010Prop53
 90
        2
102
RTVSPost2010PropOp53
 70
     1
102
RTVSPost2010Prop54
  1
strokes_ogs.tif
102
RTVSPost2010PropOp54
 70
     1
102
RTVSPost2010Prop55
280
     0
102
RTVSPost2010PropOp55
 70
     1
102
RTVSPost2010Prop56
140
1.0
102
RTVSPost2010PropOp56
 70
     1
102
RTVSPost2010Prop57
140
1.0
102
RTVSPost2010PropOp57
 70
     1
102
RTVSPropertyOp0
 70
     1
102
RTVSPropertyOp1
 70
     1
102
RTVSPropertyOp2
 70
     1
102
RTVSPropertyOp3
 70
     1
102
RTVSPropertyOp4
 70
     1
102
RTVSPropertyOp5
 70
     1
102
RTVSPropertyOp6
 70
     1
102
RTVSPropertyOp7
 70
     1
102
RTVSPropertyOp8
 70
     1
102
RTVSPropertyOp9
 70
     1
102
RTVSPropertyOp10
 70
     1
102
RTVSPropertyOp11
 70
     1
102
RTVSPropertyOp12
 70
     1
102
RTVSPropertyOp13
 70
     1
102
RTVSPropertyOp14
 70
     1
102
RTVSPropertyOp15
 70
     1
102
RTVSPropertyOp16
 70
     1
102
RTVSPropertyOp17
 70
     1
102
RTVSPropertyOp18
 70
     1
102
RTVSPropertyOp19
 70
     1
102
RTVSPropertyOp20
 70
     1
102
RTVSPropertyOp21
 70
     1
102
RTVSPropertyOp22
 70
     1
102
RTVSPropertyOp23
 70
     1
102
RTVSPropertyOp24
 70
     1
102
RTVSPropertyOp25
 70
     1
102
RTVSPropertyOp26
 70
     1
102
RTVSPropertyOp27
 70
     1
102
RTVSPropertyOp28
 70
     1
102
RTVSPropertyOp29
 70
     1
102
RTVSPropertyOp30
 70
     1
102
RTVSPropertyOp31
 70
     1
102
RTVSPropertyOp32
 70
     1
102
RTVSPropertyOp33
 70
     1
102
RTVSPropertyOp34
 70
     1
102
RTVSPropertyOp35
 70
     1
102
RTVSPropertyOp36
 70
     1
102
RTVSPropertyOp37
 70
     1
102
RTVSPropertyOp38
 70
     1
102
RTVSPropertyOp39
 70
     1
102
RTVSPropertyOp40
 70
     1
102
RTVSPropertyOp41
 70
     1
102
RTVSPropertyOp42
 70
     1
102
RTVSPropertyOp43
 70
     1
102
RTVSPropertyOp44
 70
     1
102
RTVSPropertyOp45
 70
     1
102
RTVSPropertyOp46
 70
     1
102
RTVSPropertyOp47
 70
     1
102
RTVSPropertyOp48
 70
     1
102
RTVSPropertyOp49
 70
     1
102
RTVSPropertyOp50
 70
     1
102
RTVSPropertyOp51
 70
     0
102
RTVSPropertyOp52
 70
     0
102
RTVSPropertyOp53
 70
     1
102
RTVSPropertyOp54
 70
     1
102
RTVSPropertyOp55
 70
     1
102
RTVSPropertyOp56
 70
     1
102
RTVSPropertyOp57
 70
     1
102
RTVSPropertyOp58
 70
     1
102
RTVSPropertyOp59
 70
     1
102
RTVSPropertyOp60
 70
     1
102
RTVSPropertyOp61
 70
     1
102
RTVSPropertyOp62
 70
     1
  0
XRECORD
  5
492
102
{ACAD_REACTORS
330
491
102
}
330
491
100
AcDbXrecord
280
     1
102
RTVSPost2010Prop28
280
     0
102
RTVSPost2010PropOp28
 70
     1
102
RTVSPost2010Prop29
280
     1
102
RTVSPost2010PropOp29
 70
     1
102
RTVSPost2010Prop30
280
     1
102
RTVSPost2010PropOp30
 70
     1
102
RTVSPost2010Prop31
280
     0
102
RTVSPost2010PropOp31
 70
     1
102
RTVSPost2010Prop32
280
     0
102
RTVSPost2010PropOp32
 70
     1
102
RTVSPost2010Prop33
280
     0
102
RTVSPost2010PropOp33
 70
     1
102
RTVSPost2010Prop34
280
     0
102
RTVSPost2010PropOp34
 70
     1
102
RTVSPost2010Prop35
280
     0
102
RTVSPost2010PropOp35
 70
     1
102
RTVSPost2010Prop36
280
     0
102
RTVSPost2010PropOp36
 70
     1
102
RTVSPost2010Prop37
 90
       50
102
RTVSPost2010PropOp37
 70
     1
102
RTVSPost2010Prop38
140
0.0
102
RTVSPost2010PropOp38
 70
     1
102
RTVSPost2010Prop39
140
1.0
102
RTVSPost2010PropOp39
 70
     1
102
RTVSPost2010Prop40
 90
        0
102
RTVSPost2010PropOp40
 70
     1
102
RTVSPost2010Prop41ColorIndex
 90
       18
102
RTVSPost2010Prop41ColorRGB
 90
        0
102
RTVSPost2010PropOp41
 70
     1
102
RTVSPost2010Prop42
 90
       50
102
RTVSPost2010PropOp42
 70
     1
102
RTVSPost2010Prop43
 90
        3
102
RTVSPost2010PropOp43
 70
     1
102
RTVSPost2010Prop44ColorIndex
 90
        5
102
RTVSPost2010Prop44ColorRGB
 90
      255
102
RTVSPost2010PropOp44
 70
     1
102
RTVSPost2010Prop45
280
     0
102
RTVSPost2010PropOp45
 70
     1
102
RTVSPost2010Prop46
 90
       50
102
RTVSPost2010PropOp46
 70
     1
102
RTVSPost2010Prop47
 90
       50
102
RTVSPost2010PropOp47
 70
     1
102
RTVSPost2010Prop48
 90
       50
102
RTVSPost2010PropOp48
 70
     1
102
RTVSPost2010Prop49
280
     0
102
RTVSPost2010PropOp49
 70
     1
102
RTVSPost2010Prop50
 90
       50
102
RTVSPost2010PropOp50
 70
     1
102
RTVSPost2010Prop51ColorIndex
 90
      256
102
RTVSPost2010Prop51ColorRGB
 90
-16777216
102
RTVSPost2010PropOp51
 70
     0
102
RTVSPost2010Prop52
140
1.0
102
RTVSPost2010PropOp52
 70
     0
102
RTVSPost2010Prop53
 90
        2
102
RTVSPost2010PropOp53
 70
     1
102
RTVSPost2010Prop54
  1
strokes_ogs.tif
102
RTVSPost2010PropOp54
 70
     1
102
RTVSPost2010Prop55
280
     0
102
RTVSPost2010PropOp55
 70
     1
102
RTVSPost2010Prop56
140
1.0
102
RTVSPost2010PropOp56
 70
     1
102
RTVSPost2010Prop57
140
1.0
102
RTVSPost2010PropOp57
 70
     1
102
RTVSPropertyOp0
 70
     1
102
RTVSPropertyOp1
 70
     1
102
RTVSPropertyOp2
 70
     1
102
RTVSPropertyOp3
 70
     1
102
RTVSPropertyOp4
 70
     1
102
RTVSPropertyOp5
 70
     1
102
RTVSPropertyOp6
 70
     1
102
RTVSPropertyOp7
 70
     1
102
RTVSPropertyOp8
 70
     1
102
RTVSPropertyOp9
 70
     1
102
RTVSPropertyOp10
 70
     1
102
RTVSPropertyOp11
 70
     1
102
RTVSPropertyOp12
 70
     1
102
RTVSPropertyOp13
 70
     1
102
RTVSPropertyOp14
 70
     1
102
RTVSPropertyOp15
 70
     1
102
RTVSPropertyOp16
 70
     1
102
RTVSPropertyOp17
 70
     1
102
RTVSPropertyOp18
 70
     1
102
RTVSPropertyOp19
 70
     1
102
RTVSPropertyOp20
 70
     1
102
RTVSPropertyOp21
 70
     1
102
RTVSPropertyOp22
 70
     1
102
RTVSPropertyOp23
 70
     1
102
RTVSPropertyOp24
 70
     1
102
RTVSPropertyOp25
 70
     1
102
RTVSPropertyOp26
 70
     1
102
RTVSPropertyOp27
 70
     1
102
RTVSPropertyOp28
 70
     1
102
RTVSPropertyOp29
 70
     1
102
RTVSPropertyOp30
 70
     1
102
RTVSPropertyOp31
 70
     1
102
RTVSPropertyOp32
 70
     1
102
RTVSPropertyOp33
 70
     1
102
RTVSPropertyOp34
 70
     1
102
RTVSPropertyOp35
 70
     1
102
RTVSPropertyOp36
 70
     1
102
RTVSPropertyOp37
 70
     1
102
RTVSPropertyOp38
 70
     1
102
RTVSPropertyOp39
 70
     1
102
RTVSPropertyOp40
 70
     1
102
RTVSPropertyOp41
 70
     1
102
RTVSPropertyOp42
 70
     1
102
RTVSPropertyOp43
 70
     1
102
RTVSPropertyOp44
 70
     1
102
RTVSPropertyOp45
 70
     1
102
RTVSPropertyOp46
 70
     1
102
RTVSPropertyOp47
 70
     1
102
RTVSPropertyOp48
 70
     1
102
RTVSPropertyOp49
 70
     1
102
RTVSPropertyOp50
 70
     1
102
RTVSPropertyOp51
 70
     0
102
RTVSPropertyOp52
 70
     0
102
RTVSPropertyOp53
 70
     1
102
RTVSPropertyOp54
 70
     1
102
RTVSPropertyOp55
 70
     1
102
RTVSPropertyOp56
 70
     1
102
RTVSPropertyOp57
 70
     1
102
RTVSPropertyOp58
 70
     1
102
RTVSPropertyOp59
 70
     1
102
RTVSPropertyOp60
 70
     1
102
RTVSPropertyOp61
 70
     1
102
RTVSPropertyOp62
 70
     1
  0
XRECORD
  5
494
102
{ACAD_REACTORS
330
493
102
}
330
493
100
AcDbXrecord
280
     1
102
RTVSPost2010Prop28
280
     0
102
RTVSPost2010PropOp28
 70
     1
102
RTVSPost2010Prop29
280
     1
102
RTVSPost2010PropOp29
 70
     1
102
RTVSPost2010Prop30
280
     1
102
RTVSPost2010PropOp30
 70
     1
102
RTVSPost2010Prop31
280
     0
102
RTVSPost2010PropOp31
 70
     1
102
RTVSPost2010Prop32
280
     0
102
RTVSPost2010PropOp32
 70
     1
102
RTVSPost2010Prop33
280
     0
102
RTVSPost2010PropOp33
 70
     1
102
RTVSPost2010Prop34
280
     0
102
RTVSPost2010PropOp34
 70
     1
102
RTVSPost2010Prop35
280
     0
102
RTVSPost2010PropOp35
 70
     1
102
RTVSPost2010Prop36
280
     0
102
RTVSPost2010PropOp36
 70
     1
102
RTVSPost2010Prop37
 90
       50
102
RTVSPost2010PropOp37
 70
     1
102
RTVSPost2010Prop38
140
0.0
102
RTVSPost2010PropOp38
 70
     1
102
RTVSPost2010Prop39
140
1.0
102
RTVSPost2010PropOp39
 70
     1
102
RTVSPost2010Prop40
 90
        0
102
RTVSPost2010PropOp40
 70
     1
102
RTVSPost2010Prop41ColorIndex
 90
       18
102
RTVSPost2010Prop41ColorRGB
 90
        0
102
RTVSPost2010PropOp41
 70
     1
102
RTVSPost2010Prop42
 90
       50
102
RTVSPost2010PropOp42
 70
     1
102
RTVSPost2010Prop43
 90
        3
102
RTVSPost2010PropOp43
 70
     1
102
RTVSPost2010Prop44ColorIndex
 90
        5
102
RTVSPost2010Prop44ColorRGB
 90
      255
102
RTVSPost2010PropOp44
 70
     1
102
RTVSPost2010Prop45
280
     0
102
RTVSPost2010PropOp45
 70
     1
102
RTVSPost2010Prop46
 90
       50
102
RTVSPost2010PropOp46
 70
     1
102
RTVSPost2010Prop47
 90
       50
102
RTVSPost2010PropOp47
 70
     1
102
RTVSPost2010Prop48
 90
       50
102
RTVSPost2010PropOp48
 70
     1
102
RTVSPost2010Prop49
280
     0
102
RTVSPost2010PropOp49
 70
     1
102
RTVSPost2010Prop50
 90
       50
102
RTVSPost2010PropOp50
 70
     1
102
RTVSPost2010Prop51ColorIndex
 90
      256
102
RTVSPost2010Prop51ColorRGB
 90
-16777216
102
RTVSPost2010PropOp51
 70
     0
102
RTVSPost2010Prop52
140
1.0
102
RTVSPost2010PropOp52
 70
     0
102
RTVSPost2010Prop53
 90
        2
102
RTVSPost2010PropOp53
 70
     1
102
RTVSPost2010Prop54
  1
strokes_ogs.tif
102
RTVSPost2010PropOp54
 70
     1
102
RTVSPost2010Prop55
280
     0
102
RTVSPost2010PropOp55
 70
     1
102
RTVSPost2010Prop56
140
1.0
102
RTVSPost2010PropOp56
 70
     1
102
RTVSPost2010Prop57
140
1.0
102
RTVSPost2010PropOp57
 70
     1
102
RTVSPropertyOp0
 70
     1
102
RTVSPropertyOp1
 70
     1
102
RTVSPropertyOp2
 70
     1
102
RTVSPropertyOp3
 70
     1
102
RTVSPropertyOp4
 70
     1
102
RTVSPropertyOp5
 70
     1
102
RTVSPropertyOp6
 70
     1
102
RTVSPropertyOp7
 70
     1
102
RTVSPropertyOp8
 70
     1
102
RTVSPropertyOp9
 70
     1
102
RTVSPropertyOp10
 70
     1
102
RTVSPropertyOp11
 70
     1
102
RTVSPropertyOp12
 70
     1
102
RTVSPropertyOp13
 70
     1
102
RTVSPropertyOp14
 70
     1
102
RTVSPropertyOp15
 70
     1
102
RTVSPropertyOp16
 70
     1
102
RTVSPropertyOp17
 70
     1
102
RTVSPropertyOp18
 70
     1
102
RTVSPropertyOp19
 70
     1
102
RTVSPropertyOp20
 70
     1
102
RTVSPropertyOp21
 70
     1
102
RTVSPropertyOp22
 70
     1
102
RTVSPropertyOp23
 70
     1
102
RTVSPropertyOp24
 70
     1
102
RTVSPropertyOp25
 70
     1
102
RTVSPropertyOp26
 70
     1
102
RTVSPropertyOp27
 70
     1
102
RTVSPropertyOp28
 70
     1
102
RTVSPropertyOp29
 70
     1
102
RTVSPropertyOp30
 70
     1
102
RTVSPropertyOp31
 70
     1
102
RTVSPropertyOp32
 70
     1
102
RTVSPropertyOp33
 70
     1
102
RTVSPropertyOp34
 70
     1
102
RTVSPropertyOp35
 70
     1
102
RTVSPropertyOp36
 70
     1
102
RTVSPropertyOp37
 70
     1
102
RTVSPropertyOp38
 70
     1
102
RTVSPropertyOp39
 70
     1
102
RTVSPropertyOp40
 70
     1
102
RTVSPropertyOp41
 70
     1
102
RTVSPropertyOp42
 70
     1
102
RTVSPropertyOp43
 70
     1
102
RTVSPropertyOp44
 70
     1
102
RTVSPropertyOp45
 70
     1
102
RTVSPropertyOp46
 70
     1
102
RTVSPropertyOp47
 70
     1
102
RTVSPropertyOp48
 70
     1
102
RTVSPropertyOp49
 70
     1
102
RTVSPropertyOp50
 70
     1
102
RTVSPropertyOp51
 70
     0
102
RTVSPropertyOp52
 70
     0
102
RTVSPropertyOp53
 70
     1
102
RTVSPropertyOp54
 70
     1
102
RTVSPropertyOp55
 70
     1
102
RTVSPropertyOp56
 70
     1
102
RTVSPropertyOp57
 70
     1
102
RTVSPropertyOp58
 70
     1
102
RTVSPropertyOp59
 70
     1
102
RTVSPropertyOp60
 70
     1
102
RTVSPropertyOp61
 70
     1
102
RTVSPropertyOp62
 70
     1
  0
XRECORD
  5
48A
102
{ACAD_REACTORS
330
489
102
}
330
489
100
AcDbXrecord
280
     1
102
RTVSPost2010Prop28
280
     0
102
RTVSPost2010PropOp28
 70
     1
102
RTVSPost2010Prop29
280
     1
102
RTVSPost2010PropOp29
 70
     1
102
RTVSPost2010Prop30
280
     1
102
RTVSPost2010PropOp30
 70
     1
102
RTVSPost2010Prop31
280
     0
102
RTVSPost2010PropOp31
 70
     1
102
RTVSPost2010Prop32
280
     0
102
RTVSPost2010PropOp32
 70
     1
102
RTVSPost2010Prop33
280
     0
102
RTVSPost2010PropOp33
 70
     1
102
RTVSPost2010Prop34
280
     0
102
RTVSPost2010PropOp34
 70
     1
102
RTVSPost2010Prop35
280
     0
102
RTVSPost2010PropOp35
 70
     1
102
RTVSPost2010Prop36
280
     0
102
RTVSPost2010PropOp36
 70
     1
102
RTVSPost2010Prop37
 90
       50
102
RTVSPost2010PropOp37
 70
     1
102
RTVSPost2010Prop38
140
0.0
102
RTVSPost2010PropOp38
 70
     1
102
RTVSPost2010Prop39
140
1.0
102
RTVSPost2010PropOp39
 70
     1
102
RTVSPost2010Prop40
 90
        0
102
RTVSPost2010PropOp40
 70
     1
102
RTVSPost2010Prop41ColorIndex
 90
       18
102
RTVSPost2010Prop41ColorRGB
 90
        0
102
RTVSPost2010PropOp41
 70
     1
102
RTVSPost2010Prop42
 90
       50
102
RTVSPost2010PropOp42
 70
     1
102
RTVSPost2010Prop43
 90
        3
102
RTVSPost2010PropOp43
 70
     1
102
RTVSPost2010Prop44ColorIndex
 90
        5
102
RTVSPost2010Prop44ColorRGB
 90
      255
102
RTVSPost2010PropOp44
 70
     1
102
RTVSPost2010Prop45
280
     0
102
RTVSPost2010PropOp45
 70
     1
102
RTVSPost2010Prop46
 90
       50
102
RTVSPost2010PropOp46
 70
     1
102
RTVSPost2010Prop47
 90
       50
102
RTVSPost2010PropOp47
 70
     1
102
RTVSPost2010Prop48
 90
       50
102
RTVSPost2010PropOp48
 70
     1
102
RTVSPost2010Prop49
280
     0
102
RTVSPost2010PropOp49
 70
     1
102
RTVSPost2010Prop50
 90
       50
102
RTVSPost2010PropOp50
 70
     1
102
RTVSPost2010Prop51ColorIndex
 90
      256
102
RTVSPost2010Prop51ColorRGB
 90
-16777216
102
RTVSPost2010PropOp51
 70
     0
102
RTVSPost2010Prop52
140
1.0
102
RTVSPost2010PropOp52
 70
     0
102
RTVSPost2010Prop53
 90
        2
102
RTVSPost2010PropOp53
 70
     1
102
RTVSPost2010Prop54
  1
strokes_ogs.tif
102
RTVSPost2010PropOp54
 70
     1
102
RTVSPost2010Prop55
280
     0
102
RTVSPost2010PropOp55
 70
     1
102
RTVSPost2010Prop56
140
1.0
102
RTVSPost2010PropOp56
 70
     1
102
RTVSPost2010Prop57
140
1.0
102
RTVSPost2010PropOp57
 70
     1
102
RTVSPropertyOp0
 70
     1
102
RTVSPropertyOp1
 70
     1
102
RTVSPropertyOp2
 70
     1
102
RTVSPropertyOp3
 70
     1
102
RTVSPropertyOp4
 70
     1
102
RTVSPropertyOp5
 70
     1
102
RTVSPropertyOp6
 70
     1
102
RTVSPropertyOp7
 70
     1
102
RTVSPropertyOp8
 70
     1
102
RTVSPropertyOp9
 70
     1
102
RTVSPropertyOp10
 70
     1
102
RTVSPropertyOp11
 70
     1
102
RTVSPropertyOp12
 70
     1
102
RTVSPropertyOp13
 70
     1
102
RTVSPropertyOp14
 70
     1
102
RTVSPropertyOp15
 70
     1
102
RTVSPropertyOp16
 70
     1
102
RTVSPropertyOp17
 70
     1
102
RTVSPropertyOp18
 70
     1
102
RTVSPropertyOp19
 70
     1
102
RTVSPropertyOp20
 70
     1
102
RTVSPropertyOp21
 70
     1
102
RTVSPropertyOp22
 70
     1
102
RTVSPropertyOp23
 70
     1
102
RTVSPropertyOp24
 70
     1
102
RTVSPropertyOp25
 70
     1
102
RTVSPropertyOp26
 70
     1
102
RTVSPropertyOp27
 70
     1
102
RTVSPropertyOp28
 70
     1
102
RTVSPropertyOp29
 70
     1
102
RTVSPropertyOp30
 70
     1
102
RTVSPropertyOp31
 70
     1
102
RTVSPropertyOp32
 70
     1
102
RTVSPropertyOp33
 70
     1
102
RTVSPropertyOp34
 70
     1
102
RTVSPropertyOp35
 70
     1
102
RTVSPropertyOp36
 70
     1
102
RTVSPropertyOp37
 70
     1
102
RTVSPropertyOp38
 70
     1
102
RTVSPropertyOp39
 70
     1
102
RTVSPropertyOp40
 70
     1
102
RTVSPropertyOp41
 70
     1
102
RTVSPropertyOp42
 70
     1
102
RTVSPropertyOp43
 70
     1
102
RTVSPropertyOp44
 70
     1
102
RTVSPropertyOp45
 70
     1
102
RTVSPropertyOp46
 70
     1
102
RTVSPropertyOp47
 70
     1
102
RTVSPropertyOp48
 70
     1
102
RTVSPropertyOp49
 70
     1
102
RTVSPropertyOp50
 70
     1
102
RTVSPropertyOp51
 70
     0
102
RTVSPropertyOp52
 70
     0
102
RTVSPropertyOp53
 70
     1
102
RTVSPropertyOp54
 70
     1
102
RTVSPropertyOp55
 70
     1
102
RTVSPropertyOp56
 70
     1
102
RTVSPropertyOp57
 70
     1
102
RTVSPropertyOp58
 70
     1
102
RTVSPropertyOp59
 70
     1
102
RTVSPropertyOp60
 70
     1
102
RTVSPropertyOp61
 70
     1
102
RTVSPropertyOp62
 70
     1
  0
XRECORD
  5
47E
102
{ACAD_REACTORS
330
47D
102
}
330
47D
100
AcDbXrecord
280
     1
102
RTVSPost2010Prop28
280
     0
102
RTVSPost2010PropOp28
 70
     1
102
RTVSPost2010Prop29
280
     1
102
RTVSPost2010PropOp29
 70
     1
102
RTVSPost2010Prop30
280
     1
102
RTVSPost2010PropOp30
 70
     1
102
RTVSPost2010Prop31
280
     0
102
RTVSPost2010PropOp31
 70
     1
102
RTVSPost2010Prop32
280
     0
102
RTVSPost2010PropOp32
 70
     1
102
RTVSPost2010Prop33
280
     0
102
RTVSPost2010PropOp33
 70
     1
102
RTVSPost2010Prop34
280
     0
102
RTVSPost2010PropOp34
 70
     1
102
RTVSPost2010Prop35
280
     0
102
RTVSPost2010PropOp35
 70
     1
102
RTVSPost2010Prop36
280
     0
102
RTVSPost2010PropOp36
 70
     1
102
RTVSPost2010Prop37
 90
       50
102
RTVSPost2010PropOp37
 70
     1
102
RTVSPost2010Prop38
140
0.0
102
RTVSPost2010PropOp38
 70
     1
102
RTVSPost2010Prop39
140
1.0
102
RTVSPost2010PropOp39
 70
     1
102
RTVSPost2010Prop40
 90
        0
102
RTVSPost2010PropOp40
 70
     1
102
RTVSPost2010Prop41ColorIndex
 90
       18
102
RTVSPost2010Prop41ColorRGB
 90
        0
102
RTVSPost2010PropOp41
 70
     1
102
RTVSPost2010Prop42
 90
       50
102
RTVSPost2010PropOp42
 70
     1
102
RTVSPost2010Prop43
 90
        3
102
RTVSPost2010PropOp43
 70
     1
102
RTVSPost2010Prop44ColorIndex
 90
        5
102
RTVSPost2010Prop44ColorRGB
 90
      255
102
RTVSPost2010PropOp44
 70
     1
102
RTVSPost2010Prop45
280
     0
102
RTVSPost2010PropOp45
 70
     1
102
RTVSPost2010Prop46
 90
       50
102
RTVSPost2010PropOp46
 70
     1
102
RTVSPost2010Prop47
 90
       50
102
RTVSPost2010PropOp47
 70
     1
102
RTVSPost2010Prop48
 90
       50
102
RTVSPost2010PropOp48
 70
     1
102
RTVSPost2010Prop49
280
     0
102
RTVSPost2010PropOp49
 70
     1
102
RTVSPost2010Prop50
 90
       50
102
RTVSPost2010PropOp50
 70
     1
102
RTVSPost2010Prop51ColorIndex
 90
      256
102
RTVSPost2010Prop51ColorRGB
 90
-16777216
102
RTVSPost2010PropOp51
 70
     0
102
RTVSPost2010Prop52
140
1.0
102
RTVSPost2010PropOp52
 70
     0
102
RTVSPost2010Prop53
 90
        2
102
RTVSPost2010PropOp53
 70
     1
102
RTVSPost2010Prop54
  1
strokes_ogs.tif
102
RTVSPost2010PropOp54
 70
     1
102
RTVSPost2010Prop55
280
     0
102
RTVSPost2010PropOp55
 70
     1
102
RTVSPost2010Prop56
140
1.0
102
RTVSPost2010PropOp56
 70
     1
102
RTVSPost2010Prop57
140
1.0
102
RTVSPost2010PropOp57
 70
     1
102
RTVSPropertyOp0
 70
     1
102
RTVSPropertyOp1
 70
     1
102
RTVSPropertyOp2
 70
     1
102
RTVSPropertyOp3
 70
     1
102
RTVSPropertyOp4
 70
     1
102
RTVSPropertyOp5
 70
     1
102
RTVSPropertyOp6
 70
     1
102
RTVSPropertyOp7
 70
     1
102
RTVSPropertyOp8
 70
     1
102
RTVSPropertyOp9
 70
     1
102
RTVSPropertyOp10
 70
     1
102
RTVSPropertyOp11
 70
     1
102
RTVSPropertyOp12
 70
     1
102
RTVSPropertyOp13
 70
     1
102
RTVSPropertyOp14
 70
     1
102
RTVSPropertyOp15
 70
     1
102
RTVSPropertyOp16
 70
     1
102
RTVSPropertyOp17
 70
     1
102
RTVSPropertyOp18
 70
     1
102
RTVSPropertyOp19
 70
     1
102
RTVSPropertyOp20
 70
     1
102
RTVSPropertyOp21
 70
     1
102
RTVSPropertyOp22
 70
     1
102
RTVSPropertyOp23
 70
     1
102
RTVSPropertyOp24
 70
     1
102
RTVSPropertyOp25
 70
     1
102
RTVSPropertyOp26
 70
     1
102
RTVSPropertyOp27
 70
     1
102
RTVSPropertyOp28
 70
     1
102
RTVSPropertyOp29
 70
     1
102
RTVSPropertyOp30
 70
     1
102
RTVSPropertyOp31
 70
     1
102
RTVSPropertyOp32
 70
     1
102
RTVSPropertyOp33
 70
     1
102
RTVSPropertyOp34
 70
     1
102
RTVSPropertyOp35
 70
     1
102
RTVSPropertyOp36
 70
     1
102
RTVSPropertyOp37
 70
     1
102
RTVSPropertyOp38
 70
     1
102
RTVSPropertyOp39
 70
     1
102
RTVSPropertyOp40
 70
     1
102
RTVSPropertyOp41
 70
     1
102
RTVSPropertyOp42
 70
     1
102
RTVSPropertyOp43
 70
     1
102
RTVSPropertyOp44
 70
     1
102
RTVSPropertyOp45
 70
     1
102
RTVSPropertyOp46
 70
     1
102
RTVSPropertyOp47
 70
     1
102
RTVSPropertyOp48
 70
     1
102
RTVSPropertyOp49
 70
     1
102
RTVSPropertyOp50
 70
     1
102
RTVSPropertyOp51
 70
     0
102
RTVSPropertyOp52
 70
     0
102
RTVSPropertyOp53
 70
     1
102
RTVSPropertyOp54
 70
     1
102
RTVSPropertyOp55
 70
     1
102
RTVSPropertyOp56
 70
     1
102
RTVSPropertyOp57
 70
     1
102
RTVSPropertyOp58
 70
     1
102
RTVSPropertyOp59
 70
     1
102
RTVSPropertyOp60
 70
     1
102
RTVSPropertyOp61
 70
     1
102
RTVSPropertyOp62
 70
     1
  0
XRECORD
  5
496
102
{ACAD_REACTORS
330
495
102
}
330
495
100
AcDbXrecord
280
     1
102
RTVSPost2010Prop28
280
     0
102
RTVSPost2010PropOp28
 70
     1
102
RTVSPost2010Prop29
280
     1
102
RTVSPost2010PropOp29
 70
     1
102
RTVSPost2010Prop30
280
     1
102
RTVSPost2010PropOp30
 70
     1
102
RTVSPost2010Prop31
280
     0
102
RTVSPost2010PropOp31
 70
     1
102
RTVSPost2010Prop32
280
     0
102
RTVSPost2010PropOp32
 70
     1
102
RTVSPost2010Prop33
280
     0
102
RTVSPost2010PropOp33
 70
     1
102
RTVSPost2010Prop34
280
     0
102
RTVSPost2010PropOp34
 70
     1
102
RTVSPost2010Prop35
280
     0
102
RTVSPost2010PropOp35
 70
     1
102
RTVSPost2010Prop36
280
     0
102
RTVSPost2010PropOp36
 70
     1
102
RTVSPost2010Prop37
 90
       50
102
RTVSPost2010PropOp37
 70
     1
102
RTVSPost2010Prop38
140
0.0
102
RTVSPost2010PropOp38
 70
     1
102
RTVSPost2010Prop39
140
1.0
102
RTVSPost2010PropOp39
 70
     1
102
RTVSPost2010Prop40
 90
        0
102
RTVSPost2010PropOp40
 70
     1
102
RTVSPost2010Prop41ColorIndex
 90
       18
102
RTVSPost2010Prop41ColorRGB
 90
        0
102
RTVSPost2010PropOp41
 70
     1
102
RTVSPost2010Prop42
 90
       50
102
RTVSPost2010PropOp42
 70
     1
102
RTVSPost2010Prop43
 90
        3
102
RTVSPost2010PropOp43
 70
     1
102
RTVSPost2010Prop44ColorIndex
 90
        5
102
RTVSPost2010Prop44ColorRGB
 90
      255
102
RTVSPost2010PropOp44
 70
     1
102
RTVSPost2010Prop45
280
     0
102
RTVSPost2010PropOp45
 70
     1
102
RTVSPost2010Prop46
 90
       50
102
RTVSPost2010PropOp46
 70
     1
102
RTVSPost2010Prop47
 90
       50
102
RTVSPost2010PropOp47
 70
     1
102
RTVSPost2010Prop48
 90
       50
102
RTVSPost2010PropOp48
 70
     1
102
RTVSPost2010Prop49
280
     0
102
RTVSPost2010PropOp49
 70
     1
102
RTVSPost2010Prop50
 90
       50
102
RTVSPost2010PropOp50
 70
     1
102
RTVSPost2010Prop51ColorIndex
 90
      256
102
RTVSPost2010Prop51ColorRGB
 90
-16777216
102
RTVSPost2010PropOp51
 70
     0
102
RTVSPost2010Prop52
140
1.0
102
RTVSPost2010PropOp52
 70
     0
102
RTVSPost2010Prop53
 90
        2
102
RTVSPost2010PropOp53
 70
     1
102
RTVSPost2010Prop54
  1
strokes_ogs.tif
102
RTVSPost2010PropOp54
 70
     1
102
RTVSPost2010Prop55
280
     0
102
RTVSPost2010PropOp55
 70
     1
102
RTVSPost2010Prop56
140
1.0
102
RTVSPost2010PropOp56
 70
     1
102
RTVSPost2010Prop57
140
1.0
102
RTVSPost2010PropOp57
 70
     1
102
RTVSPropertyOp0
 70
     1
102
RTVSPropertyOp1
 70
     1
102
RTVSPropertyOp2
 70
     1
102
RTVSPropertyOp3
 70
     1
102
RTVSPropertyOp4
 70
     1
102
RTVSPropertyOp5
 70
     1
102
RTVSPropertyOp6
 70
     1
102
RTVSPropertyOp7
 70
     1
102
RTVSPropertyOp8
 70
     1
102
RTVSPropertyOp9
 70
     1
102
RTVSPropertyOp10
 70
     1
102
RTVSPropertyOp11
 70
     1
102
RTVSPropertyOp12
 70
     1
102
RTVSPropertyOp13
 70
     1
102
RTVSPropertyOp14
 70
     1
102
RTVSPropertyOp15
 70
     1
102
RTVSPropertyOp16
 70
     1
102
RTVSPropertyOp17
 70
     1
102
RTVSPropertyOp18
 70
     1
102
RTVSPropertyOp19
 70
     1
102
RTVSPropertyOp20
 70
     1
102
RTVSPropertyOp21
 70
     1
102
RTVSPropertyOp22
 70
     1
102
RTVSPropertyOp23
 70
     1
102
RTVSPropertyOp24
 70
     1
102
RTVSPropertyOp25
 70
     1
102
RTVSPropertyOp26
 70
     1
102
RTVSPropertyOp27
 70
     1
102
RTVSPropertyOp28
 70
     1
102
RTVSPropertyOp29
 70
     1
102
RTVSPropertyOp30
 70
     1
102
RTVSPropertyOp31
 70
     1
102
RTVSPropertyOp32
 70
     1
102
RTVSPropertyOp33
 70
     1
102
RTVSPropertyOp34
 70
     1
102
RTVSPropertyOp35
 70
     1
102
RTVSPropertyOp36
 70
     1
102
RTVSPropertyOp37
 70
     1
102
RTVSPropertyOp38
 70
     1
102
RTVSPropertyOp39
 70
     1
102
RTVSPropertyOp40
 70
     1
102
RTVSPropertyOp41
 70
     1
102
RTVSPropertyOp42
 70
     1
102
RTVSPropertyOp43
 70
     1
102
RTVSPropertyOp44
 70
     1
102
RTVSPropertyOp45
 70
     1
102
RTVSPropertyOp46
 70
     1
102
RTVSPropertyOp47
 70
     1
102
RTVSPropertyOp48
 70
     1
102
RTVSPropertyOp49
 70
     1
102
RTVSPropertyOp50
 70
     1
102
RTVSPropertyOp51
 70
     0
102
RTVSPropertyOp52
 70
     0
102
RTVSPropertyOp53
 70
     1
102
RTVSPropertyOp54
 70
     1
102
RTVSPropertyOp55
 70
     1
102
RTVSPropertyOp56
 70
     1
102
RTVSPropertyOp57
 70
     1
102
RTVSPropertyOp58
 70
     1
102
RTVSPropertyOp59
 70
     1
102
RTVSPropertyOp60
 70
     1
102
RTVSPropertyOp61
 70
     1
102
RTVSPropertyOp62
 70
     1
  0
ENDSEC
  0
EOF
