  0
SECTION
  2
HEADER
  9
$ACADVER
  1
AC1018
  9
$ACADMAINTVER
 70
   104
  9
$DWGCODEPAGE
  3
ANSI_932
  9
$LASTSAVEDBY
  1
suzuki
  9
$INSBASE
 10
0.0
 20
0.0
 30
0.0
  9
$EXTMIN
 10
-0.1281640493871237
 20
-0.0906302920675444
 30
-0.0015258207003583
  9
$EXTMAX
 10
4200.128183607161
 20
2970.090644122207
 30
0.0000000349246037
  9
$LIMMIN
 10
0.0
 20
0.0
  9
$LIMMAX
 10
12.0
 20
9.0
  9
$ORTHOMODE
 70
     0
  9
$REGENMODE
 70
     1
  9
$FILLMODE
 70
     1
  9
$QTEXTMODE
 70
     0
  9
$MIRRTEXT
 70
     0
  9
$LTSCALE
 40
10.0
  9
$ATTMODE
 70
     1
  9
$TEXTSIZE
 40
0.0
  9
$TRACEWID
 40
0.05
  9
$TEXTSTYLE
  7
STANDARD
  9
$CLAYER
  8
0
  9
$CELTYPE
  6
CONTINUOUS
  9
$CECOLOR
 62
   256
  9
$CELTSCALE
 40
1.0
  9
$DISPSILH
 70
     0
  9
$DIMSCALE
 40
1.0
  9
$DIMASZ
 40
0.18
  9
$DIMEXO
 40
0.0625
  9
$DIMDLI
 40
0.38
  9
$DIMRND
 40
0.0
  9
$DIMDLE
 40
0.0
  9
$DIMEXE
 40
0.18
  9
$DIMTP
 40
0.0
  9
$DIMTM
 40
0.0
  9
$DIMTXT
 40
0.18
  9
$DIMCEN
 40
0.09
  9
$DIMTSZ
 40
0.0
  9
$DIMTOL
 70
     0
  9
$DIMLIM
 70
     0
  9
$DIMTIH
 70
     1
  9
$DIMTOH
 70
     1
  9
$DIMSE1
 70
     0
  9
$DIMSE2
 70
     0
  9
$DIMTAD
 70
     0
  9
$DIMZIN
 70
     0
  9
$DIMBLK
  1

  9
$DIMASO
 70
     1
  9
$DIMSHO
 70
     1
  9
$DIMPOST
  1

  9
$DIMAPOST
  1

  9
$DIMALT
 70
     0
  9
$DIMALTD
 70
     2
  9
$DIMALTF
 40
25.4
  9
$DIMLFAC
 40
1.0
  9
$DIMTOFL
 70
     0
  9
$DIMTVP
 40
0.0
  9
$DIMTIX
 70
     0
  9
$DIMSOXD
 70
     0
  9
$DIMSAH
 70
     0
  9
$DIMBLK1
  1

  9
$DIMBLK2
  1

  9
$DIMSTYLE
  2
Standard
  9
$DIMCLRD
 70
     0
  9
$DIMCLRE
 70
     0
  9
$DIMCLRT
 70
     0
  9
$DIMTFAC
 40
1.0
  9
$DIMGAP
 40
0.09
  9
$DIMJUST
 70
     0
  9
$DIMSD1
 70
     0
  9
$DIMSD2
 70
     0
  9
$DIMTOLJ
 70
     1
  9
$DIMTZIN
 70
     0
  9
$DIMALTZ
 70
     0
  9
$DIMALTTZ
 70
     0
  9
$DIMUPT
 70
     0
  9
$DIMDEC
 70
     4
  9
$DIMTDEC
 70
     4
  9
$DIMALTU
 70
     2
  9
$DIMALTTD
 70
     2
  9
$DIMTXSTY
  7
STANDARD
  9
$DIMAUNIT
 70
     0
  9
$DIMADEC
 70
     0
  9
$DIMALTRND
 40
0.0
  9
$DIMAZIN
 70
     0
  9
$DIMDSEP
 70
    46
  9
$DIMATFIT
 70
     3
  9
$DIMFRAC
 70
     0
  9
$DIMLDRBLK
  1

  9
$DIMLUNIT
 70
     2
  9
$DIMLWD
 70
    -2
  9
$DIMLWE
 70
    -2
  9
$DIMTMOVE
 70
     0
  9
$LUNITS
 70
     2
  9
$LUPREC
 70
     4
  9
$SKETCHINC
 40
0.1
  9
$FILLETRAD
 40
0.0
  9
$AUNITS
 70
     0
  9
$AUPREC
 70
     0
  9
$MENU
  1
.
  9
$ELEVATION
 40
0.0
  9
$PELEVATION
 40
0.0
  9
$THICKNESS
 40
0.0
  9
$LIMCHECK
 70
     0
  9
$CHAMFERA
 40
0.0
  9
$CHAMFERB
 40
0.0
  9
$CHAMFERC
 40
0.0
  9
$CHAMFERD
 40
0.0
  9
$SKPOLY
 70
     0
  9
$TDCREATE
 40
2459991.466875000
  9
$TDUCREATE
 40
2459991.091875000
  9
$TDUPDATE
 40
2459991.467071759
  9
$TDUUPDATE
 40
2459991.092071759
  9
$TDINDWG
 40
0.0002083333
  9
$TDUSRTIMER
 40
0.0002083333
  9
$USRTIMER
 70
     1
  9
$ANGBASE
 50
0.0
  9
$ANGDIR
 70
     0
  9
$PDMODE
 70
     0
  9
$PDSIZE
 40
5.0
  9
$PLINEWID
 40
0.0
  9
$SPLFRAME
 70
     0
  9
$SPLINETYPE
 70
     6
  9
$SPLINESEGS
 70
     8
  9
$HANDSEED
  5
459
  9
$SURFTAB1
 70
     6
  9
$SURFTAB2
 70
     6
  9
$SURFTYPE
 70
     6
  9
$SURFU
 70
     6
  9
$SURFV
 70
     6
  9
$UCSBASE
  2

  9
$UCSNAME
  2

  9
$UCSORG
 10
0.0
 20
0.0
 30
0.0
  9
$UCSXDIR
 10
1.0
 20
0.0
 30
0.0
  9
$UCSYDIR
 10
0.0
 20
1.0
 30
0.0
  9
$UCSORTHOREF
  2

  9
$UCSORTHOVIEW
 70
     0
  9
$UCSORGTOP
 10
0.0
 20
0.0
 30
0.0
  9
$UCSORGBOTTOM
 10
0.0
 20
0.0
 30
0.0
  9
$UCSORGLEFT
 10
0.0
 20
0.0
 30
0.0
  9
$UCSORGRIGHT
 10
0.0
 20
0.0
 30
0.0
  9
$UCSORGFRONT
 10
0.0
 20
0.0
 30
0.0
  9
$UCSORGBACK
 10
0.0
 20
0.0
 30
0.0
  9
$PUCSBASE
  2

  9
$PUCSNAME
  2

  9
$PUCSORG
 10
0.0
 20
0.0
 30
0.0
  9
$PUCSXDIR
 10
1.0
 20
0.0
 30
0.0
  9
$PUCSYDIR
 10
0.0
 20
1.0
 30
0.0
  9
$PUCSORTHOREF
  2

  9
$PUCSORTHOVIEW
 70
     0
  9
$PUCSORGTOP
 10
0.0
 20
0.0
 30
0.0
  9
$PUCSORGBOTTOM
 10
0.0
 20
0.0
 30
0.0
  9
$PUCSORGLEFT
 10
0.0
 20
0.0
 30
0.0
  9
$PUCSORGRIGHT
 10
0.0
 20
0.0
 30
0.0
  9
$PUCSORGFRONT
 10
0.0
 20
0.0
 30
0.0
  9
$PUCSORGBACK
 10
0.0
 20
0.0
 30
0.0
  9
$USERI1
 70
     0
  9
$USERI2
 70
     0
  9
$USERI3
 70
     0
  9
$USERI4
 70
     0
  9
$USERI5
 70
     0
  9
$USERR1
 40
0.0
  9
$USERR2
 40
0.0
  9
$USERR3
 40
0.0
  9
$USERR4
 40
0.0
  9
$USERR5
 40
0.0
  9
$WORLDVIEW
 70
     1
  9
$SHADEDGE
 70
     3
  9
$SHADEDIF
 70
    70
  9
$TILEMODE
 70
     1
  9
$MAXACTVP
 70
    64
  9
$PINSBASE
 10
0.0
 20
0.0
 30
0.0
  9
$PLIMCHECK
 70
     0
  9
$PEXTMIN
 10
1.000000000000000E+20
 20
1.000000000000000E+20
 30
1.000000000000000E+20
  9
$PEXTMAX
 10
-1.000000000000000E+20
 20
-1.000000000000000E+20
 30
-1.000000000000000E+20
  9
$PLIMMIN
 10
0.0
 20
0.0
  9
$PLIMMAX
 10
12.0
 20
9.0
  9
$UNITMODE
 70
     0
  9
$VISRETAIN
 70
     1
  9
$PLINEGEN
 70
     0
  9
$PSLTSCALE
 70
     1
  9
$TREEDEPTH
 70
  3020
  9
$CMLSTYLE
  2
Standard
  9
$CMLJUST
 70
     0
  9
$CMLSCALE
 40
1.0
  9
$PROXYGRAPHICS
 70
     1
  9
$MEASUREMENT
 70
     0
  9
$CELWEIGHT
370
    -1
  9
$ENDCAPS
280
     0
  9
$JOINSTYLE
280
     0
  9
$LWDISPLAY
290
     0
  9
$INSUNITS
 70
     0
  9
$HYPERLINKBASE
  1

  9
$STYLESHEET
  1

  9
$XEDIT
290
     1
  9
$CEPSNTYPE
380
     0
  9
$PSTYLEMODE
290
     1
  9
$FINGERPRINTGUID
  2
{4E743134-98D7-964D-8D95-CF038944CE35}
  9
$VERSIONGUID
  2
{6B487F93-4D6E-EE4D-A25A-93E83953B864}
  9
$EXTNAMES
290
     1
  9
$PSVPSCALE
 40
0.0
  9
$OLESTARTUP
290
     0
  9
$SORTENTS
280
   127
  9
$INDEXCTL
280
     0
  9
$HIDETEXT
280
     0
  9
$XCLIPFRAME
290
     0
  9
$HALOGAP
280
     0
  9
$OBSCOLOR
 70
   257
  9
$OBSLTYPE
280
     0
  9
$INTERSECTIONDISPLAY
280
     0
  9
$INTERSECTIONCOLOR
 70
   257
  9
$DIMASSOC
280
     1
  9
$PROJECTNAME
  1

  0
ENDSEC
  0
SECTION
  2
CLASSES
  0
CLASS
  1
ACDBDICTIONARYWDFLT
  2
AcDbDictionaryWithDefault
  3
ObjectDBX Classes
 90
        0
 91
        1
280
     0
281
     0
  0
CLASS
  1
MATERIAL
  2
AcDbMaterial
  3
ObjectDBX Classes
 90
     1153
 91
        3
280
     0
281
     0
  0
CLASS
  1
VISUALSTYLE
  2
AcDbVisualStyle
  3
ObjectDBX Classes
 90
     4095
 91
       24
280
     0
281
     0
  0
CLASS
  1
SCALE
  2
AcDbScale
  3
ObjectDBX Classes
 90
     1153
 91
       17
280
     0
281
     0
  0
CLASS
  1
TABLESTYLE
  2
AcDbTableStyle
  3
ObjectDBX Classes
 90
     4095
 91
        1
280
     0
281
     0
  0
CLASS
  1
MLEADERSTYLE
  2
AcDbMLeaderStyle
  3
ACDB_MLEADERSTYLE_CLASS
 90
     4095
 91
        1
280
     0
281
     0
  0
CLASS
  1
ACDBSECTIONVIEWSTYLE
  2
AcDbSectionViewStyle
  3
ObjectDBX Classes
 90
     1025
 91
        1
280
     0
281
     0
  0
CLASS
  1
ACDBDETAILVIEWSTYLE
  2
AcDbDetailViewStyle
  3
ObjectDBX Classes
 90
     1025
 91
        1
280
     0
281
     0
  0
CLASS
  1
DICTIONARYVAR
  2
AcDbDictionaryVar
  3
ObjectDBX Classes
 90
        0
 91
        6
280
     0
281
     0
  0
CLASS
  1
CELLSTYLEMAP
  2
AcDbCellStyleMap
  3
ObjectDBX Classes
 90
     1152
 91
        1
280
     0
281
     0
  0
ENDSEC
  0
SECTION
  2
TABLES
  0
TABLE
  2
VPORT
  5
8
330
0
100
AcDbSymbolTable
 70
     1
  0
VPORT
  5
8C
330
8
100
AcDbSymbolTableRecord
100
AcDbViewportTableRecord
  2
*Active
 70
     0
 10
0.0
 20
0.0
 11
1.0
 21
1.0
 12
2100.000009778886
 22
1485.000006915069
 13
0.0
 23
0.0
 14
1.0
 24
1.0
 15
0.0
 25
0.0
 16
0.0
 26
0.0
 36
1.0
 17
0.0
 27
0.0
 37
0.0
 40
2991.447488789556
 41
2.283154121863799
 42
50.0
 43
0.0
 44
0.0
 50
0.0
 51
0.0
 71
     0
 72
   100
 73
     1
 74
     0
 75
     1
 76
     0
 77
     0
 78
     0
281
     0
 65
     1
110
0.0
120
0.0
130
0.0
111
1.0
121
0.0
131
0.0
112
0.0
122
1.0
132
0.0
 79
     0
146
0.0
1001
ACAD_NAV_VCDISPLAY
1070
     3
  0
ENDTAB
  0
TABLE
  2
LTYPE
  5
5
330
0
100
AcDbSymbolTable
 70
     9
  0
LTYPE
  5
5A
330
5
100
AcDbSymbolTableRecord
100
AcDbLinetypeTableRecord
  2
ByBlock
 70
     0
  3

 72
    65
 73
     0
 40
0.0
  0
LTYPE
  5
5B
330
5
100
AcDbSymbolTableRecord
100
AcDbLinetypeTableRecord
  2
ByLayer
 70
     0
  3

 72
    65
 73
     0
 40
0.0
  0
LTYPE
  5
5C
330
5
100
AcDbSymbolTableRecord
100
AcDbLinetypeTableRecord
  2
CONTINUOUS
 70
     0
  3
SolidLine
 72
    65
 73
     0
 40
0.0
  0
LTYPE
  5
73
330
5
100
AcDbSymbolTableRecord
100
AcDbLinetypeTableRecord
  2
DOT
 70
     0
  3
--  --  --  --  --  --  --  --     
 72
    65
 73
     2
 40
3.0
 49
1.0
 74
     0
 49
-2.0
 74
     0
  0
LTYPE
  5
74
330
5
100
AcDbSymbolTableRecord
100
AcDbLinetypeTableRecord
  2
DASHED
 70
     0
  3
----    ----    ----    ----    
 72
    65
 73
     2
 40
5.0
 49
2.0
 74
     0
 49
-3.0
 74
     0
  0
LTYPE
  5
75
330
5
100
AcDbSymbolTableRecord
100
AcDbLinetypeTableRecord
  2
DASHED2
 70
     0
  3
------  ------  ------  ------ 
 72
    65
 73
     2
 40
10.0
 49
4.0
 74
     0
 49
-6.0
 74
     0
  0
LTYPE
  5
76
330
5
100
AcDbSymbolTableRecord
100
AcDbLinetypeTableRecord
  2
CENTER
 70
     0
  3
----- - ----- - ----- - ----- - 
 72
    65
 73
     4
 40
10.0
 49
6.0
 74
     0
 49
-3.0
 74
     0
 49
1.0
 74
     0
 49
-3.0
 74
     0
  0
LTYPE
  5
77
330
5
100
AcDbSymbolTableRecord
100
AcDbLinetypeTableRecord
  2
CENTER2
 70
     0
  3
----------  --  ----------  -- 
 72
    65
 73
     4
 40
17.0
 49
12.0
 74
     0
 49
-5.0
 74
     0
 49
2.0
 74
     0
 49
-5.0
 74
     0
  0
LTYPE
  5
78
330
5
100
AcDbSymbolTableRecord
100
AcDbLinetypeTableRecord
  2
PHANTOM
 70
     0
  3
--- - - --- - - --- - - --- - -
 72
    65
 73
     6
 40
13.0
 49
5.0
 74
     0
 49
-3.0
 74
     0
 49
1.0
 74
     0
 49
-3.0
 74
     0
 49
1.0
 74
     0
 49
-3.0
 74
     0
  0
LTYPE
  5
79
330
5
100
AcDbSymbolTableRecord
100
AcDbLinetypeTableRecord
  2
PHANTOM2
 70
     0
  3
--------  -  -  --------  -  -
 72
    65
 73
     6
 40
20.0
 49
6.0
 74
     0
 49
-5.0
 74
     0
 49
2.0
 74
     0
 49
-5.0
 74
     0
 49
2.0
 74
     0
 49
-5.0
 74
     0
  0
LTYPE
  5
7A
330
5
100
AcDbSymbolTableRecord
100
AcDbLinetypeTableRecord
  2
HIDDEN
 70
     0
  3
-   -   -   -   -   -   -   -   
 72
    65
 73
     2
 40
3.0
 49
0.5
 74
     0
 49
-2.5
 74
     0
  0
ENDTAB
  0
TABLE
  2
LAYER
  5
2
330
0
100
AcDbSymbolTable
 70
    11
  0
LAYER
  5
54
102
{ACAD_XDICTIONARY
360
3FF
102
}
330
2
100
AcDbSymbolTableRecord
100
AcDbLayerTableRecord
  2
0
 70
     0
 62
     7
  6
CONTINUOUS
370
    -3
390
F
  0
LAYER
  5
7F
102
{ACAD_XDICTIONARY
360
401
102
}
330
2
100
AcDbSymbolTableRecord
100
AcDbLayerTableRecord
  2
2-0
 70
     0
 62
     7
  6
CONTINUOUS
370
    -3
390
F
  0
LAYER
  5
80
102
{ACAD_XDICTIONARY
360
403
102
}
330
2
100
AcDbSymbolTableRecord
100
AcDbLayerTableRecord
  2
4-0
 70
     0
 62
    -7
  6
CONTINUOUS
370
    -3
390
F
  0
LAYER
  5
81
102
{ACAD_XDICTIONARY
360
405
102
}
330
2
100
AcDbSymbolTableRecord
100
AcDbLayerTableRecord
  2
5-0
 70
     0
 62
    -7
  6
CONTINUOUS
370
    -3
390
F
  0
LAYER
  5
82
102
{ACAD_XDICTIONARY
360
407
102
}
330
2
100
AcDbSymbolTableRecord
100
AcDbLayerTableRecord
  2
6-0
 70
     0
 62
     7
  6
CONTINUOUS
370
    -3
390
F
  0
LAYER
  5
83
102
{ACAD_XDICTIONARY
360
409
102
}
330
2
100
AcDbSymbolTableRecord
100
AcDbLayerTableRecord
  2
8-0
 70
     0
 62
     7
  6
CONTINUOUS
370
    -3
390
F
  0
LAYER
  5
84
102
{ACAD_XDICTIONARY
360
40B
102
}
330
2
100
AcDbSymbolTableRecord
100
AcDbLayerTableRecord
  2
9-0
 70
     0
 62
     1
  6
CONTINUOUS
370
    -3
390
F
  0
LAYER
  5
85
102
{ACAD_XDICTIONARY
360
40D
102
}
330
2
100
AcDbSymbolTableRecord
100
AcDbLayerTableRecord
  2
A-0
 70
     0
 62
     6
  6
CENTER
370
    -3
390
F
  0
LAYER
  5
86
102
{ACAD_XDICTIONARY
360
40F
102
}
330
2
100
AcDbSymbolTableRecord
100
AcDbLayerTableRecord
  2
C-0
 70
     0
 62
     4
  6
CONTINUOUS
370
    -3
390
F
  0
LAYER
  5
87
102
{ACAD_XDICTIONARY
360
411
102
}
330
2
100
AcDbSymbolTableRecord
100
AcDbLayerTableRecord
  2
D-0
 70
     0
 62
     5
  6
CONTINUOUS
370
    -3
390
F
  0
LAYER
  5
8D
102
{ACAD_XDICTIONARY
360
413
102
}
330
2
100
AcDbSymbolTableRecord
100
AcDbLayerTableRecord
  2
1-0
 70
     0
 62
     7
  6
CONTINUOUS
370
    -3
390
F
  0
ENDTAB
  0
TABLE
  2
STYLE
  5
3
330
0
100
AcDbSymbolTable
 70
     6
  0
STYLE
  5
55
330
3
100
AcDbSymbolTableRecord
100
AcDbTextStyleTableRecord
  2
STANDARD
 70
     0
 40
0.0
 41
1.0
 50
0.0
 71
     0
 42
0.0
  3
txt.shx
  4
extfont.shx
  0
STYLE
  5
59
330
3
100
AcDbSymbolTableRecord
100
AcDbTextStyleTableRecord
  2
Annotative
 70
     0
 40
0.0
 41
1.0
 50
0.0
 71
     0
 42
0.2
  3
txt
  4

1001
AcadAnnotative
1000
AnnotativeData
1002
{
1070
     1
1070
     1
1002
}
  0
STYLE
  5
7B
330
3
100
AcDbSymbolTableRecord
100
AcDbTextStyleTableRecord
  2
TATEGAKI
 70
     4
 40
0.0
 41
1.0
 50
0.0
 71
     0
 42
0.0
  3
txt.shx
  4
extfont.shx
  0
STYLE
  5
7C
330
3
100
AcDbSymbolTableRecord
100
AcDbTextStyleTableRecord
  2
DIM
 70
     0
 40
0.0
 41
0.75
 50
0.0
 71
     0
 42
0.0
  3
txt.shx
  4
extfont.shx
  0
STYLE
  5
7D
330
3
100
AcDbSymbolTableRecord
100
AcDbTextStyleTableRecord
  2
_GOTHIC__
 70
     0
 40
0.0
 41
1.0
 50
0.0
 71
     0
 42
0.0
  3
MS Gothic
  4

  0
STYLE
  5
7E
330
3
100
AcDbSymbolTableRecord
100
AcDbTextStyleTableRecord
  2
_TATEGOTHIC_
 70
     4
 40
0.0
 41
1.0
 50
0.0
 71
     0
 42
0.0
  3
@MS Gothic
  4

  0
ENDTAB
  0
TABLE
  2
VIEW
  5
6
330
0
100
AcDbSymbolTable
 70
     0
  0
ENDTAB
  0
TABLE
  2
UCS
  5
7
330
0
100
AcDbSymbolTable
 70
     0
  0
ENDTAB
  0
TABLE
  2
APPID
  5
9
330
0
100
AcDbSymbolTable
 70
     4
  0
APPID
  5
56
330
9
100
AcDbSymbolTableRecord
100
AcDbRegAppTableRecord
  2
ACAD
 70
     0
  0
APPID
  5
5D
330
9
100
AcDbSymbolTableRecord
100
AcDbRegAppTableRecord
  2
AcadAnnotative
 70
     0
  0
APPID
  5
41C
330
9
100
AcDbSymbolTableRecord
100
AcDbRegAppTableRecord
  2
ACAD_NAV_VCDISPLAY
 70
     0
  0
APPID
  5
454
330
9
100
AcDbSymbolTableRecord
100
AcDbRegAppTableRecord
  2
ACAD_MLEADERVER
 70
     0
  0
ENDTAB
  0
TABLE
  2
DIMSTYLE
  5
A
330
0
100
AcDbSymbolTable
 70
     2
100
AcDbDimStyleTable
 71
     0
  0
DIMSTYLE
105
57
330
A
100
AcDbSymbolTableRecord
100
AcDbDimStyleTableRecord
  2
Standard
 70
     0
340
55
  0
DIMSTYLE
105
58
330
A
100
AcDbSymbolTableRecord
100
AcDbDimStyleTableRecord
  2
Annotative
 70
     0
340
55
1001
AcadAnnotative
1000
AnnotativeData
1002
{
1070
     1
1070
     1
1002
}
  0
ENDTAB
  0
TABLE
  2
BLOCK_RECORD
  5
1
330
0
100
AcDbSymbolTable
 70
     0
  0
BLOCK_RECORD
  5
6F
330
1
100
AcDbSymbolTableRecord
100
AcDbBlockTableRecord
  2
*Model_Space
340
72
  0
BLOCK_RECORD
  5
6B
330
1
100
AcDbSymbolTableRecord
100
AcDbBlockTableRecord
  2
*Paper_Space
340
6E
  0
ENDTAB
  0
ENDSEC
  0
SECTION
  2
BLOCKS
  0
BLOCK
  5
70
330
6F
100
AcDbEntity
  8
0
100
AcDbBlockBegin
  2
*Model_Space
 70
     0
 10
0.0
 20
0.0
 30
0.0
  3
*Model_Space
  1

  0
ENDBLK
  5
71
330
6F
100
AcDbEntity
  8
0
100
AcDbBlockEnd
  0
BLOCK
  5
6C
330
6B
100
AcDbEntity
 67
     1
  8
0
100
AcDbBlockBegin
  2
*Paper_Space
 70
     0
 10
0.0
 20
0.0
 30
0.0
  3
*Paper_Space
  1

  0
ENDBLK
  5
6D
330
6B
100
AcDbEntity
 67
     1
  8
0
100
AcDbBlockEnd
  0
ENDSEC
  0
SECTION
  2
ENTITIES
  0
LINE
  5
8E
330
6F
100
AcDbEntity
  8
1-0
  6
Continuous
 62
     7
100
AcDbLine
 10
0.0
 20
0.0
 30
0.0
 11
4200.0
 21
0.0
 31
0.0
  0
LINE
  5
8F
330
6F
100
AcDbEntity
  8
1-0
  6
Continuous
 62
     7
100
AcDbLine
 10
4200.0
 20
0.0
 30
0.0
 11
4200.0
 21
2970.0
 31
0.0
  0
LINE
  5
90
330
6F
100
AcDbEntity
  8
1-0
  6
Continuous
 62
     7
100
AcDbLine
 10
4200.0
 20
2970.0
 30
0.0
 11
0.0
 21
2970.0
 31
0.0
  0
LINE
  5
91
330
6F
100
AcDbEntity
  8
1-0
  6
Continuous
 62
     7
100
AcDbLine
 10
0.0
 20
2970.0
 30
0.0
 11
0.0
 21
0.0
 31
0.0
  0
LINE
  5
92
330
6F
100
AcDbEntity
  8
8-0
  6
Continuous
 62
     7
100
AcDbLine
 10
100.0
 20
100.0
 30
0.0
 11
4100.0
 21
100.0
 31
0.0
  0
LINE
  5
93
330
6F
100
AcDbEntity
  8
8-0
  6
Continuous
 62
     7
100
AcDbLine
 10
2500.0
 20
300.0
 30
0.0
 11
4100.0
 21
300.0
 31
0.0
  0
LINE
  5
94
330
6F
100
AcDbEntity
  8
6-0
  6
Continuous
 62
     7
100
AcDbLine
 10
2500.0
 20
240.0
 30
0.0
 11
3150.0
 21
240.0
 31
0.0
  0
LINE
  5
95
330
6F
100
AcDbEntity
  8
8-0
  6
Continuous
 62
     7
100
AcDbLine
 10
4100.0
 20
100.0
 30
0.0
 11
4100.0
 21
2870.0
 31
0.0
  0
LINE
  5
96
330
6F
100
AcDbEntity
  8
8-0
  6
Continuous
 62
     7
100
AcDbLine
 10
4100.0
 20
2870.0
 30
0.0
 11
100.0
 21
2870.0
 31
0.0
  0
LINE
  5
97
330
6F
100
AcDbEntity
  8
8-0
  6
Continuous
 62
     7
100
AcDbLine
 10
100.0
 20
2870.0
 30
0.0
 11
100.0
 21
100.0
 31
0.0
  0
LINE
  5
98
330
6F
100
AcDbEntity
  8
6-0
  6
Continuous
 62
     7
100
AcDbLine
 10
3150.0
 20
100.0
 30
0.0
 11
3150.0
 21
300.0
 31
0.0
  0
LINE
  5
99
330
6F
100
AcDbEntity
  8
8-0
  6
Continuous
 62
     7
100
AcDbLine
 10
2500.0
 20
100.0
 30
0.0
 11
2500.0
 21
300.0
 31
0.0
  0
TEXT
  5
9A
330
6F
100
AcDbEntity
  8
D-0
 62
     5
100
AcDbText
 10
2788.434
 20
252.531
 30
0.0
 40
31.104
  1
品番
100
AcDbText
  0
TEXT
  5
9B
330
6F
100
AcDbEntity
  8
D-0
 62
     5
100
AcDbText
 10
2626.083
 20
145.854
 30
0.0
 40
51.84000000000001
  1
KLH-800S
100
AcDbText
  0
TEXT
  5
9C
330
6F
100
AcDbEntity
  8
D-0
 62
     5
100
AcDbText
 10
3353.56
 20
192.32
 30
0.0
 40
62.208
  1
アイオ産業株式会社
100
AcDbText
  0
TEXT
  5
9D
330
6F
100
AcDbEntity
  8
D-0
 62
     5
100
AcDbText
 10
3427.941
 20
124.513
 30
0.0
 40
31.104
  1
アイオシステムキッチン事業部
100
AcDbText
  0
ARC
  5
9E
330
6F
100
AcDbEntity
  8
2-0
  6
Continuous
 62
     7
100
AcDbCircle
 10
3255.659538175486
 20
200.204166274297
 30
0.0
 40
63.24278074506601
100
AcDbArc
 50
319.753
 51
220.247
  0
CIRCLE
  5
9F
330
6F
100
AcDbEntity
  8
2-0
  6
Continuous
 62
     7
100
AcDbCircle
 10
3255.659538175486
 20
200.204166274297
 30
0.0
 40
71.58304716886799
  0
CIRCLE
  5
A0
330
6F
100
AcDbEntity
  8
2-0
  6
Continuous
 62
     7
100
AcDbCircle
 10
3255.659538175486
 20
200.204166274297
 30
0.0
 40
72.000060490058
  0
CIRCLE
  5
A1
330
6F
100
AcDbEntity
  8
2-0
  6
Continuous
 62
     7
100
AcDbCircle
 10
3255.659538175486
 20
200.204166274297
 30
0.0
 40
72.417073811248
  0
CIRCLE
  5
A2
330
6F
100
AcDbEntity
  8
2-0
  6
Continuous
 62
     7
100
AcDbCircle
 10
3255.659538175486
 20
200.204166274297
 30
0.0
 40
72.834087132438
  0
CIRCLE
  5
A3
330
6F
100
AcDbEntity
  8
2-0
  6
Continuous
 62
     7
100
AcDbCircle
 10
3255.659538175486
 20
200.204166274297
 30
0.0
 40
73.251100453628
  0
CIRCLE
  5
A4
330
6F
100
AcDbEntity
  8
2-0
  6
Continuous
 62
     7
100
AcDbCircle
 10
3255.659538175486
 20
200.204166274297
 30
0.0
 40
73.459607114223
  0
CIRCLE
  5
A5
330
6F
100
AcDbEntity
  8
2-0
  6
Continuous
 62
     7
100
AcDbCircle
 10
3255.659538175486
 20
200.204166274297
 30
0.0
 40
73.04259379303299
  0
CIRCLE
  5
A6
330
6F
100
AcDbEntity
  8
2-0
  6
Continuous
 62
     7
100
AcDbCircle
 10
3255.659538175486
 20
200.204166274297
 30
0.0
 40
72.62558047184301
  0
CIRCLE
  5
A7
330
6F
100
AcDbEntity
  8
2-0
  6
Continuous
 62
     7
100
AcDbCircle
 10
3255.659538175486
 20
200.204166274297
 30
0.0
 40
72.20856715065299
  0
CIRCLE
  5
A8
330
6F
100
AcDbEntity
  8
2-0
  6
Continuous
 62
     7
100
AcDbCircle
 10
3255.659538175486
 20
200.204166274297
 30
0.0
 40
71.791553829463
  0
CIRCLE
  5
A9
330
6F
100
AcDbEntity
  8
2-0
  6
Continuous
 62
     7
100
AcDbCircle
 10
3255.659538175486
 20
200.204166274297
 30
0.0
 40
71.791553829463
  0
ARC
  5
AA
330
6F
100
AcDbEntity
  8
2-0
  6
Continuous
 62
     7
100
AcDbCircle
 10
3255.659538175486
 20
200.204166274297
 30
0.0
 40
63.45128740566099
100
AcDbArc
 50
319.753
 51
220.247
  0
CIRCLE
  5
AB
330
6F
100
AcDbEntity
  8
2-0
  6
Continuous
 62
     7
100
AcDbCircle
 10
3255.659538175486
 20
200.204166274297
 30
0.0
 40
71.374540508273
  0
ARC
  5
AC
330
6F
100
AcDbEntity
  8
2-0
  6
Continuous
 62
     7
100
AcDbCircle
 10
3255.659538175486
 20
200.204166274297
 30
0.0
 40
63.03427408447099
100
AcDbArc
 50
319.753
 51
220.247
  0
TEXT
  5
AD
330
6F
100
AcDbEntity
  8
2-0
 62
     7
100
AcDbText
 10
3216.455
 20
142.198
 30
0.0
 40
48.64
  1
A
100
AcDbText
  0
TEXT
  5
AE
330
6F
100
AcDbEntity
  8
2-0
 62
     7
100
AcDbText
 10
3258.946
 20
142.301
 30
0.0
 40
48.64
  1
I
100
AcDbText
  0
TEXT
  5
AF
330
6F
100
AcDbEntity
  8
2-0
 62
     7
100
AcDbText
 10
3269.344
 20
142.267
 30
0.0
 40
48.64
  1
O
100
AcDbText
  0
CIRCLE
  5
B0
330
6F
100
AcDbEntity
  8
2-0
  6
CENTER
 62
     7
100
AcDbCircle
 10
540.482368279262
 20
896.8333443997051
 30
0.0
 40
35.65880700000001
  0
TEXT
  5
B1
330
6F
100
AcDbEntity
  8
2-0
 62
     7
100
AcDbText
 10
476.4079999999999
 20
830.765
 30
0.0
 40
25.92
  1
A
100
AcDbText
  0
CIRCLE
  5
B2
330
6F
100
AcDbEntity
  8
2-0
  6
CENTER
 62
     7
100
AcDbCircle
 10
1336.030761201271
 20
908.739511927502
 30
0.0
 40
35.65880700000001
  0
TEXT
  5
B3
330
6F
100
AcDbEntity
  8
2-0
 62
     7
100
AcDbText
 10
1388.137
 20
842.6709999999999
 30
0.0
 40
25.92
  1
A
100
AcDbText
  0
LINE
  5
B4
330
6F
100
AcDbEntity
  8
2-0
  6
DASHED2
 62
     7
100
AcDbLine
 10
553.4823679999999
 20
914.333345
 30
0.0
 11
1322.982368
 21
914.333345
 31
0.0
  0
LINE
  5
B5
330
6F
100
AcDbEntity
  8
9-0
  6
Continuous
 62
     4
100
AcDbLine
 10
1322.982368
 20
2370.79928
 30
0.0
 11
1322.982368
 21
2435.181395
 31
0.0
  0
LINE
  5
B6
330
6F
100
AcDbEntity
  8
9-0
  6
Continuous
 62
     4
100
AcDbLine
 10
1282.982368
 20
2374.823643
 30
0.0
 11
1282.982368
 21
2435.181395
 31
0.0
  0
LINE
  5
B7
330
6F
100
AcDbEntity
  8
9-0
  6
Continuous
 62
     4
100
AcDbLine
 10
1312.982368
 20
2435.181395
 30
0.0
 11
1292.982368
 21
2435.181395
 31
0.0
  0
LINE
  5
B8
330
6F
100
AcDbEntity
  8
9-0
  6
Continuous
 62
     4
100
AcDbLine
 10
1302.982368
 20
2435.181395
 30
0.0
 11
1279.261483
 21
2465.529578
 31
0.0
  0
LINE
  5
B9
330
6F
100
AcDbEntity
  8
9-0
  6
Continuous
 62
     4
100
AcDbLine
 10
1279.261483
 20
2465.529578
 30
0.0
 11
1216.977219
 21
2465.529578
 31
0.0
  0
TEXT
  5
BA
330
6F
100
AcDbEntity
  8
9-0
 62
     4
100
AcDbText
 10
1228.542
 20
2466.15
 30
0.0
 40
36.288
  1
40
100
AcDbText
  0
CIRCLE
  5
BB
330
6F
100
AcDbEntity
  8
9-0
  6
Continuous
 62
     4
100
AcDbCircle
 10
1322.982367790276
 20
2435.181394984855
 30
0.0
 40
0.25
  0
CIRCLE
  5
BC
330
6F
100
AcDbEntity
  8
9-0
  6
Continuous
 62
     4
100
AcDbCircle
 10
1322.982367790276
 20
2435.181394984855
 30
0.0
 40
0.1875
  0
CIRCLE
  5
BD
330
6F
100
AcDbEntity
  8
9-0
  6
Continuous
 62
     4
100
AcDbCircle
 10
1322.982367790276
 20
2435.181394984855
 30
0.0
 40
0.125
  0
CIRCLE
  5
BE
330
6F
100
AcDbEntity
  8
9-0
  6
Continuous
 62
     4
100
AcDbCircle
 10
1322.982367790276
 20
2435.181394984855
 30
0.0
 40
0.0625
  0
ARC
  5
BF
330
6F
100
AcDbEntity
  8
9-0
 62
     4
100
AcDbCircle
 10
1322.982367790276
 20
2435.186394984855
 30
0.0
 40
2.5
100
AcDbArc
 50
0.1145914065300158
 51
180.114591405945
  0
LINE
  5
C0
330
6F
100
AcDbEntity
  8
9-0
 62
     4
100
AcDbLine
 10
1317.982367790276
 20
2435.181394984855
 30
0.0
 11
1312.982367790276
 21
2435.181394984855
 31
0.0
  0
CIRCLE
  5
C1
330
6F
100
AcDbEntity
  8
9-0
  6
Continuous
 62
     4
100
AcDbCircle
 10
1282.982367790276
 20
2435.181394984855
 30
0.0
 40
0.25
  0
CIRCLE
  5
C2
330
6F
100
AcDbEntity
  8
9-0
  6
Continuous
 62
     4
100
AcDbCircle
 10
1282.982367790276
 20
2435.181394984855
 30
0.0
 40
0.1875
  0
CIRCLE
  5
C3
330
6F
100
AcDbEntity
  8
9-0
  6
Continuous
 62
     4
100
AcDbCircle
 10
1282.982367790276
 20
2435.181394984855
 30
0.0
 40
0.125
  0
CIRCLE
  5
C4
330
6F
100
AcDbEntity
  8
9-0
  6
Continuous
 62
     4
100
AcDbCircle
 10
1282.982367790276
 20
2435.181394984855
 30
0.0
 40
0.0625
  0
ARC
  5
C5
330
6F
100
AcDbEntity
  8
9-0
 62
     4
100
AcDbCircle
 10
1282.982367790276
 20
2435.176394984855
 30
0.0
 40
2.5
100
AcDbArc
 50
180.1145914065301
 51
0.1145914059449637
  0
LINE
  5
C6
330
6F
100
AcDbEntity
  8
9-0
 62
     4
100
AcDbLine
 10
1287.982367790276
 20
2435.181394984906
 30
0.0
 11
1292.982367790276
 21
2435.181394984957
 31
0.0
  0
LINE
  5
C7
330
6F
100
AcDbEntity
  8
9-0
  6
Continuous
 62
     4
100
AcDbLine
 10
1322.982368
 20
2370.79928
 30
0.0
 11
1322.982368
 21
2435.181395
 31
0.0
  0
LINE
  5
C8
330
6F
100
AcDbEntity
  8
9-0
  6
Continuous
 62
     4
100
AcDbLine
 10
1340.482368
 20
2372.409025
 30
0.0
 11
1340.482368
 21
2435.181395
 31
0.0
  0
LINE
  5
C9
330
6F
100
AcDbEntity
  8
9-0
  6
Continuous
 62
     4
100
AcDbLine
 10
1312.982368
 20
2435.181395
 30
0.0
 11
1302.982368
 21
2435.181395
 31
0.0
  0
LINE
  5
CA
330
6F
100
AcDbEntity
  8
9-0
  6
Continuous
 62
     4
100
AcDbLine
 10
1350.482368
 20
2435.181395
 30
0.0
 11
1360.482368
 21
2435.181395
 31
0.0
  0
LINE
  5
CB
330
6F
100
AcDbEntity
  8
9-0
  6
Continuous
 62
     4
100
AcDbLine
 10
1331.732368
 20
2435.181395
 30
0.0
 11
1356.260267
 21
2465.562106
 31
0.0
  0
LINE
  5
CC
330
6F
100
AcDbEntity
  8
9-0
  6
Continuous
 62
     4
100
AcDbLine
 10
1356.260267
 20
2465.562106
 30
0.0
 11
1460.118135
 21
2465.562106
 31
0.0
  0
TEXT
  5
CD
330
6F
100
AcDbEntity
  8
9-0
 62
     4
100
AcDbText
 10
1366.212
 20
2466.182
 30
0.0
 40
36.288
  1
17.5
100
AcDbText
  0
LINE
  5
CE
330
6F
100
AcDbEntity
  8
9-0
  6
Continuous
 62
     4
100
AcDbLine
 10
1322.982368
 20
2435.181395
 30
0.0
 11
1340.482368
 21
2435.181395
 31
0.0
  0
LINE
  5
CF
330
6F
100
AcDbEntity
  8
9-0
  6
Continuous
 62
     4
100
AcDbLine
 10
1322.982368
 20
2435.181395
 30
0.0
 11
1340.482368
 21
2435.181395
 31
0.0
  0
CIRCLE
  5
D0
330
6F
100
AcDbEntity
  8
9-0
  6
Continuous
 62
     4
100
AcDbCircle
 10
1322.982367790276
 20
2435.181394984855
 30
0.0
 40
0.25
  0
CIRCLE
  5
D1
330
6F
100
AcDbEntity
  8
9-0
  6
Continuous
 62
     4
100
AcDbCircle
 10
1322.982367790276
 20
2435.181394984855
 30
0.0
 40
0.1875
  0
CIRCLE
  5
D2
330
6F
100
AcDbEntity
  8
9-0
  6
Continuous
 62
     4
100
AcDbCircle
 10
1322.982367790276
 20
2435.181394984855
 30
0.0
 40
0.125
  0
CIRCLE
  5
D3
330
6F
100
AcDbEntity
  8
9-0
  6
Continuous
 62
     4
100
AcDbCircle
 10
1322.982367790276
 20
2435.181394984855
 30
0.0
 40
0.0625
  0
ARC
  5
D4
330
6F
100
AcDbEntity
  8
9-0
 62
     4
100
AcDbCircle
 10
1322.982367790276
 20
2435.186394984855
 30
0.0
 40
2.5
100
AcDbArc
 50
0.1145914065300158
 51
180.114591405945
  0
LINE
  5
D5
330
6F
100
AcDbEntity
  8
9-0
 62
     4
100
AcDbLine
 10
1317.982367790276
 20
2435.181394984855
 30
0.0
 11
1312.982367790276
 21
2435.181394984855
 31
0.0
  0
CIRCLE
  5
D6
330
6F
100
AcDbEntity
  8
9-0
  6
Continuous
 62
     4
100
AcDbCircle
 10
1340.482367790275
 20
2435.181394984855
 30
0.0
 40
0.25
  0
CIRCLE
  5
D7
330
6F
100
AcDbEntity
  8
9-0
  6
Continuous
 62
     4
100
AcDbCircle
 10
1340.482367790275
 20
2435.181394984855
 30
0.0
 40
0.1875
  0
CIRCLE
  5
D8
330
6F
100
AcDbEntity
  8
9-0
  6
Continuous
 62
     4
100
AcDbCircle
 10
1340.482367790275
 20
2435.181394984855
 30
0.0
 40
0.125
  0
CIRCLE
  5
D9
330
6F
100
AcDbEntity
  8
9-0
  6
Continuous
 62
     4
100
AcDbCircle
 10
1340.482367790275
 20
2435.181394984855
 30
0.0
 40
0.0625
  0
ARC
  5
DA
330
6F
100
AcDbEntity
  8
9-0
 62
     4
100
AcDbCircle
 10
1340.482367790275
 20
2435.176394984855
 30
0.0
 40
2.5
100
AcDbArc
 50
180.1145914065301
 51
0.1145914059449637
  0
LINE
  5
DB
330
6F
100
AcDbEntity
  8
9-0
 62
     4
100
AcDbLine
 10
1345.482367790275
 20
2435.181394984906
 30
0.0
 11
1350.482367790275
 21
2435.181394984957
 31
0.0
  0
LINE
  5
DC
330
6F
100
AcDbEntity
  8
9-0
  6
Continuous
 62
     4
100
AcDbLine
 10
557.9823679999999
 20
2370.79928
 30
0.0
 11
557.9823679999999
 21
2435.181395
 31
0.0
  0
LINE
  5
DD
330
6F
100
AcDbEntity
  8
9-0
  6
Continuous
 62
     4
100
AcDbLine
 10
540.4823679999999
 20
2372.409025
 30
0.0
 11
540.4823679999999
 21
2435.181395
 31
0.0
  0
LINE
  5
DE
330
6F
100
AcDbEntity
  8
9-0
  6
Continuous
 62
     4
100
AcDbLine
 10
567.9823679999999
 20
2435.181395
 30
0.0
 11
577.9823679999999
 21
2435.181395
 31
0.0
  0
LINE
  5
DF
330
6F
100
AcDbEntity
  8
9-0
  6
Continuous
 62
     4
100
AcDbLine
 10
530.4823679999999
 20
2435.181395
 30
0.0
 11
520.4823679999999
 21
2435.181395
 31
0.0
  0
LINE
  5
E0
330
6F
100
AcDbEntity
  8
9-0
  6
Continuous
 62
     4
100
AcDbLine
 10
549.2323679999999
 20
2435.181395
 30
0.0
 11
524.704469
 21
2465.562106
 31
0.0
  0
LINE
  5
E1
330
6F
100
AcDbEntity
  8
9-0
  6
Continuous
 62
     4
100
AcDbLine
 10
524.704469
 20
2465.562106
 30
0.0
 11
420.846601
 21
2465.562106
 31
0.0
  0
TEXT
  5
E2
330
6F
100
AcDbEntity
  8
9-0
 62
     4
100
AcDbText
 10
430.7979999999999
 20
2466.182
 30
0.0
 40
36.288
  1
17.5
100
AcDbText
  0
LINE
  5
E3
330
6F
100
AcDbEntity
  8
9-0
  6
Continuous
 62
     4
100
AcDbLine
 10
557.9823679999999
 20
2435.181395
 30
0.0
 11
540.4823679999999
 21
2435.181395
 31
0.0
  0
LINE
  5
E4
330
6F
100
AcDbEntity
  8
9-0
  6
Continuous
 62
     4
100
AcDbLine
 10
557.9823679999999
 20
2435.181395
 30
0.0
 11
540.4823679999999
 21
2435.181395
 31
0.0
  0
CIRCLE
  5
E5
330
6F
100
AcDbEntity
  8
9-0
  6
Continuous
 62
     4
100
AcDbCircle
 10
557.982367790276
 20
2435.181394984855
 30
0.0
 40
0.25
  0
CIRCLE
  5
E6
330
6F
100
AcDbEntity
  8
9-0
  6
Continuous
 62
     4
100
AcDbCircle
 10
557.982367790276
 20
2435.181394984855
 30
0.0
 40
0.1875
  0
CIRCLE
  5
E7
330
6F
100
AcDbEntity
  8
9-0
  6
Continuous
 62
     4
100
AcDbCircle
 10
557.982367790276
 20
2435.181394984855
 30
0.0
 40
0.125
  0
CIRCLE
  5
E8
330
6F
100
AcDbEntity
  8
9-0
  6
Continuous
 62
     4
100
AcDbCircle
 10
557.982367790276
 20
2435.181394984855
 30
0.0
 40
0.0625
  0
ARC
  5
E9
330
6F
100
AcDbEntity
  8
9-0
 62
     4
100
AcDbCircle
 10
557.982367790276
 20
2435.176394984855
 30
0.0
 40
2.5
100
AcDbArc
 50
180.1145914065301
 51
0.1145914059449637
  0
LINE
  5
EA
330
6F
100
AcDbEntity
  8
9-0
 62
     4
100
AcDbLine
 10
562.982367790276
 20
2435.181394984906
 30
0.0
 11
567.982367790276
 21
2435.181394984957
 31
0.0
  0
CIRCLE
  5
EB
330
6F
100
AcDbEntity
  8
9-0
  6
Continuous
 62
     4
100
AcDbCircle
 10
540.482367790276
 20
2435.181394984855
 30
0.0
 40
0.25
  0
CIRCLE
  5
EC
330
6F
100
AcDbEntity
  8
9-0
  6
Continuous
 62
     4
100
AcDbCircle
 10
540.482367790276
 20
2435.181394984855
 30
0.0
 40
0.1875
  0
CIRCLE
  5
ED
330
6F
100
AcDbEntity
  8
9-0
  6
Continuous
 62
     4
100
AcDbCircle
 10
540.482367790276
 20
2435.181394984855
 30
0.0
 40
0.125
  0
CIRCLE
  5
EE
330
6F
100
AcDbEntity
  8
9-0
  6
Continuous
 62
     4
100
AcDbCircle
 10
540.482367790276
 20
2435.181394984855
 30
0.0
 40
0.0625
  0
ARC
  5
EF
330
6F
100
AcDbEntity
  8
9-0
 62
     4
100
AcDbCircle
 10
540.482367790276
 20
2435.186394984855
 30
0.0
 40
2.5
100
AcDbArc
 50
0.1145914065300158
 51
180.114591405945
  0
LINE
  5
F0
330
6F
100
AcDbEntity
  8
9-0
 62
     4
100
AcDbLine
 10
535.482367790276
 20
2435.181394984855
 30
0.0
 11
530.482367790276
 21
2435.181394984855
 31
0.0
  0
LINE
  5
F1
330
6F
100
AcDbEntity
  8
9-0
  6
Continuous
 62
     4
100
AcDbLine
 10
557.9823679999999
 20
2370.79928
 30
0.0
 11
557.9823679999999
 21
2435.181395
 31
0.0
  0
LINE
  5
F2
330
6F
100
AcDbEntity
  8
9-0
  6
Continuous
 62
     4
100
AcDbLine
 10
597.9823679999999
 20
2374.823643
 30
0.0
 11
597.9823679999999
 21
2435.181395
 31
0.0
  0
TEXT
  5
F3
330
6F
100
AcDbEntity
  8
9-0
 62
     4
100
AcDbText
 10
599.297
 20
2468.301
 30
0.0
 40
36.288
  1
40
100
AcDbText
  0
LINE
  5
F4
330
6F
100
AcDbEntity
  8
9-0
  6
Continuous
 62
     4
100
AcDbLine
 10
597.982367790276
 20
2435.181394984855
 30
0.0
 11
557.982367790276
 21
2435.181394984855
 31
0.0
  0
CIRCLE
  5
F5
330
6F
100
AcDbEntity
  8
9-0
  6
Continuous
 62
     4
100
AcDbCircle
 10
597.982367790276
 20
2435.181394984855
 30
0.0
 40
0.25
  0
CIRCLE
  5
F6
330
6F
100
AcDbEntity
  8
9-0
  6
Continuous
 62
     4
100
AcDbCircle
 10
597.982367790276
 20
2435.181394984855
 30
0.0
 40
0.1875
  0
CIRCLE
  5
F7
330
6F
100
AcDbEntity
  8
9-0
  6
Continuous
 62
     4
100
AcDbCircle
 10
597.982367790276
 20
2435.181394984855
 30
0.0
 40
0.125
  0
CIRCLE
  5
F8
330
6F
100
AcDbEntity
  8
9-0
  6
Continuous
 62
     4
100
AcDbCircle
 10
597.982367790276
 20
2435.181394984855
 30
0.0
 40
0.0625
  0
CIRCLE
  5
F9
330
6F
100
AcDbEntity
  8
9-0
  6
Continuous
 62
     4
100
AcDbCircle
 10
557.982367790276
 20
2435.181394984855
 30
0.0
 40
0.25
  0
CIRCLE
  5
FA
330
6F
100
AcDbEntity
  8
9-0
  6
Continuous
 62
     4
100
AcDbCircle
 10
557.982367790276
 20
2435.181394984855
 30
0.0
 40
0.1875
  0
CIRCLE
  5
FB
330
6F
100
AcDbEntity
  8
9-0
  6
Continuous
 62
     4
100
AcDbCircle
 10
557.982367790276
 20
2435.181394984855
 30
0.0
 40
0.125
  0
CIRCLE
  5
FC
330
6F
100
AcDbEntity
  8
9-0
  6
Continuous
 62
     4
100
AcDbCircle
 10
557.982367790276
 20
2435.181394984855
 30
0.0
 40
0.0625
  0
LINE
  5
FD
330
6F
100
AcDbEntity
  8
9-0
  6
Continuous
 62
     4
100
AcDbLine
 10
1340.482368
 20
753.178341
 30
0.0
 11
1340.482368
 21
635.198386
 31
0.0
  0
LINE
  5
FE
330
6F
100
AcDbEntity
  8
9-0
  6
Continuous
 62
     4
100
AcDbLine
 10
540.4823679999999
 20
748.927771
 30
0.0
 11
540.4823679999999
 21
635.198386
 31
0.0
  0
TEXT
  5
FF
330
6F
100
AcDbEntity
  8
9-0
 62
     4
100
AcDbText
 10
909.7050000000001
 20
635.8179999999999
 30
0.0
 40
36.288
  1
800
100
AcDbText
  0
LINE
  5
100
330
6F
100
AcDbEntity
  8
9-0
  6
Continuous
 62
     4
100
AcDbLine
 10
540.482367790276
 20
635.1983857065049
 30
0.0
 11
1340.482367790275
 21
635.1983857065049
 31
0.0
  0
CIRCLE
  5
101
330
6F
100
AcDbEntity
  8
9-0
  6
Continuous
 62
     4
100
AcDbCircle
 10
540.482367790276
 20
635.1983857065049
 30
0.0
 40
0.25
  0
CIRCLE
  5
102
330
6F
100
AcDbEntity
  8
9-0
  6
Continuous
 62
     4
100
AcDbCircle
 10
540.482367790276
 20
635.1983857065049
 30
0.0
 40
0.1875
  0
CIRCLE
  5
103
330
6F
100
AcDbEntity
  8
9-0
  6
Continuous
 62
     4
100
AcDbCircle
 10
540.482367790276
 20
635.1983857065049
 30
0.0
 40
0.125
  0
CIRCLE
  5
104
330
6F
100
AcDbEntity
  8
9-0
  6
Continuous
 62
     4
100
AcDbCircle
 10
540.482367790276
 20
635.1983857065049
 30
0.0
 40
0.0625
  0
CIRCLE
  5
105
330
6F
100
AcDbEntity
  8
9-0
  6
Continuous
 62
     4
100
AcDbCircle
 10
1340.482367790275
 20
635.1983857065049
 30
0.0
 40
0.25
  0
CIRCLE
  5
106
330
6F
100
AcDbEntity
  8
9-0
  6
Continuous
 62
     4
100
AcDbCircle
 10
1340.482367790275
 20
635.1983857065049
 30
0.0
 40
0.1875
  0
CIRCLE
  5
107
330
6F
100
AcDbEntity
  8
9-0
  6
Continuous
 62
     4
100
AcDbCircle
 10
1340.482367790275
 20
635.1983857065049
 30
0.0
 40
0.125
  0
CIRCLE
  5
108
330
6F
100
AcDbEntity
  8
9-0
  6
Continuous
 62
     4
100
AcDbCircle
 10
1340.482367790275
 20
635.1983857065049
 30
0.0
 40
0.0625
  0
LINE
  5
109
330
6F
100
AcDbEntity
  8
9-0
  6
Continuous
 62
     4
100
AcDbLine
 10
1335.482368
 20
797.341473
 30
0.0
 11
1335.482368
 21
735.198386
 31
0.0
  0
LINE
  5
10A
330
6F
100
AcDbEntity
  8
9-0
  6
Continuous
 62
     4
100
AcDbLine
 10
1340.482368
 20
797.341473
 30
0.0
 11
1340.482368
 21
735.198386
 31
0.0
  0
TEXT
  5
10B
330
6F
100
AcDbEntity
  8
9-0
 62
     4
100
AcDbText
 10
1368.916
 20
668.318
 30
0.0
 40
36.288
  1
5
100
AcDbText
  0
LINE
  5
10C
330
6F
100
AcDbEntity
  8
9-0
  6
Continuous
 62
     4
100
AcDbLine
 10
1340.482367790275
 20
735.1983857065049
 30
0.0
 11
1335.482367790275
 21
735.1983857065049
 31
0.0
  0
CIRCLE
  5
10D
330
6F
100
AcDbEntity
  8
9-0
  6
Continuous
 62
     4
100
AcDbCircle
 10
1340.482367790275
 20
735.1983857065049
 30
0.0
 40
0.25
  0
CIRCLE
  5
10E
330
6F
100
AcDbEntity
  8
9-0
  6
Continuous
 62
     4
100
AcDbCircle
 10
1340.482367790275
 20
735.1983857065049
 30
0.0
 40
0.1875
  0
CIRCLE
  5
10F
330
6F
100
AcDbEntity
  8
9-0
  6
Continuous
 62
     4
100
AcDbCircle
 10
1340.482367790275
 20
735.1983857065049
 30
0.0
 40
0.125
  0
CIRCLE
  5
110
330
6F
100
AcDbEntity
  8
9-0
  6
Continuous
 62
     4
100
AcDbCircle
 10
1340.482367790275
 20
735.1983857065049
 30
0.0
 40
0.0625
  0
CIRCLE
  5
111
330
6F
100
AcDbEntity
  8
9-0
  6
Continuous
 62
     4
100
AcDbCircle
 10
1335.482367790275
 20
735.1983857065049
 30
0.0
 40
0.25
  0
CIRCLE
  5
112
330
6F
100
AcDbEntity
  8
9-0
  6
Continuous
 62
     4
100
AcDbCircle
 10
1335.482367790275
 20
735.1983857065049
 30
0.0
 40
0.1875
  0
CIRCLE
  5
113
330
6F
100
AcDbEntity
  8
9-0
  6
Continuous
 62
     4
100
AcDbCircle
 10
1335.482367790275
 20
735.1983857065049
 30
0.0
 40
0.125
  0
CIRCLE
  5
114
330
6F
100
AcDbEntity
  8
9-0
  6
Continuous
 62
     4
100
AcDbCircle
 10
1335.482367790275
 20
735.1983857065049
 30
0.0
 40
0.0625
  0
LINE
  5
115
330
6F
100
AcDbEntity
  8
9-0
  6
Continuous
 62
     4
100
AcDbLine
 10
1335.482368
 20
797.341473
 30
0.0
 11
1335.482368
 21
735.198386
 31
0.0
  0
LINE
  5
116
330
6F
100
AcDbEntity
  8
9-0
  6
Continuous
 62
     4
100
AcDbLine
 10
941.4823679999999
 20
800.33896
 30
0.0
 11
941.4823679999999
 21
735.198386
 31
0.0
  0
TEXT
  5
117
330
6F
100
AcDbEntity
  8
9-0
 62
     4
100
AcDbText
 10
1107.705
 20
735.8179999999999
 30
0.0
 40
36.288
  1
394
100
AcDbText
  0
LINE
  5
118
330
6F
100
AcDbEntity
  8
9-0
  6
Continuous
 62
     4
100
AcDbLine
 10
941.4823677902759
 20
735.1983857065049
 30
0.0
 11
1335.482367790275
 21
735.1983857065049
 31
0.0
  0
CIRCLE
  5
119
330
6F
100
AcDbEntity
  8
9-0
  6
Continuous
 62
     4
100
AcDbCircle
 10
941.4823677902759
 20
735.1983857065049
 30
0.0
 40
0.25
  0
CIRCLE
  5
11A
330
6F
100
AcDbEntity
  8
9-0
  6
Continuous
 62
     4
100
AcDbCircle
 10
941.4823677902759
 20
735.1983857065049
 30
0.0
 40
0.1875
  0
CIRCLE
  5
11B
330
6F
100
AcDbEntity
  8
9-0
  6
Continuous
 62
     4
100
AcDbCircle
 10
941.4823677902759
 20
735.1983857065049
 30
0.0
 40
0.125
  0
CIRCLE
  5
11C
330
6F
100
AcDbEntity
  8
9-0
  6
Continuous
 62
     4
100
AcDbCircle
 10
941.4823677902759
 20
735.1983857065049
 30
0.0
 40
0.0625
  0
CIRCLE
  5
11D
330
6F
100
AcDbEntity
  8
9-0
  6
Continuous
 62
     4
100
AcDbCircle
 10
1335.482367790275
 20
735.1983857065049
 30
0.0
 40
0.25
  0
CIRCLE
  5
11E
330
6F
100
AcDbEntity
  8
9-0
  6
Continuous
 62
     4
100
AcDbCircle
 10
1335.482367790275
 20
735.1983857065049
 30
0.0
 40
0.1875
  0
CIRCLE
  5
11F
330
6F
100
AcDbEntity
  8
9-0
  6
Continuous
 62
     4
100
AcDbCircle
 10
1335.482367790275
 20
735.1983857065049
 30
0.0
 40
0.125
  0
CIRCLE
  5
120
330
6F
100
AcDbEntity
  8
9-0
  6
Continuous
 62
     4
100
AcDbCircle
 10
1335.482367790275
 20
735.1983857065049
 30
0.0
 40
0.0625
  0
LINE
  5
121
330
6F
100
AcDbEntity
  8
9-0
  6
Continuous
 62
     4
100
AcDbLine
 10
939.482368
 20
800.347462
 30
0.0
 11
939.482368
 21
735.198386
 31
0.0
  0
LINE
  5
122
330
6F
100
AcDbEntity
  8
9-0
  6
Continuous
 62
     4
100
AcDbLine
 10
941.4823679999999
 20
800.33896
 30
0.0
 11
941.4823679999999
 21
735.198386
 31
0.0
  0
LINE
  5
123
330
6F
100
AcDbEntity
  8
9-0
  6
Continuous
 62
     4
100
AcDbLine
 10
929.482368
 20
735.198386
 30
0.0
 11
919.4823679999998
 21
735.198386
 31
0.0
  0
LINE
  5
124
330
6F
100
AcDbEntity
  8
9-0
  6
Continuous
 62
     4
100
AcDbLine
 10
951.4823679999999
 20
735.198386
 30
0.0
 11
961.4823679999998
 21
735.198386
 31
0.0
  0
LINE
  5
125
330
6F
100
AcDbEntity
  8
9-0
  6
Continuous
 62
     4
100
AcDbLine
 10
940.4823679999999
 20
735.198386
 30
0.0
 11
902.572368
 21
773.736449
 31
0.0
  0
LINE
  5
126
330
6F
100
AcDbEntity
  8
9-0
  6
Continuous
 62
     4
100
AcDbLine
 10
902.572368
 20
773.736449
 30
0.0
 11
864.4505399999999
 21
773.736449
 31
0.0
  0
TEXT
  5
127
330
6F
100
AcDbEntity
  8
9-0
 62
     4
100
AcDbText
 10
875.1339999999999
 20
774.3560000000001
 30
0.0
 40
36.288
  1
2
100
AcDbText
  0
LINE
  5
128
330
6F
100
AcDbEntity
  8
9-0
  6
Continuous
 62
     4
100
AcDbLine
 10
939.482368
 20
735.198386
 30
0.0
 11
941.4823679999999
 21
735.198386
 31
0.0
  0
LINE
  5
129
330
6F
100
AcDbEntity
  8
9-0
  6
Continuous
 62
     4
100
AcDbLine
 10
939.482368
 20
735.198386
 30
0.0
 11
941.4823679999999
 21
735.198386
 31
0.0
  0
CIRCLE
  5
12A
330
6F
100
AcDbEntity
  8
9-0
  6
Continuous
 62
     4
100
AcDbCircle
 10
939.482367790276
 20
735.1983857065049
 30
0.0
 40
0.25
  0
CIRCLE
  5
12B
330
6F
100
AcDbEntity
  8
9-0
  6
Continuous
 62
     4
100
AcDbCircle
 10
939.482367790276
 20
735.1983857065049
 30
0.0
 40
0.1875
  0
CIRCLE
  5
12C
330
6F
100
AcDbEntity
  8
9-0
  6
Continuous
 62
     4
100
AcDbCircle
 10
939.482367790276
 20
735.1983857065049
 30
0.0
 40
0.125
  0
CIRCLE
  5
12D
330
6F
100
AcDbEntity
  8
9-0
  6
Continuous
 62
     4
100
AcDbCircle
 10
939.482367790276
 20
735.1983857065049
 30
0.0
 40
0.0625
  0
ARC
  5
12E
330
6F
100
AcDbEntity
  8
9-0
 62
     4
100
AcDbCircle
 10
939.482367790276
 20
735.2033857065049
 30
0.0
 40
2.5
100
AcDbArc
 50
0.1145914065300158
 51
180.114591405945
  0
LINE
  5
12F
330
6F
100
AcDbEntity
  8
9-0
 62
     4
100
AcDbLine
 10
934.4823677902761
 20
735.1983857065049
 30
0.0
 11
929.482367790276
 21
735.1983857065049
 31
0.0
  0
CIRCLE
  5
130
330
6F
100
AcDbEntity
  8
9-0
  6
Continuous
 62
     4
100
AcDbCircle
 10
941.4823677902759
 20
735.1983857065049
 30
0.0
 40
0.25
  0
CIRCLE
  5
131
330
6F
100
AcDbEntity
  8
9-0
  6
Continuous
 62
     4
100
AcDbCircle
 10
941.4823677902759
 20
735.1983857065049
 30
0.0
 40
0.1875
  0
CIRCLE
  5
132
330
6F
100
AcDbEntity
  8
9-0
  6
Continuous
 62
     4
100
AcDbCircle
 10
941.4823677902759
 20
735.1983857065049
 30
0.0
 40
0.125
  0
CIRCLE
  5
133
330
6F
100
AcDbEntity
  8
9-0
  6
Continuous
 62
     4
100
AcDbCircle
 10
941.4823677902759
 20
735.1983857065049
 30
0.0
 40
0.0625
  0
ARC
  5
134
330
6F
100
AcDbEntity
  8
9-0
 62
     4
100
AcDbCircle
 10
941.4823677902759
 20
735.1933857065049
 30
0.0
 40
2.5
100
AcDbArc
 50
180.1145914065301
 51
0.1145914059449637
  0
LINE
  5
135
330
6F
100
AcDbEntity
  8
9-0
 62
     4
100
AcDbLine
 10
946.482367790276
 20
735.1983857065558
 30
0.0
 11
951.4823677902761
 21
735.198385706607
 31
0.0
  0
LINE
  5
136
330
6F
100
AcDbEntity
  8
9-0
  6
Continuous
 62
     4
100
AcDbLine
 10
939.482368
 20
800.347462
 30
0.0
 11
939.482368
 21
735.198386
 31
0.0
  0
LINE
  5
137
330
6F
100
AcDbEntity
  8
9-0
  6
Continuous
 62
     4
100
AcDbLine
 10
545.4823679999999
 20
797.341473
 30
0.0
 11
545.4823679999999
 21
735.198386
 31
0.0
  0
TEXT
  5
138
330
6F
100
AcDbEntity
  8
9-0
 62
     4
100
AcDbText
 10
711.705
 20
735.8179999999999
 30
0.0
 40
36.288
  1
394
100
AcDbText
  0
LINE
  5
139
330
6F
100
AcDbEntity
  8
9-0
  6
Continuous
 62
     4
100
AcDbLine
 10
545.482367790276
 20
735.1983857065049
 30
0.0
 11
939.482367790276
 21
735.1983857065049
 31
0.0
  0
CIRCLE
  5
13A
330
6F
100
AcDbEntity
  8
9-0
  6
Continuous
 62
     4
100
AcDbCircle
 10
545.482367790276
 20
735.1983857065049
 30
0.0
 40
0.25
  0
CIRCLE
  5
13B
330
6F
100
AcDbEntity
  8
9-0
  6
Continuous
 62
     4
100
AcDbCircle
 10
545.482367790276
 20
735.1983857065049
 30
0.0
 40
0.1875
  0
CIRCLE
  5
13C
330
6F
100
AcDbEntity
  8
9-0
  6
Continuous
 62
     4
100
AcDbCircle
 10
545.482367790276
 20
735.1983857065049
 30
0.0
 40
0.125
  0
CIRCLE
  5
13D
330
6F
100
AcDbEntity
  8
9-0
  6
Continuous
 62
     4
100
AcDbCircle
 10
545.482367790276
 20
735.1983857065049
 30
0.0
 40
0.0625
  0
CIRCLE
  5
13E
330
6F
100
AcDbEntity
  8
9-0
  6
Continuous
 62
     4
100
AcDbCircle
 10
939.482367790276
 20
735.1983857065049
 30
0.0
 40
0.25
  0
CIRCLE
  5
13F
330
6F
100
AcDbEntity
  8
9-0
  6
Continuous
 62
     4
100
AcDbCircle
 10
939.482367790276
 20
735.1983857065049
 30
0.0
 40
0.1875
  0
CIRCLE
  5
140
330
6F
100
AcDbEntity
  8
9-0
  6
Continuous
 62
     4
100
AcDbCircle
 10
939.482367790276
 20
735.1983857065049
 30
0.0
 40
0.125
  0
CIRCLE
  5
141
330
6F
100
AcDbEntity
  8
9-0
  6
Continuous
 62
     4
100
AcDbCircle
 10
939.482367790276
 20
735.1983857065049
 30
0.0
 40
0.0625
  0
LINE
  5
142
330
6F
100
AcDbEntity
  8
9-0
  6
Continuous
 62
     4
100
AcDbLine
 10
540.4823679999999
 20
797.341473
 30
0.0
 11
540.4823679999999
 21
735.198386
 31
0.0
  0
LINE
  5
143
330
6F
100
AcDbEntity
  8
9-0
  6
Continuous
 62
     4
100
AcDbLine
 10
545.4823679999999
 20
797.341473
 30
0.0
 11
545.4823679999999
 21
735.198386
 31
0.0
  0
TEXT
  5
144
330
6F
100
AcDbEntity
  8
9-0
 62
     4
100
AcDbText
 10
573.9159999999999
 20
668.318
 30
0.0
 40
36.288
  1
5
100
AcDbText
  0
LINE
  5
145
330
6F
100
AcDbEntity
  8
9-0
  6
Continuous
 62
     4
100
AcDbLine
 10
545.482367790276
 20
735.1983857065049
 30
0.0
 11
540.482367790276
 21
735.1983857065049
 31
0.0
  0
CIRCLE
  5
146
330
6F
100
AcDbEntity
  8
9-0
  6
Continuous
 62
     4
100
AcDbCircle
 10
545.482367790276
 20
735.1983857065049
 30
0.0
 40
0.25
  0
CIRCLE
  5
147
330
6F
100
AcDbEntity
  8
9-0
  6
Continuous
 62
     4
100
AcDbCircle
 10
545.482367790276
 20
735.1983857065049
 30
0.0
 40
0.1875
  0
CIRCLE
  5
148
330
6F
100
AcDbEntity
  8
9-0
  6
Continuous
 62
     4
100
AcDbCircle
 10
545.482367790276
 20
735.1983857065049
 30
0.0
 40
0.125
  0
CIRCLE
  5
149
330
6F
100
AcDbEntity
  8
9-0
  6
Continuous
 62
     4
100
AcDbCircle
 10
545.482367790276
 20
735.1983857065049
 30
0.0
 40
0.0625
  0
CIRCLE
  5
14A
330
6F
100
AcDbEntity
  8
9-0
  6
Continuous
 62
     4
100
AcDbCircle
 10
540.482367790276
 20
735.1983857065049
 30
0.0
 40
0.25
  0
CIRCLE
  5
14B
330
6F
100
AcDbEntity
  8
9-0
  6
Continuous
 62
     4
100
AcDbCircle
 10
540.482367790276
 20
735.1983857065049
 30
0.0
 40
0.1875
  0
CIRCLE
  5
14C
330
6F
100
AcDbEntity
  8
9-0
  6
Continuous
 62
     4
100
AcDbCircle
 10
540.482367790276
 20
735.1983857065049
 30
0.0
 40
0.125
  0
CIRCLE
  5
14D
330
6F
100
AcDbEntity
  8
9-0
  6
Continuous
 62
     4
100
AcDbCircle
 10
540.482367790276
 20
735.1983857065049
 30
0.0
 40
0.0625
  0
LINE
  5
14E
330
6F
100
AcDbEntity
  8
2-0
  6
CENTER
 62
     8
100
AcDbLine
 10
1337.482368
 20
1144.833345
 30
0.0
 11
941.4823679999999
 21
897.833345
 31
0.0
  0
LINE
  5
14F
330
6F
100
AcDbEntity
  8
2-0
  6
CENTER
 62
     8
100
AcDbLine
 10
941.4823679999999
 20
1391.833345
 30
0.0
 11
1337.482368
 21
1144.833345
 31
0.0
  0
LINE
  5
150
330
6F
100
AcDbEntity
  8
2-0
  6
CENTER
 62
     8
100
AcDbLine
 10
543.482368
 20
1144.833345
 30
0.0
 11
939.482368
 21
897.833345
 31
0.0
  0
LINE
  5
151
330
6F
100
AcDbEntity
  8
2-0
  6
CENTER
 62
     8
100
AcDbLine
 10
939.482368
 20
1391.833345
 30
0.0
 11
543.482368
 21
1144.833345
 31
0.0
  0
LINE
  5
152
330
6F
100
AcDbEntity
  8
2-0
  6
Continuous
 62
     7
100
AcDbLine
 10
939.482368
 20
871.8333450000001
 30
0.0
 11
545.4823679999999
 21
871.8333450000001
 31
0.0
  0
LINE
  5
153
330
6F
100
AcDbEntity
  8
2-0
  6
Continuous
 62
     7
100
AcDbLine
 10
1335.482368
 20
871.8333450000001
 30
0.0
 11
941.4823679999999
 21
871.8333450000001
 31
0.0
  0
LINE
  5
154
330
6F
100
AcDbEntity
  8
2-0
  6
Continuous
 62
     7
100
AcDbLine
 10
1335.482368
 20
1391.833345
 30
0.0
 11
941.4823679999999
 21
1391.833345
 31
0.0
  0
LINE
  5
155
330
6F
100
AcDbEntity
  8
2-0
  6
Continuous
 62
     7
100
AcDbLine
 10
939.482368
 20
1391.833345
 30
0.0
 11
545.4823679999999
 21
1391.833345
 31
0.0
  0
LINE
  5
156
330
6F
100
AcDbEntity
  8
2-0
  6
Continuous
 62
     7
100
AcDbLine
 10
1335.482368
 20
1391.833345
 30
0.0
 11
1335.482368
 21
871.8333450000001
 31
0.0
  0
LINE
  5
157
330
6F
100
AcDbEntity
  8
2-0
  6
Continuous
 62
     7
100
AcDbLine
 10
939.482368
 20
1391.833345
 30
0.0
 11
939.482368
 21
871.8333450000001
 31
0.0
  0
LINE
  5
158
330
6F
100
AcDbEntity
  8
2-0
  6
Continuous
 62
     7
100
AcDbLine
 10
941.4823679999999
 20
1391.833345
 30
0.0
 11
941.4823679999999
 21
871.8333450000001
 31
0.0
  0
LINE
  5
159
330
6F
100
AcDbEntity
  8
9-0
  6
Continuous
 62
     4
100
AcDbLine
 10
500.126888
 20
1391.833345
 30
0.0
 11
383.646692
 21
1391.833345
 31
0.0
  0
LINE
  5
15A
330
6F
100
AcDbEntity
  8
9-0
  6
Continuous
 62
     4
100
AcDbLine
 10
500.111477
 20
1396.833345
 30
0.0
 11
383.646692
 21
1396.833345
 31
0.0
  0
TEXT
  5
15B
330
6F
100
AcDbEntity
  8
9-0
 62
     4
100
AcDbText
 10
350.527
 20
1411.944
 30
0.0
 40
36.288
  1
5
 50
90.0
100
AcDbText
  0
LINE
  5
15C
330
6F
100
AcDbEntity
  8
9-0
  6
Continuous
 62
     4
100
AcDbLine
 10
383.6466916941
 20
1396.833344616548
 30
0.0
 11
383.6466916941
 21
1391.83334461655
 31
0.0
  0
CIRCLE
  5
15D
330
6F
100
AcDbEntity
  8
9-0
  6
Continuous
 62
     4
100
AcDbCircle
 10
383.6466916941
 20
1396.833344616548
 30
0.0
 40
0.25
  0
CIRCLE
  5
15E
330
6F
100
AcDbEntity
  8
9-0
  6
Continuous
 62
     4
100
AcDbCircle
 10
383.6466916941
 20
1396.833344616548
 30
0.0
 40
0.1875
  0
CIRCLE
  5
15F
330
6F
100
AcDbEntity
  8
9-0
  6
Continuous
 62
     4
100
AcDbCircle
 10
383.6466916941
 20
1396.833344616548
 30
0.0
 40
0.125
  0
CIRCLE
  5
160
330
6F
100
AcDbEntity
  8
9-0
  6
Continuous
 62
     4
100
AcDbCircle
 10
383.6466916941
 20
1396.833344616548
 30
0.0
 40
0.0625
  0
CIRCLE
  5
161
330
6F
100
AcDbEntity
  8
9-0
  6
Continuous
 62
     4
100
AcDbCircle
 10
383.6466916941
 20
1391.83334461655
 30
0.0
 40
0.25
  0
CIRCLE
  5
162
330
6F
100
AcDbEntity
  8
9-0
  6
Continuous
 62
     4
100
AcDbCircle
 10
383.6466916941
 20
1391.83334461655
 30
0.0
 40
0.1875
  0
CIRCLE
  5
163
330
6F
100
AcDbEntity
  8
9-0
  6
Continuous
 62
     4
100
AcDbCircle
 10
383.6466916941
 20
1391.83334461655
 30
0.0
 40
0.125
  0
CIRCLE
  5
164
330
6F
100
AcDbEntity
  8
9-0
  6
Continuous
 62
     4
100
AcDbCircle
 10
383.6466916941
 20
1391.83334461655
 30
0.0
 40
0.0625
  0
LINE
  5
165
330
6F
100
AcDbEntity
  8
9-0
  6
Continuous
 62
     4
100
AcDbLine
 10
500.126888
 20
1391.833345
 30
0.0
 11
383.646692
 21
1391.833345
 31
0.0
  0
LINE
  5
166
330
6F
100
AcDbEntity
  8
9-0
  6
Continuous
 62
     4
100
AcDbLine
 10
503.482368
 20
871.8333450000001
 30
0.0
 11
383.646692
 21
871.8333450000001
 31
0.0
  0
TEXT
  5
167
330
6F
100
AcDbEntity
  8
9-0
 62
     4
100
AcDbText
 10
383.027
 20
1098.233
 30
0.0
 40
36.288
  1
520
 50
90.0
100
AcDbText
  0
LINE
  5
168
330
6F
100
AcDbEntity
  8
9-0
  6
Continuous
 62
     4
100
AcDbLine
 10
383.6466916941
 20
871.833344616548
 30
0.0
 11
383.6466916941
 21
1391.83334461655
 31
0.0
  0
CIRCLE
  5
169
330
6F
100
AcDbEntity
  8
9-0
  6
Continuous
 62
     4
100
AcDbCircle
 10
383.6466916941
 20
871.833344616548
 30
0.0
 40
0.25
  0
CIRCLE
  5
16A
330
6F
100
AcDbEntity
  8
9-0
  6
Continuous
 62
     4
100
AcDbCircle
 10
383.6466916941
 20
871.833344616548
 30
0.0
 40
0.1875
  0
CIRCLE
  5
16B
330
6F
100
AcDbEntity
  8
9-0
  6
Continuous
 62
     4
100
AcDbCircle
 10
383.6466916941
 20
871.833344616548
 30
0.0
 40
0.125
  0
CIRCLE
  5
16C
330
6F
100
AcDbEntity
  8
9-0
  6
Continuous
 62
     4
100
AcDbCircle
 10
383.6466916941
 20
871.833344616548
 30
0.0
 40
0.0625
  0
CIRCLE
  5
16D
330
6F
100
AcDbEntity
  8
9-0
  6
Continuous
 62
     4
100
AcDbCircle
 10
383.6466916941
 20
1391.83334461655
 30
0.0
 40
0.25
  0
CIRCLE
  5
16E
330
6F
100
AcDbEntity
  8
9-0
  6
Continuous
 62
     4
100
AcDbCircle
 10
383.6466916941
 20
1391.83334461655
 30
0.0
 40
0.1875
  0
CIRCLE
  5
16F
330
6F
100
AcDbEntity
  8
9-0
  6
Continuous
 62
     4
100
AcDbCircle
 10
383.6466916941
 20
1391.83334461655
 30
0.0
 40
0.125
  0
CIRCLE
  5
170
330
6F
100
AcDbEntity
  8
9-0
  6
Continuous
 62
     4
100
AcDbCircle
 10
383.6466916941
 20
1391.83334461655
 30
0.0
 40
0.0625
  0
LINE
  5
171
330
6F
100
AcDbEntity
  8
9-0
  6
Continuous
 62
     4
100
AcDbLine
 10
363.646692
 20
871.8333450000001
 30
0.0
 11
283.646692
 21
871.8333450000001
 31
0.0
  0
LINE
  5
172
330
6F
100
AcDbEntity
  8
9-0
  6
Continuous
 62
     4
100
AcDbLine
 10
363.646692
 20
1396.833345
 30
0.0
 11
283.646692
 21
1396.833345
 31
0.0
  0
TEXT
  5
173
330
6F
100
AcDbEntity
  8
9-0
 62
     4
100
AcDbText
 10
283.027
 20
1100.733
 30
0.0
 40
36.288
  1
525
 50
90.0
100
AcDbText
  0
LINE
  5
174
330
6F
100
AcDbEntity
  8
9-0
  6
Continuous
 62
     4
100
AcDbLine
 10
283.6466916941
 20
1396.833344616547
 30
0.0
 11
283.6466916941
 21
871.833344616548
 31
0.0
  0
CIRCLE
  5
175
330
6F
100
AcDbEntity
  8
9-0
  6
Continuous
 62
     4
100
AcDbCircle
 10
283.6466916941
 20
1396.833344616547
 30
0.0
 40
0.25
  0
CIRCLE
  5
176
330
6F
100
AcDbEntity
  8
9-0
  6
Continuous
 62
     4
100
AcDbCircle
 10
283.6466916941
 20
1396.833344616547
 30
0.0
 40
0.1875
  0
CIRCLE
  5
177
330
6F
100
AcDbEntity
  8
9-0
  6
Continuous
 62
     4
100
AcDbCircle
 10
283.6466916941
 20
1396.833344616547
 30
0.0
 40
0.125
  0
CIRCLE
  5
178
330
6F
100
AcDbEntity
  8
9-0
  6
Continuous
 62
     4
100
AcDbCircle
 10
283.6466916941
 20
1396.833344616547
 30
0.0
 40
0.0625
  0
CIRCLE
  5
179
330
6F
100
AcDbEntity
  8
9-0
  6
Continuous
 62
     4
100
AcDbCircle
 10
283.6466916941
 20
871.833344616548
 30
0.0
 40
0.25
  0
CIRCLE
  5
17A
330
6F
100
AcDbEntity
  8
9-0
  6
Continuous
 62
     4
100
AcDbCircle
 10
283.6466916941
 20
871.833344616548
 30
0.0
 40
0.1875
  0
CIRCLE
  5
17B
330
6F
100
AcDbEntity
  8
9-0
  6
Continuous
 62
     4
100
AcDbCircle
 10
283.6466916941
 20
871.833344616548
 30
0.0
 40
0.125
  0
CIRCLE
  5
17C
330
6F
100
AcDbEntity
  8
9-0
  6
Continuous
 62
     4
100
AcDbCircle
 10
283.6466916941
 20
871.833344616548
 30
0.0
 40
0.0625
  0
LINE
  5
17D
330
6F
100
AcDbEntity
  8
2-0
  6
DASHED2
 62
     7
100
AcDbLine
 10
1323.982368
 20
1149.833345
 30
0.0
 11
554.4823679999999
 21
1149.833345
 31
0.0
  0
LINE
  5
17E
330
6F
100
AcDbEntity
  8
2-0
  6
DASHED2
 62
     7
100
AcDbLine
 10
1323.982368
 20
1161.833345
 30
0.0
 11
554.4823679999999
 21
1161.833345
 31
0.0
  0
LINE
  5
17F
330
6F
100
AcDbEntity
  8
2-0
  6
DASHED2
 62
     7
100
AcDbLine
 10
1323.982368
 20
1381.833345
 30
0.0
 11
554.4823679999999
 21
1381.833345
 31
0.0
  0
LINE
  5
180
330
6F
100
AcDbEntity
  8
2-0
  6
Continuous
 62
     7
100
AcDbLine
 10
545.4823679999999
 20
1391.833345
 30
0.0
 11
545.4823679999999
 21
871.8333450000001
 31
0.0
  0
LINE
  5
181
330
6F
100
AcDbEntity
  8
2-0
  6
DASHED2
 62
     7
100
AcDbLine
 10
1340.482368
 20
896.8333450000001
 30
0.0
 11
540.4823679999999
 21
896.8333450000001
 31
0.0
  0
LINE
  5
182
330
6F
100
AcDbEntity
  8
2-0
  6
Continuous
 62
     7
100
AcDbLine
 10
1340.482368
 20
1396.833345
 30
0.0
 11
540.4823679999999
 21
1396.833345
 31
0.0
  0
LINE
  5
183
330
6F
100
AcDbEntity
  8
2-0
  6
DASHED2
 62
     7
100
AcDbLine
 10
1323.982368
 20
914.333345
 30
0.0
 11
1323.982368
 21
1396.833345
 31
0.0
  0
LINE
  5
184
330
6F
100
AcDbEntity
  8
2-0
  6
DASHED2
 62
     7
100
AcDbLine
 10
554.4823679999999
 20
1396.833345
 30
0.0
 11
554.4823679999999
 21
914.333345
 31
0.0
  0
LINE
  5
185
330
6F
100
AcDbEntity
  8
2-0
  6
Continuous
 62
     7
100
AcDbLine
 10
540.4823679999999
 20
1396.833345
 30
0.0
 11
540.4823679999999
 21
896.8333450000001
 31
0.0
  0
LINE
  5
186
330
6F
100
AcDbEntity
  8
2-0
  6
Continuous
 62
     7
100
AcDbLine
 10
1340.482368
 20
896.8333450000001
 30
0.0
 11
1340.482368
 21
1396.833345
 31
0.0
  0
LINE
  5
187
330
6F
100
AcDbEntity
  8
9-0
  6
Continuous
 62
     4
100
AcDbLine
 10
503.482368
 20
1968.835782
 30
0.0
 11
383.646692
 21
1968.835782
 31
0.0
  0
LINE
  5
188
330
6F
100
AcDbEntity
  8
9-0
  6
Continuous
 62
     4
100
AcDbLine
 10
497.482368
 20
2330.835782
 30
0.0
 11
383.646692
 21
2330.835782
 31
0.0
  0
TEXT
  5
189
330
6F
100
AcDbEntity
  8
9-0
 62
     4
100
AcDbText
 10
383.027
 20
2116.236
 30
0.0
 40
36.288
  1
362
 50
90.0
100
AcDbText
  0
LINE
  5
18A
330
6F
100
AcDbEntity
  8
9-0
  6
Continuous
 62
     4
100
AcDbLine
 10
383.6466916941
 20
2330.835782059136
 30
0.0
 11
383.6466916941
 21
1968.835782059136
 31
0.0
  0
CIRCLE
  5
18B
330
6F
100
AcDbEntity
  8
9-0
  6
Continuous
 62
     4
100
AcDbCircle
 10
383.6466916941
 20
2330.835782059136
 30
0.0
 40
0.25
  0
CIRCLE
  5
18C
330
6F
100
AcDbEntity
  8
9-0
  6
Continuous
 62
     4
100
AcDbCircle
 10
383.6466916941
 20
2330.835782059136
 30
0.0
 40
0.1875
  0
CIRCLE
  5
18D
330
6F
100
AcDbEntity
  8
9-0
  6
Continuous
 62
     4
100
AcDbCircle
 10
383.6466916941
 20
2330.835782059136
 30
0.0
 40
0.125
  0
CIRCLE
  5
18E
330
6F
100
AcDbEntity
  8
9-0
  6
Continuous
 62
     4
100
AcDbCircle
 10
383.6466916941
 20
2330.835782059136
 30
0.0
 40
0.0625
  0
CIRCLE
  5
18F
330
6F
100
AcDbEntity
  8
9-0
  6
Continuous
 62
     4
100
AcDbCircle
 10
383.6466916941
 20
1968.835782059136
 30
0.0
 40
0.25
  0
CIRCLE
  5
190
330
6F
100
AcDbEntity
  8
9-0
  6
Continuous
 62
     4
100
AcDbCircle
 10
383.6466916941
 20
1968.835782059136
 30
0.0
 40
0.1875
  0
CIRCLE
  5
191
330
6F
100
AcDbEntity
  8
9-0
  6
Continuous
 62
     4
100
AcDbCircle
 10
383.6466916941
 20
1968.835782059136
 30
0.0
 40
0.125
  0
CIRCLE
  5
192
330
6F
100
AcDbEntity
  8
9-0
  6
Continuous
 62
     4
100
AcDbCircle
 10
383.6466916941
 20
1968.835782059136
 30
0.0
 40
0.0625
  0
LINE
  5
193
330
6F
100
AcDbEntity
  8
9-0
  6
Continuous
 62
     4
100
AcDbLine
 10
540.4823679999999
 20
2370.220719
 30
0.0
 11
540.4823679999999
 21
2535.181395
 31
0.0
  0
LINE
  5
194
330
6F
100
AcDbEntity
  8
9-0
  6
Continuous
 62
     4
100
AcDbLine
 10
1340.482368
 20
2370.535699
 30
0.0
 11
1340.482368
 21
2535.181395
 31
0.0
  0
TEXT
  5
195
330
6F
100
AcDbEntity
  8
9-0
 62
     4
100
AcDbText
 10
909.7050000000001
 20
2535.801
 30
0.0
 40
36.288
  1
800
100
AcDbText
  0
LINE
  5
196
330
6F
100
AcDbEntity
  8
9-0
  6
Continuous
 62
     4
100
AcDbLine
 10
1340.482367790275
 20
2535.181394984856
 30
0.0
 11
540.482367790276
 21
2535.181394984856
 31
0.0
  0
CIRCLE
  5
197
330
6F
100
AcDbEntity
  8
9-0
  6
Continuous
 62
     4
100
AcDbCircle
 10
1340.482367790275
 20
2535.181394984856
 30
0.0
 40
0.25
  0
CIRCLE
  5
198
330
6F
100
AcDbEntity
  8
9-0
  6
Continuous
 62
     4
100
AcDbCircle
 10
1340.482367790275
 20
2535.181394984856
 30
0.0
 40
0.1875
  0
CIRCLE
  5
199
330
6F
100
AcDbEntity
  8
9-0
  6
Continuous
 62
     4
100
AcDbCircle
 10
1340.482367790275
 20
2535.181394984856
 30
0.0
 40
0.125
  0
CIRCLE
  5
19A
330
6F
100
AcDbEntity
  8
9-0
  6
Continuous
 62
     4
100
AcDbCircle
 10
1340.482367790275
 20
2535.181394984856
 30
0.0
 40
0.0625
  0
CIRCLE
  5
19B
330
6F
100
AcDbEntity
  8
9-0
  6
Continuous
 62
     4
100
AcDbCircle
 10
540.482367790276
 20
2535.181394984856
 30
0.0
 40
0.25
  0
CIRCLE
  5
19C
330
6F
100
AcDbEntity
  8
9-0
  6
Continuous
 62
     4
100
AcDbCircle
 10
540.482367790276
 20
2535.181394984856
 30
0.0
 40
0.1875
  0
CIRCLE
  5
19D
330
6F
100
AcDbEntity
  8
9-0
  6
Continuous
 62
     4
100
AcDbCircle
 10
540.482367790276
 20
2535.181394984856
 30
0.0
 40
0.125
  0
CIRCLE
  5
19E
330
6F
100
AcDbEntity
  8
9-0
  6
Continuous
 62
     4
100
AcDbCircle
 10
540.482367790276
 20
2535.181394984856
 30
0.0
 40
0.0625
  0
LINE
  5
19F
330
6F
100
AcDbEntity
  8
2-0
  6
Continuous
 62
     7
100
AcDbLine
 10
941.4823679999999
 20
1968.835782
 30
0.0
 11
1335.482368
 21
1968.835782
 31
0.0
  0
LINE
  5
1A0
330
6F
100
AcDbEntity
  8
2-0
  6
Continuous
 62
     7
100
AcDbLine
 10
941.4823679999999
 20
1983.835782
 30
0.0
 11
1335.482368
 21
1983.835782
 31
0.0
  0
LINE
  5
1A1
330
6F
100
AcDbEntity
  8
2-0
  6
Continuous
 62
     7
100
AcDbLine
 10
939.482368
 20
1983.835782
 30
0.0
 11
939.482368
 21
1968.835782
 31
0.0
  0
LINE
  5
1A2
330
6F
100
AcDbEntity
  8
2-0
  6
Continuous
 62
     7
100
AcDbLine
 10
941.4823679999999
 20
1983.835782
 30
0.0
 11
941.4823679999999
 21
1968.835782
 31
0.0
  0
LINE
  5
1A3
330
6F
100
AcDbEntity
  8
2-0
  6
Continuous
 62
     7
100
AcDbLine
 10
1335.482368
 20
1983.835782
 30
0.0
 11
1335.482368
 21
1968.835782
 31
0.0
  0
LINE
  5
1A4
330
6F
100
AcDbEntity
  8
2-0
  6
DASHED2
 62
     7
100
AcDbLine
 10
1282.982368
 20
2310.835782
 30
0.0
 11
1322.982368
 21
2330.835782
 31
0.0
  0
LINE
  5
1A5
330
6F
100
AcDbEntity
  8
2-0
  6
DASHED2
 62
     7
100
AcDbLine
 10
1322.982368
 20
2023.135782
 30
0.0
 11
557.9823679999999
 21
2023.135782
 31
0.0
  0
LINE
  5
1A6
330
6F
100
AcDbEntity
  8
2-0
  6
DASHED2
 62
     7
100
AcDbLine
 10
557.9823679999999
 20
2310.835782
 30
0.0
 11
597.9823679999999
 21
2330.835782
 31
0.0
  0
LINE
  5
1A7
330
6F
100
AcDbEntity
  8
2-0
  6
DASHED2
 62
     7
100
AcDbLine
 10
1322.982368
 20
2308.135782
 30
0.0
 11
557.9823679999999
 21
2308.135782
 31
0.0
  0
LINE
  5
1A8
330
6F
100
AcDbEntity
  8
2-0
  6
DASHED2
 62
     7
100
AcDbLine
 10
1282.982368
 20
2330.835782
 30
0.0
 11
1282.982368
 21
2310.835782
 31
0.0
  0
LINE
  5
1A9
330
6F
100
AcDbEntity
  8
2-0
  6
DASHED2
 62
     7
100
AcDbLine
 10
597.9823679999999
 20
2330.835782
 30
0.0
 11
597.9823679999999
 21
2310.835782
 31
0.0
  0
LINE
  5
1AA
330
6F
100
AcDbEntity
  8
2-0
  6
Continuous
 62
     7
100
AcDbLine
 10
545.4823679999999
 20
1983.835782
 30
0.0
 11
545.4823679999999
 21
1968.835782
 31
0.0
  0
LINE
  5
1AB
330
6F
100
AcDbEntity
  8
2-0
  6
Continuous
 62
     7
100
AcDbLine
 10
540.4823679999999
 20
1985.835782
 30
0.0
 11
1340.482368
 21
1985.835782
 31
0.0
  0
LINE
  5
1AC
330
6F
100
AcDbEntity
  8
2-0
  6
Continuous
 62
     7
100
AcDbLine
 10
545.4823679999999
 20
1983.835782
 30
0.0
 11
939.482368
 21
1983.835782
 31
0.0
  0
LINE
  5
1AD
330
6F
100
AcDbEntity
  8
2-0
  6
DASHED2
 62
     7
100
AcDbLine
 10
1322.982368
 20
2310.835782
 30
0.0
 11
557.9823679999999
 21
2310.835782
 31
0.0
  0
LINE
  5
1AE
330
6F
100
AcDbEntity
  8
2-0
  6
Continuous
 62
     7
100
AcDbLine
 10
1322.982368
 20
1985.835782
 30
0.0
 11
1322.982368
 21
2330.835782
 31
0.0
  0
LINE
  5
1AF
330
6F
100
AcDbEntity
  8
2-0
  6
Continuous
 62
     7
100
AcDbLine
 10
557.9823679999999
 20
2330.835782
 30
0.0
 11
557.9823679999999
 21
1985.835782
 31
0.0
  0
LINE
  5
1B0
330
6F
100
AcDbEntity
  8
2-0
  6
Continuous
 62
     7
100
AcDbLine
 10
1340.482368
 20
1985.835782
 30
0.0
 11
1340.482368
 21
2330.835782
 31
0.0
  0
LINE
  5
1B1
330
6F
100
AcDbEntity
  8
2-0
  6
Continuous
 62
     7
100
AcDbLine
 10
545.4823679999999
 20
1968.835782
 30
0.0
 11
939.482368
 21
1968.835782
 31
0.0
  0
LINE
  5
1B2
330
6F
100
AcDbEntity
  8
2-0
  6
Continuous
 62
     7
100
AcDbLine
 10
540.4823679999999
 20
2330.835782
 30
0.0
 11
540.4823679999999
 21
1985.835782
 31
0.0
  0
LINE
  5
1B3
330
6F
100
AcDbEntity
  8
2-0
  6
Continuous
 62
     7
100
AcDbLine
 10
1340.482368
 20
2330.835782
 30
0.0
 11
540.4823679999999
 21
2330.835782
 31
0.0
  0
CIRCLE
  5
1B4
330
6F
100
AcDbEntity
  8
4-0
  6
Continuous
 62
     7
100
AcDbCircle
 10
469.5341599999999
 20
805.293808
 30
0.0
 40
0.25
  0
CIRCLE
  5
1B5
330
6F
100
AcDbEntity
  8
4-0
  6
Continuous
 62
     7
100
AcDbCircle
 10
469.5341599999999
 20
805.293808
 30
0.0
 40
0.1875
  0
CIRCLE
  5
1B6
330
6F
100
AcDbEntity
  8
4-0
  6
Continuous
 62
     7
100
AcDbCircle
 10
469.5341599999999
 20
805.293808
 30
0.0
 40
0.125
  0
CIRCLE
  5
1B7
330
6F
100
AcDbEntity
  8
4-0
  6
Continuous
 62
     7
100
AcDbCircle
 10
469.5341599999999
 20
805.293808
 30
0.0
 40
0.0625
  0
CIRCLE
  5
1B8
330
6F
100
AcDbEntity
  8
4-0
  6
Continuous
 62
     7
100
AcDbCircle
 10
384.298435
 20
802.8597089999999
 30
0.0
 40
0.25
  0
CIRCLE
  5
1B9
330
6F
100
AcDbEntity
  8
4-0
  6
Continuous
 62
     7
100
AcDbCircle
 10
384.298435
 20
802.8597089999999
 30
0.0
 40
0.1875
  0
CIRCLE
  5
1BA
330
6F
100
AcDbEntity
  8
4-0
  6
Continuous
 62
     7
100
AcDbCircle
 10
384.298435
 20
802.8597089999999
 30
0.0
 40
0.125
  0
CIRCLE
  5
1BB
330
6F
100
AcDbEntity
  8
4-0
  6
Continuous
 62
     7
100
AcDbCircle
 10
384.298435
 20
802.8597089999999
 30
0.0
 40
0.0625
  0
TEXT
  5
1BC
330
6F
100
AcDbEntity
  8
D-0
 62
     5
100
AcDbText
 10
3151.861
 20
577.3839999999999
 30
0.0
 40
20.736
  1
火山性ガラス質複層板 6t（化粧仕上）
100
AcDbText
  0
LINE
  5
1BD
330
6F
100
AcDbEntity
  8
2-0
  6
Continuous
 62
     7
100
AcDbLine
 10
3068.22353687248
 20
679.50921661515
 30
0.0
 11
3130.248265811316
 21
568.993785100522
 31
0.0
  0
LINE
  5
1BE
330
6F
100
AcDbEntity
  8
2-0
  6
Continuous
 62
     7
100
AcDbLine
 10
3130.248265811316
 20
568.993785100522
 30
0.0
 11
3618.792638105689
 21
568.993785100522
 31
0.0
  0
LINE
  5
1BF
330
6F
100
AcDbEntity
  8
2-0
  6
Continuous
 62
     7
100
AcDbLine
 10
3164.108983
 20
962.254955
 30
0.0
 11
3249.108983
 21
962.254955
 31
0.0
  0
LINE
  5
1C0
330
6F
100
AcDbEntity
  8
2-0
  6
Continuous
 62
     7
100
AcDbLine
 10
2896.22989
 20
668.2425359999999
 30
0.0
 11
3249.108983
 21
668.2425359999999
 31
0.0
  0
LINE
  5
1C1
330
6F
100
AcDbEntity
  8
2-0
  6
Continuous
 62
     7
100
AcDbLine
 10
2896.22989
 20
698.2425359999999
 30
0.0
 11
3204.108983000001
 21
698.2425359999999
 31
0.0
  0
LINE
  5
1C2
330
6F
100
AcDbEntity
  8
2-0
  6
Continuous
 62
     7
100
AcDbLine
 10
2896.22989
 20
755.7425359999999
 30
0.0
 11
2896.22989
 21
668.2425359999999
 31
0.0
  0
LINE
  5
1C3
330
6F
100
AcDbEntity
  8
2-0
  6
Continuous
 62
     7
100
AcDbLine
 10
3180.258463
 20
698.2425359999999
 30
0.0
 11
3180.258463
 21
962.254955
 31
0.0
  0
LINE
  5
1C4
330
6F
100
AcDbEntity
  8
2-0
  6
Continuous
 62
     7
100
AcDbLine
 10
3164.108983
 20
698.2425359999999
 30
0.0
 11
3164.108983
 21
962.254955
 31
0.0
  0
LINE
  5
1C5
330
6F
100
AcDbEntity
  8
2-0
  6
Continuous
 62
     7
100
AcDbLine
 10
3176.608983
 20
698.2425359999999
 30
0.0
 11
3176.608983
 21
962.254955
 31
0.0
  0
TEXT
  5
1C6
330
6F
100
AcDbEntity
  8
D-0
 62
     5
100
AcDbText
 10
2829.551
 20
820.744
 30
0.0
 40
20.736
  1
パーチクルボード
100
AcDbText
  0
LINE
  5
1C7
330
6F
100
AcDbEntity
  8
2-0
  6
Continuous
 62
     7
100
AcDbLine
 10
3110.971409255292
 20
722.1073937405471
 30
0.0
 11
3052.738504322083
 21
812.8655052685409
 31
0.0
  0
LINE
  5
1C8
330
6F
100
AcDbEntity
  8
2-0
  6
Continuous
 62
     7
100
AcDbLine
 10
3052.738504322083
 20
812.8655052685409
 30
0.0
 11
2822.624867958447
 21
812.8655052685409
 31
0.0
  0
LINE
  5
1C9
330
6F
100
AcDbEntity
  8
2-0
  6
Continuous
 62
     7
100
AcDbLine
 10
2896.22989
 20
743.2425359999999
 30
0.0
 11
3164.108983
 21
743.2425359999999
 31
0.0
  0
LINE
  5
1CA
330
6F
100
AcDbEntity
  8
2-0
  6
Continuous
 62
     7
100
AcDbLine
 10
2896.22989
 20
755.7425359999999
 30
0.0
 11
3164.108983
 21
755.7425359999999
 31
0.0
  0
LINE
  5
1CB
330
6F
100
AcDbEntity
  8
2-0
  6
Continuous
 62
     7
100
AcDbLine
 10
3204.108983000001
 20
668.2425359999999
 30
0.0
 11
3204.108983000001
 21
962.254955
 31
0.0
  0
LINE
  5
1CC
330
6F
100
AcDbEntity
  8
2-0
  6
Continuous
 62
     7
100
AcDbLine
 10
3249.108983
 20
668.2425359999999
 30
0.0
 11
3249.108983
 21
962.254955
 31
0.0
  0
TEXT
  5
1CD
330
6F
100
AcDbEntity
  8
D-0
 62
     5
100
AcDbText
 10
3167.615
 20
529.63
 30
0.0
 40
20.736
  1
(不燃認定品)
100
AcDbText
  0
LINE
  5
1CE
330
6F
100
AcDbEntity
  8
2-0
  6
Continuous
 62
     7
100
AcDbLine
 10
3200.258463
 20
698.2425359999999
 30
0.0
 11
3200.258463
 21
962.254955
 31
0.0
  0
LINE
  5
1CF
330
6F
100
AcDbEntity
  8
2-0
  6
Continuous
 62
     7
100
AcDbLine
 10
3195.258463
 20
698.2425359999999
 30
0.0
 11
3195.258463
 21
962.254955
 31
0.0
  0
LINE
  5
1D0
330
6F
100
AcDbEntity
  8
2-0
  6
Continuous
 62
     7
100
AcDbLine
 10
3190.258463000001
 20
698.2425359999999
 30
0.0
 11
3190.258463000001
 21
962.254955
 31
0.0
  0
LINE
  5
1D1
330
6F
100
AcDbEntity
  8
2-0
  6
Continuous
 62
     7
100
AcDbLine
 10
3185.258463
 20
698.2425359999999
 30
0.0
 11
3185.258463
 21
962.254955
 31
0.0
  0
LINE
  5
1D2
330
6F
100
AcDbEntity
  8
2-0
  6
Continuous
 62
     7
100
AcDbLine
 10
3187.048118939202
 20
833.2135480955459
 30
0.0
 11
3128.815214005995
 21
924.8807505326301
 31
0.0
  0
LINE
  5
1D3
330
6F
100
AcDbEntity
  8
2-0
  6
Continuous
 62
     7
100
AcDbLine
 10
3128.815214005995
 20
924.8807505326301
 30
0.0
 11
2953.133395824177
 21
924.8807505326301
 31
0.0
  0
TEXT
  5
1D4
330
6F
100
AcDbEntity
  8
D-0
 62
     5
100
AcDbText
 10
2956.828
 20
931.85
 30
0.0
 40
20.736
  1
ラワンベニヤ
100
AcDbText
  0
LINE
  5
1D5
330
6F
100
AcDbEntity
  8
2-0
  6
Continuous
 62
     7
100
AcDbLine
 10
3234.54023656415
 20
836.86189334759
 30
0.0
 11
3296.564965502986
 21
726.3464618329581
 31
0.0
  0
LINE
  5
1D6
330
6F
100
AcDbEntity
  8
2-0
  6
Continuous
 62
     7
100
AcDbLine
 10
3296.564965502986
 20
726.3464618329581
 30
0.0
 11
3785.109337797358
 21
726.3464618329581
 31
0.0
  0
TEXT
  5
1D7
330
6F
100
AcDbEntity
  8
D-0
 62
     5
100
AcDbText
 10
3318.178
 20
734.7360000000001
 30
0.0
 40
20.736
  1
火山性ガラス質複層板 9t（化粧仕上）
100
AcDbText
  0
TEXT
  5
1D8
330
6F
100
AcDbEntity
  8
D-0
 62
     5
100
AcDbText
 10
3333.931
 20
686.9819999999999
 30
0.0
 40
20.736
  1
(不燃認定品)
100
AcDbText
  0
TEXT
  5
1D9
330
6F
100
AcDbEntity
  8
D-0
 62
     5
100
AcDbText
 10
3144.75
 20
434.621
 30
0.0
 40
25.92
  1
Ａ部 詳細図
100
AcDbText
  0
LINE
  5
1DA
330
6F
100
AcDbEntity
  8
2-0
  6
Continuous
 62
     7
100
AcDbLine
 10
3065.665284
 20
475.016718
 30
0.0
 11
3398.445813
 21
475.016718
 31
0.0
  0
LINE
  5
1DB
330
6F
100
AcDbEntity
  8
2-0
  6
Continuous
 62
     7
100
AcDbLine
 10
3065.665284
 20
425.016718
 30
0.0
 11
3398.445813
 21
425.016718
 31
0.0
  0
LINE
  5
1DC
330
6F
100
AcDbEntity
  8
2-0
  6
Continuous
 62
     7
100
AcDbLine
 10
3065.665284
 20
475.016718
 30
0.0
 11
3065.665284
 21
425.016718
 31
0.0
  0
LINE
  5
1DD
330
6F
100
AcDbEntity
  8
2-0
  6
Continuous
 62
     7
100
AcDbLine
 10
3398.445813
 20
475.016718
 30
0.0
 11
3398.445813
 21
425.016718
 31
0.0
  0
LINE
  5
1DE
330
6F
100
AcDbEntity
  8
2-0
  6
Continuous
 62
     7
100
AcDbLine
 10
2641.969637
 20
1180.803114
 30
0.0
 11
2641.969637
 21
450.016718
 31
0.0
  0
LINE
  5
1DF
330
6F
100
AcDbEntity
  8
2-0
  6
Continuous
 62
     7
100
AcDbLine
 10
2641.969637
 20
1180.803114
 30
0.0
 11
3849.930019
 21
1180.803114
 31
0.0
  0
LINE
  5
1E0
330
6F
100
AcDbEntity
  8
2-0
  6
Continuous
 62
     7
100
AcDbLine
 10
2641.969637
 20
450.016718
 30
0.0
 11
3065.665284
 21
450.016718
 31
0.0
  0
LINE
  5
1E1
330
6F
100
AcDbEntity
  8
2-0
  6
Continuous
 62
     7
100
AcDbLine
 10
3849.930019
 20
1180.803114
 30
0.0
 11
3849.930019
 21
450.016718
 31
0.0
  0
LINE
  5
1E2
330
6F
100
AcDbEntity
  8
2-0
  6
Continuous
 62
     7
100
AcDbLine
 10
3398.445813
 20
450.016718
 30
0.0
 11
3849.930019
 21
450.016718
 31
0.0
  0
LINE
  5
1E3
330
6F
100
AcDbEntity
  8
2-0
  6
Continuous
 62
     4
100
AcDbLine
 10
2906.26358
 20
698.2425359999999
 30
0.0
 11
2810.995495
 21
698.2425359999999
 31
0.0
  0
LINE
  5
1E4
330
6F
100
AcDbEntity
  8
2-0
  6
Continuous
 62
     4
100
AcDbLine
 10
2906.136063
 20
668.2425359999999
 30
0.0
 11
2810.995495
 21
668.2425359999999
 31
0.0
  0
LINE
  5
1E5
330
6F
100
AcDbEntity
  8
2-0
  6
Continuous
 62
     4
100
AcDbLine
 10
2810.995495
 20
708.242536
 30
0.0
 11
2810.995495
 21
718.2425359999999
 31
0.0
  0
LINE
  5
1E6
330
6F
100
AcDbEntity
  8
2-0
  6
Continuous
 62
     4
100
AcDbLine
 10
2810.995495
 20
658.242536
 30
0.0
 11
2810.995495
 21
648.2425359999999
 31
0.0
  0
TEXT
  5
1E7
330
6F
100
AcDbEntity
  8
2-0
 62
     4
100
AcDbText
 10
2807.695000000001
 20
675.243
 30
0.0
 40
25.92
  1
6
 50
90.0
100
AcDbText
  0
LINE
  5
1E8
330
6F
100
AcDbEntity
  8
2-0
  6
Continuous
 62
     4
100
AcDbLine
 10
2810.995495
 20
698.2425359999999
 30
0.0
 11
2810.995495
 21
668.2425359999999
 31
0.0
  0
CIRCLE
  5
1E9
330
6F
100
AcDbEntity
  8
2-0
  6
Continuous
 62
     4
100
AcDbCircle
 10
2810.995494710283
 20
698.2425355109679
 30
0.0
 40
0.25
  0
CIRCLE
  5
1EA
330
6F
100
AcDbEntity
  8
2-0
  6
Continuous
 62
     4
100
AcDbCircle
 10
2810.995494710283
 20
698.2425355109679
 30
0.0
 40
0.1875
  0
CIRCLE
  5
1EB
330
6F
100
AcDbEntity
  8
2-0
  6
Continuous
 62
     4
100
AcDbCircle
 10
2810.995494710283
 20
698.2425355109679
 30
0.0
 40
0.125
  0
CIRCLE
  5
1EC
330
6F
100
AcDbEntity
  8
2-0
  6
Continuous
 62
     4
100
AcDbCircle
 10
2810.995494710283
 20
698.2425355109679
 30
0.0
 40
0.0625
  0
ARC
  5
1ED
330
6F
100
AcDbEntity
  8
2-0
 62
     4
100
AcDbCircle
 10
2811.000494710283
 20
698.2425355109679
 30
0.0
 40
2.5
100
AcDbArc
 50
270.1145914065301
 51
90.11459140594496
  0
LINE
  5
1EE
330
6F
100
AcDbEntity
  8
2-0
 62
     4
100
AcDbLine
 10
2810.995494710207
 20
703.242535510968
 30
0.0
 11
2810.99549471013
 21
708.242535510968
 31
0.0
  0
CIRCLE
  5
1EF
330
6F
100
AcDbEntity
  8
2-0
  6
Continuous
 62
     4
100
AcDbCircle
 10
2810.995494710283
 20
668.2425355109679
 30
0.0
 40
0.25
  0
CIRCLE
  5
1F0
330
6F
100
AcDbEntity
  8
2-0
  6
Continuous
 62
     4
100
AcDbCircle
 10
2810.995494710283
 20
668.2425355109679
 30
0.0
 40
0.1875
  0
CIRCLE
  5
1F1
330
6F
100
AcDbEntity
  8
2-0
  6
Continuous
 62
     4
100
AcDbCircle
 10
2810.995494710283
 20
668.2425355109679
 30
0.0
 40
0.125
  0
CIRCLE
  5
1F2
330
6F
100
AcDbEntity
  8
2-0
  6
Continuous
 62
     4
100
AcDbCircle
 10
2810.995494710283
 20
668.2425355109679
 30
0.0
 40
0.0625
  0
ARC
  5
1F3
330
6F
100
AcDbEntity
  8
2-0
 62
     4
100
AcDbCircle
 10
2810.990494710284
 20
668.2425355109679
 30
0.0
 40
2.5
100
AcDbArc
 50
90.11459140653
 51
270.114591405945
  0
LINE
  5
1F4
330
6F
100
AcDbEntity
  8
2-0
 62
     4
100
AcDbLine
 10
2810.995494710308
 20
663.2425355109679
 30
0.0
 11
2810.995494710334
 21
658.242535510968
 31
0.0
  0
LINE
  5
1F5
330
6F
100
AcDbEntity
  8
2-0
  6
Continuous
 62
     4
100
AcDbLine
 10
2906.26358
 20
698.2425359999999
 30
0.0
 11
2810.995495
 21
698.2425359999999
 31
0.0
  0
LINE
  5
1F6
330
6F
100
AcDbEntity
  8
2-0
  6
Continuous
 62
     4
100
AcDbLine
 10
2906.072304
 20
743.2425359999999
 30
0.0
 11
2810.995495
 21
743.2425359999999
 31
0.0
  0
LINE
  5
1F7
330
6F
100
AcDbEntity
  8
2-0
  6
Continuous
 62
     4
100
AcDbLine
 10
2810.995495
 20
708.242536
 30
0.0
 11
2810.995495
 21
733.242536
 31
0.0
  0
TEXT
  5
1F8
330
6F
100
AcDbEntity
  8
2-0
 62
     4
100
AcDbText
 10
2807.695000000001
 20
712.743
 30
0.0
 40
25.92
  1
9
 50
90.0
100
AcDbText
  0
CIRCLE
  5
1F9
330
6F
100
AcDbEntity
  8
2-0
  6
Continuous
 62
     4
100
AcDbCircle
 10
2810.995494710283
 20
698.2425355109679
 30
0.0
 40
0.25
  0
CIRCLE
  5
1FA
330
6F
100
AcDbEntity
  8
2-0
  6
Continuous
 62
     4
100
AcDbCircle
 10
2810.995494710283
 20
698.2425355109679
 30
0.0
 40
0.1875
  0
CIRCLE
  5
1FB
330
6F
100
AcDbEntity
  8
2-0
  6
Continuous
 62
     4
100
AcDbCircle
 10
2810.995494710283
 20
698.2425355109679
 30
0.0
 40
0.125
  0
CIRCLE
  5
1FC
330
6F
100
AcDbEntity
  8
2-0
  6
Continuous
 62
     4
100
AcDbCircle
 10
2810.995494710283
 20
698.2425355109679
 30
0.0
 40
0.0625
  0
ARC
  5
1FD
330
6F
100
AcDbEntity
  8
2-0
 62
     4
100
AcDbCircle
 10
2811.000494710283
 20
698.2425355109679
 30
0.0
 40
2.5
100
AcDbArc
 50
270.1145914065301
 51
90.11459140594496
  0
LINE
  5
1FE
330
6F
100
AcDbEntity
  8
2-0
 62
     4
100
AcDbLine
 10
2810.995494710207
 20
703.242535510968
 30
0.0
 11
2810.99549471013
 21
708.242535510968
 31
0.0
  0
CIRCLE
  5
1FF
330
6F
100
AcDbEntity
  8
2-0
  6
Continuous
 62
     4
100
AcDbCircle
 10
2810.995494710283
 20
743.2425355109679
 30
0.0
 40
0.25
  0
CIRCLE
  5
200
330
6F
100
AcDbEntity
  8
2-0
  6
Continuous
 62
     4
100
AcDbCircle
 10
2810.995494710283
 20
743.2425355109679
 30
0.0
 40
0.1875
  0
CIRCLE
  5
201
330
6F
100
AcDbEntity
  8
2-0
  6
Continuous
 62
     4
100
AcDbCircle
 10
2810.995494710283
 20
743.2425355109679
 30
0.0
 40
0.125
  0
CIRCLE
  5
202
330
6F
100
AcDbEntity
  8
2-0
  6
Continuous
 62
     4
100
AcDbCircle
 10
2810.995494710283
 20
743.2425355109679
 30
0.0
 40
0.0625
  0
ARC
  5
203
330
6F
100
AcDbEntity
  8
2-0
 62
     4
100
AcDbCircle
 10
2810.990494710284
 20
743.2425355109679
 30
0.0
 40
2.5
100
AcDbArc
 50
90.11459140653
 51
270.114591405945
  0
LINE
  5
204
330
6F
100
AcDbEntity
  8
2-0
 62
     4
100
AcDbLine
 10
2810.995494710308
 20
738.2425355109679
 30
0.0
 11
2810.995494710334
 21
733.242535510968
 31
0.0
  0
LINE
  5
205
330
6F
100
AcDbEntity
  8
2-0
  6
Continuous
 62
     4
100
AcDbLine
 10
2906.125436
 20
755.7425359999999
 30
0.0
 11
2810.995495
 21
755.7425359999999
 31
0.0
  0
LINE
  5
206
330
6F
100
AcDbEntity
  8
2-0
  6
Continuous
 62
     4
100
AcDbLine
 10
2906.072304
 20
743.2425359999999
 30
0.0
 11
2810.995495
 21
743.2425359999999
 31
0.0
  0
LINE
  5
207
330
6F
100
AcDbEntity
  8
2-0
  6
Continuous
 62
     4
100
AcDbLine
 10
2810.995495
 20
765.7425359999999
 30
0.0
 11
2810.995495
 21
775.742536
 31
0.0
  0
LINE
  5
208
330
6F
100
AcDbEntity
  8
2-0
  6
Continuous
 62
     4
100
AcDbLine
 10
2810.995495
 20
733.242536
 30
0.0
 11
2810.995495
 21
723.2425359999999
 31
0.0
  0
TEXT
  5
209
330
6F
100
AcDbEntity
  8
2-0
 62
     4
100
AcDbText
 10
2809.482
 20
770.293
 30
0.0
 40
25.92
  1
2.5
 50
90.0
100
AcDbText
  0
LINE
  5
20A
330
6F
100
AcDbEntity
  8
2-0
  6
Continuous
 62
     4
100
AcDbLine
 10
2810.995495
 20
755.7425359999999
 30
0.0
 11
2810.995495
 21
743.2425359999999
 31
0.0
  0
CIRCLE
  5
20B
330
6F
100
AcDbEntity
  8
2-0
  6
Continuous
 62
     4
100
AcDbCircle
 10
2810.995494710283
 20
755.7425355109679
 30
0.0
 40
0.25
  0
CIRCLE
  5
20C
330
6F
100
AcDbEntity
  8
2-0
  6
Continuous
 62
     4
100
AcDbCircle
 10
2810.995494710283
 20
755.7425355109679
 30
0.0
 40
0.1875
  0
CIRCLE
  5
20D
330
6F
100
AcDbEntity
  8
2-0
  6
Continuous
 62
     4
100
AcDbCircle
 10
2810.995494710283
 20
755.7425355109679
 30
0.0
 40
0.125
  0
CIRCLE
  5
20E
330
6F
100
AcDbEntity
  8
2-0
  6
Continuous
 62
     4
100
AcDbCircle
 10
2810.995494710283
 20
755.7425355109679
 30
0.0
 40
0.0625
  0
ARC
  5
20F
330
6F
100
AcDbEntity
  8
2-0
 62
     4
100
AcDbCircle
 10
2811.000494710283
 20
755.7425355109688
 30
0.0
 40
2.5
100
AcDbArc
 50
270.1145914065301
 51
90.11459140594496
  0
LINE
  5
210
330
6F
100
AcDbEntity
  8
2-0
 62
     4
100
AcDbLine
 10
2810.995494710207
 20
760.7425355109679
 30
0.0
 11
2810.99549471013
 21
765.742535510968
 31
0.0
  0
CIRCLE
  5
211
330
6F
100
AcDbEntity
  8
2-0
  6
Continuous
 62
     4
100
AcDbCircle
 10
2810.995494710283
 20
743.2425355109679
 30
0.0
 40
0.25
  0
CIRCLE
  5
212
330
6F
100
AcDbEntity
  8
2-0
  6
Continuous
 62
     4
100
AcDbCircle
 10
2810.995494710283
 20
743.2425355109679
 30
0.0
 40
0.1875
  0
CIRCLE
  5
213
330
6F
100
AcDbEntity
  8
2-0
  6
Continuous
 62
     4
100
AcDbCircle
 10
2810.995494710283
 20
743.2425355109679
 30
0.0
 40
0.125
  0
CIRCLE
  5
214
330
6F
100
AcDbEntity
  8
2-0
  6
Continuous
 62
     4
100
AcDbCircle
 10
2810.995494710283
 20
743.2425355109679
 30
0.0
 40
0.0625
  0
ARC
  5
215
330
6F
100
AcDbEntity
  8
2-0
 62
     4
100
AcDbCircle
 10
2810.990494710284
 20
743.2425355109679
 30
0.0
 40
2.5
100
AcDbArc
 50
90.11459140653
 51
270.114591405945
  0
LINE
  5
216
330
6F
100
AcDbEntity
  8
2-0
 62
     4
100
AcDbLine
 10
2810.995494710308
 20
738.2425355109679
 30
0.0
 11
2810.995494710334
 21
733.242535510968
 31
0.0
  0
LINE
  5
217
330
6F
100
AcDbEntity
  8
2-0
  6
Continuous
 62
     4
100
AcDbLine
 10
2884.351611
 20
755.7425359999999
 30
0.0
 11
2760.995495
 21
755.7425359999999
 31
0.0
  0
LINE
  5
218
330
6F
100
AcDbEntity
  8
2-0
  6
Continuous
 62
     4
100
AcDbLine
 10
2883.979686
 20
668.2425359999999
 30
0.0
 11
2760.995495
 21
668.2425359999999
 31
0.0
  0
LINE
  5
219
330
6F
100
AcDbEntity
  8
2-0
  6
Continuous
 62
     4
100
AcDbLine
 10
2760.995495
 20
745.742536
 30
0.0
 11
2760.995495
 21
678.2425359999999
 31
0.0
  0
TEXT
  5
21A
330
6F
100
AcDbEntity
  8
2-0
 62
     4
100
AcDbText
 10
2757.695
 20
679.993
 30
0.0
 40
25.92
  1
17.5
 50
90.0
100
AcDbText
  0
CIRCLE
  5
21B
330
6F
100
AcDbEntity
  8
2-0
  6
Continuous
 62
     4
100
AcDbCircle
 10
2760.995494710284
 20
755.742535510965
 30
0.0
 40
0.25
  0
CIRCLE
  5
21C
330
6F
100
AcDbEntity
  8
2-0
  6
Continuous
 62
     4
100
AcDbCircle
 10
2760.995494710284
 20
755.742535510965
 30
0.0
 40
0.1875
  0
CIRCLE
  5
21D
330
6F
100
AcDbEntity
  8
2-0
  6
Continuous
 62
     4
100
AcDbCircle
 10
2760.995494710284
 20
755.742535510965
 30
0.0
 40
0.125
  0
CIRCLE
  5
21E
330
6F
100
AcDbEntity
  8
2-0
  6
Continuous
 62
     4
100
AcDbCircle
 10
2760.995494710284
 20
755.742535510965
 30
0.0
 40
0.0625
  0
ARC
  5
21F
330
6F
100
AcDbEntity
  8
2-0
 62
     4
100
AcDbCircle
 10
2760.990494710283
 20
755.742535510965
 30
0.0
 40
2.5
100
AcDbArc
 50
90.11459140653
 51
270.114591405945
  0
LINE
  5
220
330
6F
100
AcDbEntity
  8
2-0
 62
     4
100
AcDbLine
 10
2760.995494710309
 20
750.742535510965
 30
0.0
 11
2760.995494710334
 21
745.7425355109649
 31
0.0
  0
CIRCLE
  5
221
330
6F
100
AcDbEntity
  8
2-0
  6
Continuous
 62
     4
100
AcDbCircle
 10
2760.995494710284
 20
668.2425355109679
 30
0.0
 40
0.25
  0
CIRCLE
  5
222
330
6F
100
AcDbEntity
  8
2-0
  6
Continuous
 62
     4
100
AcDbCircle
 10
2760.995494710284
 20
668.2425355109679
 30
0.0
 40
0.1875
  0
CIRCLE
  5
223
330
6F
100
AcDbEntity
  8
2-0
  6
Continuous
 62
     4
100
AcDbCircle
 10
2760.995494710284
 20
668.2425355109679
 30
0.0
 40
0.125
  0
CIRCLE
  5
224
330
6F
100
AcDbEntity
  8
2-0
  6
Continuous
 62
     4
100
AcDbCircle
 10
2760.995494710284
 20
668.2425355109679
 30
0.0
 40
0.0625
  0
ARC
  5
225
330
6F
100
AcDbEntity
  8
2-0
 62
     4
100
AcDbCircle
 10
2761.000494710283
 20
668.242535510969
 30
0.0
 40
2.5
100
AcDbArc
 50
270.1145914065301
 51
90.11459140594496
  0
LINE
  5
226
330
6F
100
AcDbEntity
  8
2-0
 62
     4
100
AcDbLine
 10
2760.995494710207
 20
673.2425355109679
 30
0.0
 11
2760.99549471013
 21
678.242535510968
 31
0.0
  0
LINE
  5
227
330
6F
100
AcDbEntity
  8
2-0
  6
Continuous
 62
     4
100
AcDbLine
 10
3161.608983
 20
970.4095999999999
 30
0.0
 11
3161.608983
 21
1093.765716
 31
0.0
  0
LINE
  5
228
330
6F
100
AcDbEntity
  8
2-0
  6
Continuous
 62
     4
100
AcDbLine
 10
3249.108983
 20
970.7815249999999
 30
0.0
 11
3249.108983
 21
1093.765716
 31
0.0
  0
LINE
  5
229
330
6F
100
AcDbEntity
  8
2-0
  6
Continuous
 62
     4
100
AcDbLine
 10
3171.608983
 20
1093.765716
 30
0.0
 11
3239.108983
 21
1093.765716
 31
0.0
  0
TEXT
  5
22A
330
6F
100
AcDbEntity
  8
2-0
 62
     4
100
AcDbText
 10
3175.375
 20
1097.066
 30
0.0
 40
25.92
  1
17.5
100
AcDbText
  0
CIRCLE
  5
22B
330
6F
100
AcDbEntity
  8
2-0
  6
Continuous
 62
     4
100
AcDbCircle
 10
3161.608982617597
 20
1093.765716021195
 30
0.0
 40
0.25
  0
CIRCLE
  5
22C
330
6F
100
AcDbEntity
  8
2-0
  6
Continuous
 62
     4
100
AcDbCircle
 10
3161.608982617597
 20
1093.765716021195
 30
0.0
 40
0.1875
  0
CIRCLE
  5
22D
330
6F
100
AcDbEntity
  8
2-0
  6
Continuous
 62
     4
100
AcDbCircle
 10
3161.608982617597
 20
1093.765716021195
 30
0.0
 40
0.125
  0
CIRCLE
  5
22E
330
6F
100
AcDbEntity
  8
2-0
  6
Continuous
 62
     4
100
AcDbCircle
 10
3161.608982617597
 20
1093.765716021195
 30
0.0
 40
0.0625
  0
ARC
  5
22F
330
6F
100
AcDbEntity
  8
2-0
 62
     4
100
AcDbCircle
 10
3161.608982617597
 20
1093.760716021195
 30
0.0
 40
2.5
100
AcDbArc
 50
180.1145914065301
 51
0.1145914059449637
  0
LINE
  5
230
330
6F
100
AcDbEntity
  8
2-0
 62
     4
100
AcDbLine
 10
3166.608982617598
 20
1093.765716021246
 30
0.0
 11
3171.608982617597
 21
1093.765716021297
 31
0.0
  0
CIRCLE
  5
231
330
6F
100
AcDbEntity
  8
2-0
  6
Continuous
 62
     4
100
AcDbCircle
 10
3249.108982617592
 20
1093.765716021195
 30
0.0
 40
0.25
  0
CIRCLE
  5
232
330
6F
100
AcDbEntity
  8
2-0
  6
Continuous
 62
     4
100
AcDbCircle
 10
3249.108982617592
 20
1093.765716021195
 30
0.0
 40
0.1875
  0
CIRCLE
  5
233
330
6F
100
AcDbEntity
  8
2-0
  6
Continuous
 62
     4
100
AcDbCircle
 10
3249.108982617592
 20
1093.765716021195
 30
0.0
 40
0.125
  0
CIRCLE
  5
234
330
6F
100
AcDbEntity
  8
2-0
  6
Continuous
 62
     4
100
AcDbCircle
 10
3249.108982617592
 20
1093.765716021195
 30
0.0
 40
0.0625
  0
ARC
  5
235
330
6F
100
AcDbEntity
  8
2-0
 62
     4
100
AcDbCircle
 10
3249.108982617592
 20
1093.770716021195
 30
0.0
 40
2.5
100
AcDbArc
 50
0.1145914065300158
 51
180.114591405945
  0
LINE
  5
236
330
6F
100
AcDbEntity
  8
2-0
 62
     4
100
AcDbLine
 10
3244.108982617593
 20
1093.765716021195
 30
0.0
 11
3239.108982617593
 21
1093.765716021195
 31
0.0
  0
LINE
  5
237
330
6F
100
AcDbEntity
  8
2-0
  6
Continuous
 62
     4
100
AcDbLine
 10
3161.608983
 20
948.635774
 30
0.0
 11
3161.608983
 21
1043.765716
 31
0.0
  0
LINE
  5
238
330
6F
100
AcDbEntity
  8
2-0
  6
Continuous
 62
     4
100
AcDbLine
 10
3174.108983
 20
948.688907
 30
0.0
 11
3174.108983
 21
1043.765716
 31
0.0
  0
LINE
  5
239
330
6F
100
AcDbEntity
  8
2-0
  6
Continuous
 62
     4
100
AcDbLine
 10
3151.608983
 20
1043.765716
 30
0.0
 11
3141.608983
 21
1043.765716
 31
0.0
  0
LINE
  5
23A
330
6F
100
AcDbEntity
  8
2-0
  6
Continuous
 62
     4
100
AcDbLine
 10
3184.108983
 20
1043.765716
 30
0.0
 11
3194.108983
 21
1043.765716
 31
0.0
  0
TEXT
  5
23B
330
6F
100
AcDbEntity
  8
2-0
 62
     4
100
AcDbText
 10
3097.935
 20
1047.066
 30
0.0
 40
25.92
  1
2.5
100
AcDbText
  0
LINE
  5
23C
330
6F
100
AcDbEntity
  8
2-0
  6
Continuous
 62
     4
100
AcDbLine
 10
3161.608983
 20
1043.765716
 30
0.0
 11
3174.108983
 21
1043.765716
 31
0.0
  0
CIRCLE
  5
23D
330
6F
100
AcDbEntity
  8
2-0
  6
Continuous
 62
     4
100
AcDbCircle
 10
3161.608982617593
 20
1043.765716021195
 30
0.0
 40
0.25
  0
CIRCLE
  5
23E
330
6F
100
AcDbEntity
  8
2-0
  6
Continuous
 62
     4
100
AcDbCircle
 10
3161.608982617593
 20
1043.765716021195
 30
0.0
 40
0.1875
  0
CIRCLE
  5
23F
330
6F
100
AcDbEntity
  8
2-0
  6
Continuous
 62
     4
100
AcDbCircle
 10
3161.608982617593
 20
1043.765716021195
 30
0.0
 40
0.125
  0
CIRCLE
  5
240
330
6F
100
AcDbEntity
  8
2-0
  6
Continuous
 62
     4
100
AcDbCircle
 10
3161.608982617593
 20
1043.765716021195
 30
0.0
 40
0.0625
  0
ARC
  5
241
330
6F
100
AcDbEntity
  8
2-0
 62
     4
100
AcDbCircle
 10
3161.608982617593
 20
1043.770716021195
 30
0.0
 40
2.5
100
AcDbArc
 50
0.1145914065300158
 51
180.114591405945
  0
LINE
  5
242
330
6F
100
AcDbEntity
  8
2-0
 62
     4
100
AcDbLine
 10
3156.608982617593
 20
1043.765716021195
 30
0.0
 11
3151.608982617593
 21
1043.765716021195
 31
0.0
  0
CIRCLE
  5
243
330
6F
100
AcDbEntity
  8
2-0
  6
Continuous
 62
     4
100
AcDbCircle
 10
3174.108982617593
 20
1043.765716021195
 30
0.0
 40
0.25
  0
CIRCLE
  5
244
330
6F
100
AcDbEntity
  8
2-0
  6
Continuous
 62
     4
100
AcDbCircle
 10
3174.108982617593
 20
1043.765716021195
 30
0.0
 40
0.1875
  0
CIRCLE
  5
245
330
6F
100
AcDbEntity
  8
2-0
  6
Continuous
 62
     4
100
AcDbCircle
 10
3174.108982617593
 20
1043.765716021195
 30
0.0
 40
0.125
  0
CIRCLE
  5
246
330
6F
100
AcDbEntity
  8
2-0
  6
Continuous
 62
     4
100
AcDbCircle
 10
3174.108982617593
 20
1043.765716021195
 30
0.0
 40
0.0625
  0
ARC
  5
247
330
6F
100
AcDbEntity
  8
2-0
 62
     4
100
AcDbCircle
 10
3174.108982617593
 20
1043.760716021195
 30
0.0
 40
2.5
100
AcDbArc
 50
180.1145914065301
 51
0.1145914059449637
  0
LINE
  5
248
330
6F
100
AcDbEntity
  8
2-0
 62
     4
100
AcDbLine
 10
3179.108982617593
 20
1043.765716021246
 30
0.0
 11
3184.108982617593
 21
1043.765716021297
 31
0.0
  0
LINE
  5
249
330
6F
100
AcDbEntity
  8
2-0
  6
Continuous
 62
     4
100
AcDbLine
 10
3204.108983000001
 20
948.497631
 30
0.0
 11
3204.108983000001
 21
1043.765716
 31
0.0
  0
LINE
  5
24A
330
6F
100
AcDbEntity
  8
2-0
  6
Continuous
 62
     4
100
AcDbLine
 10
3174.108983
 20
948.688907
 30
0.0
 11
3174.108983
 21
1043.765716
 31
0.0
  0
LINE
  5
24B
330
6F
100
AcDbEntity
  8
2-0
  6
Continuous
 62
     4
100
AcDbLine
 10
3214.108983
 20
1043.765716
 30
0.0
 11
3224.108983
 21
1043.765716
 31
0.0
  0
LINE
  5
24C
330
6F
100
AcDbEntity
  8
2-0
  6
Continuous
 62
     4
100
AcDbLine
 10
3164.108983
 20
1043.765716
 30
0.0
 11
3154.108983
 21
1043.765716
 31
0.0
  0
TEXT
  5
24D
330
6F
100
AcDbEntity
  8
2-0
 62
     4
100
AcDbText
 10
3183.125
 20
1047.066
 30
0.0
 40
25.92
  1
6
100
AcDbText
  0
LINE
  5
24E
330
6F
100
AcDbEntity
  8
2-0
  6
Continuous
 62
     4
100
AcDbLine
 10
3204.108983000001
 20
1043.765716
 30
0.0
 11
3174.108983
 21
1043.765716
 31
0.0
  0
CIRCLE
  5
24F
330
6F
100
AcDbEntity
  8
2-0
  6
Continuous
 62
     4
100
AcDbCircle
 10
3204.108982617594
 20
1043.765716021195
 30
0.0
 40
0.25
  0
CIRCLE
  5
250
330
6F
100
AcDbEntity
  8
2-0
  6
Continuous
 62
     4
100
AcDbCircle
 10
3204.108982617594
 20
1043.765716021195
 30
0.0
 40
0.1875
  0
CIRCLE
  5
251
330
6F
100
AcDbEntity
  8
2-0
  6
Continuous
 62
     4
100
AcDbCircle
 10
3204.108982617594
 20
1043.765716021195
 30
0.0
 40
0.125
  0
CIRCLE
  5
252
330
6F
100
AcDbEntity
  8
2-0
  6
Continuous
 62
     4
100
AcDbCircle
 10
3204.108982617594
 20
1043.765716021195
 30
0.0
 40
0.0625
  0
ARC
  5
253
330
6F
100
AcDbEntity
  8
2-0
 62
     4
100
AcDbCircle
 10
3204.108982617594
 20
1043.760716021195
 30
0.0
 40
2.5
100
AcDbArc
 50
180.1145914065301
 51
0.1145914059449637
  0
LINE
  5
254
330
6F
100
AcDbEntity
  8
2-0
 62
     4
100
AcDbLine
 10
3209.108982617594
 20
1043.765716021246
 30
0.0
 11
3214.108982617594
 21
1043.765716021297
 31
0.0
  0
CIRCLE
  5
255
330
6F
100
AcDbEntity
  8
2-0
  6
Continuous
 62
     4
100
AcDbCircle
 10
3174.108982617593
 20
1043.765716021195
 30
0.0
 40
0.25
  0
CIRCLE
  5
256
330
6F
100
AcDbEntity
  8
2-0
  6
Continuous
 62
     4
100
AcDbCircle
 10
3174.108982617593
 20
1043.765716021195
 30
0.0
 40
0.1875
  0
CIRCLE
  5
257
330
6F
100
AcDbEntity
  8
2-0
  6
Continuous
 62
     4
100
AcDbCircle
 10
3174.108982617593
 20
1043.765716021195
 30
0.0
 40
0.125
  0
CIRCLE
  5
258
330
6F
100
AcDbEntity
  8
2-0
  6
Continuous
 62
     4
100
AcDbCircle
 10
3174.108982617593
 20
1043.765716021195
 30
0.0
 40
0.0625
  0
ARC
  5
259
330
6F
100
AcDbEntity
  8
2-0
 62
     4
100
AcDbCircle
 10
3174.108982617593
 20
1043.770716021195
 30
0.0
 40
2.5
100
AcDbArc
 50
0.1145914065300158
 51
180.114591405945
  0
LINE
  5
25A
330
6F
100
AcDbEntity
  8
2-0
 62
     4
100
AcDbLine
 10
3169.108982617593
 20
1043.765716021195
 30
0.0
 11
3164.108982617593
 21
1043.765716021195
 31
0.0
  0
LINE
  5
25B
330
6F
100
AcDbEntity
  8
2-0
  6
Continuous
 62
     4
100
AcDbLine
 10
3204.108983000001
 20
948.497631
 30
0.0
 11
3204.108983000001
 21
1043.765716
 31
0.0
  0
LINE
  5
25C
330
6F
100
AcDbEntity
  8
2-0
  6
Continuous
 62
     4
100
AcDbLine
 10
3249.108983
 20
948.6251479999999
 30
0.0
 11
3249.108983
 21
1043.765716
 31
0.0
  0
LINE
  5
25D
330
6F
100
AcDbEntity
  8
2-0
  6
Continuous
 62
     4
100
AcDbLine
 10
3214.108983
 20
1043.765716
 30
0.0
 11
3239.108983
 21
1043.765716
 31
0.0
  0
TEXT
  5
25E
330
6F
100
AcDbEntity
  8
2-0
 62
     4
100
AcDbText
 10
3220.625
 20
1047.066
 30
0.0
 40
25.92
  1
9
100
AcDbText
  0
CIRCLE
  5
25F
330
6F
100
AcDbEntity
  8
2-0
  6
Continuous
 62
     4
100
AcDbCircle
 10
3204.108982617594
 20
1043.765716021195
 30
0.0
 40
0.25
  0
CIRCLE
  5
260
330
6F
100
AcDbEntity
  8
2-0
  6
Continuous
 62
     4
100
AcDbCircle
 10
3204.108982617594
 20
1043.765716021195
 30
0.0
 40
0.1875
  0
CIRCLE
  5
261
330
6F
100
AcDbEntity
  8
2-0
  6
Continuous
 62
     4
100
AcDbCircle
 10
3204.108982617594
 20
1043.765716021195
 30
0.0
 40
0.125
  0
CIRCLE
  5
262
330
6F
100
AcDbEntity
  8
2-0
  6
Continuous
 62
     4
100
AcDbCircle
 10
3204.108982617594
 20
1043.765716021195
 30
0.0
 40
0.0625
  0
ARC
  5
263
330
6F
100
AcDbEntity
  8
2-0
 62
     4
100
AcDbCircle
 10
3204.108982617594
 20
1043.760716021195
 30
0.0
 40
2.5
100
AcDbArc
 50
180.1145914065301
 51
0.1145914059449637
  0
LINE
  5
264
330
6F
100
AcDbEntity
  8
2-0
 62
     4
100
AcDbLine
 10
3209.108982617594
 20
1043.765716021246
 30
0.0
 11
3214.108982617594
 21
1043.765716021297
 31
0.0
  0
CIRCLE
  5
265
330
6F
100
AcDbEntity
  8
2-0
  6
Continuous
 62
     4
100
AcDbCircle
 10
3249.108982617592
 20
1043.765716021195
 30
0.0
 40
0.25
  0
CIRCLE
  5
266
330
6F
100
AcDbEntity
  8
2-0
  6
Continuous
 62
     4
100
AcDbCircle
 10
3249.108982617592
 20
1043.765716021195
 30
0.0
 40
0.1875
  0
CIRCLE
  5
267
330
6F
100
AcDbEntity
  8
2-0
  6
Continuous
 62
     4
100
AcDbCircle
 10
3249.108982617592
 20
1043.765716021195
 30
0.0
 40
0.125
  0
CIRCLE
  5
268
330
6F
100
AcDbEntity
  8
2-0
  6
Continuous
 62
     4
100
AcDbCircle
 10
3249.108982617592
 20
1043.765716021195
 30
0.0
 40
0.0625
  0
ARC
  5
269
330
6F
100
AcDbEntity
  8
2-0
 62
     4
100
AcDbCircle
 10
3249.108982617592
 20
1043.770716021195
 30
0.0
 40
2.5
100
AcDbArc
 50
0.1145914065300158
 51
180.114591405945
  0
LINE
  5
26A
330
6F
100
AcDbEntity
  8
2-0
 62
     4
100
AcDbLine
 10
3244.108982617593
 20
1043.765716021195
 30
0.0
 11
3239.108982617593
 21
1043.765716021195
 31
0.0
  0
LINE
  5
26B
330
6F
100
AcDbEntity
  8
2-0
  6
Continuous
 62
     7
100
AcDbLine
 10
3068.223537
 20
679.509217
 30
0.0
 11
3083.45646
 21
663.8031909999999
 31
0.0
  0
LINE
  5
26C
330
6F
100
AcDbEntity
  8
2-0
  6
Continuous
 62
     7
100
AcDbLine
 10
3068.223537
 20
679.509217
 30
0.0
 11
3073.694783
 21
658.3246309999999
 31
0.0
  0
LINE
  5
26D
330
6F
100
AcDbEntity
  8
2-0
  6
Continuous
 62
     7
100
AcDbLine
 10
3110.971409000001
 20
722.107394
 30
0.0
 11
3106.494302
 21
738.4441289999999
 31
0.0
  0
LINE
  5
26E
330
6F
100
AcDbEntity
  8
2-0
  6
Continuous
 62
     7
100
AcDbLine
 10
3110.971409000001
 20
722.107394
 30
0.0
 11
3097.986756
 21
732.985453
 31
0.0
  0
LINE
  5
26F
330
6F
100
AcDbEntity
  8
2-0
  6
Continuous
 62
     7
100
AcDbLine
 10
3187.048119
 20
833.2135479999999
 30
0.0
 11
3181.933988000001
 21
852.734809
 31
0.0
  0
LINE
  5
270
330
6F
100
AcDbEntity
  8
2-0
  6
Continuous
 62
     7
100
AcDbLine
 10
3187.048119
 20
833.2135479999999
 30
0.0
 11
3171.550355
 21
846.138458
 31
0.0
  0
LINE
  5
271
330
6F
100
AcDbEntity
  8
2-0
  6
Continuous
 62
     7
100
AcDbLine
 10
3234.540237
 20
836.861893
 30
0.0
 11
3248.238243
 21
821.980411
 31
0.0
  0
LINE
  5
272
330
6F
100
AcDbEntity
  8
2-0
  6
Continuous
 62
     7
100
AcDbLine
 10
3234.540237
 20
836.861893
 30
0.0
 11
3240.107247
 21
817.417041
 31
0.0
  0
TEXT
  5
273
330
6F
100
AcDbEntity
  8
D-0
 62
     5
100
AcDbText
 10
2645.056
 20
1291.229
 30
0.0
 40
25.92
  1
ご注意
100
AcDbText
  0
TEXT
  5
274
330
6F
100
AcDbEntity
  8
D-0
 62
     5
100
AcDbText
 10
2710.931
 20
1227.122
 30
0.0
 40
25.92
  1
〇　底板6ｍｍ、側板9ｍｍの不燃加工となっております。
100
AcDbText
  0
LINE
  5
275
330
6F
100
AcDbEntity
  8
9-0
  6
Continuous
 62
     4
100
AcDbLine
 10
2322.006917
 20
1439.285775
 30
0.0
 11
2322.006917
 21
1505.8357
 31
0.0
  0
LINE
  5
276
330
6F
100
AcDbEntity
  8
9-0
  6
Continuous
 62
     4
100
AcDbLine
 10
1977.006917
 20
1440.752222
 30
0.0
 11
1977.006917
 21
1505.8357
 31
0.0
  0
TEXT
  5
277
330
6F
100
AcDbEntity
  8
9-0
 62
     4
100
AcDbText
 10
2118.729
 20
1506.456
 30
0.0
 40
36.288
  1
345
100
AcDbText
  0
LINE
  5
278
330
6F
100
AcDbEntity
  8
9-0
  6
Continuous
 62
     4
100
AcDbLine
 10
1977.006916653815
 20
1505.835699563347
 30
0.0
 11
2322.006916653815
 21
1505.835699563347
 31
0.0
  0
CIRCLE
  5
279
330
6F
100
AcDbEntity
  8
9-0
  6
Continuous
 62
     4
100
AcDbCircle
 10
1977.006916653815
 20
1505.835699563347
 30
0.0
 40
0.25
  0
CIRCLE
  5
27A
330
6F
100
AcDbEntity
  8
9-0
  6
Continuous
 62
     4
100
AcDbCircle
 10
1977.006916653815
 20
1505.835699563347
 30
0.0
 40
0.1875
  0
CIRCLE
  5
27B
330
6F
100
AcDbEntity
  8
9-0
  6
Continuous
 62
     4
100
AcDbCircle
 10
1977.006916653815
 20
1505.835699563347
 30
0.0
 40
0.125
  0
CIRCLE
  5
27C
330
6F
100
AcDbEntity
  8
9-0
  6
Continuous
 62
     4
100
AcDbCircle
 10
1977.006916653815
 20
1505.835699563347
 30
0.0
 40
0.0625
  0
CIRCLE
  5
27D
330
6F
100
AcDbEntity
  8
9-0
  6
Continuous
 62
     4
100
AcDbCircle
 10
2322.006916653815
 20
1505.835699563347
 30
0.0
 40
0.25
  0
CIRCLE
  5
27E
330
6F
100
AcDbEntity
  8
9-0
  6
Continuous
 62
     4
100
AcDbCircle
 10
2322.006916653815
 20
1505.835699563347
 30
0.0
 40
0.1875
  0
CIRCLE
  5
27F
330
6F
100
AcDbEntity
  8
9-0
  6
Continuous
 62
     4
100
AcDbCircle
 10
2322.006916653815
 20
1505.835699563347
 30
0.0
 40
0.125
  0
CIRCLE
  5
280
330
6F
100
AcDbEntity
  8
9-0
  6
Continuous
 62
     4
100
AcDbCircle
 10
2322.006916653815
 20
1505.835699563347
 30
0.0
 40
0.0625
  0
LINE
  5
281
330
6F
100
AcDbEntity
  8
9-0
  6
Continuous
 62
     4
100
AcDbLine
 10
2339.006917
 20
742.83099
 30
0.0
 11
2339.006917
 21
662.83099
 31
0.0
  0
LINE
  5
282
330
6F
100
AcDbEntity
  8
9-0
  6
Continuous
 62
     4
100
AcDbLine
 10
1977.006917
 20
777.931469
 30
0.0
 11
1977.006917
 21
662.83099
 31
0.0
  0
TEXT
  5
283
330
6F
100
AcDbEntity
  8
9-0
 62
     4
100
AcDbText
 10
2127.229
 20
663.451
 30
0.0
 40
36.288
  1
362
100
AcDbText
  0
LINE
  5
284
330
6F
100
AcDbEntity
  8
9-0
  6
Continuous
 62
     4
100
AcDbLine
 10
1977.006916653815
 20
662.830989669747
 30
0.0
 11
2339.006916653815
 21
662.830989669747
 31
0.0
  0
CIRCLE
  5
285
330
6F
100
AcDbEntity
  8
9-0
  6
Continuous
 62
     4
100
AcDbCircle
 10
1977.006916653815
 20
662.830989669747
 30
0.0
 40
0.25
  0
CIRCLE
  5
286
330
6F
100
AcDbEntity
  8
9-0
  6
Continuous
 62
     4
100
AcDbCircle
 10
1977.006916653815
 20
662.830989669747
 30
0.0
 40
0.1875
  0
CIRCLE
  5
287
330
6F
100
AcDbEntity
  8
9-0
  6
Continuous
 62
     4
100
AcDbCircle
 10
1977.006916653815
 20
662.830989669747
 30
0.0
 40
0.125
  0
CIRCLE
  5
288
330
6F
100
AcDbEntity
  8
9-0
  6
Continuous
 62
     4
100
AcDbCircle
 10
1977.006916653815
 20
662.830989669747
 30
0.0
 40
0.0625
  0
CIRCLE
  5
289
330
6F
100
AcDbEntity
  8
9-0
  6
Continuous
 62
     4
100
AcDbCircle
 10
2339.006916653815
 20
662.830989669747
 30
0.0
 40
0.25
  0
CIRCLE
  5
28A
330
6F
100
AcDbEntity
  8
9-0
  6
Continuous
 62
     4
100
AcDbCircle
 10
2339.006916653815
 20
662.830989669747
 30
0.0
 40
0.1875
  0
CIRCLE
  5
28B
330
6F
100
AcDbEntity
  8
9-0
  6
Continuous
 62
     4
100
AcDbCircle
 10
2339.006916653815
 20
662.830989669747
 30
0.0
 40
0.125
  0
CIRCLE
  5
28C
330
6F
100
AcDbEntity
  8
9-0
  6
Continuous
 62
     4
100
AcDbCircle
 10
2339.006916653815
 20
662.830989669747
 30
0.0
 40
0.0625
  0
LINE
  5
28D
330
6F
100
AcDbEntity
  8
9-0
  6
Continuous
 62
     4
100
AcDbLine
 10
2322.006917
 20
854.380914
 30
0.0
 11
2322.006917
 21
762.83099
 31
0.0
  0
LINE
  5
28E
330
6F
100
AcDbEntity
  8
9-0
  6
Continuous
 62
     4
100
AcDbLine
 10
1977.006917
 20
852.9144669999999
 30
0.0
 11
1977.006917
 21
762.83099
 31
0.0
  0
TEXT
  5
28F
330
6F
100
AcDbEntity
  8
9-0
 62
     4
100
AcDbText
 10
2118.729
 20
763.451
 30
0.0
 40
36.288
  1
345
100
AcDbText
  0
LINE
  5
290
330
6F
100
AcDbEntity
  8
9-0
  6
Continuous
 62
     4
100
AcDbLine
 10
1977.006916653815
 20
762.830989669747
 30
0.0
 11
2322.006916653815
 21
762.830989669747
 31
0.0
  0
CIRCLE
  5
291
330
6F
100
AcDbEntity
  8
9-0
  6
Continuous
 62
     4
100
AcDbCircle
 10
1977.006916653815
 20
762.830989669747
 30
0.0
 40
0.25
  0
CIRCLE
  5
292
330
6F
100
AcDbEntity
  8
9-0
  6
Continuous
 62
     4
100
AcDbCircle
 10
1977.006916653815
 20
762.830989669747
 30
0.0
 40
0.1875
  0
CIRCLE
  5
293
330
6F
100
AcDbEntity
  8
9-0
  6
Continuous
 62
     4
100
AcDbCircle
 10
1977.006916653815
 20
762.830989669747
 30
0.0
 40
0.125
  0
CIRCLE
  5
294
330
6F
100
AcDbEntity
  8
9-0
  6
Continuous
 62
     4
100
AcDbCircle
 10
1977.006916653815
 20
762.830989669747
 30
0.0
 40
0.0625
  0
CIRCLE
  5
295
330
6F
100
AcDbEntity
  8
9-0
  6
Continuous
 62
     4
100
AcDbCircle
 10
2322.006916653815
 20
762.830989669747
 30
0.0
 40
0.25
  0
CIRCLE
  5
296
330
6F
100
AcDbEntity
  8
9-0
  6
Continuous
 62
     4
100
AcDbCircle
 10
2322.006916653815
 20
762.830989669747
 30
0.0
 40
0.1875
  0
CIRCLE
  5
297
330
6F
100
AcDbEntity
  8
9-0
  6
Continuous
 62
     4
100
AcDbCircle
 10
2322.006916653815
 20
762.830989669747
 30
0.0
 40
0.125
  0
CIRCLE
  5
298
330
6F
100
AcDbEntity
  8
9-0
  6
Continuous
 62
     4
100
AcDbCircle
 10
2322.006916653815
 20
762.830989669747
 30
0.0
 40
0.0625
  0
LINE
  5
299
330
6F
100
AcDbEntity
  8
2-0
  6
Continuous
 62
     7
100
AcDbLine
 10
1977.006917
 20
914.333345
 30
0.0
 11
2322.006917
 21
914.333345
 31
0.0
  0
LINE
  5
29A
330
6F
100
AcDbEntity
  8
2-0
  6
Continuous
 62
     7
100
AcDbLine
 10
1977.006917
 20
1381.833345
 30
0.0
 11
2322.006917
 21
1381.833345
 31
0.0
  0
LINE
  5
29B
330
6F
100
AcDbEntity
  8
2-0
  6
Continuous
 62
     7
100
AcDbLine
 10
1977.006917
 20
896.8333450000001
 30
0.0
 11
2322.006917
 21
896.8333450000001
 31
0.0
  0
LINE
  5
29C
330
6F
100
AcDbEntity
  8
2-0
  6
Continuous
 62
     7
100
AcDbLine
 10
1977.006917
 20
1396.833345
 30
0.0
 11
2322.006917
 21
1396.833345
 31
0.0
  0
LINE
  5
29D
330
6F
100
AcDbEntity
  8
9-0
  6
Continuous
 62
     4
100
AcDbLine
 10
1839.397766
 20
896.8333450000001
 30
0.0
 11
1724.43709
 21
896.8333450000001
 31
0.0
  0
LINE
  5
29E
330
6F
100
AcDbEntity
  8
9-0
  6
Continuous
 62
     4
100
AcDbLine
 10
1721.631208
 20
1146.833345
 30
0.0
 11
1724.43709
 21
1146.833345
 31
0.0
  0
TEXT
  5
29F
330
6F
100
AcDbEntity
  8
9-0
 62
     4
100
AcDbText
 10
1723.817
 20
988.2330000000001
 30
0.0
 40
36.288
  1
250
 50
90.0
100
AcDbText
  0
LINE
  5
2A0
330
6F
100
AcDbEntity
  8
9-0
  6
Continuous
 62
     4
100
AcDbLine
 10
1724.437089821643
 20
1146.833344616547
 30
0.0
 11
1724.437089821643
 21
896.833344616547
 31
0.0
  0
CIRCLE
  5
2A1
330
6F
100
AcDbEntity
  8
9-0
  6
Continuous
 62
     4
100
AcDbCircle
 10
1724.437089821643
 20
1146.833344616547
 30
0.0
 40
0.25
  0
CIRCLE
  5
2A2
330
6F
100
AcDbEntity
  8
9-0
  6
Continuous
 62
     4
100
AcDbCircle
 10
1724.437089821643
 20
1146.833344616547
 30
0.0
 40
0.1875
  0
CIRCLE
  5
2A3
330
6F
100
AcDbEntity
  8
9-0
  6
Continuous
 62
     4
100
AcDbCircle
 10
1724.437089821643
 20
1146.833344616547
 30
0.0
 40
0.125
  0
CIRCLE
  5
2A4
330
6F
100
AcDbEntity
  8
9-0
  6
Continuous
 62
     4
100
AcDbCircle
 10
1724.437089821643
 20
1146.833344616547
 30
0.0
 40
0.0625
  0
CIRCLE
  5
2A5
330
6F
100
AcDbEntity
  8
9-0
  6
Continuous
 62
     4
100
AcDbCircle
 10
1724.437089821643
 20
896.833344616547
 30
0.0
 40
0.25
  0
CIRCLE
  5
2A6
330
6F
100
AcDbEntity
  8
9-0
  6
Continuous
 62
     4
100
AcDbCircle
 10
1724.437089821643
 20
896.833344616547
 30
0.0
 40
0.1875
  0
CIRCLE
  5
2A7
330
6F
100
AcDbEntity
  8
9-0
  6
Continuous
 62
     4
100
AcDbCircle
 10
1724.437089821643
 20
896.833344616547
 30
0.0
 40
0.125
  0
CIRCLE
  5
2A8
330
6F
100
AcDbEntity
  8
9-0
  6
Continuous
 62
     4
100
AcDbCircle
 10
1724.437089821643
 20
896.833344616547
 30
0.0
 40
0.0625
  0
LINE
  5
2A9
330
6F
100
AcDbEntity
  8
2-0
  6
Continuous
 62
     7
100
AcDbLine
 10
1999.706917
 20
914.333345
 30
0.0
 11
1999.706917
 21
1381.833345
 31
0.0
  0
LINE
  5
2AA
330
6F
100
AcDbEntity
  8
2-0
  6
Continuous
 62
     7
100
AcDbLine
 10
1997.006917
 20
914.333345
 30
0.0
 11
1997.006917
 21
1381.833345
 31
0.0
  0
LINE
  5
2AB
330
6F
100
AcDbEntity
  8
2-0
  6
Continuous
 62
     7
100
AcDbLine
 10
1977.006917
 20
896.8333450000001
 30
0.0
 11
1977.006917
 21
1396.833345
 31
0.0
  0
LINE
  5
2AC
330
6F
100
AcDbEntity
  8
9-0
  6
Continuous
 62
     4
100
AcDbLine
 10
1939.443999
 20
949.3333449999999
 30
0.0
 11
1824.43709
 21
949.3333449999999
 31
0.0
  0
LINE
  5
2AD
330
6F
100
AcDbEntity
  8
9-0
  6
Continuous
 62
     4
100
AcDbLine
 10
1939.351533
 20
914.333345
 30
0.0
 11
1824.43709
 21
914.333345
 31
0.0
  0
TEXT
  5
2AE
330
6F
100
AcDbEntity
  8
9-0
 62
     4
100
AcDbText
 10
1791.317
 20
949.615
 30
0.0
 40
36.288
  1
35
 50
90.0
100
AcDbText
  0
LINE
  5
2AF
330
6F
100
AcDbEntity
  8
9-0
  6
Continuous
 62
     4
100
AcDbLine
 10
1824.437089821643
 20
914.3333446165469
 30
0.0
 11
1824.437089821643
 21
949.3333446165459
 31
0.0
  0
CIRCLE
  5
2B0
330
6F
100
AcDbEntity
  8
9-0
  6
Continuous
 62
     4
100
AcDbCircle
 10
1824.437089821643
 20
914.3333446165469
 30
0.0
 40
0.25
  0
CIRCLE
  5
2B1
330
6F
100
AcDbEntity
  8
9-0
  6
Continuous
 62
     4
100
AcDbCircle
 10
1824.437089821643
 20
914.3333446165469
 30
0.0
 40
0.1875
  0
CIRCLE
  5
2B2
330
6F
100
AcDbEntity
  8
9-0
  6
Continuous
 62
     4
100
AcDbCircle
 10
1824.437089821643
 20
914.3333446165469
 30
0.0
 40
0.125
  0
CIRCLE
  5
2B3
330
6F
100
AcDbEntity
  8
9-0
  6
Continuous
 62
     4
100
AcDbCircle
 10
1824.437089821643
 20
914.3333446165469
 30
0.0
 40
0.0625
  0
CIRCLE
  5
2B4
330
6F
100
AcDbEntity
  8
9-0
  6
Continuous
 62
     4
100
AcDbCircle
 10
1824.437089821643
 20
949.3333446165459
 30
0.0
 40
0.25
  0
CIRCLE
  5
2B5
330
6F
100
AcDbEntity
  8
9-0
  6
Continuous
 62
     4
100
AcDbCircle
 10
1824.437089821643
 20
949.3333446165459
 30
0.0
 40
0.1875
  0
CIRCLE
  5
2B6
330
6F
100
AcDbEntity
  8
9-0
  6
Continuous
 62
     4
100
AcDbCircle
 10
1824.437089821643
 20
949.3333446165459
 30
0.0
 40
0.125
  0
CIRCLE
  5
2B7
330
6F
100
AcDbEntity
  8
9-0
  6
Continuous
 62
     4
100
AcDbCircle
 10
1824.437089821643
 20
949.3333446165459
 30
0.0
 40
0.0625
  0
LINE
  5
2B8
330
6F
100
AcDbEntity
  8
9-0
  6
Continuous
 62
     4
100
AcDbLine
 10
1939.397766
 20
896.8333450000001
 30
0.0
 11
1824.43709
 21
896.8333450000001
 31
0.0
  0
LINE
  5
2B9
330
6F
100
AcDbEntity
  8
9-0
  6
Continuous
 62
     4
100
AcDbLine
 10
1919.351533
 20
914.333345
 30
0.0
 11
1824.43709
 21
914.333345
 31
0.0
  0
LINE
  5
2BA
330
6F
100
AcDbEntity
  8
9-0
  6
Continuous
 62
     4
100
AcDbLine
 10
1824.43709
 20
886.8333449999999
 30
0.0
 11
1824.43709
 21
876.833345
 31
0.0
  0
LINE
  5
2BB
330
6F
100
AcDbEntity
  8
9-0
  6
Continuous
 62
     4
100
AcDbLine
 10
1824.43709
 20
924.3333449999999
 30
0.0
 11
1824.43709
 21
934.3333450000001
 31
0.0
  0
LINE
  5
2BC
330
6F
100
AcDbEntity
  8
9-0
  6
Continuous
 62
     4
100
AcDbLine
 10
1824.43709
 20
905.5833449999999
 30
0.0
 11
1794.165982
 21
886.115485
 31
0.0
  0
LINE
  5
2BD
330
6F
100
AcDbEntity
  8
9-0
  6
Continuous
 62
     4
100
AcDbLine
 10
1794.165982
 20
886.115485
 30
0.0
 11
1794.165982
 21
782.2576169999999
 31
0.0
  0
TEXT
  5
2BE
330
6F
100
AcDbEntity
  8
9-0
 62
     4
100
AcDbText
 10
1793.546
 20
789.3869999999999
 30
0.0
 40
36.288
  1
17.5
 50
90.0
100
AcDbText
  0
LINE
  5
2BF
330
6F
100
AcDbEntity
  8
9-0
  6
Continuous
 62
     4
100
AcDbLine
 10
1824.43709
 20
896.8333450000001
 30
0.0
 11
1824.43709
 21
914.333345
 31
0.0
  0
LINE
  5
2C0
330
6F
100
AcDbEntity
  8
9-0
  6
Continuous
 62
     4
100
AcDbLine
 10
1824.43709
 20
896.8333450000001
 30
0.0
 11
1824.43709
 21
914.333345
 31
0.0
  0
CIRCLE
  5
2C1
330
6F
100
AcDbEntity
  8
9-0
  6
Continuous
 62
     4
100
AcDbCircle
 10
1824.437089821643
 20
896.833344616547
 30
0.0
 40
0.25
  0
CIRCLE
  5
2C2
330
6F
100
AcDbEntity
  8
9-0
  6
Continuous
 62
     4
100
AcDbCircle
 10
1824.437089821643
 20
896.833344616547
 30
0.0
 40
0.1875
  0
CIRCLE
  5
2C3
330
6F
100
AcDbEntity
  8
9-0
  6
Continuous
 62
     4
100
AcDbCircle
 10
1824.437089821643
 20
896.833344616547
 30
0.0
 40
0.125
  0
CIRCLE
  5
2C4
330
6F
100
AcDbEntity
  8
9-0
  6
Continuous
 62
     4
100
AcDbCircle
 10
1824.437089821643
 20
896.833344616547
 30
0.0
 40
0.0625
  0
ARC
  5
2C5
330
6F
100
AcDbEntity
  8
9-0
 62
     4
100
AcDbCircle
 10
1824.432089821643
 20
896.833344616547
 30
0.0
 40
2.5
100
AcDbArc
 50
90.11459140653
 51
270.114591405945
  0
LINE
  5
2C6
330
6F
100
AcDbEntity
  8
9-0
 62
     4
100
AcDbLine
 10
1824.437089821669
 20
891.8333446165469
 30
0.0
 11
1824.437089821694
 21
886.8333446165468
 31
0.0
  0
CIRCLE
  5
2C7
330
6F
100
AcDbEntity
  8
9-0
  6
Continuous
 62
     4
100
AcDbCircle
 10
1824.437089821643
 20
914.3333446165469
 30
0.0
 40
0.25
  0
CIRCLE
  5
2C8
330
6F
100
AcDbEntity
  8
9-0
  6
Continuous
 62
     4
100
AcDbCircle
 10
1824.437089821643
 20
914.3333446165469
 30
0.0
 40
0.1875
  0
CIRCLE
  5
2C9
330
6F
100
AcDbEntity
  8
9-0
  6
Continuous
 62
     4
100
AcDbCircle
 10
1824.437089821643
 20
914.3333446165469
 30
0.0
 40
0.125
  0
CIRCLE
  5
2CA
330
6F
100
AcDbEntity
  8
9-0
  6
Continuous
 62
     4
100
AcDbCircle
 10
1824.437089821643
 20
914.3333446165469
 30
0.0
 40
0.0625
  0
ARC
  5
2CB
330
6F
100
AcDbEntity
  8
9-0
 62
     4
100
AcDbCircle
 10
1824.442089821643
 20
914.3333446165469
 30
0.0
 40
2.5
100
AcDbArc
 50
270.1145914065301
 51
90.11459140594496
  0
LINE
  5
2CC
330
6F
100
AcDbEntity
  8
9-0
 62
     4
100
AcDbLine
 10
1824.437089821566
 20
919.3333446165469
 30
0.0
 11
1824.43708982149
 21
924.3333446165468
 31
0.0
  0
LINE
  5
2CD
330
6F
100
AcDbEntity
  8
2-0
  6
DASHED2
 62
     7
100
AcDbLine
 10
1977.006917
 20
914.333345
 30
0.0
 11
1997.006917
 21
949.3333449999999
 31
0.0
  0
LINE
  5
2CE
330
6F
100
AcDbEntity
  8
2-0
  6
DASHED2
 62
     7
100
AcDbLine
 10
1977.006917
 20
949.3333449999999
 30
0.0
 11
1997.006917
 21
949.3333449999999
 31
0.0
  0
LINE
  5
2CF
330
6F
100
AcDbEntity
  8
A-0
  6
CENTER
 62
     6
100
AcDbLine
 10
2060.228273
 20
1146.833345
 30
0.0
 11
1728.525239
 21
1146.833345
 31
0.0
  0
LINE
  5
2D0
330
6F
100
AcDbEntity
  8
9-0
  6
Continuous
 62
     4
100
AcDbLine
 10
1939.351533
 20
1381.833345
 30
0.0
 11
1824.344624
 21
1381.833345
 31
0.0
  0
LINE
  5
2D1
330
6F
100
AcDbEntity
  8
9-0
  6
Continuous
 62
     4
100
AcDbLine
 10
1938.324136
 20
1341.833345
 30
0.0
 11
1824.344624
 21
1341.833345
 31
0.0
  0
LINE
  5
2D2
330
6F
100
AcDbEntity
  8
9-0
  6
Continuous
 62
     4
100
AcDbLine
 10
1824.344624
 20
1371.833345
 30
0.0
 11
1824.344624
 21
1351.833345
 31
0.0
  0
LINE
  5
2D3
330
6F
100
AcDbEntity
  8
9-0
  6
Continuous
 62
     4
100
AcDbLine
 10
1824.344624
 20
1361.833345
 30
0.0
 11
1794.285149
 21
1340.758517
 31
0.0
  0
LINE
  5
2D4
330
6F
100
AcDbEntity
  8
9-0
  6
Continuous
 62
     4
100
AcDbLine
 10
1794.285149
 20
1340.758517
 30
0.0
 11
1794.285149
 21
1278.474253
 31
0.0
  0
TEXT
  5
2D5
330
6F
100
AcDbEntity
  8
9-0
 62
     4
100
AcDbText
 10
1793.665
 20
1287.216
 30
0.0
 40
36.288
  1
40
 50
90.0
100
AcDbText
  0
CIRCLE
  5
2D6
330
6F
100
AcDbEntity
  8
9-0
  6
Continuous
 62
     4
100
AcDbCircle
 10
1824.344624068216
 20
1381.833344616547
 30
0.0
 40
0.25
  0
CIRCLE
  5
2D7
330
6F
100
AcDbEntity
  8
9-0
  6
Continuous
 62
     4
100
AcDbCircle
 10
1824.344624068216
 20
1381.833344616547
 30
0.0
 40
0.1875
  0
CIRCLE
  5
2D8
330
6F
100
AcDbEntity
  8
9-0
  6
Continuous
 62
     4
100
AcDbCircle
 10
1824.344624068216
 20
1381.833344616547
 30
0.0
 40
0.125
  0
CIRCLE
  5
2D9
330
6F
100
AcDbEntity
  8
9-0
  6
Continuous
 62
     4
100
AcDbCircle
 10
1824.344624068216
 20
1381.833344616547
 30
0.0
 40
0.0625
  0
ARC
  5
2DA
330
6F
100
AcDbEntity
  8
9-0
 62
     4
100
AcDbCircle
 10
1824.339624068216
 20
1381.833344616547
 30
0.0
 40
2.5
100
AcDbArc
 50
90.11459140653
 51
270.114591405945
  0
LINE
  5
2DB
330
6F
100
AcDbEntity
  8
9-0
 62
     4
100
AcDbLine
 10
1824.344624068242
 20
1376.833344616547
 30
0.0
 11
1824.344624068267
 21
1371.833344616547
 31
0.0
  0
CIRCLE
  5
2DC
330
6F
100
AcDbEntity
  8
9-0
  6
Continuous
 62
     4
100
AcDbCircle
 10
1824.344624068216
 20
1341.833344616547
 30
0.0
 40
0.25
  0
CIRCLE
  5
2DD
330
6F
100
AcDbEntity
  8
9-0
  6
Continuous
 62
     4
100
AcDbCircle
 10
1824.344624068216
 20
1341.833344616547
 30
0.0
 40
0.1875
  0
CIRCLE
  5
2DE
330
6F
100
AcDbEntity
  8
9-0
  6
Continuous
 62
     4
100
AcDbCircle
 10
1824.344624068216
 20
1341.833344616547
 30
0.0
 40
0.125
  0
CIRCLE
  5
2DF
330
6F
100
AcDbEntity
  8
9-0
  6
Continuous
 62
     4
100
AcDbCircle
 10
1824.344624068216
 20
1341.833344616547
 30
0.0
 40
0.0625
  0
ARC
  5
2E0
330
6F
100
AcDbEntity
  8
9-0
 62
     4
100
AcDbCircle
 10
1824.349624068216
 20
1341.833344616547
 30
0.0
 40
2.5
100
AcDbArc
 50
270.1145914065301
 51
90.11459140594496
  0
LINE
  5
2E1
330
6F
100
AcDbEntity
  8
9-0
 62
     4
100
AcDbLine
 10
1824.344624068139
 20
1346.833344616547
 30
0.0
 11
1824.344624068063
 21
1351.833344616547
 31
0.0
  0
LINE
  5
2E2
330
6F
100
AcDbEntity
  8
9-0
  6
Continuous
 62
     4
100
AcDbLine
 10
1939.397766
 20
1396.833345
 30
0.0
 11
1824.43709
 21
1396.833345
 31
0.0
  0
LINE
  5
2E3
330
6F
100
AcDbEntity
  8
9-0
  6
Continuous
 62
     4
100
AcDbLine
 10
1939.351533
 20
1381.833345
 30
0.0
 11
1824.43709
 21
1381.833345
 31
0.0
  0
LINE
  5
2E4
330
6F
100
AcDbEntity
  8
9-0
  6
Continuous
 62
     4
100
AcDbLine
 10
1824.43709
 20
1406.833345
 30
0.0
 11
1824.43709
 21
1416.833345
 31
0.0
  0
LINE
  5
2E5
330
6F
100
AcDbEntity
  8
9-0
  6
Continuous
 62
     4
100
AcDbLine
 10
1824.43709
 20
1371.833345
 30
0.0
 11
1824.43709
 21
1361.833345
 31
0.0
  0
LINE
  5
2E6
330
6F
100
AcDbEntity
  8
9-0
  6
Continuous
 62
     4
100
AcDbLine
 10
1824.43709
 20
1389.333345
 30
0.0
 11
1794.165982
 21
1407.551204
 31
0.0
  0
LINE
  5
2E7
330
6F
100
AcDbEntity
  8
9-0
  6
Continuous
 62
     4
100
AcDbLine
 10
1794.165982
 20
1407.551204
 30
0.0
 11
1794.165982
 21
1465.926839
 31
0.0
  0
TEXT
  5
2E8
330
6F
100
AcDbEntity
  8
9-0
 62
     4
100
AcDbText
 10
1793.546
 20
1414.339
 30
0.0
 40
36.288
  1
15
 50
90.0
100
AcDbText
  0
LINE
  5
2E9
330
6F
100
AcDbEntity
  8
9-0
  6
Continuous
 62
     4
100
AcDbLine
 10
1824.43709
 20
1396.833345
 30
0.0
 11
1824.43709
 21
1381.833345
 31
0.0
  0
LINE
  5
2EA
330
6F
100
AcDbEntity
  8
9-0
  6
Continuous
 62
     4
100
AcDbLine
 10
1824.43709
 20
1396.833345
 30
0.0
 11
1824.43709
 21
1381.833345
 31
0.0
  0
CIRCLE
  5
2EB
330
6F
100
AcDbEntity
  8
9-0
  6
Continuous
 62
     4
100
AcDbCircle
 10
1824.437089821643
 20
1396.833344616547
 30
0.0
 40
0.25
  0
CIRCLE
  5
2EC
330
6F
100
AcDbEntity
  8
9-0
  6
Continuous
 62
     4
100
AcDbCircle
 10
1824.437089821643
 20
1396.833344616547
 30
0.0
 40
0.1875
  0
CIRCLE
  5
2ED
330
6F
100
AcDbEntity
  8
9-0
  6
Continuous
 62
     4
100
AcDbCircle
 10
1824.437089821643
 20
1396.833344616547
 30
0.0
 40
0.125
  0
CIRCLE
  5
2EE
330
6F
100
AcDbEntity
  8
9-0
  6
Continuous
 62
     4
100
AcDbCircle
 10
1824.437089821643
 20
1396.833344616547
 30
0.0
 40
0.0625
  0
ARC
  5
2EF
330
6F
100
AcDbEntity
  8
9-0
 62
     4
100
AcDbCircle
 10
1824.442089821643
 20
1396.833344616547
 30
0.0
 40
2.5
100
AcDbArc
 50
270.1145914065301
 51
90.11459140594496
  0
LINE
  5
2F0
330
6F
100
AcDbEntity
  8
9-0
 62
     4
100
AcDbLine
 10
1824.437089821566
 20
1401.833344616547
 30
0.0
 11
1824.43708982149
 21
1406.833344616547
 31
0.0
  0
CIRCLE
  5
2F1
330
6F
100
AcDbEntity
  8
9-0
  6
Continuous
 62
     4
100
AcDbCircle
 10
1824.437089821643
 20
1381.833344616547
 30
0.0
 40
0.25
  0
CIRCLE
  5
2F2
330
6F
100
AcDbEntity
  8
9-0
  6
Continuous
 62
     4
100
AcDbCircle
 10
1824.437089821643
 20
1381.833344616547
 30
0.0
 40
0.1875
  0
CIRCLE
  5
2F3
330
6F
100
AcDbEntity
  8
9-0
  6
Continuous
 62
     4
100
AcDbCircle
 10
1824.437089821643
 20
1381.833344616547
 30
0.0
 40
0.125
  0
CIRCLE
  5
2F4
330
6F
100
AcDbEntity
  8
9-0
  6
Continuous
 62
     4
100
AcDbCircle
 10
1824.437089821643
 20
1381.833344616547
 30
0.0
 40
0.0625
  0
ARC
  5
2F5
330
6F
100
AcDbEntity
  8
9-0
 62
     4
100
AcDbCircle
 10
1824.432089821643
 20
1381.833344616547
 30
0.0
 40
2.5
100
AcDbArc
 50
90.11459140653
 51
270.114591405945
  0
LINE
  5
2F6
330
6F
100
AcDbEntity
  8
9-0
 62
     4
100
AcDbLine
 10
1824.437089821669
 20
1376.833344616547
 30
0.0
 11
1824.437089821694
 21
1371.833344616547
 31
0.0
  0
LINE
  5
2F7
330
6F
100
AcDbEntity
  8
2-0
  6
DASHED2
 62
     7
100
AcDbLine
 10
1997.006917
 20
1379.133345
 30
0.0
 11
1977.006917
 21
1339.133345
 31
0.0
  0
LINE
  5
2F8
330
6F
100
AcDbEntity
  8
2-0
  6
DASHED2
 62
     7
100
AcDbLine
 10
1977.006917
 20
1339.133345
 30
0.0
 11
1997.006917
 21
1339.133345
 31
0.0
  0
LINE
  5
2F9
330
6F
100
AcDbEntity
  8
9-0
  6
Continuous
 62
     4
100
AcDbLine
 10
2379.006917
 20
1391.833345
 30
0.0
 11
2512.96913
 21
1391.833345
 31
0.0
  0
LINE
  5
2FA
330
6F
100
AcDbEntity
  8
9-0
  6
Continuous
 62
     4
100
AcDbLine
 10
2382.006917
 20
871.8333450000001
 30
0.0
 11
2512.96913
 21
871.8333450000001
 31
0.0
  0
TEXT
  5
2FB
330
6F
100
AcDbEntity
  8
9-0
 62
     4
100
AcDbText
 10
2512.349
 20
1098.233
 30
0.0
 40
36.288
  1
520
 50
90.0
100
AcDbText
  0
LINE
  5
2FC
330
6F
100
AcDbEntity
  8
9-0
  6
Continuous
 62
     4
100
AcDbLine
 10
2512.969130186218
 20
871.833344616548
 30
0.0
 11
2512.969130186218
 21
1391.833344616547
 31
0.0
  0
CIRCLE
  5
2FD
330
6F
100
AcDbEntity
  8
9-0
  6
Continuous
 62
     4
100
AcDbCircle
 10
2512.969130186218
 20
871.833344616548
 30
0.0
 40
0.25
  0
CIRCLE
  5
2FE
330
6F
100
AcDbEntity
  8
9-0
  6
Continuous
 62
     4
100
AcDbCircle
 10
2512.969130186218
 20
871.833344616548
 30
0.0
 40
0.1875
  0
CIRCLE
  5
2FF
330
6F
100
AcDbEntity
  8
9-0
  6
Continuous
 62
     4
100
AcDbCircle
 10
2512.969130186218
 20
871.833344616548
 30
0.0
 40
0.125
  0
CIRCLE
  5
300
330
6F
100
AcDbEntity
  8
9-0
  6
Continuous
 62
     4
100
AcDbCircle
 10
2512.969130186218
 20
871.833344616548
 30
0.0
 40
0.0625
  0
CIRCLE
  5
301
330
6F
100
AcDbEntity
  8
9-0
  6
Continuous
 62
     4
100
AcDbCircle
 10
2512.969130186218
 20
1391.833344616547
 30
0.0
 40
0.25
  0
CIRCLE
  5
302
330
6F
100
AcDbEntity
  8
9-0
  6
Continuous
 62
     4
100
AcDbCircle
 10
2512.969130186218
 20
1391.833344616547
 30
0.0
 40
0.1875
  0
CIRCLE
  5
303
330
6F
100
AcDbEntity
  8
9-0
  6
Continuous
 62
     4
100
AcDbCircle
 10
2512.969130186218
 20
1391.833344616547
 30
0.0
 40
0.125
  0
CIRCLE
  5
304
330
6F
100
AcDbEntity
  8
9-0
  6
Continuous
 62
     4
100
AcDbCircle
 10
2512.969130186218
 20
1391.833344616547
 30
0.0
 40
0.0625
  0
LINE
  5
305
330
6F
100
AcDbEntity
  8
2-0
  6
Continuous
 62
     7
100
AcDbLine
 10
2322.006917
 20
896.8333450000001
 30
0.0
 11
2322.006917
 21
1396.833345
 31
0.0
  0
LINE
  5
306
330
6F
100
AcDbEntity
  8
2-0
  6
Continuous
 62
     7
100
AcDbLine
 10
2324.006917
 20
871.8333450000001
 30
0.0
 11
2324.006917
 21
1391.833345
 31
0.0
  0
LINE
  5
307
330
6F
100
AcDbEntity
  8
2-0
  6
Continuous
 62
     7
100
AcDbLine
 10
2339.006917
 20
871.8333450000001
 30
0.0
 11
2339.006917
 21
1391.833345
 31
0.0
  0
LINE
  5
308
330
6F
100
AcDbEntity
  8
9-0
  6
Continuous
 62
     4
100
AcDbLine
 10
2339.006917
 20
851.833345
 30
0.0
 11
2339.006917
 21
762.83099
 31
0.0
  0
LINE
  5
309
330
6F
100
AcDbEntity
  8
9-0
  6
Continuous
 62
     4
100
AcDbLine
 10
2324.006917
 20
854.3724130000001
 30
0.0
 11
2324.006917
 21
762.83099
 31
0.0
  0
LINE
  5
30A
330
6F
100
AcDbEntity
  8
9-0
  6
Continuous
 62
     4
100
AcDbLine
 10
2349.006917
 20
762.83099
 30
0.0
 11
2359.006917
 21
762.83099
 31
0.0
  0
LINE
  5
30B
330
6F
100
AcDbEntity
  8
9-0
  6
Continuous
 62
     4
100
AcDbLine
 10
2314.006917
 20
762.83099
 30
0.0
 11
2304.006917
 21
762.83099
 31
0.0
  0
LINE
  5
30C
330
6F
100
AcDbEntity
  8
9-0
  6
Continuous
 62
     4
100
AcDbLine
 10
2331.506917
 20
762.83099
 30
0.0
 11
2361.156416
 21
708.5309899999999
 31
0.0
  0
LINE
  5
30D
330
6F
100
AcDbEntity
  8
9-0
  6
Continuous
 62
     4
100
AcDbLine
 10
2361.156416
 20
708.5309899999999
 30
0.0
 11
2419.53205
 21
708.5309899999999
 31
0.0
  0
TEXT
  5
30E
330
6F
100
AcDbEntity
  8
9-0
 62
     4
100
AcDbText
 10
2370.767
 20
709.151
 30
0.0
 40
36.288
  1
15
100
AcDbText
  0
LINE
  5
30F
330
6F
100
AcDbEntity
  8
9-0
  6
Continuous
 62
     4
100
AcDbLine
 10
2339.006917
 20
762.83099
 30
0.0
 11
2324.006917
 21
762.83099
 31
0.0
  0
LINE
  5
310
330
6F
100
AcDbEntity
  8
9-0
  6
Continuous
 62
     4
100
AcDbLine
 10
2339.006917
 20
762.83099
 30
0.0
 11
2324.006917
 21
762.83099
 31
0.0
  0
CIRCLE
  5
311
330
6F
100
AcDbEntity
  8
9-0
  6
Continuous
 62
     4
100
AcDbCircle
 10
2339.006916653815
 20
762.830989669747
 30
0.0
 40
0.25
  0
CIRCLE
  5
312
330
6F
100
AcDbEntity
  8
9-0
  6
Continuous
 62
     4
100
AcDbCircle
 10
2339.006916653815
 20
762.830989669747
 30
0.0
 40
0.1875
  0
CIRCLE
  5
313
330
6F
100
AcDbEntity
  8
9-0
  6
Continuous
 62
     4
100
AcDbCircle
 10
2339.006916653815
 20
762.830989669747
 30
0.0
 40
0.125
  0
CIRCLE
  5
314
330
6F
100
AcDbEntity
  8
9-0
  6
Continuous
 62
     4
100
AcDbCircle
 10
2339.006916653815
 20
762.830989669747
 30
0.0
 40
0.0625
  0
ARC
  5
315
330
6F
100
AcDbEntity
  8
9-0
 62
     4
100
AcDbCircle
 10
2339.006916653815
 20
762.825989669747
 30
0.0
 40
2.5
100
AcDbArc
 50
180.1145914065301
 51
0.1145914059449637
  0
LINE
  5
316
330
6F
100
AcDbEntity
  8
9-0
 62
     4
100
AcDbLine
 10
2344.006916653815
 20
762.8309896697979
 30
0.0
 11
2349.006916653815
 21
762.8309896698489
 31
0.0
  0
CIRCLE
  5
317
330
6F
100
AcDbEntity
  8
9-0
  6
Continuous
 62
     4
100
AcDbCircle
 10
2324.006916653815
 20
762.830989669747
 30
0.0
 40
0.25
  0
CIRCLE
  5
318
330
6F
100
AcDbEntity
  8
9-0
  6
Continuous
 62
     4
100
AcDbCircle
 10
2324.006916653815
 20
762.830989669747
 30
0.0
 40
0.1875
  0
CIRCLE
  5
319
330
6F
100
AcDbEntity
  8
9-0
  6
Continuous
 62
     4
100
AcDbCircle
 10
2324.006916653815
 20
762.830989669747
 30
0.0
 40
0.125
  0
CIRCLE
  5
31A
330
6F
100
AcDbEntity
  8
9-0
  6
Continuous
 62
     4
100
AcDbCircle
 10
2324.006916653815
 20
762.830989669747
 30
0.0
 40
0.0625
  0
ARC
  5
31B
330
6F
100
AcDbEntity
  8
9-0
 62
     4
100
AcDbCircle
 10
2324.006916653815
 20
762.835989669747
 30
0.0
 40
2.5
100
AcDbArc
 50
0.1145914065300158
 51
180.114591405945
  0
LINE
  5
31C
330
6F
100
AcDbEntity
  8
9-0
 62
     4
100
AcDbLine
 10
2319.006916653815
 20
762.830989669747
 30
0.0
 11
2314.006916653815
 21
762.830989669747
 31
0.0
  0
LINE
  5
31D
330
6F
100
AcDbEntity
  8
9-0
  6
Continuous
 62
     4
100
AcDbLine
 10
2322.006917
 20
854.380914
 30
0.0
 11
2322.006917
 21
762.83099
 31
0.0
  0
LINE
  5
31E
330
6F
100
AcDbEntity
  8
9-0
  6
Continuous
 62
     4
100
AcDbLine
 10
2324.006917
 20
854.3724130000001
 30
0.0
 11
2324.006917
 21
762.83099
 31
0.0
  0
LINE
  5
31F
330
6F
100
AcDbEntity
  8
9-0
  6
Continuous
 62
     4
100
AcDbLine
 10
2312.006917
 20
762.83099
 30
0.0
 11
2302.006917
 21
762.83099
 31
0.0
  0
LINE
  5
320
330
6F
100
AcDbEntity
  8
9-0
  6
Continuous
 62
     4
100
AcDbLine
 10
2334.006917
 20
762.83099
 30
0.0
 11
2344.006917
 21
762.83099
 31
0.0
  0
LINE
  5
321
330
6F
100
AcDbEntity
  8
9-0
  6
Continuous
 62
     4
100
AcDbLine
 10
2323.006917
 20
762.83099
 30
0.0
 11
2296.819736
 21
708.5309899999999
 31
0.0
  0
LINE
  5
322
330
6F
100
AcDbEntity
  8
9-0
  6
Continuous
 62
     4
100
AcDbLine
 10
2296.819736
 20
708.5309899999999
 30
0.0
 11
2258.697909
 21
708.5309899999999
 31
0.0
  0
TEXT
  5
323
330
6F
100
AcDbEntity
  8
9-0
 62
     4
100
AcDbText
 10
2269.381
 20
709.151
 30
0.0
 40
36.288
  1
2
100
AcDbText
  0
LINE
  5
324
330
6F
100
AcDbEntity
  8
9-0
  6
Continuous
 62
     4
100
AcDbLine
 10
2322.006917
 20
762.83099
 30
0.0
 11
2324.006917
 21
762.83099
 31
0.0
  0
LINE
  5
325
330
6F
100
AcDbEntity
  8
9-0
  6
Continuous
 62
     4
100
AcDbLine
 10
2322.006917
 20
762.83099
 30
0.0
 11
2324.006917
 21
762.83099
 31
0.0
  0
CIRCLE
  5
326
330
6F
100
AcDbEntity
  8
9-0
  6
Continuous
 62
     4
100
AcDbCircle
 10
2322.006916653815
 20
762.830989669747
 30
0.0
 40
0.25
  0
CIRCLE
  5
327
330
6F
100
AcDbEntity
  8
9-0
  6
Continuous
 62
     4
100
AcDbCircle
 10
2322.006916653815
 20
762.830989669747
 30
0.0
 40
0.1875
  0
CIRCLE
  5
328
330
6F
100
AcDbEntity
  8
9-0
  6
Continuous
 62
     4
100
AcDbCircle
 10
2322.006916653815
 20
762.830989669747
 30
0.0
 40
0.125
  0
CIRCLE
  5
329
330
6F
100
AcDbEntity
  8
9-0
  6
Continuous
 62
     4
100
AcDbCircle
 10
2322.006916653815
 20
762.830989669747
 30
0.0
 40
0.0625
  0
ARC
  5
32A
330
6F
100
AcDbEntity
  8
9-0
 62
     4
100
AcDbCircle
 10
2322.006916653815
 20
762.835989669747
 30
0.0
 40
2.5
100
AcDbArc
 50
0.1145914065300158
 51
180.114591405945
  0
LINE
  5
32B
330
6F
100
AcDbEntity
  8
9-0
 62
     4
100
AcDbLine
 10
2317.006916653815
 20
762.830989669747
 30
0.0
 11
2312.006916653815
 21
762.830989669747
 31
0.0
  0
CIRCLE
  5
32C
330
6F
100
AcDbEntity
  8
9-0
  6
Continuous
 62
     4
100
AcDbCircle
 10
2324.006916653815
 20
762.830989669747
 30
0.0
 40
0.25
  0
CIRCLE
  5
32D
330
6F
100
AcDbEntity
  8
9-0
  6
Continuous
 62
     4
100
AcDbCircle
 10
2324.006916653815
 20
762.830989669747
 30
0.0
 40
0.1875
  0
CIRCLE
  5
32E
330
6F
100
AcDbEntity
  8
9-0
  6
Continuous
 62
     4
100
AcDbCircle
 10
2324.006916653815
 20
762.830989669747
 30
0.0
 40
0.125
  0
CIRCLE
  5
32F
330
6F
100
AcDbEntity
  8
9-0
  6
Continuous
 62
     4
100
AcDbCircle
 10
2324.006916653815
 20
762.830989669747
 30
0.0
 40
0.0625
  0
ARC
  5
330
330
6F
100
AcDbEntity
  8
9-0
 62
     4
100
AcDbCircle
 10
2324.006916653815
 20
762.825989669747
 30
0.0
 40
2.5
100
AcDbArc
 50
180.1145914065301
 51
0.1145914059449637
  0
LINE
  5
331
330
6F
100
AcDbEntity
  8
9-0
 62
     4
100
AcDbLine
 10
2329.006916653815
 20
762.8309896697979
 30
0.0
 11
2334.006916653815
 21
762.8309896698489
 31
0.0
  0
LINE
  5
332
330
6F
100
AcDbEntity
  8
9-0
  6
Continuous
 62
     4
100
AcDbLine
 10
2398.008454
 20
1391.833345
 30
0.0
 11
2512.96913
 21
1391.833345
 31
0.0
  0
LINE
  5
333
330
6F
100
AcDbEntity
  8
9-0
  6
Continuous
 62
     4
100
AcDbLine
 10
2398.011936
 20
1396.833345
 30
0.0
 11
2512.96913
 21
1396.833345
 31
0.0
  0
TEXT
  5
334
330
6F
100
AcDbEntity
  8
9-0
 62
     4
100
AcDbText
 10
2579.849
 20
1422.444
 30
0.0
 40
36.288
  1
5
 50
90.0
100
AcDbText
  0
LINE
  5
335
330
6F
100
AcDbEntity
  8
9-0
  6
Continuous
 62
     4
100
AcDbLine
 10
2512.969130186218
 20
1396.833344616548
 30
0.0
 11
2512.969130186218
 21
1391.833344616548
 31
0.0
  0
CIRCLE
  5
336
330
6F
100
AcDbEntity
  8
9-0
  6
Continuous
 62
     4
100
AcDbCircle
 10
2512.969130186218
 20
1396.833344616548
 30
0.0
 40
0.25
  0
CIRCLE
  5
337
330
6F
100
AcDbEntity
  8
9-0
  6
Continuous
 62
     4
100
AcDbCircle
 10
2512.969130186218
 20
1396.833344616548
 30
0.0
 40
0.1875
  0
CIRCLE
  5
338
330
6F
100
AcDbEntity
  8
9-0
  6
Continuous
 62
     4
100
AcDbCircle
 10
2512.969130186218
 20
1396.833344616548
 30
0.0
 40
0.125
  0
CIRCLE
  5
339
330
6F
100
AcDbEntity
  8
9-0
  6
Continuous
 62
     4
100
AcDbCircle
 10
2512.969130186218
 20
1396.833344616548
 30
0.0
 40
0.0625
  0
CIRCLE
  5
33A
330
6F
100
AcDbEntity
  8
9-0
  6
Continuous
 62
     4
100
AcDbCircle
 10
2512.969130186218
 20
1391.833344616548
 30
0.0
 40
0.25
  0
CIRCLE
  5
33B
330
6F
100
AcDbEntity
  8
9-0
  6
Continuous
 62
     4
100
AcDbCircle
 10
2512.969130186218
 20
1391.833344616548
 30
0.0
 40
0.1875
  0
CIRCLE
  5
33C
330
6F
100
AcDbEntity
  8
9-0
  6
Continuous
 62
     4
100
AcDbCircle
 10
2512.969130186218
 20
1391.833344616548
 30
0.0
 40
0.125
  0
CIRCLE
  5
33D
330
6F
100
AcDbEntity
  8
9-0
  6
Continuous
 62
     4
100
AcDbCircle
 10
2512.969130186218
 20
1391.833344616548
 30
0.0
 40
0.0625
  0
LINE
  5
33E
330
6F
100
AcDbEntity
  8
2-0
  6
Continuous
 62
     7
100
AcDbLine
 10
2324.006917
 20
1391.833345
 30
0.0
 11
2339.006917
 21
1391.833345
 31
0.0
  0
CIRCLE
  5
33F
330
6F
100
AcDbEntity
  8
2-0
  6
Continuous
 62
     7
100
AcDbCircle
 10
2017.206917
 20
1146.833345
 30
0.0
 40
2.5
  0
ARC
  5
340
330
6F
100
AcDbEntity
  8
2-0
  6
Continuous
 62
     7
100
AcDbCircle
 10
2277.019417
 20
1152.833345
 30
0.0
 40
7.6875
100
AcDbArc
 50
282.68
 51
77.31999999999999
  0
LINE
  5
341
330
6F
100
AcDbEntity
  8
2-0
  6
Continuous
 62
     7
100
AcDbLine
 10
2000.706917
 20
1160.333345
 30
0.0
 11
2278.706917
 21
1160.333345
 31
0.0
  0
CIRCLE
  5
342
330
6F
100
AcDbEntity
  8
2-0
  6
Continuous
 62
     7
100
AcDbCircle
 10
2256.206917
 20
1146.833345
 30
0.0
 40
2.5
  0
ARC
  5
343
330
6F
100
AcDbEntity
  8
2-0
  6
Continuous
 62
     7
100
AcDbCircle
 10
2000.706917
 20
1146.333345
 30
0.0
 40
1.0
100
AcDbArc
 50
180.0
 51
270.0
  0
ARC
  5
344
330
6F
100
AcDbEntity
  8
2-0
  6
Continuous
 62
     7
100
AcDbCircle
 10
2000.706917
 20
1159.333345
 30
0.0
 40
1.0
100
AcDbArc
 50
90.0
 51
180.0
  0
LINE
  5
345
330
6F
100
AcDbEntity
  8
2-0
  6
Continuous
 62
     7
100
AcDbLine
 10
2000.706917
 20
1145.333345
 30
0.0
 11
2007.706917
 21
1145.333345
 31
0.0
  0
LINE
  5
346
330
6F
100
AcDbEntity
  8
2-0
  6
Continuous
 62
     7
100
AcDbLine
 10
2010.706917
 20
1149.333345
 30
0.0
 11
2023.706917
 21
1149.333345
 31
0.0
  0
ARC
  5
347
330
6F
100
AcDbEntity
  8
2-0
  6
Continuous
 62
     7
100
AcDbCircle
 10
2010.706917
 20
1147.333345
 30
0.0
 40
2.0
100
AcDbArc
 50
90.0
 51
180.0
  0
LINE
  5
348
330
6F
100
AcDbEntity
  8
2-0
  6
Continuous
 62
     7
100
AcDbLine
 10
2025.706917
 20
1147.333345
 30
0.0
 11
2025.706917
 21
1146.333345
 31
0.0
  0
ARC
  5
349
330
6F
100
AcDbEntity
  8
2-0
  6
Continuous
 62
     7
100
AcDbCircle
 10
2023.706917
 20
1147.333345
 30
0.0
 40
2.0
100
AcDbArc
 50
0.0
 51
90.0
  0
LINE
  5
34A
330
6F
100
AcDbEntity
  8
2-0
  6
Continuous
 62
     7
100
AcDbLine
 10
2026.706917
 20
1145.333345
 30
0.0
 11
2036.706917
 21
1145.333345
 31
0.0
  0
ARC
  5
34B
330
6F
100
AcDbEntity
  8
2-0
  6
Continuous
 62
     7
100
AcDbCircle
 10
2026.706917
 20
1146.333345
 30
0.0
 40
1.0
100
AcDbArc
 50
180.0
 51
270.0
  0
LINE
  5
34C
330
6F
100
AcDbEntity
  8
2-0
  6
Continuous
 62
     7
100
AcDbLine
 10
2037.706917
 20
1146.333345
 30
0.0
 11
2037.706917
 21
1147.833345
 31
0.0
  0
ARC
  5
34D
330
6F
100
AcDbEntity
  8
2-0
  6
Continuous
 62
     7
100
AcDbCircle
 10
2036.706917
 20
1146.333345
 30
0.0
 40
1.0
100
AcDbArc
 50
270.0
 51
0.0
  0
LINE
  5
34E
330
6F
100
AcDbEntity
  8
2-0
  6
Continuous
 62
     7
100
AcDbLine
 10
2234.706917
 20
1147.833345
 30
0.0
 11
2037.706917
 21
1147.833345
 31
0.0
  0
LINE
  5
34F
330
6F
100
AcDbEntity
  8
2-0
  6
Continuous
 62
     7
100
AcDbLine
 10
2236.706917
 20
1145.333345
 30
0.0
 11
2246.706917
 21
1145.333345
 31
0.0
  0
ARC
  5
350
330
6F
100
AcDbEntity
  8
2-0
  6
Continuous
 62
     7
100
AcDbCircle
 10
2236.706917
 20
1146.333345
 30
0.0
 40
1.0
100
AcDbArc
 50
180.0
 51
270.0
  0
LINE
  5
351
330
6F
100
AcDbEntity
  8
2-0
  6
Continuous
 62
     7
100
AcDbLine
 10
2235.706917
 20
1146.833345
 30
0.0
 11
2235.706917
 21
1146.333345
 31
0.0
  0
ARC
  5
352
330
6F
100
AcDbEntity
  8
2-0
  6
Continuous
 62
     7
100
AcDbCircle
 10
2234.706917
 20
1146.833345
 30
0.0
 40
1.0
100
AcDbArc
 50
0.0
 51
90.0
  0
LINE
  5
353
330
6F
100
AcDbEntity
  8
2-0
  6
Continuous
 62
     7
100
AcDbLine
 10
2247.706917
 20
1146.333345
 30
0.0
 11
2247.706917
 21
1147.333345
 31
0.0
  0
ARC
  5
354
330
6F
100
AcDbEntity
  8
2-0
  6
Continuous
 62
     7
100
AcDbCircle
 10
2246.706917
 20
1146.333345
 30
0.0
 40
1.0
100
AcDbArc
 50
270.0
 51
0.0
  0
LINE
  5
355
330
6F
100
AcDbEntity
  8
2-0
  6
Continuous
 62
     7
100
AcDbLine
 10
2249.706917
 20
1149.333345
 30
0.0
 11
2262.706917
 21
1149.333345
 31
0.0
  0
ARC
  5
356
330
6F
100
AcDbEntity
  8
2-0
  6
Continuous
 62
     7
100
AcDbCircle
 10
2249.706917
 20
1147.333345
 30
0.0
 40
2.0
100
AcDbArc
 50
90.0
 51
180.0
  0
LINE
  5
357
330
6F
100
AcDbEntity
  8
2-0
  6
Continuous
 62
     7
100
AcDbLine
 10
2264.706917
 20
1147.333345
 30
0.0
 11
2264.706917
 21
1146.333345
 31
0.0
  0
ARC
  5
358
330
6F
100
AcDbEntity
  8
2-0
  6
Continuous
 62
     7
100
AcDbCircle
 10
2262.706917
 20
1147.333345
 30
0.0
 40
2.0
100
AcDbArc
 50
0.0
 51
90.0
  0
LINE
  5
359
330
6F
100
AcDbEntity
  8
2-0
  6
Continuous
 62
     7
100
AcDbLine
 10
2265.706917
 20
1145.333345
 30
0.0
 11
2278.706917
 21
1145.333345
 31
0.0
  0
ARC
  5
35A
330
6F
100
AcDbEntity
  8
2-0
  6
Continuous
 62
     7
100
AcDbCircle
 10
2265.706917
 20
1146.333345
 30
0.0
 40
1.0
100
AcDbArc
 50
180.0
 51
270.0
  0
LINE
  5
35B
330
6F
100
AcDbEntity
  8
2-0
  6
Continuous
 62
     7
100
AcDbLine
 10
2008.706917
 20
1147.333345
 30
0.0
 11
2008.706917
 21
1146.333345
 31
0.0
  0
ARC
  5
35C
330
6F
100
AcDbEntity
  8
2-0
  6
Continuous
 62
     7
100
AcDbCircle
 10
2007.706917
 20
1146.333345
 30
0.0
 40
1.0
100
AcDbArc
 50
270.0
 51
0.0
  0
LINE
  5
35D
330
6F
100
AcDbEntity
  8
9-0
  6
Continuous
 62
     4
100
AcDbLine
 10
1999.706917
 20
1126.333345
 30
0.0
 11
1999.706917
 21
1061.394972
 31
0.0
  0
LINE
  5
35E
330
6F
100
AcDbEntity
  8
9-0
  6
Continuous
 62
     4
100
AcDbLine
 10
2284.706917
 20
1132.833345
 30
0.0
 11
2284.706917
 21
1061.394972
 31
0.0
  0
TEXT
  5
35F
330
6F
100
AcDbEntity
  8
9-0
 62
     4
100
AcDbText
 10
2111.429
 20
1062.015
 30
0.0
 40
36.288
  1
285
100
AcDbText
  0
LINE
  5
360
330
6F
100
AcDbEntity
  8
9-0
  6
Continuous
 62
     4
100
AcDbLine
 10
2284.706916653813
 20
1061.39497193224
 30
0.0
 11
1999.706916653815
 21
1061.39497193224
 31
0.0
  0
CIRCLE
  5
361
330
6F
100
AcDbEntity
  8
9-0
  6
Continuous
 62
     4
100
AcDbCircle
 10
2284.706916653813
 20
1061.39497193224
 30
0.0
 40
0.25
  0
CIRCLE
  5
362
330
6F
100
AcDbEntity
  8
9-0
  6
Continuous
 62
     4
100
AcDbCircle
 10
2284.706916653813
 20
1061.39497193224
 30
0.0
 40
0.1875
  0
CIRCLE
  5
363
330
6F
100
AcDbEntity
  8
9-0
  6
Continuous
 62
     4
100
AcDbCircle
 10
2284.706916653813
 20
1061.39497193224
 30
0.0
 40
0.125
  0
CIRCLE
  5
364
330
6F
100
AcDbEntity
  8
9-0
  6
Continuous
 62
     4
100
AcDbCircle
 10
2284.706916653813
 20
1061.39497193224
 30
0.0
 40
0.0625
  0
CIRCLE
  5
365
330
6F
100
AcDbEntity
  8
9-0
  6
Continuous
 62
     4
100
AcDbCircle
 10
1999.706916653815
 20
1061.39497193224
 30
0.0
 40
0.25
  0
CIRCLE
  5
366
330
6F
100
AcDbEntity
  8
9-0
  6
Continuous
 62
     4
100
AcDbCircle
 10
1999.706916653815
 20
1061.39497193224
 30
0.0
 40
0.1875
  0
CIRCLE
  5
367
330
6F
100
AcDbEntity
  8
9-0
  6
Continuous
 62
     4
100
AcDbCircle
 10
1999.706916653815
 20
1061.39497193224
 30
0.0
 40
0.125
  0
CIRCLE
  5
368
330
6F
100
AcDbEntity
  8
9-0
  6
Continuous
 62
     4
100
AcDbCircle
 10
1999.706916653815
 20
1061.39497193224
 30
0.0
 40
0.0625
  0
LINE
  5
369
330
6F
100
AcDbEntity
  8
9-0
  6
Continuous
 62
     4
100
AcDbLine
 10
2322.006917
 20
854.380914
 30
0.0
 11
2322.006917
 21
762.83099
 31
0.0
  0
LINE
  5
36A
330
6F
100
AcDbEntity
  8
9-0
  6
Continuous
 62
     4
100
AcDbLine
 10
1977.006917
 20
852.9144669999999
 30
0.0
 11
1977.006917
 21
762.83099
 31
0.0
  0
TEXT
  5
36B
330
6F
100
AcDbEntity
  8
9-0
 62
     4
100
AcDbText
 10
2118.729
 20
763.451
 30
0.0
 40
36.288
  1
345
100
AcDbText
  0
LINE
  5
36C
330
6F
100
AcDbEntity
  8
9-0
  6
Continuous
 62
     4
100
AcDbLine
 10
1977.006916653815
 20
762.830989669747
 30
0.0
 11
2322.006916653815
 21
762.830989669747
 31
0.0
  0
CIRCLE
  5
36D
330
6F
100
AcDbEntity
  8
9-0
  6
Continuous
 62
     4
100
AcDbCircle
 10
1977.006916653815
 20
762.830989669747
 30
0.0
 40
0.25
  0
CIRCLE
  5
36E
330
6F
100
AcDbEntity
  8
9-0
  6
Continuous
 62
     4
100
AcDbCircle
 10
1977.006916653815
 20
762.830989669747
 30
0.0
 40
0.1875
  0
CIRCLE
  5
36F
330
6F
100
AcDbEntity
  8
9-0
  6
Continuous
 62
     4
100
AcDbCircle
 10
1977.006916653815
 20
762.830989669747
 30
0.0
 40
0.125
  0
CIRCLE
  5
370
330
6F
100
AcDbEntity
  8
9-0
  6
Continuous
 62
     4
100
AcDbCircle
 10
1977.006916653815
 20
762.830989669747
 30
0.0
 40
0.0625
  0
CIRCLE
  5
371
330
6F
100
AcDbEntity
  8
9-0
  6
Continuous
 62
     4
100
AcDbCircle
 10
2322.006916653815
 20
762.830989669747
 30
0.0
 40
0.25
  0
CIRCLE
  5
372
330
6F
100
AcDbEntity
  8
9-0
  6
Continuous
 62
     4
100
AcDbCircle
 10
2322.006916653815
 20
762.830989669747
 30
0.0
 40
0.1875
  0
CIRCLE
  5
373
330
6F
100
AcDbEntity
  8
9-0
  6
Continuous
 62
     4
100
AcDbCircle
 10
2322.006916653815
 20
762.830989669747
 30
0.0
 40
0.125
  0
CIRCLE
  5
374
330
6F
100
AcDbEntity
  8
9-0
  6
Continuous
 62
     4
100
AcDbCircle
 10
2322.006916653815
 20
762.830989669747
 30
0.0
 40
0.0625
  0
LINE
  5
375
330
6F
100
AcDbEntity
  8
2-0
  6
Continuous
 62
     7
100
AcDbLine
 10
2324.006917
 20
871.8333450000001
 30
0.0
 11
2324.006917
 21
1391.833345
 31
0.0
  0
LINE
  5
376
330
6F
100
AcDbEntity
  8
9-0
  6
Continuous
 62
     4
100
AcDbLine
 10
2339.006917
 20
851.833345
 30
0.0
 11
2339.006917
 21
762.83099
 31
0.0
  0
LINE
  5
377
330
6F
100
AcDbEntity
  8
9-0
  6
Continuous
 62
     4
100
AcDbLine
 10
2324.006917
 20
854.3724130000001
 30
0.0
 11
2324.006917
 21
762.83099
 31
0.0
  0
LINE
  5
378
330
6F
100
AcDbEntity
  8
9-0
  6
Continuous
 62
     4
100
AcDbLine
 10
2349.006917
 20
762.83099
 30
0.0
 11
2359.006917
 21
762.83099
 31
0.0
  0
LINE
  5
379
330
6F
100
AcDbEntity
  8
9-0
  6
Continuous
 62
     4
100
AcDbLine
 10
2314.006917
 20
762.83099
 30
0.0
 11
2304.006917
 21
762.83099
 31
0.0
  0
LINE
  5
37A
330
6F
100
AcDbEntity
  8
9-0
  6
Continuous
 62
     4
100
AcDbLine
 10
2331.506917
 20
762.83099
 30
0.0
 11
2361.156416
 21
708.5309899999999
 31
0.0
  0
LINE
  5
37B
330
6F
100
AcDbEntity
  8
9-0
  6
Continuous
 62
     4
100
AcDbLine
 10
2361.156416
 20
708.5309899999999
 30
0.0
 11
2419.53205
 21
708.5309899999999
 31
0.0
  0
TEXT
  5
37C
330
6F
100
AcDbEntity
  8
9-0
 62
     4
100
AcDbText
 10
2370.767
 20
709.151
 30
0.0
 40
36.288
  1
15
100
AcDbText
  0
LINE
  5
37D
330
6F
100
AcDbEntity
  8
9-0
  6
Continuous
 62
     4
100
AcDbLine
 10
2339.006917
 20
762.83099
 30
0.0
 11
2324.006917
 21
762.83099
 31
0.0
  0
LINE
  5
37E
330
6F
100
AcDbEntity
  8
9-0
  6
Continuous
 62
     4
100
AcDbLine
 10
2339.006917
 20
762.83099
 30
0.0
 11
2324.006917
 21
762.83099
 31
0.0
  0
CIRCLE
  5
37F
330
6F
100
AcDbEntity
  8
9-0
  6
Continuous
 62
     4
100
AcDbCircle
 10
2339.006916653815
 20
762.830989669747
 30
0.0
 40
0.25
  0
CIRCLE
  5
380
330
6F
100
AcDbEntity
  8
9-0
  6
Continuous
 62
     4
100
AcDbCircle
 10
2339.006916653815
 20
762.830989669747
 30
0.0
 40
0.1875
  0
CIRCLE
  5
381
330
6F
100
AcDbEntity
  8
9-0
  6
Continuous
 62
     4
100
AcDbCircle
 10
2339.006916653815
 20
762.830989669747
 30
0.0
 40
0.125
  0
CIRCLE
  5
382
330
6F
100
AcDbEntity
  8
9-0
  6
Continuous
 62
     4
100
AcDbCircle
 10
2339.006916653815
 20
762.830989669747
 30
0.0
 40
0.0625
  0
ARC
  5
383
330
6F
100
AcDbEntity
  8
9-0
 62
     4
100
AcDbCircle
 10
2339.006916653815
 20
762.825989669747
 30
0.0
 40
2.5
100
AcDbArc
 50
180.1145914065301
 51
0.1145914059449637
  0
LINE
  5
384
330
6F
100
AcDbEntity
  8
9-0
 62
     4
100
AcDbLine
 10
2344.006916653815
 20
762.8309896697979
 30
0.0
 11
2349.006916653815
 21
762.8309896698489
 31
0.0
  0
CIRCLE
  5
385
330
6F
100
AcDbEntity
  8
9-0
  6
Continuous
 62
     4
100
AcDbCircle
 10
2324.006916653815
 20
762.830989669747
 30
0.0
 40
0.25
  0
CIRCLE
  5
386
330
6F
100
AcDbEntity
  8
9-0
  6
Continuous
 62
     4
100
AcDbCircle
 10
2324.006916653815
 20
762.830989669747
 30
0.0
 40
0.1875
  0
CIRCLE
  5
387
330
6F
100
AcDbEntity
  8
9-0
  6
Continuous
 62
     4
100
AcDbCircle
 10
2324.006916653815
 20
762.830989669747
 30
0.0
 40
0.125
  0
CIRCLE
  5
388
330
6F
100
AcDbEntity
  8
9-0
  6
Continuous
 62
     4
100
AcDbCircle
 10
2324.006916653815
 20
762.830989669747
 30
0.0
 40
0.0625
  0
ARC
  5
389
330
6F
100
AcDbEntity
  8
9-0
 62
     4
100
AcDbCircle
 10
2324.006916653815
 20
762.835989669747
 30
0.0
 40
2.5
100
AcDbArc
 50
0.1145914065300158
 51
180.114591405945
  0
LINE
  5
38A
330
6F
100
AcDbEntity
  8
9-0
 62
     4
100
AcDbLine
 10
2319.006916653815
 20
762.830989669747
 30
0.0
 11
2314.006916653815
 21
762.830989669747
 31
0.0
  0
LINE
  5
38B
330
6F
100
AcDbEntity
  8
9-0
  6
Continuous
 62
     4
100
AcDbLine
 10
2322.006917
 20
854.380914
 30
0.0
 11
2322.006917
 21
762.83099
 31
0.0
  0
LINE
  5
38C
330
6F
100
AcDbEntity
  8
9-0
  6
Continuous
 62
     4
100
AcDbLine
 10
2324.006917
 20
854.3724130000001
 30
0.0
 11
2324.006917
 21
762.83099
 31
0.0
  0
LINE
  5
38D
330
6F
100
AcDbEntity
  8
9-0
  6
Continuous
 62
     4
100
AcDbLine
 10
2312.006917
 20
762.83099
 30
0.0
 11
2302.006917
 21
762.83099
 31
0.0
  0
LINE
  5
38E
330
6F
100
AcDbEntity
  8
9-0
  6
Continuous
 62
     4
100
AcDbLine
 10
2334.006917
 20
762.83099
 30
0.0
 11
2344.006917
 21
762.83099
 31
0.0
  0
LINE
  5
38F
330
6F
100
AcDbEntity
  8
9-0
  6
Continuous
 62
     4
100
AcDbLine
 10
2323.006917
 20
762.83099
 30
0.0
 11
2296.819736
 21
708.5309899999999
 31
0.0
  0
LINE
  5
390
330
6F
100
AcDbEntity
  8
9-0
  6
Continuous
 62
     4
100
AcDbLine
 10
2296.819736
 20
708.5309899999999
 30
0.0
 11
2258.697909
 21
708.5309899999999
 31
0.0
  0
TEXT
  5
391
330
6F
100
AcDbEntity
  8
9-0
 62
     4
100
AcDbText
 10
2269.381
 20
709.151
 30
0.0
 40
36.288
  1
2
100
AcDbText
  0
LINE
  5
392
330
6F
100
AcDbEntity
  8
9-0
  6
Continuous
 62
     4
100
AcDbLine
 10
2322.006917
 20
762.83099
 30
0.0
 11
2324.006917
 21
762.83099
 31
0.0
  0
LINE
  5
393
330
6F
100
AcDbEntity
  8
9-0
  6
Continuous
 62
     4
100
AcDbLine
 10
2322.006917
 20
762.83099
 30
0.0
 11
2324.006917
 21
762.83099
 31
0.0
  0
CIRCLE
  5
394
330
6F
100
AcDbEntity
  8
9-0
  6
Continuous
 62
     4
100
AcDbCircle
 10
2322.006916653815
 20
762.830989669747
 30
0.0
 40
0.25
  0
CIRCLE
  5
395
330
6F
100
AcDbEntity
  8
9-0
  6
Continuous
 62
     4
100
AcDbCircle
 10
2322.006916653815
 20
762.830989669747
 30
0.0
 40
0.1875
  0
CIRCLE
  5
396
330
6F
100
AcDbEntity
  8
9-0
  6
Continuous
 62
     4
100
AcDbCircle
 10
2322.006916653815
 20
762.830989669747
 30
0.0
 40
0.125
  0
CIRCLE
  5
397
330
6F
100
AcDbEntity
  8
9-0
  6
Continuous
 62
     4
100
AcDbCircle
 10
2322.006916653815
 20
762.830989669747
 30
0.0
 40
0.0625
  0
ARC
  5
398
330
6F
100
AcDbEntity
  8
9-0
 62
     4
100
AcDbCircle
 10
2322.006916653815
 20
762.835989669747
 30
0.0
 40
2.5
100
AcDbArc
 50
0.1145914065300158
 51
180.114591405945
  0
LINE
  5
399
330
6F
100
AcDbEntity
  8
9-0
 62
     4
100
AcDbLine
 10
2317.006916653815
 20
762.830989669747
 30
0.0
 11
2312.006916653815
 21
762.830989669747
 31
0.0
  0
CIRCLE
  5
39A
330
6F
100
AcDbEntity
  8
9-0
  6
Continuous
 62
     4
100
AcDbCircle
 10
2324.006916653815
 20
762.830989669747
 30
0.0
 40
0.25
  0
CIRCLE
  5
39B
330
6F
100
AcDbEntity
  8
9-0
  6
Continuous
 62
     4
100
AcDbCircle
 10
2324.006916653815
 20
762.830989669747
 30
0.0
 40
0.1875
  0
CIRCLE
  5
39C
330
6F
100
AcDbEntity
  8
9-0
  6
Continuous
 62
     4
100
AcDbCircle
 10
2324.006916653815
 20
762.830989669747
 30
0.0
 40
0.125
  0
CIRCLE
  5
39D
330
6F
100
AcDbEntity
  8
9-0
  6
Continuous
 62
     4
100
AcDbCircle
 10
2324.006916653815
 20
762.830989669747
 30
0.0
 40
0.0625
  0
ARC
  5
39E
330
6F
100
AcDbEntity
  8
9-0
 62
     4
100
AcDbCircle
 10
2324.006916653815
 20
762.825989669747
 30
0.0
 40
2.5
100
AcDbArc
 50
180.1145914065301
 51
0.1145914059449637
  0
LINE
  5
39F
330
6F
100
AcDbEntity
  8
9-0
 62
     4
100
AcDbLine
 10
2329.006916653815
 20
762.8309896697979
 30
0.0
 11
2334.006916653815
 21
762.8309896698489
 31
0.0
  0
LINE
  5
3A0
330
6F
100
AcDbEntity
  8
2-0
  6
Continuous
 62
     7
100
AcDbLine
 10
2321.506917
 20
875.7326649999999
 30
0.0
 11
2321.506917
 21
894.732665
 31
0.0
  0
LINE
  5
3A1
330
6F
100
AcDbEntity
  8
2-0
  6
Continuous
 62
     7
100
AcDbLine
 10
2324.006917
 20
871.8333450000001
 30
0.0
 11
2339.006917
 21
871.8333450000001
 31
0.0
  0
LINE
  5
3A2
330
6F
100
AcDbEntity
  8
1-0
  6
Continuous
 62
     7
100
AcDbLine
 10
2324.006917
 20
875.7326649999999
 30
0.0
 11
2321.506917
 21
875.7326649999999
 31
0.0
  0
LINE
  5
3A3
330
6F
100
AcDbEntity
  8
1-0
  6
Continuous
 62
     7
100
AcDbLine
 10
2324.006917
 20
894.732665
 30
0.0
 11
2321.506917
 21
894.732665
 31
0.0
  0
LINE
  5
3A4
330
6F
100
AcDbEntity
  8
1-0
  6
Continuous
 62
     7
100
AcDbLine
 10
2321.506917
 20
894.732665
 30
0.0
 11
2316.006917000001
 21
894.732665
 31
0.0
  0
LINE
  5
3A5
330
6F
100
AcDbEntity
  8
1-0
  6
Continuous
 62
     7
100
AcDbLine
 10
2318.506917
 20
883.7326649999999
 30
0.0
 11
2321.506917
 21
883.7326649999999
 31
0.0
  0
ARC
  5
3A6
330
6F
100
AcDbEntity
  8
1-0
  6
Continuous
 62
     7
100
AcDbCircle
 10
2318.506917
 20
886.732665
 30
0.0
 40
3.0
100
AcDbArc
 50
180.0
 51
270.0
  0
LINE
  5
3A7
330
6F
100
AcDbEntity
  8
1-0
  6
Continuous
 62
     7
100
AcDbLine
 10
2315.506917
 20
894.232665
 30
0.0
 11
2315.506917
 21
886.732665
 31
0.0
  0
ARC
  5
3A8
330
6F
100
AcDbEntity
  8
1-0
  6
Continuous
 62
     7
100
AcDbCircle
 10
2316.006917000001
 20
894.232665
 30
0.0
 40
0.5
100
AcDbArc
 50
90.0
 51
180.0
  0
LINE
  5
3A9
330
6F
100
AcDbEntity
  8
1-0
  6
Continuous
 62
     7
100
AcDbLine
 10
2321.506917
 20
885.232665
 30
0.0
 11
2321.506917
 21
894.732665
 31
0.0
  0
ARC
  5
3AA
330
6F
100
AcDbEntity
  8
1-0
  6
Continuous
 62
     7
100
AcDbCircle
 10
2324.769417
 20
889.9826649999999
 30
0.0
 40
5.7625
100
AcDbArc
 50
124.483
 51
235.517
  0
ARC
  5
3AB
330
6F
100
AcDbEntity
  8
1-0
  6
Continuous
 62
     7
100
AcDbCircle
 10
2318.754903
 20
886.8528429999999
 30
0.0
 40
1.451915
100
AcDbArc
 50
68.435
 51
346.548
  0
LINE
  5
3AC
330
6F
100
AcDbEntity
  8
1-0
  6
Continuous
 62
     7
100
AcDbLine
 10
2294.370365
 20
896.7993679999999
 30
0.0
 11
2309.727816
 21
896.7993679999999
 31
0.0
  0
LINE
  5
3AD
330
6F
100
AcDbEntity
  8
1-0
  6
Continuous
 62
     7
100
AcDbLine
 10
2294.370365
 20
895.299368
 30
0.0
 11
2309.727816
 21
895.299368
 31
0.0
  0
LINE
  5
3AE
330
6F
100
AcDbEntity
  8
1-0
  6
Continuous
 62
     7
100
AcDbLine
 10
2310.370365
 20
885.7993679999999
 30
0.0
 11
2311.221655
 21
895.163565
 31
0.0
  0
ARC
  5
3AF
330
6F
100
AcDbEntity
  8
1-0
  6
Continuous
 62
     7
100
AcDbCircle
 10
2309.727816
 20
895.299368
 30
0.0
 40
1.5
100
AcDbArc
 50
354.806
 51
90.0
  0
LINE
  5
3B0
330
6F
100
AcDbEntity
  8
1-0
  6
Continuous
 62
     7
100
AcDbLine
 10
2308.876525
 20
885.9351719999999
 30
0.0
 11
2309.727816
 21
895.299368
 31
0.0
  0
LINE
  5
3B1
330
6F
100
AcDbEntity
  8
1-0
  6
Continuous
 62
     7
100
AcDbLine
 10
2294.370365
 20
896.7993679999999
 30
0.0
 11
2294.370365
 21
895.299368
 31
0.0
  0
LINE
  5
3B2
330
6F
100
AcDbEntity
  8
1-0
  6
Continuous
 62
     7
100
AcDbLine
 10
2308.876525
 20
885.9351719999999
 30
0.0
 11
2310.370365
 21
885.7993679999999
 31
0.0
  0
ARC
  5
3B3
330
6F
100
AcDbEntity
  8
1-0
  6
Continuous
 62
     7
100
AcDbCircle
 10
2300.475045
 20
898.480969
 30
0.0
 40
5.7625
100
AcDbArc
 50
214.483
 51
325.517
  0
LINE
  5
3B4
330
6F
100
AcDbEntity
  8
1-0
  6
Continuous
 62
     7
100
AcDbLine
 10
2312.214468
 20
881.5388179999999
 30
0.0
 11
2301.005954
 21
879.6500999999999
 31
0.0
  0
ARC
  5
3B5
330
6F
100
AcDbEntity
  8
1-0
  6
Continuous
 62
     7
100
AcDbCircle
 10
2300.922872000001
 20
880.143149
 30
0.0
 40
0.5
100
AcDbArc
 50
189.565
 51
279.565
  0
LINE
  5
3B6
330
6F
100
AcDbEntity
  8
1-0
  6
Continuous
 62
     7
100
AcDbLine
 10
2300.429823
 20
880.0600669999999
 30
0.0
 11
2299.682081
 21
884.4975080000001
 31
0.0
  0
LINE
  5
3B7
330
6F
100
AcDbEntity
  8
1-0
  6
Continuous
 62
     7
100
AcDbLine
 10
2299.682081
 20
884.4975080000001
 30
0.0
 11
2305.917064
 21
893.252567
 31
0.0
  0
LINE
  5
3B8
330
6F
100
AcDbEntity
  8
1-0
  6
Continuous
 62
     7
100
AcDbLine
 10
2306.820536
 20
893.0240879999999
 30
0.0
 11
2307.769566
 21
885.3753069999999
 31
0.0
  0
ARC
  5
3B9
330
6F
100
AcDbEntity
  8
1-0
  6
Continuous
 62
     7
100
AcDbCircle
 10
2306.32434
 20
892.962522
 30
0.0
 40
0.5
100
AcDbArc
 50
7.073
 51
144.543
  0
LINE
  5
3BA
330
6F
100
AcDbEntity
  8
1-0
  6
Continuous
 62
     7
100
AcDbLine
 10
2308.348844
 20
884.9438239999999
 30
0.0
 11
2315.625814
 21
886.170047
 31
0.0
  0
ARC
  5
3BB
330
6F
100
AcDbEntity
  8
1-0
  6
Continuous
 62
     7
100
AcDbCircle
 10
2308.265761
 20
885.436873
 30
0.0
 40
0.5
100
AcDbArc
 50
187.073
 51
279.565
  0
CIRCLE
  5
3BC
330
6F
100
AcDbEntity
  8
1-0
  6
Continuous
 62
     7
100
AcDbCircle
 10
2304.196744
 20
884.1414079999999
 30
0.0
 40
1.451915
  0
LINE
  5
3BD
330
6F
100
AcDbEntity
  8
1-0
  6
Continuous
 62
     7
100
AcDbLine
 10
2315.902965000001
 20
885.322633
 30
0.0
 11
2307.892801
 21
873.8841329999999
 31
0.0
  0
LINE
  5
3BE
330
6F
100
AcDbEntity
  8
1-0
  6
Continuous
 62
     7
100
AcDbLine
 10
2318.18189
 20
883.6956269999999
 30
0.0
 11
2310.186348
 21
872.2780059999999
 31
0.0
  0
ARC
  5
3BF
330
6F
100
AcDbEntity
  8
1-0
  6
Continuous
 62
     7
100
AcDbCircle
 10
2309.367224
 20
872.851623
 30
0.0
 40
1.0
100
AcDbArc
 50
234.997
 51
324.997
  0
LINE
  5
3C0
330
6F
100
AcDbEntity
  8
1-0
  6
Continuous
 62
     7
100
AcDbLine
 10
2308.138308
 20
872.491392
 30
0.0
 11
2308.793607
 21
872.0324989999999
 31
0.0
  0
ARC
  5
3C1
330
6F
100
AcDbEntity
  8
1-0
  6
Continuous
 62
     7
100
AcDbCircle
 10
2308.711925
 20
873.310516
 30
0.0
 40
1.0
100
AcDbArc
 50
144.997
 51
234.997
  0
LINE
  5
3C2
330
6F
100
AcDbEntity
  8
1-0
  6
Continuous
 62
     7
100
AcDbLine
 10
2312.707112
 20
880.758961
 30
0.0
 11
2307.892801
 21
873.8841329999999
 31
0.0
  0
ARC
  5
3C3
330
6F
100
AcDbEntity
  8
1-0
  6
Continuous
 62
     7
100
AcDbCircle
 10
2312.29755
 20
881.0457689999999
 30
0.0
 40
0.5
100
AcDbArc
 50
324.997
 51
99.56500000000001
  0
TEXT
  5
3C4
330
6F
100
AcDbEntity
  8
D-0
 62
     5
100
AcDbText
 10
3202.325999999999
 20
2486.018
 30
0.0
 40
25.92
  1
火山性ガラス質複層板
100
AcDbText
  0
TEXT
  5
3C5
330
6F
100
AcDbEntity
  8
D-0
 62
     5
100
AcDbText
 10
3202.325999999999
 20
2536.018
 30
0.0
 40
25.92
  1
火山性ガラス質複層板
100
AcDbText
  0
LINE
  5
3C6
330
6F
100
AcDbEntity
  8
D-0
  6
Continuous
 62
     5
100
AcDbLine
 10
2828.314878
 20
2573.572763
 30
0.0
 11
3852.54927
 21
2573.572763
 31
0.0
  0
TEXT
  5
3C7
330
6F
100
AcDbEntity
  8
D-0
 62
     5
100
AcDbText
 10
3202.325999999999
 20
2246.018
 30
0.0
 40
25.92
  1
耐震レハ゛ーラッチ
100
AcDbText
  0
LINE
  5
3C8
330
6F
100
AcDbEntity
  8
D-0
  6
Continuous
 62
     5
100
AcDbLine
 10
2828.314878
 20
2233.572763
 30
0.0
 11
3852.54927
 21
2233.572763
 31
0.0
  0
LINE
  5
3C9
330
6F
100
AcDbEntity
  8
D-0
  6
Continuous
 62
     5
100
AcDbLine
 10
2828.314878
 20
2183.572763
 30
0.0
 11
3852.54927
 21
2183.572763
 31
0.0
  0
LINE
  5
3CA
330
6F
100
AcDbEntity
  8
D-0
  6
Continuous
 62
     5
100
AcDbLine
 10
2828.314878
 20
2473.572763
 30
0.0
 11
3852.54927
 21
2473.572763
 31
0.0
  0
TEXT
  5
3CB
330
6F
100
AcDbEntity
  8
D-0
 62
     5
100
AcDbText
 10
3202.325999999999
 20
2436.018
 30
0.0
 40
25.92
  1
プレコート（PB）
100
AcDbText
  0
TEXT
  5
3CC
330
6F
100
AcDbEntity
  8
D-0
 62
     5
100
AcDbText
 10
3202.325999999999
 20
2296.018
 30
0.0
 40
25.92
  1
木口テープ仕上
100
AcDbText
  0
TEXT
  5
3CD
330
6F
100
AcDbEntity
  8
D-0
 62
     5
100
AcDbText
 10
3202.325999999999
 20
2346.018
 30
0.0
 40
25.92
  1
ウレタンコート化粧ボード（PB)
100
AcDbText
  0
TEXT
  5
3CE
330
6F
100
AcDbEntity
  8
D-0
 62
     5
100
AcDbText
 10
3202.325999999999
 20
2636.018
 30
0.0
 40
25.92
  1
ウレタンコート化粧ボード（PB)
100
AcDbText
  0
LINE
  5
3CF
330
6F
100
AcDbEntity
  8
D-0
  6
Continuous
 62
     5
100
AcDbLine
 10
2828.314878
 20
2673.572763000001
 30
0.0
 11
3852.54927
 21
2673.572763000001
 31
0.0
  0
LINE
  5
3D0
330
6F
100
AcDbEntity
  8
D-0
  6
Continuous
 62
     5
100
AcDbLine
 10
3020.72583
 20
2673.572763000001
 30
0.0
 11
3020.72583
 21
2233.572763
 31
0.0
  0
LINE
  5
3D1
330
6F
100
AcDbEntity
  8
D-0
  6
Continuous
 62
     5
100
AcDbLine
 10
3172.198256
 20
2673.572763000001
 30
0.0
 11
3172.198256
 21
2183.572763
 31
0.0
  0
LINE
  5
3D2
330
6F
100
AcDbEntity
  8
D-0
  6
Continuous
 62
     5
100
AcDbLine
 10
2828.314878
 20
2673.572763000001
 30
0.0
 11
2828.314878
 21
2183.572763
 31
0.0
  0
TEXT
  5
3D3
330
6F
100
AcDbEntity
  8
D-0
 62
     5
100
AcDbText
 10
2867.906
 20
2196.018
 30
0.0
 40
25.92
  1
丁番
100
AcDbText
  0
TEXT
  5
3D4
330
6F
100
AcDbEntity
  8
D-0
 62
     5
100
AcDbText
 10
2867.906
 20
2436.018
 30
0.0
 40
25.92
  1
扉
100
AcDbText
  0
TEXT
  5
3D5
330
6F
100
AcDbEntity
  8
D-0
 62
     5
100
AcDbText
 10
3040.665
 20
2346.018
 30
0.0
 40
25.92
  1
裏
100
AcDbText
  0
TEXT
  5
3D6
330
6F
100
AcDbEntity
  8
D-0
 62
     5
100
AcDbText
 10
3040.665
 20
2246.018
 30
0.0
 40
25.92
  1
ラッチ
100
AcDbText
  0
TEXT
  5
3D7
330
6F
100
AcDbEntity
  8
D-0
 62
     5
100
AcDbText
 10
3040.665
 20
2296.018
 30
0.0
 40
25.92
  1
木口
100
AcDbText
  0
TEXT
  5
3D8
330
6F
100
AcDbEntity
  8
D-0
 62
     5
100
AcDbText
 10
3040.665
 20
2486.018
 30
0.0
 40
25.92
  1
地板
100
AcDbText
  0
TEXT
  5
3D9
330
6F
100
AcDbEntity
  8
D-0
 62
     5
100
AcDbText
 10
3040.665
 20
2436.018
 30
0.0
 40
25.92
  1
表
100
AcDbText
  0
TEXT
  5
3DA
330
6F
100
AcDbEntity
  8
D-0
 62
     5
100
AcDbText
 10
2867.906
 20
2536.018
 30
0.0
 40
25.92
  1
不燃部
100
AcDbText
  0
TEXT
  5
3DB
330
6F
100
AcDbEntity
  8
D-0
 62
     5
100
AcDbText
 10
2867.906
 20
2636.018
 30
0.0
 40
25.92
  1
木部本体
100
AcDbText
  0
TEXT
  5
3DC
330
6F
100
AcDbEntity
  8
D-0
 62
     5
100
AcDbText
 10
3040.665
 20
2636.018
 30
0.0
 40
25.92
  1
側板
100
AcDbText
  0
TEXT
  5
3DD
330
6F
100
AcDbEntity
  8
D-0
 62
     5
100
AcDbText
 10
3202.325999999999
 20
2586.018
 30
0.0
 40
25.92
  1
クリーンイーゴスMDF
100
AcDbText
  0
TEXT
  5
3DE
330
6F
100
AcDbEntity
  8
D-0
 62
     5
100
AcDbText
 10
3040.665
 20
2536.018
 30
0.0
 40
25.92
  1
側板
100
AcDbText
  0
TEXT
  5
3DF
330
6F
100
AcDbEntity
  8
D-0
 62
     5
100
AcDbText
 10
3040.665
 20
2586.018
 30
0.0
 40
25.92
  1
背板
100
AcDbText
  0
LINE
  5
3E0
330
6F
100
AcDbEntity
  8
D-0
  6
Continuous
 62
     5
100
AcDbLine
 10
3852.54927
 20
2673.572763000001
 30
0.0
 11
3852.54927
 21
2183.572763
 31
0.0
  0
TEXT
  5
3E1
330
6F
100
AcDbEntity
  8
D-0
 62
     5
100
AcDbText
 10
2827.835
 20
2110.568
 30
0.0
 40
25.92
  1
※　弊社製品はすべてF☆☆☆☆に対応しております。
100
AcDbText
  0
TEXT
  5
3E2
330
6F
100
AcDbEntity
  8
D-0
 62
     5
100
AcDbText
 10
3203.933
 20
2195.271
 30
0.0
 40
25.92
  1
スライドヒンジ
100
AcDbText
  0
LINE
  5
3E3
330
6F
100
AcDbEntity
  8
1-0
  6
Continuous
 62
     4
100
AcDbLine
 10
1400.701718
 20
1396.833345
 30
0.0
 11
1488.435374
 21
1396.833345
 31
0.0
  0
LINE
  5
3E4
330
6F
100
AcDbEntity
  8
1-0
  6
Continuous
 62
     4
100
AcDbLine
 10
1400.701718
 20
896.8333450000001
 30
0.0
 11
1488.435374
 21
896.8333450000001
 31
0.0
  0
TEXT
  5
3E5
330
6F
100
AcDbEntity
  8
1-0
 62
     4
100
AcDbText
 10
1487.815
 20
1113.233
 30
0.0
 40
36.288
  1
500
 50
90.0
100
AcDbText
  0
LINE
  5
3E6
330
6F
100
AcDbEntity
  8
1-0
  6
Continuous
 62
     4
100
AcDbLine
 10
1488.435373619803
 20
896.833344616548
 30
0.0
 11
1488.435373619803
 21
1396.833344616547
 31
0.0
  0
CIRCLE
  5
3E7
330
6F
100
AcDbEntity
  8
1-0
  6
Continuous
 62
     4
100
AcDbCircle
 10
1488.435373619803
 20
896.833344616548
 30
0.0
 40
0.25
  0
CIRCLE
  5
3E8
330
6F
100
AcDbEntity
  8
1-0
  6
Continuous
 62
     4
100
AcDbCircle
 10
1488.435373619803
 20
896.833344616548
 30
0.0
 40
0.1875
  0
CIRCLE
  5
3E9
330
6F
100
AcDbEntity
  8
1-0
  6
Continuous
 62
     4
100
AcDbCircle
 10
1488.435373619803
 20
896.833344616548
 30
0.0
 40
0.125
  0
CIRCLE
  5
3EA
330
6F
100
AcDbEntity
  8
1-0
  6
Continuous
 62
     4
100
AcDbCircle
 10
1488.435373619803
 20
896.833344616548
 30
0.0
 40
0.0625
  0
CIRCLE
  5
3EB
330
6F
100
AcDbEntity
  8
1-0
  6
Continuous
 62
     4
100
AcDbCircle
 10
1488.435373619803
 20
1396.833344616547
 30
0.0
 40
0.25
  0
CIRCLE
  5
3EC
330
6F
100
AcDbEntity
  8
1-0
  6
Continuous
 62
     4
100
AcDbCircle
 10
1488.435373619803
 20
1396.833344616547
 30
0.0
 40
0.1875
  0
CIRCLE
  5
3ED
330
6F
100
AcDbEntity
  8
1-0
  6
Continuous
 62
     4
100
AcDbCircle
 10
1488.435373619803
 20
1396.833344616547
 30
0.0
 40
0.125
  0
CIRCLE
  5
3EE
330
6F
100
AcDbEntity
  8
1-0
  6
Continuous
 62
     4
100
AcDbCircle
 10
1488.435373619803
 20
1396.833344616547
 30
0.0
 40
0.0625
  0
LINE
  5
3EF
330
6F
100
AcDbEntity
  8
1-0
  6
Continuous
 62
     4
100
AcDbLine
 10
1408.944021
 20
2330.835782
 30
0.0
 11
1499.436914
 21
2330.835782
 31
0.0
  0
LINE
  5
3F0
330
6F
100
AcDbEntity
  8
1-0
  6
Continuous
 62
     4
100
AcDbLine
 10
1408.944021
 20
1985.835782
 30
0.0
 11
1499.436914
 21
1985.835782
 31
0.0
  0
TEXT
  5
3F1
330
6F
100
AcDbEntity
  8
1-0
 62
     4
100
AcDbText
 10
1498.817
 20
2124.736
 30
0.0
 40
36.288
  1
345
 50
90.0
100
AcDbText
  0
LINE
  5
3F2
330
6F
100
AcDbEntity
  8
1-0
  6
Continuous
 62
     4
100
AcDbLine
 10
1499.436913649208
 20
1985.835782059136
 30
0.0
 11
1499.436913649208
 21
2330.835782059136
 31
0.0
  0
CIRCLE
  5
3F3
330
6F
100
AcDbEntity
  8
1-0
  6
Continuous
 62
     4
100
AcDbCircle
 10
1499.436913649208
 20
1985.835782059136
 30
0.0
 40
0.25
  0
CIRCLE
  5
3F4
330
6F
100
AcDbEntity
  8
1-0
  6
Continuous
 62
     4
100
AcDbCircle
 10
1499.436913649208
 20
1985.835782059136
 30
0.0
 40
0.1875
  0
CIRCLE
  5
3F5
330
6F
100
AcDbEntity
  8
1-0
  6
Continuous
 62
     4
100
AcDbCircle
 10
1499.436913649208
 20
1985.835782059136
 30
0.0
 40
0.125
  0
CIRCLE
  5
3F6
330
6F
100
AcDbEntity
  8
1-0
  6
Continuous
 62
     4
100
AcDbCircle
 10
1499.436913649208
 20
1985.835782059136
 30
0.0
 40
0.0625
  0
CIRCLE
  5
3F7
330
6F
100
AcDbEntity
  8
1-0
  6
Continuous
 62
     4
100
AcDbCircle
 10
1499.436913649208
 20
2330.835782059136
 30
0.0
 40
0.25
  0
CIRCLE
  5
3F8
330
6F
100
AcDbEntity
  8
1-0
  6
Continuous
 62
     4
100
AcDbCircle
 10
1499.436913649208
 20
2330.835782059136
 30
0.0
 40
0.1875
  0
CIRCLE
  5
3F9
330
6F
100
AcDbEntity
  8
1-0
  6
Continuous
 62
     4
100
AcDbCircle
 10
1499.436913649208
 20
2330.835782059136
 30
0.0
 40
0.125
  0
CIRCLE
  5
3FA
330
6F
100
AcDbEntity
  8
1-0
  6
Continuous
 62
     4
100
AcDbCircle
 10
1499.436913649208
 20
2330.835782059136
 30
0.0
 40
0.0625
  0
TEXT
  5
3FB
330
6F
100
AcDbEntity
  8
D-0
 62
     5
100
AcDbText
 10
3187.649
 20
2395.401
 30
0.0
 40
25.92
  1
（SW）は鏡面仕上げ
100
AcDbText
  0
TEXT
  5
3FC
330
6F
100
AcDbEntity
  8
D-0
 62
     5
100
AcDbText
 10
3977.866
 20
48.607
 30
0.0
 40
31.104
  1
2022.1
100
AcDbText
  0
ENDSEC
  0
SECTION
  2
OBJECTS
  0
DICTIONARY
  5
C
330
0
100
AcDbDictionary
281
     1
  3
ACAD_CIP_PREVIOUS_PRODUCT_INFO
350
3FE
  3
ACAD_COLOR
350
62
  3
ACAD_DETAILVIEWSTYLE
350
69
  3
ACAD_GROUP
350
D
  3
ACAD_LAYOUT
350
61
  3
ACAD_MATERIAL
350
10
  3
ACAD_MLEADERSTYLE
350
65
  3
ACAD_MLINESTYLE
350
5E
  3
ACAD_PLOTSETTINGS
350
60
  3
ACAD_PLOTSTYLENAME
350
E
  3
ACAD_SCALELIST
350
42
  3
ACAD_SECTIONVIEWSTYLE
350
67
  3
ACAD_TABLESTYLE
350
63
  3
ACAD_VISUALSTYLE
350
29
  3
ACDB_RECOMPOSE_DATA
350
41F
  3
AcDbVariableDictionary
350
415
  0
DICTIONARY
  5
3FF
330
54
100
AcDbDictionary
280
     1
281
     1
  3
ADSK_XREC_LAYER_RECONCILED
360
400
  0
DICTIONARY
  5
401
330
7F
100
AcDbDictionary
280
     1
281
     1
  3
ADSK_XREC_LAYER_RECONCILED
360
402
  0
DICTIONARY
  5
403
330
80
100
AcDbDictionary
280
     1
281
     1
  3
ADSK_XREC_LAYER_RECONCILED
360
404
  0
DICTIONARY
  5
405
330
81
100
AcDbDictionary
280
     1
281
     1
  3
ADSK_XREC_LAYER_RECONCILED
360
406
  0
DICTIONARY
  5
407
330
82
100
AcDbDictionary
280
     1
281
     1
  3
ADSK_XREC_LAYER_RECONCILED
360
408
  0
DICTIONARY
  5
409
330
83
100
AcDbDictionary
280
     1
281
     1
  3
ADSK_XREC_LAYER_RECONCILED
360
40A
  0
DICTIONARY
  5
40B
330
84
100
AcDbDictionary
280
     1
281
     1
  3
ADSK_XREC_LAYER_RECONCILED
360
40C
  0
DICTIONARY
  5
40D
330
85
100
AcDbDictionary
280
     1
281
     1
  3
ADSK_XREC_LAYER_RECONCILED
360
40E
  0
DICTIONARY
  5
40F
330
86
100
AcDbDictionary
280
     1
281
     1
  3
ADSK_XREC_LAYER_RECONCILED
360
410
  0
DICTIONARY
  5
411
330
87
100
AcDbDictionary
280
     1
281
     1
  3
ADSK_XREC_LAYER_RECONCILED
360
412
  0
DICTIONARY
  5
413
330
8D
100
AcDbDictionary
280
     1
281
     1
  3
ADSK_XREC_LAYER_RECONCILED
360
414
  0
XRECORD
  5
3FE
102
{ACAD_REACTORS
330
C
102
}
330
C
100
AcDbXrecord
280
     1
300
ACDLT
300
2020
300

  0
DICTIONARY
  5
62
102
{ACAD_REACTORS
330
C
102
}
330
C
100
AcDbDictionary
281
     1
  0
DICTIONARY
  5
69
102
{ACAD_REACTORS
330
C
102
}
330
C
100
AcDbDictionary
281
     1
  3
Imperial24
350
6A
  0
DICTIONARY
  5
D
102
{ACAD_REACTORS
330
C
102
}
330
C
100
AcDbDictionary
281
     1
  0
DICTIONARY
  5
61
102
{ACAD_REACTORS
330
C
102
}
330
C
100
AcDbDictionary
281
     1
  3
Model
350
72
  3
レイアウト1
350
6E
  0
DICTIONARY
  5
10
102
{ACAD_REACTORS
330
C
102
}
330
C
100
AcDbDictionary
281
     1
  3
ByBlock
350
19
  3
ByLayer
350
11
  3
Global
350
21
  0
DICTIONARY
  5
65
102
{ACAD_REACTORS
330
C
102
}
330
C
100
AcDbDictionary
281
     1
  3
Standard
350
66
  0
DICTIONARY
  5
5E
102
{ACAD_REACTORS
330
C
102
}
330
C
100
AcDbDictionary
281
     1
  3
Standard
350
5F
  0
DICTIONARY
  5
60
102
{ACAD_REACTORS
330
C
102
}
330
C
100
AcDbDictionary
281
     1
  0
ACDBDICTIONARYWDFLT
  5
E
102
{ACAD_REACTORS
330
C
102
}
330
C
100
AcDbDictionary
281
     1
  3
Normal
350
F
100
AcDbDictionaryWithDefault
340
F
  0
DICTIONARY
  5
42
102
{ACAD_REACTORS
330
C
102
}
330
C
100
AcDbDictionary
281
     1
  3
A0
350
43
  3
A1
350
44
  3
A2
350
45
  3
A3
350
46
  3
A4
350
47
  3
A5
350
48
  3
A6
350
49
  3
A7
350
4A
  3
A8
350
4B
  3
A9
350
4C
  3
B0
350
4D
  3
B1
350
4E
  3
B2
350
4F
  3
B3
350
50
  3
B4
350
51
  3
B5
350
52
  3
B6
350
53
  0
DICTIONARY
  5
67
102
{ACAD_REACTORS
330
C
102
}
330
C
100
AcDbDictionary
281
     1
  3
Imperial24
350
68
  0
DICTIONARY
  5
63
102
{ACAD_REACTORS
330
C
102
}
330
C
100
AcDbDictionary
281
     1
  3
Standard
350
64
  0
DICTIONARY
  5
29
102
{ACAD_REACTORS
330
C
102
}
330
C
100
AcDbDictionary
281
     1
  3
2dWireframe
350
2F
  3
Basic
350
2E
  3
Brighten
350
35
  3
ColorChange
350
39
  3
Conceptual
350
32
  3
Dim
350
34
  3
EdgeColorOff
350
41
  3
Facepattern
350
38
  3
Flat
350
2A
  3
FlatWithEdges
350
2B
  3
Gouraud
350
2C
  3
GouraudWithEdges
350
2D
  3
Hidden
350
31
  3
JitterOff
350
3F
  3
Linepattern
350
37
  3
OverhangOff
350
40
  3
Realistic
350
33
  3
Shaded
350
3E
  3
Shaded with edges
350
3D
  3
Shades of Gray
350
3A
  3
Sketchy
350
3B
  3
Thicken
350
36
  3
Wireframe
350
30
  3
X-Ray
350
3C
  0
XRECORD
  5
41F
102
{ACAD_REACTORS
330
C
102
}
330
C
100
AcDbXrecord
280
     1
 90
        1
330
64
  0
DICTIONARY
  5
415
102
{ACAD_REACTORS
330
C
102
}
330
C
100
AcDbDictionary
281
     1
  3
CANNOSCALE
350
41A
  3
CMLEADERSTYLE
350
417
  3
CTABLESTYLE
350
416
  3
CVIEWDETAILSTYLE
350
418
  3
CVIEWSECTIONSTYLE
350
419
  3
XCLIPFRAME
350
41B
  0
XRECORD
  5
400
102
{ACAD_REACTORS
330
3FF
102
}
330
3FF
100
AcDbXrecord
280
     1
290
     1
  0
XRECORD
  5
402
102
{ACAD_REACTORS
330
401
102
}
330
401
100
AcDbXrecord
280
     1
290
     1
  0
XRECORD
  5
404
102
{ACAD_REACTORS
330
403
102
}
330
403
100
AcDbXrecord
280
     1
290
     1
  0
XRECORD
  5
406
102
{ACAD_REACTORS
330
405
102
}
330
405
100
AcDbXrecord
280
     1
290
     1
  0
XRECORD
  5
408
102
{ACAD_REACTORS
330
407
102
}
330
407
100
AcDbXrecord
280
     1
290
     1
  0
XRECORD
  5
40A
102
{ACAD_REACTORS
330
409
102
}
330
409
100
AcDbXrecord
280
     1
290
     1
  0
XRECORD
  5
40C
102
{ACAD_REACTORS
330
40B
102
}
330
40B
100
AcDbXrecord
280
     1
290
     1
  0
XRECORD
  5
40E
102
{ACAD_REACTORS
330
40D
102
}
330
40D
100
AcDbXrecord
280
     1
290
     1
  0
XRECORD
  5
410
102
{ACAD_REACTORS
330
40F
102
}
330
40F
100
AcDbXrecord
280
     1
290
     1
  0
XRECORD
  5
412
102
{ACAD_REACTORS
330
411
102
}
330
411
100
AcDbXrecord
280
     1
290
     1
  0
XRECORD
  5
414
102
{ACAD_REACTORS
330
413
102
}
330
413
100
AcDbXrecord
280
     1
290
     1
  0
ACDBDETAILVIEWSTYLE
  5
6A
102
{ACAD_XDICTIONARY
360
457
102
}
102
{ACAD_REACTORS
330
69
102
}
330
69
100
AcDbModelDocViewStyle
 70
     0
  3
Imperial24
290
     0
100
AcDbDetailViewStyle
 70
     0
 71
     0
 90
        3
 71
     1
340
55
 62
   256
 40
0.24
340
0
 62
   256
 40
0.24
300

 40
0.36
280
     3
 71
     2
340
5C
 90
       25
 62
   256
 71
     3
340
55
 62
   256
 40
0.24
 90
        1
 40
0.75
 90
        1
300
%<\AcVar ViewType \f "%tc1">% %<\AcVar ViewDetailId>%\PSCALE %<\AcVar ViewScale \f "%sn">%
 71
     4
340
5C
 90
       25
 62
   256
340
5C
 90
       25
 62
   256
280
     0
  0
LAYOUT
  5
72
102
{ACAD_REACTORS
330
61
102
}
330
61
100
AcDbPlotSettings
  1

  2
DocuCentre-V 4070
  4

  6

 40
0.0
 41
0.0
 42
0.0
 43
0.0
 44
0.0
 45
0.0
 46
0.0
 47
0.0
 48
0.0
 49
0.0
140
0.0
141
0.0
142
1.0
143
1.0
 70
  1712
 72
     0
 73
     0
 74
     0
  7

 75
     0
147
1.0
 76
     0
 77
     2
 78
   300
148
0.0
149
0.0
100
AcDbLayout
  1
Model
 70
     1
 71
     0
 10
0.0
 20
0.0
 11
12.0
 21
9.0
 12
0.0
 22
0.0
 32
0.0
 14
0.0
 24
0.0
 34
0.0
 15
0.0
 25
0.0
 35
0.0
146
0.0
 13
0.0
 23
0.0
 33
0.0
 16
1.0
 26
0.0
 36
0.0
 17
0.0
 27
1.0
 37
0.0
 76
     0
330
6F
331
8C
  0
LAYOUT
  5
6E
102
{ACAD_REACTORS
330
61
102
}
330
61
100
AcDbPlotSettings
  1

  2
DocuCentre-V 4070
  4

  6

 40
0.0
 41
0.0
 42
0.0
 43
0.0
 44
0.0
 45
0.0
 46
0.0
 47
0.0
 48
0.0
 49
0.0
140
0.0
141
0.0
142
1.0
143
1.0
 70
   688
 72
     0
 73
     0
 74
     5
  7

 75
    16
147
1.0
 76
     0
 77
     2
 78
   300
148
0.0
149
0.0
100
AcDbLayout
  1
レイアウト1
 70
     1
 71
     1
 10
0.0
 20
0.0
 11
12.0
 21
9.0
 12
0.0
 22
0.0
 32
0.0
 14
1.000000000000000E+20
 24
1.000000000000000E+20
 34
1.000000000000000E+20
 15
-1.000000000000000E+20
 25
-1.000000000000000E+20
 35
-1.000000000000000E+20
146
0.0
 13
0.0
 23
0.0
 33
0.0
 16
1.0
 26
0.0
 36
0.0
 17
0.0
 27
1.0
 37
0.0
 76
     0
330
6B
  0
MATERIAL
  5
19
102
{ACAD_XDICTIONARY
360
1A
102
}
102
{ACAD_REACTORS
330
10
102
}
330
10
100
AcDbMaterial
  1
ByBlock
 72
     0
 43
0.0208333333333333
 43
0.0
 43
0.0
 43
0.0
 43
0.0
 43
0.0208333333333333
 43
0.0
 43
0.0
 43
0.0
 43
0.0
 43
1.0
 43
0.0
 43
0.0
 43
0.0
 43
0.0
 43
1.0
 77
     0
 47
0.0208333333333333
 47
0.0
 47
0.0
 47
0.0
 47
0.0
 47
0.0208333333333333
 47
0.0
 47
0.0
 47
0.0
 47
0.0
 47
1.0
 47
0.0
 47
0.0
 47
0.0
 47
0.0
 47
1.0
171
     0
 49
0.0208333333333333
 49
0.0
 49
0.0
 49
0.0
 49
0.0
 49
0.0208333333333333
 49
0.0
 49
0.0
 49
0.0
 49
0.0
 49
1.0
 49
0.0
 49
0.0
 49
0.0
 49
0.0
 49
1.0
175
     0
142
0.0208333333333333
142
0.0
142
0.0
142
0.0
142
0.0
142
0.0208333333333333
142
0.0
142
0.0
142
0.0
142
0.0
142
1.0
142
0.0
142
0.0
142
0.0
142
0.0
142
1.0
179
     0
144
0.0208333333333333
144
0.0
144
0.0
144
0.0
144
0.0
144
0.0208333333333333
144
0.0
144
0.0
144
0.0
144
0.0
144
1.0
144
0.0
144
0.0
144
0.0
144
0.0
144
1.0
147
0.0208333333333333
147
0.0
147
0.0
147
0.0
147
0.0
147
0.0208333333333333
147
0.0
147
0.0
147
0.0
147
0.0
147
1.0
147
0.0
147
0.0
147
0.0
147
0.0
147
1.0
  0
MATERIAL
  5
11
102
{ACAD_XDICTIONARY
360
12
102
}
102
{ACAD_REACTORS
330
10
102
}
330
10
100
AcDbMaterial
  1
ByLayer
 72
     0
 43
0.0208333333333333
 43
0.0
 43
0.0
 43
0.0
 43
0.0
 43
0.0208333333333333
 43
0.0
 43
0.0
 43
0.0
 43
0.0
 43
1.0
 43
0.0
 43
0.0
 43
0.0
 43
0.0
 43
1.0
 77
     0
 47
0.0208333333333333
 47
0.0
 47
0.0
 47
0.0
 47
0.0
 47
0.0208333333333333
 47
0.0
 47
0.0
 47
0.0
 47
0.0
 47
1.0
 47
0.0
 47
0.0
 47
0.0
 47
0.0
 47
1.0
171
     0
 49
0.0208333333333333
 49
0.0
 49
0.0
 49
0.0
 49
0.0
 49
0.0208333333333333
 49
0.0
 49
0.0
 49
0.0
 49
0.0
 49
1.0
 49
0.0
 49
0.0
 49
0.0
 49
0.0
 49
1.0
175
     0
142
0.0208333333333333
142
0.0
142
0.0
142
0.0
142
0.0
142
0.0208333333333333
142
0.0
142
0.0
142
0.0
142
0.0
142
1.0
142
0.0
142
0.0
142
0.0
142
0.0
142
1.0
179
     0
144
0.0208333333333333
144
0.0
144
0.0
144
0.0
144
0.0
144
0.0208333333333333
144
0.0
144
0.0
144
0.0
144
0.0
144
1.0
144
0.0
144
0.0
144
0.0
144
0.0
144
1.0
147
0.0208333333333333
147
0.0
147
0.0
147
0.0
147
0.0
147
0.0208333333333333
147
0.0
147
0.0
147
0.0
147
0.0
147
1.0
147
0.0
147
0.0
147
0.0
147
0.0
147
1.0
  0
MATERIAL
  5
21
102
{ACAD_XDICTIONARY
360
22
102
}
102
{ACAD_REACTORS
330
10
102
}
330
10
100
AcDbMaterial
  1
Global
 72
     0
 43
0.0208333333333333
 43
0.0
 43
0.0
 43
0.0
 43
0.0
 43
0.0208333333333333
 43
0.0
 43
0.0
 43
0.0
 43
0.0
 43
1.0
 43
0.0
 43
0.0
 43
0.0
 43
0.0
 43
1.0
 77
     0
 47
0.0208333333333333
 47
0.0
 47
0.0
 47
0.0
 47
0.0
 47
0.0208333333333333
 47
0.0
 47
0.0
 47
0.0
 47
0.0
 47
1.0
 47
0.0
 47
0.0
 47
0.0
 47
0.0
 47
1.0
171
     0
 49
0.0208333333333333
 49
0.0
 49
0.0
 49
0.0
 49
0.0
 49
0.0208333333333333
 49
0.0
 49
0.0
 49
0.0
 49
0.0
 49
1.0
 49
0.0
 49
0.0
 49
0.0
 49
0.0
 49
1.0
175
     0
142
0.0208333333333333
142
0.0
142
0.0
142
0.0
142
0.0
142
0.0208333333333333
142
0.0
142
0.0
142
0.0
142
0.0
142
1.0
142
0.0
142
0.0
142
0.0
142
0.0
142
1.0
179
     0
144
0.0208333333333333
144
0.0
144
0.0
144
0.0
144
0.0
144
0.0208333333333333
144
0.0
144
0.0
144
0.0
144
0.0
144
1.0
144
0.0
144
0.0
144
0.0
144
0.0
144
1.0
147
0.0208333333333333
147
0.0
147
0.0
147
0.0
147
0.0
147
0.0208333333333333
147
0.0
147
0.0
147
0.0
147
0.0
147
1.0
147
0.0
147
0.0
147
0.0
147
0.0
147
1.0
  0
MLEADERSTYLE
  5
66
102
{ACAD_REACTORS
330
65
102
}
330
65
100
AcDbMLeaderStyle
170
     2
171
     1
172
     0
 90
        2
 40
0.0
 41
0.0
173
     1
 91
-1056964608
340
5A
 92
       -2
290
     1
 42
0.09
291
     1
 43
0.36
  3
Standard
 44
0.18
300

342
55
174
     1
178
     6
175
     1
176
     0
 93
-1056964608
 45
0.18
292
     0
297
     0
 46
0.18
 94
-1056964608
 47
1.0
 49
1.0
140
1.0
293
     1
141
0.0
294
     1
177
     0
142
1.0
295
     0
296
     0
143
0.125
1001
ACAD_MLEADERVER
1070
     2
  0
MLINESTYLE
  5
5F
102
{ACAD_REACTORS
330
5E
102
}
330
5E
100
AcDbMlineStyle
  2
STANDARD
 70
     0
  3

 62
   256
 51
90.0
 52
90.0
 71
     2
 49
0.5
 62
   256
  6
BYLAYER
 49
-0.5
 62
   256
  6
BYLAYER
  0
ACDBPLACEHOLDER
  5
F
102
{ACAD_REACTORS
330
E
102
}
330
E
  0
SCALE
  5
43
102
{ACAD_REACTORS
330
42
102
}
330
42
100
AcDbScale
 70
     0
300
1:1
140
1.0
141
1.0
290
     1
  0
SCALE
  5
44
102
{ACAD_REACTORS
330
42
102
}
330
42
100
AcDbScale
 70
     0
300
1/128" = 1'-0"
140
0.0078125
141
12.0
290
     0
  0
SCALE
  5
45
102
{ACAD_REACTORS
330
42
102
}
330
42
100
AcDbScale
 70
     0
300
1/64" = 1'-0"
140
0.015625
141
12.0
290
     0
  0
SCALE
  5
46
102
{ACAD_REACTORS
330
42
102
}
330
42
100
AcDbScale
 70
     0
300
1/32" = 1'-0"
140
0.03125
141
12.0
290
     0
  0
SCALE
  5
47
102
{ACAD_REACTORS
330
42
102
}
330
42
100
AcDbScale
 70
     0
300
1/16" = 1'-0"
140
0.0625
141
12.0
290
     0
  0
SCALE
  5
48
102
{ACAD_REACTORS
330
42
102
}
330
42
100
AcDbScale
 70
     0
300
3/32" = 1'-0"
140
0.09375
141
12.0
290
     0
  0
SCALE
  5
49
102
{ACAD_REACTORS
330
42
102
}
330
42
100
AcDbScale
 70
     0
300
1/8" = 1'-0"
140
0.125
141
12.0
290
     0
  0
SCALE
  5
4A
102
{ACAD_REACTORS
330
42
102
}
330
42
100
AcDbScale
 70
     0
300
3/16" = 1'-0"
140
0.1875
141
12.0
290
     0
  0
SCALE
  5
4B
102
{ACAD_REACTORS
330
42
102
}
330
42
100
AcDbScale
 70
     0
300
1/4" = 1'-0"
140
0.25
141
12.0
290
     0
  0
SCALE
  5
4C
102
{ACAD_REACTORS
330
42
102
}
330
42
100
AcDbScale
 70
     0
300
3/8" = 1'-0"
140
0.375
141
12.0
290
     0
  0
SCALE
  5
4D
102
{ACAD_REACTORS
330
42
102
}
330
42
100
AcDbScale
 70
     0
300
1/2" = 1'-0"
140
0.5
141
12.0
290
     0
  0
SCALE
  5
4E
102
{ACAD_REACTORS
330
42
102
}
330
42
100
AcDbScale
 70
     0
300
3/4" = 1'-0"
140
0.75
141
12.0
290
     0
  0
SCALE
  5
4F
102
{ACAD_REACTORS
330
42
102
}
330
42
100
AcDbScale
 70
     0
300
1" = 1'-0"
140
1.0
141
12.0
290
     0
  0
SCALE
  5
50
102
{ACAD_REACTORS
330
42
102
}
330
42
100
AcDbScale
 70
     0
300
1-1/2" = 1'-0"
140
1.5
141
12.0
290
     0
  0
SCALE
  5
51
102
{ACAD_REACTORS
330
42
102
}
330
42
100
AcDbScale
 70
     0
300
3" = 1'-0"
140
3.0
141
12.0
290
     0
  0
SCALE
  5
52
102
{ACAD_REACTORS
330
42
102
}
330
42
100
AcDbScale
 70
     0
300
6" = 1'-0"
140
6.0
141
12.0
290
     0
  0
SCALE
  5
53
102
{ACAD_REACTORS
330
42
102
}
330
42
100
AcDbScale
 70
     0
300
1'-0" = 1'-0"
140
12.0
141
12.0
290
     0
  0
ACDBSECTIONVIEWSTYLE
  5
68
102
{ACAD_XDICTIONARY
360
455
102
}
102
{ACAD_REACTORS
330
67
102
}
330
67
100
AcDbModelDocViewStyle
 70
     0
  3
Imperial24
290
     0
100
AcDbSectionViewStyle
 70
     0
 71
     0
 90
       78
 71
     1
340
55
 62
   256
 40
0.24
340
0
340
0
 62
   256
 40
0.24
300
I, O, Q, S, X, Z
 40
0.48
 90
        3
 40
0.18
 90
        1
 71
     2
340
5C
 90
       25
 62
   256
340
5C
 90
       50
 62
   256
 40
0.24
 40
0.0
 40
0.24
 71
     3
340
55
 62
   256
 40
0.24
 90
        1
 40
0.75
 90
        1
300
%<\AcVar ViewType \f "%tc1">% %<\AcVar ViewSectionStartId>%-%<\AcVar ViewSectionEndId>%\PSCALE %<\AcVar ViewScale \f "%sn">%
 71
     4
 62
   256
 62
   257
300
ANSI31
 40
1.0
 90
        0
290
     0
290
     0
 90
        6
 40
0.0
 40
1.570796326794896
 40
0.2617993877991494
 40
1.308996938995747
 40
-0.2617993877991494
 40
1.832595714594046
  0
TABLESTYLE
  5
64
102
{ACAD_XDICTIONARY
360
41D
102
}
102
{ACAD_REACTORS
330
63
102
}
330
63
100
AcDbTableStyle
  3
Standard
 70
     0
 71
     0
 40
0.06
 41
0.06
280
     0
281
     0
  7
STANDARD
140
0.18
170
     2
 62
     0
 63
     7
283
     0
274
    -2
284
     1
 64
     0
275
    -2
285
     1
 65
     0
276
    -2
286
     1
 66
     0
277
    -2
287
     1
 67
     0
278
    -2
288
     1
 68
     0
279
    -2
289
     1
 69
     0
  7
STANDARD
140
0.25
170
     5
 62
     0
 63
     7
283
     0
274
    -2
284
     1
 64
     0
275
    -2
285
     1
 65
     0
276
    -2
286
     1
 66
     0
277
    -2
287
     1
 67
     0
278
    -2
288
     1
 68
     0
279
    -2
289
     1
 69
     0
  7
STANDARD
140
0.18
170
     5
 62
     0
 63
     7
283
     0
274
    -2
284
     1
 64
     0
275
    -2
285
     1
 65
     0
276
    -2
286
     1
 66
     0
277
    -2
287
     1
 67
     0
278
    -2
288
     1
 68
     0
279
    -2
289
     1
 69
     0
  0
VISUALSTYLE
  5
2F
102
{ACAD_XDICTIONARY
360
42D
102
}
102
{ACAD_REACTORS
330
29
102
}
330
29
100
AcDbVisualStyle
  2
2dWireframe
 70
     4
 71
     0
 72
     2
 73
     0
 90
        0
 40
-0.6
 41
-30.0
 62
     5
 63
     7
421
 16777215
 74
     1
 91
        4
 64
     7
 65
   257
 75
     1
175
     1
 42
1.0
 92
        0
 66
   257
 43
1.0
 76
     1
 77
     6
 78
     2
 67
     7
 79
     5
170
     0
171
     0
290
     0
174
     0
 93
        1
 44
0.0
173
     0
291
     0
 45
0.0
1001
ACAD
1000
AcDbSavedByObjectVersion
1070
     0
  0
VISUALSTYLE
  5
2E
102
{ACAD_XDICTIONARY
360
42B
102
}
102
{ACAD_REACTORS
330
29
102
}
330
29
100
AcDbVisualStyle
  2
Basic
 70
     7
 71
     1
 72
     0
 73
     1
 90
        0
 40
-0.6
 41
-30.0
 62
     5
 63
     7
421
 16777215
 74
     0
 91
        4
 64
     7
 65
   257
 75
     1
175
     1
 42
1.0
 92
        8
 66
     7
 43
1.0
 76
     1
 77
     6
 78
     2
 67
     7
 79
     5
170
     0
171
     0
290
     0
174
     0
 93
        1
 44
0.0
173
     0
291
     1
 45
0.0
1001
ACAD
1000
AcDbSavedByObjectVersion
1070
     0
  0
VISUALSTYLE
  5
35
102
{ACAD_XDICTIONARY
360
439
102
}
102
{ACAD_REACTORS
330
29
102
}
330
29
100
AcDbVisualStyle
  2
Brighten
 70
    12
 71
     2
 72
     2
 73
     0
 90
        0
 40
-0.6
 41
-30.0
 62
     5
 63
     7
421
 16777215
 74
     1
 91
        4
 64
     7
 65
   257
 75
     1
175
     1
 42
1.0
 92
        8
 66
     7
 43
1.0
 76
     1
 77
     6
 78
     2
 67
     7
 79
     5
170
     0
171
     0
290
     0
174
     0
 93
        1
 44
50.0
173
     0
291
     1
 45
0.0
1001
ACAD
1000
AcDbSavedByObjectVersion
1070
     0
  0
VISUALSTYLE
  5
39
102
{ACAD_XDICTIONARY
360
441
102
}
102
{ACAD_REACTORS
330
29
102
}
330
29
100
AcDbVisualStyle
  2
ColorChange
 70
    16
 71
     2
 72
     2
 73
     3
 90
        0
 40
-0.6
 41
-30.0
 62
     5
 63
     8
421
  8421504
 74
     1
 91
        4
 64
     7
 65
   257
 75
     1
175
     1
 42
1.0
 92
        8
 66
     8
424
  8421504
 43
1.0
 76
     1
 77
     6
 78
     2
 67
     7
 79
     5
170
     0
171
     0
290
     0
174
     0
 93
        1
 44
0.0
173
     0
291
     1
 45
0.0
1001
ACAD
1000
AcDbSavedByObjectVersion
1070
     0
  0
VISUALSTYLE
  5
32
102
{ACAD_XDICTIONARY
360
433
102
}
102
{ACAD_REACTORS
330
29
102
}
330
29
100
AcDbVisualStyle
  2
Conceptual
 70
     9
 71
     3
 72
     2
 73
     0
 90
        0
 40
-0.6
 41
-30.0
 62
     5
 63
     7
421
 16777215
 74
     2
 91
        2
 64
     7
 65
   257
 75
     1
175
     1
 42
179.0
 92
        8
 66
     7
 43
1.0
 76
     1
 77
     6
 78
     2
 67
     7
 79
     3
170
     0
171
     0
290
     0
174
     0
 93
        1
 44
0.0
173
     0
291
     0
 45
0.0
1001
ACAD
1000
AcDbSavedByObjectVersion
1070
     0
  0
VISUALSTYLE
  5
34
102
{ACAD_XDICTIONARY
360
437
102
}
102
{ACAD_REACTORS
330
29
102
}
330
29
100
AcDbVisualStyle
  2
Dim
 70
    11
 71
     2
 72
     2
 73
     0
 90
        0
 40
-0.6
 41
-30.0
 62
     5
 63
     7
421
 16777215
 74
     1
 91
        4
 64
     7
 65
   257
 75
     1
175
     1
 42
1.0
 92
        8
 66
     7
 43
1.0
 76
     1
 77
     6
 78
     2
 67
     7
 79
     5
170
     0
171
     0
290
     0
174
     0
 93
        1
 44
-50.0
173
     0
291
     1
 45
0.0
1001
ACAD
1000
AcDbSavedByObjectVersion
1070
     0
  0
VISUALSTYLE
  5
41
102
{ACAD_XDICTIONARY
360
451
102
}
102
{ACAD_REACTORS
330
29
102
}
330
29
100
AcDbVisualStyle
  2
EdgeColorOff
 70
    22
 71
     2
 72
     2
 73
     0
 90
        0
 40
-0.6
 41
-30.0
 62
     5
 63
     7
421
 16777215
 74
     1
 91
        4
 64
     7
 65
   257
 75
     1
175
     1
 42
1.0
 92
        8
 66
     7
 43
1.0
 76
     1
 77
     6
 78
     2
 67
     7
 79
     5
170
     0
171
     0
290
     0
174
     0
 93
        1
 44
0.0
173
     0
291
     1
 45
0.0
1001
ACAD
1000
AcDbSavedByObjectVersion
1070
     0
  0
VISUALSTYLE
  5
38
102
{ACAD_XDICTIONARY
360
43F
102
}
102
{ACAD_REACTORS
330
29
102
}
330
29
100
AcDbVisualStyle
  2
Facepattern
 70
    15
 71
     2
 72
     2
 73
     0
 90
        0
 40
-0.6
 41
-30.0
 62
     5
 63
     7
421
 16777215
 74
     1
 91
        4
 64
     7
 65
   257
 75
     1
175
     1
 42
1.0
 92
        8
 66
     7
 43
1.0
 76
     1
 77
     6
 78
     2
 67
     7
 79
     5
170
     0
171
     0
290
     0
174
     0
 93
        1
 44
0.0
173
     0
291
     1
 45
0.0
1001
ACAD
1000
AcDbSavedByObjectVersion
1070
     0
  0
VISUALSTYLE
  5
2A
102
{ACAD_XDICTIONARY
360
423
102
}
102
{ACAD_REACTORS
330
29
102
}
330
29
100
AcDbVisualStyle
  2
Flat
 70
     0
 71
     2
 72
     1
 73
     1
 90
        2
 40
-0.6
 41
30.0
 62
     5
 63
     7
421
 16777215
 74
     0
 91
        0
 64
     7
 65
   257
 75
     1
175
     1
 42
1.0
 92
        8
 66
     7
 43
1.0
 76
     1
 77
     6
 78
     2
 67
     7
 79
     5
170
     0
171
     0
290
     0
174
     0
 93
       13
 44
0.0
173
     0
291
     1
 45
0.0
1001
ACAD
1000
AcDbSavedByObjectVersion
1070
     0
  0
VISUALSTYLE
  5
2B
102
{ACAD_XDICTIONARY
360
425
102
}
102
{ACAD_REACTORS
330
29
102
}
330
29
100
AcDbVisualStyle
  2
FlatWithEdges
 70
     1
 71
     2
 72
     1
 73
     1
 90
        2
 40
-0.6
 41
30.0
 62
     5
 63
     7
421
 16777215
 74
     1
 91
        0
 64
     7
 65
   257
 75
     1
175
     1
 42
1.0
 92
        0
 66
   257
 43
1.0
 76
     1
 77
     6
 78
     2
 67
     7
 79
     5
170
     0
171
     0
290
     0
174
     0
 93
       13
 44
0.0
173
     0
291
     1
 45
0.0
1001
ACAD
1000
AcDbSavedByObjectVersion
1070
     0
  0
VISUALSTYLE
  5
2C
102
{ACAD_XDICTIONARY
360
427
102
}
102
{ACAD_REACTORS
330
29
102
}
330
29
100
AcDbVisualStyle
  2
Gouraud
 70
     2
 71
     2
 72
     2
 73
     1
 90
        2
 40
-0.6
 41
30.0
 62
     5
 63
     7
421
 16777215
 74
     0
 91
        0
 64
     7
 65
   257
 75
     1
175
     1
 42
1.0
 92
        0
 66
     7
 43
1.0
 76
     1
 77
     6
 78
     2
 67
     7
 79
     5
170
     0
171
     0
290
     0
174
     0
 93
       13
 44
0.0
173
     0
291
     1
 45
0.0
1001
ACAD
1000
AcDbSavedByObjectVersion
1070
     0
  0
VISUALSTYLE
  5
2D
102
{ACAD_XDICTIONARY
360
429
102
}
102
{ACAD_REACTORS
330
29
102
}
330
29
100
AcDbVisualStyle
  2
GouraudWithEdges
 70
     3
 71
     2
 72
     2
 73
     1
 90
        2
 40
-0.6
 41
30.0
 62
     5
 63
     7
421
 16777215
 74
     1
 91
        0
 64
     7
 65
   257
 75
     1
175
     1
 42
1.0
 92
        0
 66
   257
 43
1.0
 76
     1
 77
     6
 78
     2
 67
     7
 79
     5
170
     0
171
     0
290
     0
174
     0
 93
       13
 44
0.0
173
     0
291
     1
 45
0.0
1001
ACAD
1000
AcDbSavedByObjectVersion
1070
     0
  0
VISUALSTYLE
  5
31
102
{ACAD_XDICTIONARY
360
431
102
}
102
{ACAD_REACTORS
330
29
102
}
330
29
100
AcDbVisualStyle
  2
Hidden
 70
     6
 71
     1
 72
     2
 73
     2
 90
        0
 40
-0.6
 41
-30.0
 62
     5
 63
     7
421
 16777215
 74
     2
 91
        2
 64
     7
 65
   257
 75
     2
175
     1
 42
40.0
 92
        0
 66
   257
 43
1.0
 76
     1
 77
     6
 78
     2
 67
     7
 79
     3
170
     0
171
     0
290
     0
174
     0
 93
        1
 44
0.0
173
     0
291
     0
 45
0.0
1001
ACAD
1000
AcDbSavedByObjectVersion
1070
     0
  0
VISUALSTYLE
  5
3F
102
{ACAD_XDICTIONARY
360
44D
102
}
102
{ACAD_REACTORS
330
29
102
}
330
29
100
AcDbVisualStyle
  2
JitterOff
 70
    20
 71
     2
 72
     2
 73
     0
 90
        0
 40
-0.6
 41
-30.0
 62
     5
 63
     7
421
 16777215
 74
     1
 91
        4
 64
     7
 65
   257
 75
     1
175
     1
 42
1.0
 92
       10
 66
     7
 43
1.0
 76
     1
 77
     6
 78
     2
 67
     7
 79
     5
170
     0
171
     0
290
     0
174
     0
 93
        1
 44
0.0
173
     0
291
     1
 45
0.0
1001
ACAD
1000
AcDbSavedByObjectVersion
1070
     0
  0
VISUALSTYLE
  5
37
102
{ACAD_XDICTIONARY
360
43D
102
}
102
{ACAD_REACTORS
330
29
102
}
330
29
100
AcDbVisualStyle
  2
Linepattern
 70
    14
 71
     2
 72
     2
 73
     0
 90
        0
 40
-0.6
 41
-30.0
 62
     5
 63
     7
421
 16777215
 74
     1
 91
        4
 64
     7
 65
   257
 75
     7
175
     7
 42
1.0
 92
        8
 66
     7
 43
1.0
 76
     1
 77
     6
 78
     2
 67
     7
 79
     5
170
     0
171
     0
290
     0
174
     0
 93
        1
 44
0.0
173
     0
291
     1
 45
0.0
1001
ACAD
1000
AcDbSavedByObjectVersion
1070
     0
  0
VISUALSTYLE
  5
40
102
{ACAD_XDICTIONARY
360
44F
102
}
102
{ACAD_REACTORS
330
29
102
}
330
29
100
AcDbVisualStyle
  2
OverhangOff
 70
    21
 71
     2
 72
     2
 73
     0
 90
        0
 40
-0.6
 41
-30.0
 62
     5
 63
     7
421
 16777215
 74
     1
 91
        4
 64
     7
 65
   257
 75
     1
175
     1
 42
1.0
 92
        9
 66
     7
 43
1.0
 76
     1
 77
     6
 78
     2
 67
     7
 79
     5
170
     0
171
     0
290
     0
174
     0
 93
        1
 44
0.0
173
     0
291
     1
 45
0.0
1001
ACAD
1000
AcDbSavedByObjectVersion
1070
     0
  0
VISUALSTYLE
  5
33
102
{ACAD_XDICTIONARY
360
435
102
}
102
{ACAD_REACTORS
330
29
102
}
330
29
100
AcDbVisualStyle
  2
Realistic
 70
     8
 71
     2
 72
     3
 73
     0
 90
        2
 40
-0.6
 41
30.0
 62
     5
 63
     7
421
 16777215
 74
     0
 91
        0
 64
     7
 65
   257
 75
     1
175
     1
 42
1.0
 92
        8
 66
   257
 43
1.0
 76
     1
 77
     6
 78
     2
 67
     7
 79
     3
170
     0
171
     0
290
     0
174
     0
 93
       13
 44
0.0
173
     0
291
     0
 45
0.0
1001
ACAD
1000
AcDbSavedByObjectVersion
1070
     0
  0
VISUALSTYLE
  5
3E
102
{ACAD_XDICTIONARY
360
44B
102
}
102
{ACAD_REACTORS
330
29
102
}
330
29
100
AcDbVisualStyle
  2
Shaded
 70
    27
 71
     2
 72
     2
 73
     1
 90
        2
 40
-0.6
 41
30.0
 62
     5
 63
     7
421
 16777215
 74
     0
 91
        4
 64
     7
 65
   257
 75
     1
175
     1
 42
1.0
 92
        8
 66
   257
 43
1.0
 76
     1
 77
     6
 78
     2
 67
     8
425
  7895160
 79
     3
170
     0
171
     0
290
     0
174
     0
 93
        5
 44
0.0
173
     0
291
     0
 45
0.0
1001
ACAD
1000
AcDbSavedByObjectVersion
1070
     0
  0
VISUALSTYLE
  5
3D
102
{ACAD_XDICTIONARY
360
449
102
}
102
{ACAD_REACTORS
330
29
102
}
330
29
100
AcDbVisualStyle
  2
Shaded with edges
 70
    26
 71
     2
 72
     2
 73
     1
 90
        2
 40
-0.6
 41
30.0
 62
     5
 63
     7
421
 16777215
 74
     1
 91
        2
 64
     7
 65
   257
 75
     2
175
     1
 42
1.0
 92
        8
 66
   257
 43
1.0
 76
     1
 77
     6
 78
     2
 67
     7
 79
     3
170
     0
171
     0
290
     0
174
     0
 93
        5
 44
0.0
173
     0
291
     0
 45
0.0
1001
ACAD
1000
AcDbSavedByObjectVersion
1070
     0
  0
VISUALSTYLE
  5
3A
102
{ACAD_XDICTIONARY
360
443
102
}
102
{ACAD_REACTORS
330
29
102
}
330
29
100
AcDbVisualStyle
  2
Shades of Gray
 70
    23
 71
     2
 72
     2
 73
     3
 90
        0
 40
-0.6
 41
-30.0
 62
     5
 63
     7
421
 16777215
 74
     2
 91
        2
 64
     7
 65
     7
 75
     1
175
     1
 42
40.0
 92
        8
 66
     7
 43
1.0
 76
     1
 77
     6
 78
     2
 67
     7
 79
     3
170
     0
171
     0
290
     0
174
     0
 93
        1
 44
0.0
173
     0
291
     0
 45
0.0
1001
ACAD
1000
AcDbSavedByObjectVersion
1070
     0
  0
VISUALSTYLE
  5
3B
102
{ACAD_XDICTIONARY
360
445
102
}
102
{ACAD_REACTORS
330
29
102
}
330
29
100
AcDbVisualStyle
  2
Sketchy
 70
    24
 71
     1
 72
     2
 73
     2
 90
        0
 40
-0.6
 41
-30.0
 62
     5
 63
     7
421
 16777215
 74
     2
 91
        2
 64
     7
 65
     7
 75
     1
175
     1
 42
40.0
 92
       11
 66
     7
 43
1.0
 76
     1
 77
     6
 78
     2
 67
     7
 79
     6
170
     0
171
     0
290
     0
174
     0
 93
        1
 44
0.0
173
     0
291
     0
 45
0.0
1001
ACAD
1000
AcDbSavedByObjectVersion
1070
     0
  0
VISUALSTYLE
  5
36
102
{ACAD_XDICTIONARY
360
43B
102
}
102
{ACAD_REACTORS
330
29
102
}
330
29
100
AcDbVisualStyle
  2
Thicken
 70
    13
 71
     2
 72
     2
 73
     0
 90
        0
 40
-0.6
 41
-30.0
 62
     5
 63
     7
421
 16777215
 74
     1
 91
        4
 64
     7
 65
   257
 75
     1
175
     1
 42
1.0
 92
       12
 66
     7
 43
1.0
 76
     1
 77
     6
 78
     2
 67
     7
 79
     5
170
     0
171
     0
290
     0
174
     0
 93
        1
 44
0.0
173
     0
291
     1
 45
0.0
1001
ACAD
1000
AcDbSavedByObjectVersion
1070
     0
  0
VISUALSTYLE
  5
30
102
{ACAD_XDICTIONARY
360
42F
102
}
102
{ACAD_REACTORS
330
29
102
}
330
29
100
AcDbVisualStyle
  2
Wireframe
 70
     5
 71
     0
 72
     2
 73
     0
 90
        0
 40
-0.6
 41
-30.0
 62
     5
 63
     7
421
 16777215
 74
     1
 91
        4
 64
     7
 65
   257
 75
     1
175
     1
 42
1.0
 92
        0
 66
   257
 43
1.0
 76
     1
 77
     6
 78
     2
 67
     7
 79
     3
170
     0
171
     0
290
     0
174
     0
 93
        1
 44
0.0
173
     0
291
     0
 45
0.0
1001
ACAD
1000
AcDbSavedByObjectVersion
1070
     0
  0
VISUALSTYLE
  5
3C
102
{ACAD_XDICTIONARY
360
447
102
}
102
{ACAD_REACTORS
330
29
102
}
330
29
100
AcDbVisualStyle
  2
X-Ray
 70
    25
 71
     2
 72
     2
 73
     1
 90
        1
 40
0.5
 41
-30.0
 62
     5
 63
     7
421
 16777215
 74
     1
 91
        0
 64
     7
 65
   257
 75
     1
175
     1
 42
1.0
 92
        8
 66
     7
 43
1.0
 76
     1
 77
     6
 78
     2
 67
     7
 79
     3
170
     0
171
     0
290
     0
174
     0
 93
       13
 44
0.0
173
     0
291
     0
 45
0.0
1001
ACAD
1000
AcDbSavedByObjectVersion
1070
     0
  0
DICTIONARYVAR
  5
41A
102
{ACAD_REACTORS
330
415
102
}
330
415
100
DictionaryVariables
280
     0
  1
1:1
  0
DICTIONARYVAR
  5
417
102
{ACAD_REACTORS
330
415
102
}
330
415
100
DictionaryVariables
280
     0
  1
STANDARD
  0
DICTIONARYVAR
  5
416
102
{ACAD_REACTORS
330
415
102
}
330
415
100
DictionaryVariables
280
     0
  1
STANDARD
  0
DICTIONARYVAR
  5
418
102
{ACAD_REACTORS
330
415
102
}
330
415
100
DictionaryVariables
280
     0
  1
Imperial24
  0
DICTIONARYVAR
  5
419
102
{ACAD_REACTORS
330
415
102
}
330
415
100
DictionaryVariables
280
     0
  1
Imperial24
  0
DICTIONARYVAR
  5
41B
102
{ACAD_REACTORS
330
415
102
}
330
415
100
DictionaryVariables
280
     0
  1
2
  0
DICTIONARY
  5
457
330
6A
100
AcDbDictionary
280
     1
281
     1
  3
ACAD_XREC_ROUNDTRIP
360
458
  0
DICTIONARY
  5
1A
330
19
100
AcDbDictionary
280
     1
281
     1
  3
ACAD_XREC_ROUNDTRIP
360
421
  3
BUMPTILE
360
1C
  3
DIFFUSETILE
360
1B
  3
OPACITYTILE
360
1F
  3
REFLECTIONTILE
360
1E
  3
REFRACTIONTILE
360
20
  3
SPECULARTILE
360
1D
  0
DICTIONARY
  5
12
330
11
100
AcDbDictionary
280
     1
281
     1
  3
ACAD_XREC_ROUNDTRIP
360
420
  3
BUMPTILE
360
14
  3
DIFFUSETILE
360
13
  3
OPACITYTILE
360
17
  3
REFLECTIONTILE
360
16
  3
REFRACTIONTILE
360
18
  3
SPECULARTILE
360
15
  0
DICTIONARY
  5
22
330
21
100
AcDbDictionary
280
     1
281
     1
  3
ACAD_XREC_ROUNDTRIP
360
422
  3
BUMPTILE
360
24
  3
DIFFUSETILE
360
23
  3
OPACITYTILE
360
27
  3
REFLECTIONTILE
360
26
  3
REFRACTIONTILE
360
28
  3
SPECULARTILE
360
25
  0
DICTIONARY
  5
455
330
68
100
AcDbDictionary
280
     1
281
     1
  3
ACAD_XREC_ROUNDTRIP
360
456
  0
DICTIONARY
  5
41D
330
64
100
AcDbDictionary
280
     1
281
     1
  3
ACAD_ROUNDTRIP_2008_TABLESTYLE_CELLSTYLEMAP
360
41E
  3
ACAD_XREC_ROUNDTRIP
360
453
  0
DICTIONARY
  5
42D
330
2F
100
AcDbDictionary
280
     1
281
     1
  3
ACAD_XREC_ROUNDTRIP
360
42E
  0
DICTIONARY
  5
42B
330
2E
100
AcDbDictionary
280
     1
281
     1
  3
ACAD_XREC_ROUNDTRIP
360
42C
  0
DICTIONARY
  5
439
330
35
100
AcDbDictionary
280
     1
281
     1
  3
ACAD_XREC_ROUNDTRIP
360
43A
  0
DICTIONARY
  5
441
330
39
100
AcDbDictionary
280
     1
281
     1
  3
ACAD_XREC_ROUNDTRIP
360
442
  0
DICTIONARY
  5
433
330
32
100
AcDbDictionary
280
     1
281
     1
  3
ACAD_XREC_ROUNDTRIP
360
434
  0
DICTIONARY
  5
437
330
34
100
AcDbDictionary
280
     1
281
     1
  3
ACAD_XREC_ROUNDTRIP
360
438
  0
DICTIONARY
  5
451
330
41
100
AcDbDictionary
280
     1
281
     1
  3
ACAD_XREC_ROUNDTRIP
360
452
  0
DICTIONARY
  5
43F
330
38
100
AcDbDictionary
280
     1
281
     1
  3
ACAD_XREC_ROUNDTRIP
360
440
  0
DICTIONARY
  5
423
330
2A
100
AcDbDictionary
280
     1
281
     1
  3
ACAD_XREC_ROUNDTRIP
360
424
  0
DICTIONARY
  5
425
330
2B
100
AcDbDictionary
280
     1
281
     1
  3
ACAD_XREC_ROUNDTRIP
360
426
  0
DICTIONARY
  5
427
330
2C
100
AcDbDictionary
280
     1
281
     1
  3
ACAD_XREC_ROUNDTRIP
360
428
  0
DICTIONARY
  5
429
330
2D
100
AcDbDictionary
280
     1
281
     1
  3
ACAD_XREC_ROUNDTRIP
360
42A
  0
DICTIONARY
  5
431
330
31
100
AcDbDictionary
280
     1
281
     1
  3
ACAD_XREC_ROUNDTRIP
360
432
  0
DICTIONARY
  5
44D
330
3F
100
AcDbDictionary
280
     1
281
     1
  3
ACAD_XREC_ROUNDTRIP
360
44E
  0
DICTIONARY
  5
43D
330
37
100
AcDbDictionary
280
     1
281
     1
  3
ACAD_XREC_ROUNDTRIP
360
43E
  0
DICTIONARY
  5
44F
330
40
100
AcDbDictionary
280
     1
281
     1
  3
ACAD_XREC_ROUNDTRIP
360
450
  0
DICTIONARY
  5
435
330
33
100
AcDbDictionary
280
     1
281
     1
  3
ACAD_XREC_ROUNDTRIP
360
436
  0
DICTIONARY
  5
44B
330
3E
100
AcDbDictionary
280
     1
281
     1
  3
ACAD_XREC_ROUNDTRIP
360
44C
  0
DICTIONARY
  5
449
330
3D
100
AcDbDictionary
280
     1
281
     1
  3
ACAD_XREC_ROUNDTRIP
360
44A
  0
DICTIONARY
  5
443
330
3A
100
AcDbDictionary
280
     1
281
     1
  3
ACAD_XREC_ROUNDTRIP
360
444
  0
DICTIONARY
  5
445
330
3B
100
AcDbDictionary
280
     1
281
     1
  3
ACAD_XREC_ROUNDTRIP
360
446
  0
DICTIONARY
  5
43B
330
36
100
AcDbDictionary
280
     1
281
     1
  3
ACAD_XREC_ROUNDTRIP
360
43C
  0
DICTIONARY
  5
42F
330
30
100
AcDbDictionary
280
     1
281
     1
  3
ACAD_XREC_ROUNDTRIP
360
430
  0
DICTIONARY
  5
447
330
3C
100
AcDbDictionary
280
     1
281
     1
  3
ACAD_XREC_ROUNDTRIP
360
448
  0
XRECORD
  5
458
102
{ACAD_REACTORS
330
457
102
}
330
457
100
AcDbXrecord
280
     1
102
DISPLAYNAME
  1
Imperial24
102
FLAGS
 90
        0
  0
XRECORD
  5
421
102
{ACAD_REACTORS
330
1A
102
}
330
1A
100
AcDbXrecord
280
     1
102
MATERIAL
148
0.0
149
0.0
149
0.0
 93
        0
 94
      127
282
     0
 72
     0
 77
     0
171
     0
175
     0
179
     0
273
     0
  0
XRECORD
  5
1C
102
{ACAD_REACTORS
330
1A
102
}
330
1A
100
AcDbXrecord
280
     1
270
     1
271
     1
  0
XRECORD
  5
1B
102
{ACAD_REACTORS
330
1A
102
}
330
1A
100
AcDbXrecord
280
     1
270
     1
271
     1
  0
XRECORD
  5
1F
102
{ACAD_REACTORS
330
1A
102
}
330
1A
100
AcDbXrecord
280
     1
270
     1
271
     1
  0
XRECORD
  5
1E
102
{ACAD_REACTORS
330
1A
102
}
330
1A
100
AcDbXrecord
280
     1
270
     1
271
     1
  0
XRECORD
  5
20
102
{ACAD_REACTORS
330
1A
102
}
330
1A
100
AcDbXrecord
280
     1
270
     1
271
     1
  0
XRECORD
  5
1D
102
{ACAD_REACTORS
330
1A
102
}
330
1A
100
AcDbXrecord
280
     1
270
     1
271
     1
  0
XRECORD
  5
420
102
{ACAD_REACTORS
330
12
102
}
330
12
100
AcDbXrecord
280
     1
102
MATERIAL
148
0.0
149
0.0
149
0.0
 93
        0
 94
      127
282
     0
 72
     0
 77
     0
171
     0
175
     0
179
     0
273
     0
  0
XRECORD
  5
14
102
{ACAD_REACTORS
330
12
102
}
330
12
100
AcDbXrecord
280
     1
270
     1
271
     1
  0
XRECORD
  5
13
102
{ACAD_REACTORS
330
12
102
}
330
12
100
AcDbXrecord
280
     1
270
     1
271
     1
  0
XRECORD
  5
17
102
{ACAD_REACTORS
330
12
102
}
330
12
100
AcDbXrecord
280
     1
270
     1
271
     1
  0
XRECORD
  5
16
102
{ACAD_REACTORS
330
12
102
}
330
12
100
AcDbXrecord
280
     1
270
     1
271
     1
  0
XRECORD
  5
18
102
{ACAD_REACTORS
330
12
102
}
330
12
100
AcDbXrecord
280
     1
270
     1
271
     1
  0
XRECORD
  5
15
102
{ACAD_REACTORS
330
12
102
}
330
12
100
AcDbXrecord
280
     1
270
     1
271
     1
  0
XRECORD
  5
422
102
{ACAD_REACTORS
330
22
102
}
330
22
100
AcDbXrecord
280
     1
102
MATERIAL
148
0.0
149
0.0
149
0.0
 93
        0
 94
      127
282
     0
 72
     0
 77
     0
171
     0
175
     0
179
     0
273
     0
  0
XRECORD
  5
24
102
{ACAD_REACTORS
330
22
102
}
330
22
100
AcDbXrecord
280
     1
270
     1
271
     1
  0
XRECORD
  5
23
102
{ACAD_REACTORS
330
22
102
}
330
22
100
AcDbXrecord
280
     1
270
     1
271
     1
  0
XRECORD
  5
27
102
{ACAD_REACTORS
330
22
102
}
330
22
100
AcDbXrecord
280
     1
270
     1
271
     1
  0
XRECORD
  5
26
102
{ACAD_REACTORS
330
22
102
}
330
22
100
AcDbXrecord
280
     1
270
     1
271
     1
  0
XRECORD
  5
28
102
{ACAD_REACTORS
330
22
102
}
330
22
100
AcDbXrecord
280
     1
270
     1
271
     1
  0
XRECORD
  5
25
102
{ACAD_REACTORS
330
22
102
}
330
22
100
AcDbXrecord
280
     1
270
     1
271
     1
  0
XRECORD
  5
456
102
{ACAD_REACTORS
330
455
102
}
330
455
100
AcDbXrecord
280
     1
102
DISPLAYNAME
  1
Imperial24
102
FLAGS
 90
        0
  0
CELLSTYLEMAP
  5
41E
102
{ACAD_REACTORS
330
41D
102
}
330
41D
100
AcDbCellStyleMap
 90
        3
300
CELLSTYLE
  1
TABLEFORMAT_BEGIN
 90
        5
170
     1
 91
        0
 92
    32768
 62
   257
 93
        1
300
CONTENTFORMAT
  1
CONTENTFORMAT_BEGIN
 90
        0
 91
        0
 92
      512
 93
        0
300

 40
0.0
140
1.0
 94
        5
 62
     0
340
55
144
0.25
309
CONTENTFORMAT_END
171
     0
 94
        0
309
TABLEFORMAT_END
  1
CELLSTYLE_BEGIN
 90
        1
 91
        1
300
_TITLE
309
CELLSTYLE_END
300
CELLSTYLE
  1
TABLEFORMAT_BEGIN
 90
        5
170
     1
 91
        0
 92
        0
 62
   257
 93
        1
300
CONTENTFORMAT
  1
CONTENTFORMAT_BEGIN
 90
        0
 91
        0
 92
      512
 93
        0
300

 40
0.0
140
1.0
 94
        5
 62
     0
340
55
144
0.18
309
CONTENTFORMAT_END
171
     0
 94
        0
309
TABLEFORMAT_END
  1
CELLSTYLE_BEGIN
 90
        2
 91
        1
300
_HEADER
309
CELLSTYLE_END
300
CELLSTYLE
  1
TABLEFORMAT_BEGIN
 90
        5
170
     1
 91
        0
 92
        0
 62
   257
 93
        1
300
CONTENTFORMAT
  1
CONTENTFORMAT_BEGIN
 90
        0
 91
        0
 92
      512
 93
        0
300

 40
0.0
140
1.0
 94
        2
 62
     0
340
55
144
0.18
309
CONTENTFORMAT_END
171
     0
 94
        0
309
TABLEFORMAT_END
  1
CELLSTYLE_BEGIN
 90
        3
 91
        2
300
_DATA
309
CELLSTYLE_END
  0
XRECORD
  5
453
102
{ACAD_REACTORS
330
41D
102
}
330
41D
100
AcDbXrecord
280
     1
102
ACAD_ROUNDTRIP_PRE2007_TABLESTYLE
 90
      512
 91
        0
  1

 92
      512
 93
        0
  2

 94
      512
 95
        0
  3

  0
XRECORD
  5
42E
102
{ACAD_REACTORS
330
42D
102
}
330
42D
100
AcDbXrecord
280
     1
102
RTVSPost2010Prop28
280
     1
102
RTVSPost2010PropOp28
 70
     1
102
RTVSPost2010Prop29
280
     1
102
RTVSPost2010PropOp29
 70
     1
102
RTVSPost2010Prop30
280
     0
102
RTVSPost2010PropOp30
 70
     1
102
RTVSPost2010Prop31
280
     0
102
RTVSPost2010PropOp31
 70
     1
102
RTVSPost2010Prop32
280
     0
102
RTVSPost2010PropOp32
 70
     1
102
RTVSPost2010Prop33
280
     0
102
RTVSPost2010PropOp33
 70
     1
102
RTVSPost2010Prop34
280
     0
102
RTVSPost2010PropOp34
 70
     1
102
RTVSPost2010Prop35
280
     0
102
RTVSPost2010PropOp35
 70
     1
102
RTVSPost2010Prop36
280
     0
102
RTVSPost2010PropOp36
 70
     1
102
RTVSPost2010Prop37
 90
       50
102
RTVSPost2010PropOp37
 70
     1
102
RTVSPost2010Prop38
140
0.0
102
RTVSPost2010PropOp38
 70
     1
102
RTVSPost2010Prop39
140
1.0
102
RTVSPost2010PropOp39
 70
     1
102
RTVSPost2010Prop40
 90
        0
102
RTVSPost2010PropOp40
 70
     1
102
RTVSPost2010Prop41ColorIndex
 90
       18
102
RTVSPost2010Prop41ColorRGB
 90
        0
102
RTVSPost2010PropOp41
 70
     1
102
RTVSPost2010Prop42
 90
       50
102
RTVSPost2010PropOp42
 70
     1
102
RTVSPost2010Prop43
 90
        3
102
RTVSPost2010PropOp43
 70
     1
102
RTVSPost2010Prop44ColorIndex
 90
        5
102
RTVSPost2010Prop44ColorRGB
 90
      255
102
RTVSPost2010PropOp44
 70
     1
102
RTVSPost2010Prop45
280
     0
102
RTVSPost2010PropOp45
 70
     1
102
RTVSPost2010Prop46
 90
       50
102
RTVSPost2010PropOp46
 70
     1
102
RTVSPost2010Prop47
 90
       50
102
RTVSPost2010PropOp47
 70
     1
102
RTVSPost2010Prop48
 90
       50
102
RTVSPost2010PropOp48
 70
     1
102
RTVSPost2010Prop49
280
     0
102
RTVSPost2010PropOp49
 70
     1
102
RTVSPost2010Prop50
 90
       50
102
RTVSPost2010PropOp50
 70
     1
102
RTVSPost2010Prop51ColorIndex
 90
      256
102
RTVSPost2010Prop51ColorRGB
 90
-16777216
102
RTVSPost2010PropOp51
 70
     0
102
RTVSPost2010Prop52
140
1.0
102
RTVSPost2010PropOp52
 70
     0
102
RTVSPost2010Prop53
 90
        2
102
RTVSPost2010PropOp53
 70
     1
102
RTVSPost2010Prop54
  1
strokes_ogs.tif
102
RTVSPost2010PropOp54
 70
     1
102
RTVSPost2010Prop55
280
     0
102
RTVSPost2010PropOp55
 70
     1
102
RTVSPost2010Prop56
140
1.0
102
RTVSPost2010PropOp56
 70
     1
102
RTVSPost2010Prop57
140
1.0
102
RTVSPost2010PropOp57
 70
     1
102
RTVSPropertyOp0
 70
     1
102
RTVSPropertyOp1
 70
     1
102
RTVSPropertyOp2
 70
     1
102
RTVSPropertyOp3
 70
     1
102
RTVSPropertyOp4
 70
     1
102
RTVSPropertyOp5
 70
     1
102
RTVSPropertyOp6
 70
     1
102
RTVSPropertyOp7
 70
     1
102
RTVSPropertyOp8
 70
     1
102
RTVSPropertyOp9
 70
     1
102
RTVSPropertyOp10
 70
     1
102
RTVSPropertyOp11
 70
     1
102
RTVSPropertyOp12
 70
     1
102
RTVSPropertyOp13
 70
     1
102
RTVSPropertyOp14
 70
     1
102
RTVSPropertyOp15
 70
     1
102
RTVSPropertyOp16
 70
     1
102
RTVSPropertyOp17
 70
     1
102
RTVSPropertyOp18
 70
     1
102
RTVSPropertyOp19
 70
     1
102
RTVSPropertyOp20
 70
     1
102
RTVSPropertyOp21
 70
     1
102
RTVSPropertyOp22
 70
     1
102
RTVSPropertyOp23
 70
     1
102
RTVSPropertyOp24
 70
     1
102
RTVSPropertyOp25
 70
     1
102
RTVSPropertyOp26
 70
     1
102
RTVSPropertyOp27
 70
     1
102
RTVSPropertyOp28
 70
     1
102
RTVSPropertyOp29
 70
     1
102
RTVSPropertyOp30
 70
     1
102
RTVSPropertyOp31
 70
     1
102
RTVSPropertyOp32
 70
     1
102
RTVSPropertyOp33
 70
     1
102
RTVSPropertyOp34
 70
     1
102
RTVSPropertyOp35
 70
     1
102
RTVSPropertyOp36
 70
     1
102
RTVSPropertyOp37
 70
     1
102
RTVSPropertyOp38
 70
     1
102
RTVSPropertyOp39
 70
     1
102
RTVSPropertyOp40
 70
     1
102
RTVSPropertyOp41
 70
     1
102
RTVSPropertyOp42
 70
     1
102
RTVSPropertyOp43
 70
     1
102
RTVSPropertyOp44
 70
     1
102
RTVSPropertyOp45
 70
     1
102
RTVSPropertyOp46
 70
     1
102
RTVSPropertyOp47
 70
     1
102
RTVSPropertyOp48
 70
     1
102
RTVSPropertyOp49
 70
     1
102
RTVSPropertyOp50
 70
     1
102
RTVSPropertyOp51
 70
     0
102
RTVSPropertyOp52
 70
     0
102
RTVSPropertyOp53
 70
     1
102
RTVSPropertyOp54
 70
     1
102
RTVSPropertyOp55
 70
     1
102
RTVSPropertyOp56
 70
     1
102
RTVSPropertyOp57
 70
     1
102
RTVSPropertyOp58
 70
     1
102
RTVSPropertyOp59
 70
     1
102
RTVSPropertyOp60
 70
     1
102
RTVSPropertyOp61
 70
     1
102
RTVSPropertyOp62
 70
     1
  0
XRECORD
  5
42C
102
{ACAD_REACTORS
330
42B
102
}
330
42B
100
AcDbXrecord
280
     1
102
RTVSPost2010Prop28
280
     0
102
RTVSPost2010PropOp28
 70
     1
102
RTVSPost2010Prop29
280
     1
102
RTVSPost2010PropOp29
 70
     1
102
RTVSPost2010Prop30
280
     1
102
RTVSPost2010PropOp30
 70
     1
102
RTVSPost2010Prop31
280
     0
102
RTVSPost2010PropOp31
 70
     1
102
RTVSPost2010Prop32
280
     0
102
RTVSPost2010PropOp32
 70
     1
102
RTVSPost2010Prop33
280
     0
102
RTVSPost2010PropOp33
 70
     1
102
RTVSPost2010Prop34
280
     0
102
RTVSPost2010PropOp34
 70
     1
102
RTVSPost2010Prop35
280
     0
102
RTVSPost2010PropOp35
 70
     1
102
RTVSPost2010Prop36
280
     0
102
RTVSPost2010PropOp36
 70
     1
102
RTVSPost2010Prop37
 90
       50
102
RTVSPost2010PropOp37
 70
     1
102
RTVSPost2010Prop38
140
0.0
102
RTVSPost2010PropOp38
 70
     1
102
RTVSPost2010Prop39
140
1.0
102
RTVSPost2010PropOp39
 70
     1
102
RTVSPost2010Prop40
 90
        0
102
RTVSPost2010PropOp40
 70
     1
102
RTVSPost2010Prop41ColorIndex
 90
       18
102
RTVSPost2010Prop41ColorRGB
 90
        0
102
RTVSPost2010PropOp41
 70
     1
102
RTVSPost2010Prop42
 90
       50
102
RTVSPost2010PropOp42
 70
     1
102
RTVSPost2010Prop43
 90
        3
102
RTVSPost2010PropOp43
 70
     1
102
RTVSPost2010Prop44ColorIndex
 90
        5
102
RTVSPost2010Prop44ColorRGB
 90
      255
102
RTVSPost2010PropOp44
 70
     1
102
RTVSPost2010Prop45
280
     0
102
RTVSPost2010PropOp45
 70
     1
102
RTVSPost2010Prop46
 90
       50
102
RTVSPost2010PropOp46
 70
     1
102
RTVSPost2010Prop47
 90
       50
102
RTVSPost2010PropOp47
 70
     1
102
RTVSPost2010Prop48
 90
       50
102
RTVSPost2010PropOp48
 70
     1
102
RTVSPost2010Prop49
280
     0
102
RTVSPost2010PropOp49
 70
     1
102
RTVSPost2010Prop50
 90
       50
102
RTVSPost2010PropOp50
 70
     1
102
RTVSPost2010Prop51ColorIndex
 90
      256
102
RTVSPost2010Prop51ColorRGB
 90
-16777216
102
RTVSPost2010PropOp51
 70
     0
102
RTVSPost2010Prop52
140
1.0
102
RTVSPost2010PropOp52
 70
     0
102
RTVSPost2010Prop53
 90
        2
102
RTVSPost2010PropOp53
 70
     1
102
RTVSPost2010Prop54
  1
strokes_ogs.tif
102
RTVSPost2010PropOp54
 70
     1
102
RTVSPost2010Prop55
280
     0
102
RTVSPost2010PropOp55
 70
     1
102
RTVSPost2010Prop56
140
1.0
102
RTVSPost2010PropOp56
 70
     1
102
RTVSPost2010Prop57
140
1.0
102
RTVSPost2010PropOp57
 70
     1
102
RTVSPropertyOp0
 70
     1
102
RTVSPropertyOp1
 70
     1
102
RTVSPropertyOp2
 70
     1
102
RTVSPropertyOp3
 70
     1
102
RTVSPropertyOp4
 70
     1
102
RTVSPropertyOp5
 70
     1
102
RTVSPropertyOp6
 70
     1
102
RTVSPropertyOp7
 70
     1
102
RTVSPropertyOp8
 70
     1
102
RTVSPropertyOp9
 70
     1
102
RTVSPropertyOp10
 70
     1
102
RTVSPropertyOp11
 70
     1
102
RTVSPropertyOp12
 70
     1
102
RTVSPropertyOp13
 70
     1
102
RTVSPropertyOp14
 70
     1
102
RTVSPropertyOp15
 70
     1
102
RTVSPropertyOp16
 70
     1
102
RTVSPropertyOp17
 70
     1
102
RTVSPropertyOp18
 70
     1
102
RTVSPropertyOp19
 70
     1
102
RTVSPropertyOp20
 70
     1
102
RTVSPropertyOp21
 70
     1
102
RTVSPropertyOp22
 70
     1
102
RTVSPropertyOp23
 70
     1
102
RTVSPropertyOp24
 70
     1
102
RTVSPropertyOp25
 70
     1
102
RTVSPropertyOp26
 70
     1
102
RTVSPropertyOp27
 70
     1
102
RTVSPropertyOp28
 70
     1
102
RTVSPropertyOp29
 70
     1
102
RTVSPropertyOp30
 70
     1
102
RTVSPropertyOp31
 70
     1
102
RTVSPropertyOp32
 70
     1
102
RTVSPropertyOp33
 70
     1
102
RTVSPropertyOp34
 70
     1
102
RTVSPropertyOp35
 70
     1
102
RTVSPropertyOp36
 70
     1
102
RTVSPropertyOp37
 70
     1
102
RTVSPropertyOp38
 70
     1
102
RTVSPropertyOp39
 70
     1
102
RTVSPropertyOp40
 70
     1
102
RTVSPropertyOp41
 70
     1
102
RTVSPropertyOp42
 70
     1
102
RTVSPropertyOp43
 70
     1
102
RTVSPropertyOp44
 70
     1
102
RTVSPropertyOp45
 70
     1
102
RTVSPropertyOp46
 70
     1
102
RTVSPropertyOp47
 70
     1
102
RTVSPropertyOp48
 70
     1
102
RTVSPropertyOp49
 70
     1
102
RTVSPropertyOp50
 70
     1
102
RTVSPropertyOp51
 70
     0
102
RTVSPropertyOp52
 70
     0
102
RTVSPropertyOp53
 70
     1
102
RTVSPropertyOp54
 70
     1
102
RTVSPropertyOp55
 70
     1
102
RTVSPropertyOp56
 70
     1
102
RTVSPropertyOp57
 70
     1
102
RTVSPropertyOp58
 70
     1
102
RTVSPropertyOp59
 70
     1
102
RTVSPropertyOp60
 70
     1
102
RTVSPropertyOp61
 70
     1
102
RTVSPropertyOp62
 70
     1
  0
XRECORD
  5
43A
102
{ACAD_REACTORS
330
439
102
}
330
439
100
AcDbXrecord
280
     1
102
RTVSPost2010Prop28
280
     0
102
RTVSPost2010PropOp28
 70
     1
102
RTVSPost2010Prop29
280
     1
102
RTVSPost2010PropOp29
 70
     1
102
RTVSPost2010Prop30
280
     1
102
RTVSPost2010PropOp30
 70
     1
102
RTVSPost2010Prop31
280
     0
102
RTVSPost2010PropOp31
 70
     1
102
RTVSPost2010Prop32
280
     0
102
RTVSPost2010PropOp32
 70
     1
102
RTVSPost2010Prop33
280
     0
102
RTVSPost2010PropOp33
 70
     1
102
RTVSPost2010Prop34
280
     0
102
RTVSPost2010PropOp34
 70
     1
102
RTVSPost2010Prop35
280
     0
102
RTVSPost2010PropOp35
 70
     1
102
RTVSPost2010Prop36
280
     0
102
RTVSPost2010PropOp36
 70
     1
102
RTVSPost2010Prop37
 90
       50
102
RTVSPost2010PropOp37
 70
     1
102
RTVSPost2010Prop38
140
0.0
102
RTVSPost2010PropOp38
 70
     1
102
RTVSPost2010Prop39
140
1.0
102
RTVSPost2010PropOp39
 70
     1
102
RTVSPost2010Prop40
 90
        0
102
RTVSPost2010PropOp40
 70
     1
102
RTVSPost2010Prop41ColorIndex
 90
       18
102
RTVSPost2010Prop41ColorRGB
 90
        0
102
RTVSPost2010PropOp41
 70
     1
102
RTVSPost2010Prop42
 90
       50
102
RTVSPost2010PropOp42
 70
     1
102
RTVSPost2010Prop43
 90
        3
102
RTVSPost2010PropOp43
 70
     1
102
RTVSPost2010Prop44ColorIndex
 90
        5
102
RTVSPost2010Prop44ColorRGB
 90
      255
102
RTVSPost2010PropOp44
 70
     1
102
RTVSPost2010Prop45
280
     0
102
RTVSPost2010PropOp45
 70
     1
102
RTVSPost2010Prop46
 90
       50
102
RTVSPost2010PropOp46
 70
     1
102
RTVSPost2010Prop47
 90
       50
102
RTVSPost2010PropOp47
 70
     1
102
RTVSPost2010Prop48
 90
       50
102
RTVSPost2010PropOp48
 70
     1
102
RTVSPost2010Prop49
280
     0
102
RTVSPost2010PropOp49
 70
     1
102
RTVSPost2010Prop50
 90
       50
102
RTVSPost2010PropOp50
 70
     1
102
RTVSPost2010Prop51ColorIndex
 90
      256
102
RTVSPost2010Prop51ColorRGB
 90
-16777216
102
RTVSPost2010PropOp51
 70
     0
102
RTVSPost2010Prop52
140
1.0
102
RTVSPost2010PropOp52
 70
     0
102
RTVSPost2010Prop53
 90
        2
102
RTVSPost2010PropOp53
 70
     1
102
RTVSPost2010Prop54
  1
strokes_ogs.tif
102
RTVSPost2010PropOp54
 70
     1
102
RTVSPost2010Prop55
280
     0
102
RTVSPost2010PropOp55
 70
     1
102
RTVSPost2010Prop56
140
1.0
102
RTVSPost2010PropOp56
 70
     1
102
RTVSPost2010Prop57
140
1.0
102
RTVSPost2010PropOp57
 70
     1
102
RTVSPropertyOp0
 70
     1
102
RTVSPropertyOp1
 70
     1
102
RTVSPropertyOp2
 70
     1
102
RTVSPropertyOp3
 70
     1
102
RTVSPropertyOp4
 70
     1
102
RTVSPropertyOp5
 70
     1
102
RTVSPropertyOp6
 70
     1
102
RTVSPropertyOp7
 70
     1
102
RTVSPropertyOp8
 70
     1
102
RTVSPropertyOp9
 70
     1
102
RTVSPropertyOp10
 70
     1
102
RTVSPropertyOp11
 70
     1
102
RTVSPropertyOp12
 70
     1
102
RTVSPropertyOp13
 70
     1
102
RTVSPropertyOp14
 70
     1
102
RTVSPropertyOp15
 70
     1
102
RTVSPropertyOp16
 70
     1
102
RTVSPropertyOp17
 70
     1
102
RTVSPropertyOp18
 70
     1
102
RTVSPropertyOp19
 70
     1
102
RTVSPropertyOp20
 70
     1
102
RTVSPropertyOp21
 70
     1
102
RTVSPropertyOp22
 70
     1
102
RTVSPropertyOp23
 70
     1
102
RTVSPropertyOp24
 70
     1
102
RTVSPropertyOp25
 70
     1
102
RTVSPropertyOp26
 70
     1
102
RTVSPropertyOp27
 70
     1
102
RTVSPropertyOp28
 70
     1
102
RTVSPropertyOp29
 70
     1
102
RTVSPropertyOp30
 70
     1
102
RTVSPropertyOp31
 70
     1
102
RTVSPropertyOp32
 70
     1
102
RTVSPropertyOp33
 70
     1
102
RTVSPropertyOp34
 70
     1
102
RTVSPropertyOp35
 70
     1
102
RTVSPropertyOp36
 70
     1
102
RTVSPropertyOp37
 70
     1
102
RTVSPropertyOp38
 70
     1
102
RTVSPropertyOp39
 70
     1
102
RTVSPropertyOp40
 70
     1
102
RTVSPropertyOp41
 70
     1
102
RTVSPropertyOp42
 70
     1
102
RTVSPropertyOp43
 70
     1
102
RTVSPropertyOp44
 70
     1
102
RTVSPropertyOp45
 70
     1
102
RTVSPropertyOp46
 70
     1
102
RTVSPropertyOp47
 70
     1
102
RTVSPropertyOp48
 70
     1
102
RTVSPropertyOp49
 70
     1
102
RTVSPropertyOp50
 70
     1
102
RTVSPropertyOp51
 70
     0
102
RTVSPropertyOp52
 70
     0
102
RTVSPropertyOp53
 70
     1
102
RTVSPropertyOp54
 70
     1
102
RTVSPropertyOp55
 70
     1
102
RTVSPropertyOp56
 70
     1
102
RTVSPropertyOp57
 70
     1
102
RTVSPropertyOp58
 70
     1
102
RTVSPropertyOp59
 70
     1
102
RTVSPropertyOp60
 70
     1
102
RTVSPropertyOp61
 70
     1
102
RTVSPropertyOp62
 70
     1
  0
XRECORD
  5
442
102
{ACAD_REACTORS
330
441
102
}
330
441
100
AcDbXrecord
280
     1
102
RTVSPost2010Prop28
280
     0
102
RTVSPost2010PropOp28
 70
     1
102
RTVSPost2010Prop29
280
     1
102
RTVSPost2010PropOp29
 70
     1
102
RTVSPost2010Prop30
280
     1
102
RTVSPost2010PropOp30
 70
     1
102
RTVSPost2010Prop31
280
     0
102
RTVSPost2010PropOp31
 70
     1
102
RTVSPost2010Prop32
280
     0
102
RTVSPost2010PropOp32
 70
     1
102
RTVSPost2010Prop33
280
     0
102
RTVSPost2010PropOp33
 70
     1
102
RTVSPost2010Prop34
280
     0
102
RTVSPost2010PropOp34
 70
     1
102
RTVSPost2010Prop35
280
     0
102
RTVSPost2010PropOp35
 70
     1
102
RTVSPost2010Prop36
280
     0
102
RTVSPost2010PropOp36
 70
     1
102
RTVSPost2010Prop37
 90
       50
102
RTVSPost2010PropOp37
 70
     1
102
RTVSPost2010Prop38
140
0.0
102
RTVSPost2010PropOp38
 70
     1
102
RTVSPost2010Prop39
140
1.0
102
RTVSPost2010PropOp39
 70
     1
102
RTVSPost2010Prop40
 90
        0
102
RTVSPost2010PropOp40
 70
     1
102
RTVSPost2010Prop41ColorIndex
 90
       18
102
RTVSPost2010Prop41ColorRGB
 90
        0
102
RTVSPost2010PropOp41
 70
     1
102
RTVSPost2010Prop42
 90
       50
102
RTVSPost2010PropOp42
 70
     1
102
RTVSPost2010Prop43
 90
        3
102
RTVSPost2010PropOp43
 70
     1
102
RTVSPost2010Prop44ColorIndex
 90
        5
102
RTVSPost2010Prop44ColorRGB
 90
      255
102
RTVSPost2010PropOp44
 70
     1
102
RTVSPost2010Prop45
280
     0
102
RTVSPost2010PropOp45
 70
     1
102
RTVSPost2010Prop46
 90
       50
102
RTVSPost2010PropOp46
 70
     1
102
RTVSPost2010Prop47
 90
       50
102
RTVSPost2010PropOp47
 70
     1
102
RTVSPost2010Prop48
 90
       50
102
RTVSPost2010PropOp48
 70
     1
102
RTVSPost2010Prop49
280
     0
102
RTVSPost2010PropOp49
 70
     1
102
RTVSPost2010Prop50
 90
       50
102
RTVSPost2010PropOp50
 70
     1
102
RTVSPost2010Prop51ColorIndex
 90
      256
102
RTVSPost2010Prop51ColorRGB
 90
-16777216
102
RTVSPost2010PropOp51
 70
     0
102
RTVSPost2010Prop52
140
1.0
102
RTVSPost2010PropOp52
 70
     0
102
RTVSPost2010Prop53
 90
        2
102
RTVSPost2010PropOp53
 70
     1
102
RTVSPost2010Prop54
  1
strokes_ogs.tif
102
RTVSPost2010PropOp54
 70
     1
102
RTVSPost2010Prop55
280
     0
102
RTVSPost2010PropOp55
 70
     1
102
RTVSPost2010Prop56
140
1.0
102
RTVSPost2010PropOp56
 70
     1
102
RTVSPost2010Prop57
140
1.0
102
RTVSPost2010PropOp57
 70
     1
102
RTVSPropertyOp0
 70
     1
102
RTVSPropertyOp1
 70
     1
102
RTVSPropertyOp2
 70
     1
102
RTVSPropertyOp3
 70
     1
102
RTVSPropertyOp4
 70
     1
102
RTVSPropertyOp5
 70
     1
102
RTVSPropertyOp6
 70
     1
102
RTVSPropertyOp7
 70
     1
102
RTVSPropertyOp8
 70
     1
102
RTVSPropertyOp9
 70
     1
102
RTVSPropertyOp10
 70
     1
102
RTVSPropertyOp11
 70
     1
102
RTVSPropertyOp12
 70
     1
102
RTVSPropertyOp13
 70
     1
102
RTVSPropertyOp14
 70
     1
102
RTVSPropertyOp15
 70
     1
102
RTVSPropertyOp16
 70
     1
102
RTVSPropertyOp17
 70
     1
102
RTVSPropertyOp18
 70
     1
102
RTVSPropertyOp19
 70
     1
102
RTVSPropertyOp20
 70
     1
102
RTVSPropertyOp21
 70
     1
102
RTVSPropertyOp22
 70
     1
102
RTVSPropertyOp23
 70
     1
102
RTVSPropertyOp24
 70
     1
102
RTVSPropertyOp25
 70
     1
102
RTVSPropertyOp26
 70
     1
102
RTVSPropertyOp27
 70
     1
102
RTVSPropertyOp28
 70
     1
102
RTVSPropertyOp29
 70
     1
102
RTVSPropertyOp30
 70
     1
102
RTVSPropertyOp31
 70
     1
102
RTVSPropertyOp32
 70
     1
102
RTVSPropertyOp33
 70
     1
102
RTVSPropertyOp34
 70
     1
102
RTVSPropertyOp35
 70
     1
102
RTVSPropertyOp36
 70
     1
102
RTVSPropertyOp37
 70
     1
102
RTVSPropertyOp38
 70
     1
102
RTVSPropertyOp39
 70
     1
102
RTVSPropertyOp40
 70
     1
102
RTVSPropertyOp41
 70
     1
102
RTVSPropertyOp42
 70
     1
102
RTVSPropertyOp43
 70
     1
102
RTVSPropertyOp44
 70
     1
102
RTVSPropertyOp45
 70
     1
102
RTVSPropertyOp46
 70
     1
102
RTVSPropertyOp47
 70
     1
102
RTVSPropertyOp48
 70
     1
102
RTVSPropertyOp49
 70
     1
102
RTVSPropertyOp50
 70
     1
102
RTVSPropertyOp51
 70
     0
102
RTVSPropertyOp52
 70
     0
102
RTVSPropertyOp53
 70
     1
102
RTVSPropertyOp54
 70
     1
102
RTVSPropertyOp55
 70
     1
102
RTVSPropertyOp56
 70
     1
102
RTVSPropertyOp57
 70
     1
102
RTVSPropertyOp58
 70
     1
102
RTVSPropertyOp59
 70
     1
102
RTVSPropertyOp60
 70
     1
102
RTVSPropertyOp61
 70
     1
102
RTVSPropertyOp62
 70
     1
  0
XRECORD
  5
434
102
{ACAD_REACTORS
330
433
102
}
330
433
100
AcDbXrecord
280
     1
102
RTVSPost2010Prop28
280
     0
102
RTVSPost2010PropOp28
 70
     1
102
RTVSPost2010Prop29
280
     1
102
RTVSPost2010PropOp29
 70
     1
102
RTVSPost2010Prop30
280
     1
102
RTVSPost2010PropOp30
 70
     1
102
RTVSPost2010Prop31
280
     0
102
RTVSPost2010PropOp31
 70
     1
102
RTVSPost2010Prop32
280
     0
102
RTVSPost2010PropOp32
 70
     1
102
RTVSPost2010Prop33
280
     0
102
RTVSPost2010PropOp33
 70
     1
102
RTVSPost2010Prop34
280
     0
102
RTVSPost2010PropOp34
 70
     1
102
RTVSPost2010Prop35
280
     0
102
RTVSPost2010PropOp35
 70
     1
102
RTVSPost2010Prop36
280
     0
102
RTVSPost2010PropOp36
 70
     1
102
RTVSPost2010Prop37
 90
       50
102
RTVSPost2010PropOp37
 70
     1
102
RTVSPost2010Prop38
140
0.0
102
RTVSPost2010PropOp38
 70
     1
102
RTVSPost2010Prop39
140
1.0
102
RTVSPost2010PropOp39
 70
     1
102
RTVSPost2010Prop40
 90
        0
102
RTVSPost2010PropOp40
 70
     1
102
RTVSPost2010Prop41ColorIndex
 90
       18
102
RTVSPost2010Prop41ColorRGB
 90
        0
102
RTVSPost2010PropOp41
 70
     1
102
RTVSPost2010Prop42
 90
       50
102
RTVSPost2010PropOp42
 70
     1
102
RTVSPost2010Prop43
 90
        3
102
RTVSPost2010PropOp43
 70
     1
102
RTVSPost2010Prop44ColorIndex
 90
        5
102
RTVSPost2010Prop44ColorRGB
 90
      255
102
RTVSPost2010PropOp44
 70
     1
102
RTVSPost2010Prop45
280
     0
102
RTVSPost2010PropOp45
 70
     1
102
RTVSPost2010Prop46
 90
       50
102
RTVSPost2010PropOp46
 70
     1
102
RTVSPost2010Prop47
 90
       50
102
RTVSPost2010PropOp47
 70
     1
102
RTVSPost2010Prop48
 90
       50
102
RTVSPost2010PropOp48
 70
     1
102
RTVSPost2010Prop49
280
     0
102
RTVSPost2010PropOp49
 70
     1
102
RTVSPost2010Prop50
 90
       50
102
RTVSPost2010PropOp50
 70
     1
102
RTVSPost2010Prop51ColorIndex
 90
      256
102
RTVSPost2010Prop51ColorRGB
 90
-16777216
102
RTVSPost2010PropOp51
 70
     0
102
RTVSPost2010Prop52
140
1.0
102
RTVSPost2010PropOp52
 70
     0
102
RTVSPost2010Prop53
 90
        2
102
RTVSPost2010PropOp53
 70
     1
102
RTVSPost2010Prop54
  1
strokes_ogs.tif
102
RTVSPost2010PropOp54
 70
     1
102
RTVSPost2010Prop55
280
     0
102
RTVSPost2010PropOp55
 70
     1
102
RTVSPost2010Prop56
140
1.0
102
RTVSPost2010PropOp56
 70
     1
102
RTVSPost2010Prop57
140
1.0
102
RTVSPost2010PropOp57
 70
     1
102
RTVSPropertyOp0
 70
     1
102
RTVSPropertyOp1
 70
     1
102
RTVSPropertyOp2
 70
     1
102
RTVSPropertyOp3
 70
     1
102
RTVSPropertyOp4
 70
     1
102
RTVSPropertyOp5
 70
     1
102
RTVSPropertyOp6
 70
     1
102
RTVSPropertyOp7
 70
     1
102
RTVSPropertyOp8
 70
     1
102
RTVSPropertyOp9
 70
     1
102
RTVSPropertyOp10
 70
     1
102
RTVSPropertyOp11
 70
     1
102
RTVSPropertyOp12
 70
     1
102
RTVSPropertyOp13
 70
     1
102
RTVSPropertyOp14
 70
     1
102
RTVSPropertyOp15
 70
     1
102
RTVSPropertyOp16
 70
     1
102
RTVSPropertyOp17
 70
     1
102
RTVSPropertyOp18
 70
     1
102
RTVSPropertyOp19
 70
     1
102
RTVSPropertyOp20
 70
     1
102
RTVSPropertyOp21
 70
     1
102
RTVSPropertyOp22
 70
     1
102
RTVSPropertyOp23
 70
     1
102
RTVSPropertyOp24
 70
     1
102
RTVSPropertyOp25
 70
     1
102
RTVSPropertyOp26
 70
     1
102
RTVSPropertyOp27
 70
     1
102
RTVSPropertyOp28
 70
     1
102
RTVSPropertyOp29
 70
     1
102
RTVSPropertyOp30
 70
     1
102
RTVSPropertyOp31
 70
     1
102
RTVSPropertyOp32
 70
     1
102
RTVSPropertyOp33
 70
     1
102
RTVSPropertyOp34
 70
     1
102
RTVSPropertyOp35
 70
     1
102
RTVSPropertyOp36
 70
     1
102
RTVSPropertyOp37
 70
     1
102
RTVSPropertyOp38
 70
     1
102
RTVSPropertyOp39
 70
     1
102
RTVSPropertyOp40
 70
     1
102
RTVSPropertyOp41
 70
     1
102
RTVSPropertyOp42
 70
     1
102
RTVSPropertyOp43
 70
     1
102
RTVSPropertyOp44
 70
     1
102
RTVSPropertyOp45
 70
     1
102
RTVSPropertyOp46
 70
     1
102
RTVSPropertyOp47
 70
     1
102
RTVSPropertyOp48
 70
     1
102
RTVSPropertyOp49
 70
     1
102
RTVSPropertyOp50
 70
     1
102
RTVSPropertyOp51
 70
     0
102
RTVSPropertyOp52
 70
     0
102
RTVSPropertyOp53
 70
     1
102
RTVSPropertyOp54
 70
     1
102
RTVSPropertyOp55
 70
     1
102
RTVSPropertyOp56
 70
     1
102
RTVSPropertyOp57
 70
     1
102
RTVSPropertyOp58
 70
     1
102
RTVSPropertyOp59
 70
     1
102
RTVSPropertyOp60
 70
     1
102
RTVSPropertyOp61
 70
     1
102
RTVSPropertyOp62
 70
     1
  0
XRECORD
  5
438
102
{ACAD_REACTORS
330
437
102
}
330
437
100
AcDbXrecord
280
     1
102
RTVSPost2010Prop28
280
     0
102
RTVSPost2010PropOp28
 70
     1
102
RTVSPost2010Prop29
280
     1
102
RTVSPost2010PropOp29
 70
     1
102
RTVSPost2010Prop30
280
     1
102
RTVSPost2010PropOp30
 70
     1
102
RTVSPost2010Prop31
280
     0
102
RTVSPost2010PropOp31
 70
     1
102
RTVSPost2010Prop32
280
     0
102
RTVSPost2010PropOp32
 70
     1
102
RTVSPost2010Prop33
280
     0
102
RTVSPost2010PropOp33
 70
     1
102
RTVSPost2010Prop34
280
     0
102
RTVSPost2010PropOp34
 70
     1
102
RTVSPost2010Prop35
280
     0
102
RTVSPost2010PropOp35
 70
     1
102
RTVSPost2010Prop36
280
     0
102
RTVSPost2010PropOp36
 70
     1
102
RTVSPost2010Prop37
 90
       50
102
RTVSPost2010PropOp37
 70
     1
102
RTVSPost2010Prop38
140
0.0
102
RTVSPost2010PropOp38
 70
     1
102
RTVSPost2010Prop39
140
1.0
102
RTVSPost2010PropOp39
 70
     1
102
RTVSPost2010Prop40
 90
        0
102
RTVSPost2010PropOp40
 70
     1
102
RTVSPost2010Prop41ColorIndex
 90
       18
102
RTVSPost2010Prop41ColorRGB
 90
        0
102
RTVSPost2010PropOp41
 70
     1
102
RTVSPost2010Prop42
 90
       50
102
RTVSPost2010PropOp42
 70
     1
102
RTVSPost2010Prop43
 90
        3
102
RTVSPost2010PropOp43
 70
     1
102
RTVSPost2010Prop44ColorIndex
 90
        5
102
RTVSPost2010Prop44ColorRGB
 90
      255
102
RTVSPost2010PropOp44
 70
     1
102
RTVSPost2010Prop45
280
     0
102
RTVSPost2010PropOp45
 70
     1
102
RTVSPost2010Prop46
 90
       50
102
RTVSPost2010PropOp46
 70
     1
102
RTVSPost2010Prop47
 90
       50
102
RTVSPost2010PropOp47
 70
     1
102
RTVSPost2010Prop48
 90
       50
102
RTVSPost2010PropOp48
 70
     1
102
RTVSPost2010Prop49
280
     0
102
RTVSPost2010PropOp49
 70
     1
102
RTVSPost2010Prop50
 90
       50
102
RTVSPost2010PropOp50
 70
     1
102
RTVSPost2010Prop51ColorIndex
 90
      256
102
RTVSPost2010Prop51ColorRGB
 90
-16777216
102
RTVSPost2010PropOp51
 70
     0
102
RTVSPost2010Prop52
140
1.0
102
RTVSPost2010PropOp52
 70
     0
102
RTVSPost2010Prop53
 90
        2
102
RTVSPost2010PropOp53
 70
     1
102
RTVSPost2010Prop54
  1
strokes_ogs.tif
102
RTVSPost2010PropOp54
 70
     1
102
RTVSPost2010Prop55
280
     0
102
RTVSPost2010PropOp55
 70
     1
102
RTVSPost2010Prop56
140
1.0
102
RTVSPost2010PropOp56
 70
     1
102
RTVSPost2010Prop57
140
1.0
102
RTVSPost2010PropOp57
 70
     1
102
RTVSPropertyOp0
 70
     1
102
RTVSPropertyOp1
 70
     1
102
RTVSPropertyOp2
 70
     1
102
RTVSPropertyOp3
 70
     1
102
RTVSPropertyOp4
 70
     1
102
RTVSPropertyOp5
 70
     1
102
RTVSPropertyOp6
 70
     1
102
RTVSPropertyOp7
 70
     1
102
RTVSPropertyOp8
 70
     1
102
RTVSPropertyOp9
 70
     1
102
RTVSPropertyOp10
 70
     1
102
RTVSPropertyOp11
 70
     1
102
RTVSPropertyOp12
 70
     1
102
RTVSPropertyOp13
 70
     1
102
RTVSPropertyOp14
 70
     1
102
RTVSPropertyOp15
 70
     1
102
RTVSPropertyOp16
 70
     1
102
RTVSPropertyOp17
 70
     1
102
RTVSPropertyOp18
 70
     1
102
RTVSPropertyOp19
 70
     1
102
RTVSPropertyOp20
 70
     1
102
RTVSPropertyOp21
 70
     1
102
RTVSPropertyOp22
 70
     1
102
RTVSPropertyOp23
 70
     1
102
RTVSPropertyOp24
 70
     1
102
RTVSPropertyOp25
 70
     1
102
RTVSPropertyOp26
 70
     1
102
RTVSPropertyOp27
 70
     1
102
RTVSPropertyOp28
 70
     1
102
RTVSPropertyOp29
 70
     1
102
RTVSPropertyOp30
 70
     1
102
RTVSPropertyOp31
 70
     1
102
RTVSPropertyOp32
 70
     1
102
RTVSPropertyOp33
 70
     1
102
RTVSPropertyOp34
 70
     1
102
RTVSPropertyOp35
 70
     1
102
RTVSPropertyOp36
 70
     1
102
RTVSPropertyOp37
 70
     1
102
RTVSPropertyOp38
 70
     1
102
RTVSPropertyOp39
 70
     1
102
RTVSPropertyOp40
 70
     1
102
RTVSPropertyOp41
 70
     1
102
RTVSPropertyOp42
 70
     1
102
RTVSPropertyOp43
 70
     1
102
RTVSPropertyOp44
 70
     1
102
RTVSPropertyOp45
 70
     1
102
RTVSPropertyOp46
 70
     1
102
RTVSPropertyOp47
 70
     1
102
RTVSPropertyOp48
 70
     1
102
RTVSPropertyOp49
 70
     1
102
RTVSPropertyOp50
 70
     1
102
RTVSPropertyOp51
 70
     0
102
RTVSPropertyOp52
 70
     0
102
RTVSPropertyOp53
 70
     1
102
RTVSPropertyOp54
 70
     1
102
RTVSPropertyOp55
 70
     1
102
RTVSPropertyOp56
 70
     1
102
RTVSPropertyOp57
 70
     1
102
RTVSPropertyOp58
 70
     1
102
RTVSPropertyOp59
 70
     1
102
RTVSPropertyOp60
 70
     1
102
RTVSPropertyOp61
 70
     1
102
RTVSPropertyOp62
 70
     1
  0
XRECORD
  5
452
102
{ACAD_REACTORS
330
451
102
}
330
451
100
AcDbXrecord
280
     1
102
RTVSPost2010Prop28
280
     0
102
RTVSPost2010PropOp28
 70
     1
102
RTVSPost2010Prop29
280
     1
102
RTVSPost2010PropOp29
 70
     1
102
RTVSPost2010Prop30
280
     1
102
RTVSPost2010PropOp30
 70
     1
102
RTVSPost2010Prop31
280
     0
102
RTVSPost2010PropOp31
 70
     1
102
RTVSPost2010Prop32
280
     0
102
RTVSPost2010PropOp32
 70
     1
102
RTVSPost2010Prop33
280
     0
102
RTVSPost2010PropOp33
 70
     1
102
RTVSPost2010Prop34
280
     0
102
RTVSPost2010PropOp34
 70
     1
102
RTVSPost2010Prop35
280
     0
102
RTVSPost2010PropOp35
 70
     1
102
RTVSPost2010Prop36
280
     0
102
RTVSPost2010PropOp36
 70
     1
102
RTVSPost2010Prop37
 90
       50
102
RTVSPost2010PropOp37
 70
     0
102
RTVSPost2010Prop38
140
0.0
102
RTVSPost2010PropOp38
 70
     0
102
RTVSPost2010Prop39
140
1.0
102
RTVSPost2010PropOp39
 70
     0
102
RTVSPost2010Prop40
 90
        0
102
RTVSPost2010PropOp40
 70
     0
102
RTVSPost2010Prop41ColorIndex
 90
       18
102
RTVSPost2010Prop41ColorRGB
 90
        0
102
RTVSPost2010PropOp41
 70
     0
102
RTVSPost2010Prop42
 90
       50
102
RTVSPost2010PropOp42
 70
     0
102
RTVSPost2010Prop43
 90
        3
102
RTVSPost2010PropOp43
 70
     0
102
RTVSPost2010Prop44ColorIndex
 90
        5
102
RTVSPost2010Prop44ColorRGB
 90
      255
102
RTVSPost2010PropOp44
 70
     0
102
RTVSPost2010Prop45
280
     0
102
RTVSPost2010PropOp45
 70
     1
102
RTVSPost2010Prop46
 90
       50
102
RTVSPost2010PropOp46
 70
     0
102
RTVSPost2010Prop47
 90
       50
102
RTVSPost2010PropOp47
 70
     0
102
RTVSPost2010Prop48
 90
       50
102
RTVSPost2010PropOp48
 70
     0
102
RTVSPost2010Prop49
280
     0
102
RTVSPost2010PropOp49
 70
     1
102
RTVSPost2010Prop50
 90
       50
102
RTVSPost2010PropOp50
 70
     0
102
RTVSPost2010Prop51ColorIndex
 90
      256
102
RTVSPost2010Prop51ColorRGB
 90
-16777216
102
RTVSPost2010PropOp51
 70
     0
102
RTVSPost2010Prop52
140
1.0
102
RTVSPost2010PropOp52
 70
     0
102
RTVSPost2010Prop53
 90
        2
102
RTVSPost2010PropOp53
 70
     0
102
RTVSPost2010Prop54
  1
strokes_ogs.tif
102
RTVSPost2010PropOp54
 70
     0
102
RTVSPost2010Prop55
280
     0
102
RTVSPost2010PropOp55
 70
     1
102
RTVSPost2010Prop56
140
1.0
102
RTVSPost2010PropOp56
 70
     0
102
RTVSPost2010Prop57
140
1.0
102
RTVSPost2010PropOp57
 70
     0
102
RTVSPropertyOp0
 70
     0
102
RTVSPropertyOp1
 70
     0
102
RTVSPropertyOp2
 70
     0
102
RTVSPropertyOp3
 70
     0
102
RTVSPropertyOp4
 70
     0
102
RTVSPropertyOp5
 70
     0
102
RTVSPropertyOp6
 70
     0
102
RTVSPropertyOp7
 70
     0
102
RTVSPropertyOp8
 70
     0
102
RTVSPropertyOp9
 70
     0
102
RTVSPropertyOp10
 70
     0
102
RTVSPropertyOp11
 70
     0
102
RTVSPropertyOp12
 70
     0
102
RTVSPropertyOp13
 70
     0
102
RTVSPropertyOp14
 70
     2
102
RTVSPropertyOp15
 70
     0
102
RTVSPropertyOp16
 70
     0
102
RTVSPropertyOp17
 70
     0
102
RTVSPropertyOp18
 70
     0
102
RTVSPropertyOp19
 70
     0
102
RTVSPropertyOp20
 70
     0
102
RTVSPropertyOp21
 70
     0
102
RTVSPropertyOp22
 70
     0
102
RTVSPropertyOp23
 70
     0
102
RTVSPropertyOp24
 70
     0
102
RTVSPropertyOp25
 70
     0
102
RTVSPropertyOp26
 70
     0
102
RTVSPropertyOp27
 70
     0
102
RTVSPropertyOp28
 70
     1
102
RTVSPropertyOp29
 70
     1
102
RTVSPropertyOp30
 70
     1
102
RTVSPropertyOp31
 70
     1
102
RTVSPropertyOp32
 70
     1
102
RTVSPropertyOp33
 70
     1
102
RTVSPropertyOp34
 70
     1
102
RTVSPropertyOp35
 70
     1
102
RTVSPropertyOp36
 70
     1
102
RTVSPropertyOp37
 70
     0
102
RTVSPropertyOp38
 70
     0
102
RTVSPropertyOp39
 70
     0
102
RTVSPropertyOp40
 70
     0
102
RTVSPropertyOp41
 70
     0
102
RTVSPropertyOp42
 70
     0
102
RTVSPropertyOp43
 70
     0
102
RTVSPropertyOp44
 70
     0
102
RTVSPropertyOp45
 70
     1
102
RTVSPropertyOp46
 70
     0
102
RTVSPropertyOp47
 70
     0
102
RTVSPropertyOp48
 70
     0
102
RTVSPropertyOp49
 70
     1
102
RTVSPropertyOp50
 70
     0
102
RTVSPropertyOp51
 70
     0
102
RTVSPropertyOp52
 70
     0
102
RTVSPropertyOp53
 70
     0
102
RTVSPropertyOp54
 70
     0
102
RTVSPropertyOp55
 70
     1
102
RTVSPropertyOp56
 70
     0
102
RTVSPropertyOp57
 70
     0
102
RTVSPropertyOp58
 70
     0
102
RTVSPropertyOp59
 70
     0
102
RTVSPropertyOp60
 70
     0
102
RTVSPropertyOp61
 70
     0
102
RTVSPropertyOp62
 70
     0
  0
XRECORD
  5
440
102
{ACAD_REACTORS
330
43F
102
}
330
43F
100
AcDbXrecord
280
     1
102
RTVSPost2010Prop28
280
     0
102
RTVSPost2010PropOp28
 70
     1
102
RTVSPost2010Prop29
280
     1
102
RTVSPost2010PropOp29
 70
     1
102
RTVSPost2010Prop30
280
     1
102
RTVSPost2010PropOp30
 70
     1
102
RTVSPost2010Prop31
280
     0
102
RTVSPost2010PropOp31
 70
     1
102
RTVSPost2010Prop32
280
     0
102
RTVSPost2010PropOp32
 70
     1
102
RTVSPost2010Prop33
280
     0
102
RTVSPost2010PropOp33
 70
     1
102
RTVSPost2010Prop34
280
     0
102
RTVSPost2010PropOp34
 70
     1
102
RTVSPost2010Prop35
280
     0
102
RTVSPost2010PropOp35
 70
     1
102
RTVSPost2010Prop36
280
     0
102
RTVSPost2010PropOp36
 70
     1
102
RTVSPost2010Prop37
 90
       50
102
RTVSPost2010PropOp37
 70
     1
102
RTVSPost2010Prop38
140
0.0
102
RTVSPost2010PropOp38
 70
     1
102
RTVSPost2010Prop39
140
1.0
102
RTVSPost2010PropOp39
 70
     1
102
RTVSPost2010Prop40
 90
        0
102
RTVSPost2010PropOp40
 70
     1
102
RTVSPost2010Prop41ColorIndex
 90
       18
102
RTVSPost2010Prop41ColorRGB
 90
        0
102
RTVSPost2010PropOp41
 70
     1
102
RTVSPost2010Prop42
 90
       50
102
RTVSPost2010PropOp42
 70
     1
102
RTVSPost2010Prop43
 90
        3
102
RTVSPost2010PropOp43
 70
     1
102
RTVSPost2010Prop44ColorIndex
 90
        5
102
RTVSPost2010Prop44ColorRGB
 90
      255
102
RTVSPost2010PropOp44
 70
     1
102
RTVSPost2010Prop45
280
     0
102
RTVSPost2010PropOp45
 70
     1
102
RTVSPost2010Prop46
 90
       50
102
RTVSPost2010PropOp46
 70
     1
102
RTVSPost2010Prop47
 90
       50
102
RTVSPost2010PropOp47
 70
     1
102
RTVSPost2010Prop48
 90
       50
102
RTVSPost2010PropOp48
 70
     1
102
RTVSPost2010Prop49
280
     0
102
RTVSPost2010PropOp49
 70
     1
102
RTVSPost2010Prop50
 90
       50
102
RTVSPost2010PropOp50
 70
     1
102
RTVSPost2010Prop51ColorIndex
 90
      256
102
RTVSPost2010Prop51ColorRGB
 90
-16777216
102
RTVSPost2010PropOp51
 70
     0
102
RTVSPost2010Prop52
140
1.0
102
RTVSPost2010PropOp52
 70
     0
102
RTVSPost2010Prop53
 90
        2
102
RTVSPost2010PropOp53
 70
     1
102
RTVSPost2010Prop54
  1
strokes_ogs.tif
102
RTVSPost2010PropOp54
 70
     1
102
RTVSPost2010Prop55
280
     0
102
RTVSPost2010PropOp55
 70
     1
102
RTVSPost2010Prop56
140
1.0
102
RTVSPost2010PropOp56
 70
     1
102
RTVSPost2010Prop57
140
1.0
102
RTVSPost2010PropOp57
 70
     1
102
RTVSPropertyOp0
 70
     1
102
RTVSPropertyOp1
 70
     1
102
RTVSPropertyOp2
 70
     1
102
RTVSPropertyOp3
 70
     1
102
RTVSPropertyOp4
 70
     1
102
RTVSPropertyOp5
 70
     1
102
RTVSPropertyOp6
 70
     1
102
RTVSPropertyOp7
 70
     1
102
RTVSPropertyOp8
 70
     1
102
RTVSPropertyOp9
 70
     1
102
RTVSPropertyOp10
 70
     1
102
RTVSPropertyOp11
 70
     1
102
RTVSPropertyOp12
 70
     1
102
RTVSPropertyOp13
 70
     1
102
RTVSPropertyOp14
 70
     1
102
RTVSPropertyOp15
 70
     1
102
RTVSPropertyOp16
 70
     1
102
RTVSPropertyOp17
 70
     1
102
RTVSPropertyOp18
 70
     1
102
RTVSPropertyOp19
 70
     1
102
RTVSPropertyOp20
 70
     1
102
RTVSPropertyOp21
 70
     1
102
RTVSPropertyOp22
 70
     1
102
RTVSPropertyOp23
 70
     1
102
RTVSPropertyOp24
 70
     1
102
RTVSPropertyOp25
 70
     1
102
RTVSPropertyOp26
 70
     1
102
RTVSPropertyOp27
 70
     1
102
RTVSPropertyOp28
 70
     1
102
RTVSPropertyOp29
 70
     1
102
RTVSPropertyOp30
 70
     1
102
RTVSPropertyOp31
 70
     1
102
RTVSPropertyOp32
 70
     1
102
RTVSPropertyOp33
 70
     1
102
RTVSPropertyOp34
 70
     1
102
RTVSPropertyOp35
 70
     1
102
RTVSPropertyOp36
 70
     1
102
RTVSPropertyOp37
 70
     1
102
RTVSPropertyOp38
 70
     1
102
RTVSPropertyOp39
 70
     1
102
RTVSPropertyOp40
 70
     1
102
RTVSPropertyOp41
 70
     1
102
RTVSPropertyOp42
 70
     1
102
RTVSPropertyOp43
 70
     1
102
RTVSPropertyOp44
 70
     1
102
RTVSPropertyOp45
 70
     1
102
RTVSPropertyOp46
 70
     1
102
RTVSPropertyOp47
 70
     1
102
RTVSPropertyOp48
 70
     1
102
RTVSPropertyOp49
 70
     1
102
RTVSPropertyOp50
 70
     1
102
RTVSPropertyOp51
 70
     0
102
RTVSPropertyOp52
 70
     0
102
RTVSPropertyOp53
 70
     1
102
RTVSPropertyOp54
 70
     1
102
RTVSPropertyOp55
 70
     1
102
RTVSPropertyOp56
 70
     1
102
RTVSPropertyOp57
 70
     1
102
RTVSPropertyOp58
 70
     1
102
RTVSPropertyOp59
 70
     1
102
RTVSPropertyOp60
 70
     1
102
RTVSPropertyOp61
 70
     1
102
RTVSPropertyOp62
 70
     1
  0
XRECORD
  5
424
102
{ACAD_REACTORS
330
423
102
}
330
423
100
AcDbXrecord
280
     1
102
RTVSPost2010Prop28
280
     0
102
RTVSPost2010PropOp28
 70
     1
102
RTVSPost2010Prop29
280
     1
102
RTVSPost2010PropOp29
 70
     1
102
RTVSPost2010Prop30
280
     1
102
RTVSPost2010PropOp30
 70
     1
102
RTVSPost2010Prop31
280
     0
102
RTVSPost2010PropOp31
 70
     1
102
RTVSPost2010Prop32
280
     0
102
RTVSPost2010PropOp32
 70
     1
102
RTVSPost2010Prop33
280
     0
102
RTVSPost2010PropOp33
 70
     1
102
RTVSPost2010Prop34
280
     0
102
RTVSPost2010PropOp34
 70
     1
102
RTVSPost2010Prop35
280
     0
102
RTVSPost2010PropOp35
 70
     1
102
RTVSPost2010Prop36
280
     0
102
RTVSPost2010PropOp36
 70
     1
102
RTVSPost2010Prop37
 90
       50
102
RTVSPost2010PropOp37
 70
     1
102
RTVSPost2010Prop38
140
0.0
102
RTVSPost2010PropOp38
 70
     1
102
RTVSPost2010Prop39
140
1.0
102
RTVSPost2010PropOp39
 70
     1
102
RTVSPost2010Prop40
 90
        0
102
RTVSPost2010PropOp40
 70
     1
102
RTVSPost2010Prop41ColorIndex
 90
       18
102
RTVSPost2010Prop41ColorRGB
 90
        0
102
RTVSPost2010PropOp41
 70
     1
102
RTVSPost2010Prop42
 90
       50
102
RTVSPost2010PropOp42
 70
     1
102
RTVSPost2010Prop43
 90
        3
102
RTVSPost2010PropOp43
 70
     1
102
RTVSPost2010Prop44ColorIndex
 90
        5
102
RTVSPost2010Prop44ColorRGB
 90
      255
102
RTVSPost2010PropOp44
 70
     1
102
RTVSPost2010Prop45
280
     0
102
RTVSPost2010PropOp45
 70
     1
102
RTVSPost2010Prop46
 90
       50
102
RTVSPost2010PropOp46
 70
     1
102
RTVSPost2010Prop47
 90
       50
102
RTVSPost2010PropOp47
 70
     1
102
RTVSPost2010Prop48
 90
       50
102
RTVSPost2010PropOp48
 70
     1
102
RTVSPost2010Prop49
280
     0
102
RTVSPost2010PropOp49
 70
     1
102
RTVSPost2010Prop50
 90
       50
102
RTVSPost2010PropOp50
 70
     1
102
RTVSPost2010Prop51ColorIndex
 90
      256
102
RTVSPost2010Prop51ColorRGB
 90
-16777216
102
RTVSPost2010PropOp51
 70
     0
102
RTVSPost2010Prop52
140
1.0
102
RTVSPost2010PropOp52
 70
     0
102
RTVSPost2010Prop53
 90
        2
102
RTVSPost2010PropOp53
 70
     1
102
RTVSPost2010Prop54
  1
strokes_ogs.tif
102
RTVSPost2010PropOp54
 70
     1
102
RTVSPost2010Prop55
280
     0
102
RTVSPost2010PropOp55
 70
     1
102
RTVSPost2010Prop56
140
1.0
102
RTVSPost2010PropOp56
 70
     1
102
RTVSPost2010Prop57
140
1.0
102
RTVSPost2010PropOp57
 70
     1
102
RTVSPropertyOp0
 70
     1
102
RTVSPropertyOp1
 70
     1
102
RTVSPropertyOp2
 70
     1
102
RTVSPropertyOp3
 70
     1
102
RTVSPropertyOp4
 70
     1
102
RTVSPropertyOp5
 70
     1
102
RTVSPropertyOp6
 70
     1
102
RTVSPropertyOp7
 70
     1
102
RTVSPropertyOp8
 70
     1
102
RTVSPropertyOp9
 70
     1
102
RTVSPropertyOp10
 70
     1
102
RTVSPropertyOp11
 70
     1
102
RTVSPropertyOp12
 70
     1
102
RTVSPropertyOp13
 70
     1
102
RTVSPropertyOp14
 70
     1
102
RTVSPropertyOp15
 70
     1
102
RTVSPropertyOp16
 70
     1
102
RTVSPropertyOp17
 70
     1
102
RTVSPropertyOp18
 70
     1
102
RTVSPropertyOp19
 70
     1
102
RTVSPropertyOp20
 70
     1
102
RTVSPropertyOp21
 70
     1
102
RTVSPropertyOp22
 70
     1
102
RTVSPropertyOp23
 70
     1
102
RTVSPropertyOp24
 70
     1
102
RTVSPropertyOp25
 70
     1
102
RTVSPropertyOp26
 70
     1
102
RTVSPropertyOp27
 70
     1
102
RTVSPropertyOp28
 70
     1
102
RTVSPropertyOp29
 70
     1
102
RTVSPropertyOp30
 70
     1
102
RTVSPropertyOp31
 70
     1
102
RTVSPropertyOp32
 70
     1
102
RTVSPropertyOp33
 70
     1
102
RTVSPropertyOp34
 70
     1
102
RTVSPropertyOp35
 70
     1
102
RTVSPropertyOp36
 70
     1
102
RTVSPropertyOp37
 70
     1
102
RTVSPropertyOp38
 70
     1
102
RTVSPropertyOp39
 70
     1
102
RTVSPropertyOp40
 70
     1
102
RTVSPropertyOp41
 70
     1
102
RTVSPropertyOp42
 70
     1
102
RTVSPropertyOp43
 70
     1
102
RTVSPropertyOp44
 70
     1
102
RTVSPropertyOp45
 70
     1
102
RTVSPropertyOp46
 70
     1
102
RTVSPropertyOp47
 70
     1
102
RTVSPropertyOp48
 70
     1
102
RTVSPropertyOp49
 70
     1
102
RTVSPropertyOp50
 70
     1
102
RTVSPropertyOp51
 70
     0
102
RTVSPropertyOp52
 70
     0
102
RTVSPropertyOp53
 70
     1
102
RTVSPropertyOp54
 70
     1
102
RTVSPropertyOp55
 70
     1
102
RTVSPropertyOp56
 70
     1
102
RTVSPropertyOp57
 70
     1
102
RTVSPropertyOp58
 70
     1
102
RTVSPropertyOp59
 70
     1
102
RTVSPropertyOp60
 70
     1
102
RTVSPropertyOp61
 70
     1
102
RTVSPropertyOp62
 70
     1
  0
XRECORD
  5
426
102
{ACAD_REACTORS
330
425
102
}
330
425
100
AcDbXrecord
280
     1
102
RTVSPost2010Prop28
280
     0
102
RTVSPost2010PropOp28
 70
     1
102
RTVSPost2010Prop29
280
     1
102
RTVSPost2010PropOp29
 70
     1
102
RTVSPost2010Prop30
280
     1
102
RTVSPost2010PropOp30
 70
     1
102
RTVSPost2010Prop31
280
     0
102
RTVSPost2010PropOp31
 70
     1
102
RTVSPost2010Prop32
280
     0
102
RTVSPost2010PropOp32
 70
     1
102
RTVSPost2010Prop33
280
     0
102
RTVSPost2010PropOp33
 70
     1
102
RTVSPost2010Prop34
280
     0
102
RTVSPost2010PropOp34
 70
     1
102
RTVSPost2010Prop35
280
     0
102
RTVSPost2010PropOp35
 70
     1
102
RTVSPost2010Prop36
280
     0
102
RTVSPost2010PropOp36
 70
     1
102
RTVSPost2010Prop37
 90
       50
102
RTVSPost2010PropOp37
 70
     1
102
RTVSPost2010Prop38
140
0.0
102
RTVSPost2010PropOp38
 70
     1
102
RTVSPost2010Prop39
140
1.0
102
RTVSPost2010PropOp39
 70
     1
102
RTVSPost2010Prop40
 90
        0
102
RTVSPost2010PropOp40
 70
     1
102
RTVSPost2010Prop41ColorIndex
 90
       18
102
RTVSPost2010Prop41ColorRGB
 90
        0
102
RTVSPost2010PropOp41
 70
     1
102
RTVSPost2010Prop42
 90
       50
102
RTVSPost2010PropOp42
 70
     1
102
RTVSPost2010Prop43
 90
        3
102
RTVSPost2010PropOp43
 70
     1
102
RTVSPost2010Prop44ColorIndex
 90
        5
102
RTVSPost2010Prop44ColorRGB
 90
      255
102
RTVSPost2010PropOp44
 70
     1
102
RTVSPost2010Prop45
280
     0
102
RTVSPost2010PropOp45
 70
     1
102
RTVSPost2010Prop46
 90
       50
102
RTVSPost2010PropOp46
 70
     1
102
RTVSPost2010Prop47
 90
       50
102
RTVSPost2010PropOp47
 70
     1
102
RTVSPost2010Prop48
 90
       50
102
RTVSPost2010PropOp48
 70
     1
102
RTVSPost2010Prop49
280
     0
102
RTVSPost2010PropOp49
 70
     1
102
RTVSPost2010Prop50
 90
       50
102
RTVSPost2010PropOp50
 70
     1
102
RTVSPost2010Prop51ColorIndex
 90
      256
102
RTVSPost2010Prop51ColorRGB
 90
-16777216
102
RTVSPost2010PropOp51
 70
     0
102
RTVSPost2010Prop52
140
1.0
102
RTVSPost2010PropOp52
 70
     0
102
RTVSPost2010Prop53
 90
        2
102
RTVSPost2010PropOp53
 70
     1
102
RTVSPost2010Prop54
  1
strokes_ogs.tif
102
RTVSPost2010PropOp54
 70
     1
102
RTVSPost2010Prop55
280
     0
102
RTVSPost2010PropOp55
 70
     1
102
RTVSPost2010Prop56
140
1.0
102
RTVSPost2010PropOp56
 70
     1
102
RTVSPost2010Prop57
140
1.0
102
RTVSPost2010PropOp57
 70
     1
102
RTVSPropertyOp0
 70
     1
102
RTVSPropertyOp1
 70
     1
102
RTVSPropertyOp2
 70
     1
102
RTVSPropertyOp3
 70
     1
102
RTVSPropertyOp4
 70
     1
102
RTVSPropertyOp5
 70
     1
102
RTVSPropertyOp6
 70
     1
102
RTVSPropertyOp7
 70
     1
102
RTVSPropertyOp8
 70
     1
102
RTVSPropertyOp9
 70
     1
102
RTVSPropertyOp10
 70
     1
102
RTVSPropertyOp11
 70
     1
102
RTVSPropertyOp12
 70
     1
102
RTVSPropertyOp13
 70
     1
102
RTVSPropertyOp14
 70
     1
102
RTVSPropertyOp15
 70
     1
102
RTVSPropertyOp16
 70
     1
102
RTVSPropertyOp17
 70
     1
102
RTVSPropertyOp18
 70
     1
102
RTVSPropertyOp19
 70
     1
102
RTVSPropertyOp20
 70
     1
102
RTVSPropertyOp21
 70
     1
102
RTVSPropertyOp22
 70
     1
102
RTVSPropertyOp23
 70
     1
102
RTVSPropertyOp24
 70
     1
102
RTVSPropertyOp25
 70
     1
102
RTVSPropertyOp26
 70
     1
102
RTVSPropertyOp27
 70
     1
102
RTVSPropertyOp28
 70
     1
102
RTVSPropertyOp29
 70
     1
102
RTVSPropertyOp30
 70
     1
102
RTVSPropertyOp31
 70
     1
102
RTVSPropertyOp32
 70
     1
102
RTVSPropertyOp33
 70
     1
102
RTVSPropertyOp34
 70
     1
102
RTVSPropertyOp35
 70
     1
102
RTVSPropertyOp36
 70
     1
102
RTVSPropertyOp37
 70
     1
102
RTVSPropertyOp38
 70
     1
102
RTVSPropertyOp39
 70
     1
102
RTVSPropertyOp40
 70
     1
102
RTVSPropertyOp41
 70
     1
102
RTVSPropertyOp42
 70
     1
102
RTVSPropertyOp43
 70
     1
102
RTVSPropertyOp44
 70
     1
102
RTVSPropertyOp45
 70
     1
102
RTVSPropertyOp46
 70
     1
102
RTVSPropertyOp47
 70
     1
102
RTVSPropertyOp48
 70
     1
102
RTVSPropertyOp49
 70
     1
102
RTVSPropertyOp50
 70
     1
102
RTVSPropertyOp51
 70
     0
102
RTVSPropertyOp52
 70
     0
102
RTVSPropertyOp53
 70
     1
102
RTVSPropertyOp54
 70
     1
102
RTVSPropertyOp55
 70
     1
102
RTVSPropertyOp56
 70
     1
102
RTVSPropertyOp57
 70
     1
102
RTVSPropertyOp58
 70
     1
102
RTVSPropertyOp59
 70
     1
102
RTVSPropertyOp60
 70
     1
102
RTVSPropertyOp61
 70
     1
102
RTVSPropertyOp62
 70
     1
  0
XRECORD
  5
428
102
{ACAD_REACTORS
330
427
102
}
330
427
100
AcDbXrecord
280
     1
102
RTVSPost2010Prop28
280
     0
102
RTVSPost2010PropOp28
 70
     1
102
RTVSPost2010Prop29
280
     1
102
RTVSPost2010PropOp29
 70
     1
102
RTVSPost2010Prop30
280
     1
102
RTVSPost2010PropOp30
 70
     1
102
RTVSPost2010Prop31
280
     0
102
RTVSPost2010PropOp31
 70
     1
102
RTVSPost2010Prop32
280
     0
102
RTVSPost2010PropOp32
 70
     1
102
RTVSPost2010Prop33
280
     0
102
RTVSPost2010PropOp33
 70
     1
102
RTVSPost2010Prop34
280
     0
102
RTVSPost2010PropOp34
 70
     1
102
RTVSPost2010Prop35
280
     0
102
RTVSPost2010PropOp35
 70
     1
102
RTVSPost2010Prop36
280
     0
102
RTVSPost2010PropOp36
 70
     1
102
RTVSPost2010Prop37
 90
       50
102
RTVSPost2010PropOp37
 70
     1
102
RTVSPost2010Prop38
140
0.0
102
RTVSPost2010PropOp38
 70
     1
102
RTVSPost2010Prop39
140
1.0
102
RTVSPost2010PropOp39
 70
     1
102
RTVSPost2010Prop40
 90
        0
102
RTVSPost2010PropOp40
 70
     1
102
RTVSPost2010Prop41ColorIndex
 90
       18
102
RTVSPost2010Prop41ColorRGB
 90
        0
102
RTVSPost2010PropOp41
 70
     1
102
RTVSPost2010Prop42
 90
       50
102
RTVSPost2010PropOp42
 70
     1
102
RTVSPost2010Prop43
 90
        3
102
RTVSPost2010PropOp43
 70
     1
102
RTVSPost2010Prop44ColorIndex
 90
        5
102
RTVSPost2010Prop44ColorRGB
 90
      255
102
RTVSPost2010PropOp44
 70
     1
102
RTVSPost2010Prop45
280
     0
102
RTVSPost2010PropOp45
 70
     1
102
RTVSPost2010Prop46
 90
       50
102
RTVSPost2010PropOp46
 70
     1
102
RTVSPost2010Prop47
 90
       50
102
RTVSPost2010PropOp47
 70
     1
102
RTVSPost2010Prop48
 90
       50
102
RTVSPost2010PropOp48
 70
     1
102
RTVSPost2010Prop49
280
     0
102
RTVSPost2010PropOp49
 70
     1
102
RTVSPost2010Prop50
 90
       50
102
RTVSPost2010PropOp50
 70
     1
102
RTVSPost2010Prop51ColorIndex
 90
      256
102
RTVSPost2010Prop51ColorRGB
 90
-16777216
102
RTVSPost2010PropOp51
 70
     0
102
RTVSPost2010Prop52
140
1.0
102
RTVSPost2010PropOp52
 70
     0
102
RTVSPost2010Prop53
 90
        2
102
RTVSPost2010PropOp53
 70
     1
102
RTVSPost2010Prop54
  1
strokes_ogs.tif
102
RTVSPost2010PropOp54
 70
     1
102
RTVSPost2010Prop55
280
     0
102
RTVSPost2010PropOp55
 70
     1
102
RTVSPost2010Prop56
140
1.0
102
RTVSPost2010PropOp56
 70
     1
102
RTVSPost2010Prop57
140
1.0
102
RTVSPost2010PropOp57
 70
     1
102
RTVSPropertyOp0
 70
     1
102
RTVSPropertyOp1
 70
     1
102
RTVSPropertyOp2
 70
     1
102
RTVSPropertyOp3
 70
     1
102
RTVSPropertyOp4
 70
     1
102
RTVSPropertyOp5
 70
     1
102
RTVSPropertyOp6
 70
     1
102
RTVSPropertyOp7
 70
     1
102
RTVSPropertyOp8
 70
     1
102
RTVSPropertyOp9
 70
     1
102
RTVSPropertyOp10
 70
     1
102
RTVSPropertyOp11
 70
     1
102
RTVSPropertyOp12
 70
     1
102
RTVSPropertyOp13
 70
     1
102
RTVSPropertyOp14
 70
     1
102
RTVSPropertyOp15
 70
     1
102
RTVSPropertyOp16
 70
     1
102
RTVSPropertyOp17
 70
     1
102
RTVSPropertyOp18
 70
     1
102
RTVSPropertyOp19
 70
     1
102
RTVSPropertyOp20
 70
     1
102
RTVSPropertyOp21
 70
     1
102
RTVSPropertyOp22
 70
     1
102
RTVSPropertyOp23
 70
     1
102
RTVSPropertyOp24
 70
     1
102
RTVSPropertyOp25
 70
     1
102
RTVSPropertyOp26
 70
     1
102
RTVSPropertyOp27
 70
     1
102
RTVSPropertyOp28
 70
     1
102
RTVSPropertyOp29
 70
     1
102
RTVSPropertyOp30
 70
     1
102
RTVSPropertyOp31
 70
     1
102
RTVSPropertyOp32
 70
     1
102
RTVSPropertyOp33
 70
     1
102
RTVSPropertyOp34
 70
     1
102
RTVSPropertyOp35
 70
     1
102
RTVSPropertyOp36
 70
     1
102
RTVSPropertyOp37
 70
     1
102
RTVSPropertyOp38
 70
     1
102
RTVSPropertyOp39
 70
     1
102
RTVSPropertyOp40
 70
     1
102
RTVSPropertyOp41
 70
     1
102
RTVSPropertyOp42
 70
     1
102
RTVSPropertyOp43
 70
     1
102
RTVSPropertyOp44
 70
     1
102
RTVSPropertyOp45
 70
     1
102
RTVSPropertyOp46
 70
     1
102
RTVSPropertyOp47
 70
     1
102
RTVSPropertyOp48
 70
     1
102
RTVSPropertyOp49
 70
     1
102
RTVSPropertyOp50
 70
     1
102
RTVSPropertyOp51
 70
     0
102
RTVSPropertyOp52
 70
     0
102
RTVSPropertyOp53
 70
     1
102
RTVSPropertyOp54
 70
     1
102
RTVSPropertyOp55
 70
     1
102
RTVSPropertyOp56
 70
     1
102
RTVSPropertyOp57
 70
     1
102
RTVSPropertyOp58
 70
     1
102
RTVSPropertyOp59
 70
     1
102
RTVSPropertyOp60
 70
     1
102
RTVSPropertyOp61
 70
     1
102
RTVSPropertyOp62
 70
     1
  0
XRECORD
  5
42A
102
{ACAD_REACTORS
330
429
102
}
330
429
100
AcDbXrecord
280
     1
102
RTVSPost2010Prop28
280
     0
102
RTVSPost2010PropOp28
 70
     1
102
RTVSPost2010Prop29
280
     1
102
RTVSPost2010PropOp29
 70
     1
102
RTVSPost2010Prop30
280
     1
102
RTVSPost2010PropOp30
 70
     1
102
RTVSPost2010Prop31
280
     0
102
RTVSPost2010PropOp31
 70
     1
102
RTVSPost2010Prop32
280
     0
102
RTVSPost2010PropOp32
 70
     1
102
RTVSPost2010Prop33
280
     0
102
RTVSPost2010PropOp33
 70
     1
102
RTVSPost2010Prop34
280
     0
102
RTVSPost2010PropOp34
 70
     1
102
RTVSPost2010Prop35
280
     0
102
RTVSPost2010PropOp35
 70
     1
102
RTVSPost2010Prop36
280
     0
102
RTVSPost2010PropOp36
 70
     1
102
RTVSPost2010Prop37
 90
       50
102
RTVSPost2010PropOp37
 70
     1
102
RTVSPost2010Prop38
140
0.0
102
RTVSPost2010PropOp38
 70
     1
102
RTVSPost2010Prop39
140
1.0
102
RTVSPost2010PropOp39
 70
     1
102
RTVSPost2010Prop40
 90
        0
102
RTVSPost2010PropOp40
 70
     1
102
RTVSPost2010Prop41ColorIndex
 90
       18
102
RTVSPost2010Prop41ColorRGB
 90
        0
102
RTVSPost2010PropOp41
 70
     1
102
RTVSPost2010Prop42
 90
       50
102
RTVSPost2010PropOp42
 70
     1
102
RTVSPost2010Prop43
 90
        3
102
RTVSPost2010PropOp43
 70
     1
102
RTVSPost2010Prop44ColorIndex
 90
        5
102
RTVSPost2010Prop44ColorRGB
 90
      255
102
RTVSPost2010PropOp44
 70
     1
102
RTVSPost2010Prop45
280
     0
102
RTVSPost2010PropOp45
 70
     1
102
RTVSPost2010Prop46
 90
       50
102
RTVSPost2010PropOp46
 70
     1
102
RTVSPost2010Prop47
 90
       50
102
RTVSPost2010PropOp47
 70
     1
102
RTVSPost2010Prop48
 90
       50
102
RTVSPost2010PropOp48
 70
     1
102
RTVSPost2010Prop49
280
     0
102
RTVSPost2010PropOp49
 70
     1
102
RTVSPost2010Prop50
 90
       50
102
RTVSPost2010PropOp50
 70
     1
102
RTVSPost2010Prop51ColorIndex
 90
      256
102
RTVSPost2010Prop51ColorRGB
 90
-16777216
102
RTVSPost2010PropOp51
 70
     0
102
RTVSPost2010Prop52
140
1.0
102
RTVSPost2010PropOp52
 70
     0
102
RTVSPost2010Prop53
 90
        2
102
RTVSPost2010PropOp53
 70
     1
102
RTVSPost2010Prop54
  1
strokes_ogs.tif
102
RTVSPost2010PropOp54
 70
     1
102
RTVSPost2010Prop55
280
     0
102
RTVSPost2010PropOp55
 70
     1
102
RTVSPost2010Prop56
140
1.0
102
RTVSPost2010PropOp56
 70
     1
102
RTVSPost2010Prop57
140
1.0
102
RTVSPost2010PropOp57
 70
     1
102
RTVSPropertyOp0
 70
     1
102
RTVSPropertyOp1
 70
     1
102
RTVSPropertyOp2
 70
     1
102
RTVSPropertyOp3
 70
     1
102
RTVSPropertyOp4
 70
     1
102
RTVSPropertyOp5
 70
     1
102
RTVSPropertyOp6
 70
     1
102
RTVSPropertyOp7
 70
     1
102
RTVSPropertyOp8
 70
     1
102
RTVSPropertyOp9
 70
     1
102
RTVSPropertyOp10
 70
     1
102
RTVSPropertyOp11
 70
     1
102
RTVSPropertyOp12
 70
     1
102
RTVSPropertyOp13
 70
     1
102
RTVSPropertyOp14
 70
     1
102
RTVSPropertyOp15
 70
     1
102
RTVSPropertyOp16
 70
     1
102
RTVSPropertyOp17
 70
     1
102
RTVSPropertyOp18
 70
     1
102
RTVSPropertyOp19
 70
     1
102
RTVSPropertyOp20
 70
     1
102
RTVSPropertyOp21
 70
     1
102
RTVSPropertyOp22
 70
     1
102
RTVSPropertyOp23
 70
     1
102
RTVSPropertyOp24
 70
     1
102
RTVSPropertyOp25
 70
     1
102
RTVSPropertyOp26
 70
     1
102
RTVSPropertyOp27
 70
     1
102
RTVSPropertyOp28
 70
     1
102
RTVSPropertyOp29
 70
     1
102
RTVSPropertyOp30
 70
     1
102
RTVSPropertyOp31
 70
     1
102
RTVSPropertyOp32
 70
     1
102
RTVSPropertyOp33
 70
     1
102
RTVSPropertyOp34
 70
     1
102
RTVSPropertyOp35
 70
     1
102
RTVSPropertyOp36
 70
     1
102
RTVSPropertyOp37
 70
     1
102
RTVSPropertyOp38
 70
     1
102
RTVSPropertyOp39
 70
     1
102
RTVSPropertyOp40
 70
     1
102
RTVSPropertyOp41
 70
     1
102
RTVSPropertyOp42
 70
     1
102
RTVSPropertyOp43
 70
     1
102
RTVSPropertyOp44
 70
     1
102
RTVSPropertyOp45
 70
     1
102
RTVSPropertyOp46
 70
     1
102
RTVSPropertyOp47
 70
     1
102
RTVSPropertyOp48
 70
     1
102
RTVSPropertyOp49
 70
     1
102
RTVSPropertyOp50
 70
     1
102
RTVSPropertyOp51
 70
     0
102
RTVSPropertyOp52
 70
     0
102
RTVSPropertyOp53
 70
     1
102
RTVSPropertyOp54
 70
     1
102
RTVSPropertyOp55
 70
     1
102
RTVSPropertyOp56
 70
     1
102
RTVSPropertyOp57
 70
     1
102
RTVSPropertyOp58
 70
     1
102
RTVSPropertyOp59
 70
     1
102
RTVSPropertyOp60
 70
     1
102
RTVSPropertyOp61
 70
     1
102
RTVSPropertyOp62
 70
     1
  0
XRECORD
  5
432
102
{ACAD_REACTORS
330
431
102
}
330
431
100
AcDbXrecord
280
     1
102
RTVSPost2010Prop28
280
     0
102
RTVSPost2010PropOp28
 70
     1
102
RTVSPost2010Prop29
280
     1
102
RTVSPost2010PropOp29
 70
     1
102
RTVSPost2010Prop30
280
     1
102
RTVSPost2010PropOp30
 70
     1
102
RTVSPost2010Prop31
280
     0
102
RTVSPost2010PropOp31
 70
     1
102
RTVSPost2010Prop32
280
     0
102
RTVSPost2010PropOp32
 70
     1
102
RTVSPost2010Prop33
280
     0
102
RTVSPost2010PropOp33
 70
     1
102
RTVSPost2010Prop34
280
     0
102
RTVSPost2010PropOp34
 70
     1
102
RTVSPost2010Prop35
280
     0
102
RTVSPost2010PropOp35
 70
     1
102
RTVSPost2010Prop36
280
     0
102
RTVSPost2010PropOp36
 70
     1
102
RTVSPost2010Prop37
 90
       50
102
RTVSPost2010PropOp37
 70
     1
102
RTVSPost2010Prop38
140
0.0
102
RTVSPost2010PropOp38
 70
     1
102
RTVSPost2010Prop39
140
1.0
102
RTVSPost2010PropOp39
 70
     1
102
RTVSPost2010Prop40
 90
        0
102
RTVSPost2010PropOp40
 70
     1
102
RTVSPost2010Prop41ColorIndex
 90
       18
102
RTVSPost2010Prop41ColorRGB
 90
        0
102
RTVSPost2010PropOp41
 70
     1
102
RTVSPost2010Prop42
 90
       50
102
RTVSPost2010PropOp42
 70
     1
102
RTVSPost2010Prop43
 90
        3
102
RTVSPost2010PropOp43
 70
     1
102
RTVSPost2010Prop44ColorIndex
 90
        5
102
RTVSPost2010Prop44ColorRGB
 90
      255
102
RTVSPost2010PropOp44
 70
     1
102
RTVSPost2010Prop45
280
     0
102
RTVSPost2010PropOp45
 70
     1
102
RTVSPost2010Prop46
 90
       50
102
RTVSPost2010PropOp46
 70
     1
102
RTVSPost2010Prop47
 90
       50
102
RTVSPost2010PropOp47
 70
     1
102
RTVSPost2010Prop48
 90
       50
102
RTVSPost2010PropOp48
 70
     1
102
RTVSPost2010Prop49
280
     0
102
RTVSPost2010PropOp49
 70
     1
102
RTVSPost2010Prop50
 90
       50
102
RTVSPost2010PropOp50
 70
     1
102
RTVSPost2010Prop51ColorIndex
 90
      256
102
RTVSPost2010Prop51ColorRGB
 90
-16777216
102
RTVSPost2010PropOp51
 70
     0
102
RTVSPost2010Prop52
140
1.0
102
RTVSPost2010PropOp52
 70
     0
102
RTVSPost2010Prop53
 90
        2
102
RTVSPost2010PropOp53
 70
     1
102
RTVSPost2010Prop54
  1
strokes_ogs.tif
102
RTVSPost2010PropOp54
 70
     1
102
RTVSPost2010Prop55
280
     0
102
RTVSPost2010PropOp55
 70
     1
102
RTVSPost2010Prop56
140
1.0
102
RTVSPost2010PropOp56
 70
     1
102
RTVSPost2010Prop57
140
1.0
102
RTVSPost2010PropOp57
 70
     1
102
RTVSPropertyOp0
 70
     1
102
RTVSPropertyOp1
 70
     1
102
RTVSPropertyOp2
 70
     1
102
RTVSPropertyOp3
 70
     1
102
RTVSPropertyOp4
 70
     1
102
RTVSPropertyOp5
 70
     1
102
RTVSPropertyOp6
 70
     1
102
RTVSPropertyOp7
 70
     1
102
RTVSPropertyOp8
 70
     1
102
RTVSPropertyOp9
 70
     1
102
RTVSPropertyOp10
 70
     1
102
RTVSPropertyOp11
 70
     1
102
RTVSPropertyOp12
 70
     1
102
RTVSPropertyOp13
 70
     1
102
RTVSPropertyOp14
 70
     1
102
RTVSPropertyOp15
 70
     1
102
RTVSPropertyOp16
 70
     1
102
RTVSPropertyOp17
 70
     1
102
RTVSPropertyOp18
 70
     1
102
RTVSPropertyOp19
 70
     1
102
RTVSPropertyOp20
 70
     1
102
RTVSPropertyOp21
 70
     1
102
RTVSPropertyOp22
 70
     1
102
RTVSPropertyOp23
 70
     1
102
RTVSPropertyOp24
 70
     1
102
RTVSPropertyOp25
 70
     1
102
RTVSPropertyOp26
 70
     1
102
RTVSPropertyOp27
 70
     1
102
RTVSPropertyOp28
 70
     1
102
RTVSPropertyOp29
 70
     1
102
RTVSPropertyOp30
 70
     1
102
RTVSPropertyOp31
 70
     1
102
RTVSPropertyOp32
 70
     1
102
RTVSPropertyOp33
 70
     1
102
RTVSPropertyOp34
 70
     1
102
RTVSPropertyOp35
 70
     1
102
RTVSPropertyOp36
 70
     1
102
RTVSPropertyOp37
 70
     1
102
RTVSPropertyOp38
 70
     1
102
RTVSPropertyOp39
 70
     1
102
RTVSPropertyOp40
 70
     1
102
RTVSPropertyOp41
 70
     1
102
RTVSPropertyOp42
 70
     1
102
RTVSPropertyOp43
 70
     1
102
RTVSPropertyOp44
 70
     1
102
RTVSPropertyOp45
 70
     1
102
RTVSPropertyOp46
 70
     1
102
RTVSPropertyOp47
 70
     1
102
RTVSPropertyOp48
 70
     1
102
RTVSPropertyOp49
 70
     1
102
RTVSPropertyOp50
 70
     1
102
RTVSPropertyOp51
 70
     0
102
RTVSPropertyOp52
 70
     0
102
RTVSPropertyOp53
 70
     1
102
RTVSPropertyOp54
 70
     1
102
RTVSPropertyOp55
 70
     1
102
RTVSPropertyOp56
 70
     1
102
RTVSPropertyOp57
 70
     1
102
RTVSPropertyOp58
 70
     1
102
RTVSPropertyOp59
 70
     1
102
RTVSPropertyOp60
 70
     1
102
RTVSPropertyOp61
 70
     1
102
RTVSPropertyOp62
 70
     1
  0
XRECORD
  5
44E
102
{ACAD_REACTORS
330
44D
102
}
330
44D
100
AcDbXrecord
280
     1
102
RTVSPost2010Prop28
280
     0
102
RTVSPost2010PropOp28
 70
     1
102
RTVSPost2010Prop29
280
     1
102
RTVSPost2010PropOp29
 70
     1
102
RTVSPost2010Prop30
280
     1
102
RTVSPost2010PropOp30
 70
     1
102
RTVSPost2010Prop31
280
     0
102
RTVSPost2010PropOp31
 70
     1
102
RTVSPost2010Prop32
280
     0
102
RTVSPost2010PropOp32
 70
     1
102
RTVSPost2010Prop33
280
     0
102
RTVSPost2010PropOp33
 70
     1
102
RTVSPost2010Prop34
280
     0
102
RTVSPost2010PropOp34
 70
     1
102
RTVSPost2010Prop35
280
     0
102
RTVSPost2010PropOp35
 70
     1
102
RTVSPost2010Prop36
280
     0
102
RTVSPost2010PropOp36
 70
     1
102
RTVSPost2010Prop37
 90
       50
102
RTVSPost2010PropOp37
 70
     0
102
RTVSPost2010Prop38
140
0.0
102
RTVSPost2010PropOp38
 70
     0
102
RTVSPost2010Prop39
140
1.0
102
RTVSPost2010PropOp39
 70
     0
102
RTVSPost2010Prop40
 90
        0
102
RTVSPost2010PropOp40
 70
     0
102
RTVSPost2010Prop41ColorIndex
 90
       18
102
RTVSPost2010Prop41ColorRGB
 90
        0
102
RTVSPost2010PropOp41
 70
     0
102
RTVSPost2010Prop42
 90
       50
102
RTVSPost2010PropOp42
 70
     0
102
RTVSPost2010Prop43
 90
        3
102
RTVSPost2010PropOp43
 70
     0
102
RTVSPost2010Prop44ColorIndex
 90
        5
102
RTVSPost2010Prop44ColorRGB
 90
      255
102
RTVSPost2010PropOp44
 70
     0
102
RTVSPost2010Prop45
280
     0
102
RTVSPost2010PropOp45
 70
     1
102
RTVSPost2010Prop46
 90
       50
102
RTVSPost2010PropOp46
 70
     0
102
RTVSPost2010Prop47
 90
       50
102
RTVSPost2010PropOp47
 70
     0
102
RTVSPost2010Prop48
 90
       50
102
RTVSPost2010PropOp48
 70
     0
102
RTVSPost2010Prop49
280
     0
102
RTVSPost2010PropOp49
 70
     1
102
RTVSPost2010Prop50
 90
       50
102
RTVSPost2010PropOp50
 70
     0
102
RTVSPost2010Prop51ColorIndex
 90
      256
102
RTVSPost2010Prop51ColorRGB
 90
-16777216
102
RTVSPost2010PropOp51
 70
     0
102
RTVSPost2010Prop52
140
1.0
102
RTVSPost2010PropOp52
 70
     0
102
RTVSPost2010Prop53
 90
        2
102
RTVSPost2010PropOp53
 70
     0
102
RTVSPost2010Prop54
  1
strokes_ogs.tif
102
RTVSPost2010PropOp54
 70
     0
102
RTVSPost2010Prop55
280
     0
102
RTVSPost2010PropOp55
 70
     1
102
RTVSPost2010Prop56
140
1.0
102
RTVSPost2010PropOp56
 70
     0
102
RTVSPost2010Prop57
140
1.0
102
RTVSPost2010PropOp57
 70
     0
102
RTVSPropertyOp0
 70
     0
102
RTVSPropertyOp1
 70
     0
102
RTVSPropertyOp2
 70
     0
102
RTVSPropertyOp3
 70
     0
102
RTVSPropertyOp4
 70
     0
102
RTVSPropertyOp5
 70
     0
102
RTVSPropertyOp6
 70
     0
102
RTVSPropertyOp7
 70
     0
102
RTVSPropertyOp8
 70
     0
102
RTVSPropertyOp9
 70
     0
102
RTVSPropertyOp10
 70
     0
102
RTVSPropertyOp11
 70
     0
102
RTVSPropertyOp12
 70
     0
102
RTVSPropertyOp13
 70
     0
102
RTVSPropertyOp14
 70
     2
102
RTVSPropertyOp15
 70
     0
102
RTVSPropertyOp16
 70
     0
102
RTVSPropertyOp17
 70
     0
102
RTVSPropertyOp18
 70
     0
102
RTVSPropertyOp19
 70
     0
102
RTVSPropertyOp20
 70
     0
102
RTVSPropertyOp21
 70
     0
102
RTVSPropertyOp22
 70
     0
102
RTVSPropertyOp23
 70
     0
102
RTVSPropertyOp24
 70
     0
102
RTVSPropertyOp25
 70
     0
102
RTVSPropertyOp26
 70
     0
102
RTVSPropertyOp27
 70
     0
102
RTVSPropertyOp28
 70
     1
102
RTVSPropertyOp29
 70
     1
102
RTVSPropertyOp30
 70
     1
102
RTVSPropertyOp31
 70
     1
102
RTVSPropertyOp32
 70
     1
102
RTVSPropertyOp33
 70
     1
102
RTVSPropertyOp34
 70
     1
102
RTVSPropertyOp35
 70
     1
102
RTVSPropertyOp36
 70
     1
102
RTVSPropertyOp37
 70
     0
102
RTVSPropertyOp38
 70
     0
102
RTVSPropertyOp39
 70
     0
102
RTVSPropertyOp40
 70
     0
102
RTVSPropertyOp41
 70
     0
102
RTVSPropertyOp42
 70
     0
102
RTVSPropertyOp43
 70
     0
102
RTVSPropertyOp44
 70
     0
102
RTVSPropertyOp45
 70
     1
102
RTVSPropertyOp46
 70
     0
102
RTVSPropertyOp47
 70
     0
102
RTVSPropertyOp48
 70
     0
102
RTVSPropertyOp49
 70
     1
102
RTVSPropertyOp50
 70
     0
102
RTVSPropertyOp51
 70
     0
102
RTVSPropertyOp52
 70
     0
102
RTVSPropertyOp53
 70
     0
102
RTVSPropertyOp54
 70
     0
102
RTVSPropertyOp55
 70
     1
102
RTVSPropertyOp56
 70
     0
102
RTVSPropertyOp57
 70
     0
102
RTVSPropertyOp58
 70
     0
102
RTVSPropertyOp59
 70
     0
102
RTVSPropertyOp60
 70
     0
102
RTVSPropertyOp61
 70
     0
102
RTVSPropertyOp62
 70
     0
  0
XRECORD
  5
43E
102
{ACAD_REACTORS
330
43D
102
}
330
43D
100
AcDbXrecord
280
     1
102
RTVSPost2010Prop28
280
     0
102
RTVSPost2010PropOp28
 70
     1
102
RTVSPost2010Prop29
280
     1
102
RTVSPost2010PropOp29
 70
     1
102
RTVSPost2010Prop30
280
     1
102
RTVSPost2010PropOp30
 70
     1
102
RTVSPost2010Prop31
280
     0
102
RTVSPost2010PropOp31
 70
     1
102
RTVSPost2010Prop32
280
     0
102
RTVSPost2010PropOp32
 70
     1
102
RTVSPost2010Prop33
280
     0
102
RTVSPost2010PropOp33
 70
     1
102
RTVSPost2010Prop34
280
     0
102
RTVSPost2010PropOp34
 70
     1
102
RTVSPost2010Prop35
280
     0
102
RTVSPost2010PropOp35
 70
     1
102
RTVSPost2010Prop36
280
     0
102
RTVSPost2010PropOp36
 70
     1
102
RTVSPost2010Prop37
 90
       50
102
RTVSPost2010PropOp37
 70
     1
102
RTVSPost2010Prop38
140
0.0
102
RTVSPost2010PropOp38
 70
     1
102
RTVSPost2010Prop39
140
1.0
102
RTVSPost2010PropOp39
 70
     1
102
RTVSPost2010Prop40
 90
        0
102
RTVSPost2010PropOp40
 70
     1
102
RTVSPost2010Prop41ColorIndex
 90
       18
102
RTVSPost2010Prop41ColorRGB
 90
        0
102
RTVSPost2010PropOp41
 70
     1
102
RTVSPost2010Prop42
 90
       50
102
RTVSPost2010PropOp42
 70
     1
102
RTVSPost2010Prop43
 90
        3
102
RTVSPost2010PropOp43
 70
     1
102
RTVSPost2010Prop44ColorIndex
 90
        5
102
RTVSPost2010Prop44ColorRGB
 90
      255
102
RTVSPost2010PropOp44
 70
     1
102
RTVSPost2010Prop45
280
     0
102
RTVSPost2010PropOp45
 70
     1
102
RTVSPost2010Prop46
 90
       50
102
RTVSPost2010PropOp46
 70
     1
102
RTVSPost2010Prop47
 90
       50
102
RTVSPost2010PropOp47
 70
     1
102
RTVSPost2010Prop48
 90
       50
102
RTVSPost2010PropOp48
 70
     1
102
RTVSPost2010Prop49
280
     0
102
RTVSPost2010PropOp49
 70
     1
102
RTVSPost2010Prop50
 90
       50
102
RTVSPost2010PropOp50
 70
     1
102
RTVSPost2010Prop51ColorIndex
 90
      256
102
RTVSPost2010Prop51ColorRGB
 90
-16777216
102
RTVSPost2010PropOp51
 70
     0
102
RTVSPost2010Prop52
140
1.0
102
RTVSPost2010PropOp52
 70
     0
102
RTVSPost2010Prop53
 90
        2
102
RTVSPost2010PropOp53
 70
     1
102
RTVSPost2010Prop54
  1
strokes_ogs.tif
102
RTVSPost2010PropOp54
 70
     1
102
RTVSPost2010Prop55
280
     0
102
RTVSPost2010PropOp55
 70
     1
102
RTVSPost2010Prop56
140
1.0
102
RTVSPost2010PropOp56
 70
     1
102
RTVSPost2010Prop57
140
1.0
102
RTVSPost2010PropOp57
 70
     1
102
RTVSPropertyOp0
 70
     1
102
RTVSPropertyOp1
 70
     1
102
RTVSPropertyOp2
 70
     1
102
RTVSPropertyOp3
 70
     1
102
RTVSPropertyOp4
 70
     1
102
RTVSPropertyOp5
 70
     1
102
RTVSPropertyOp6
 70
     1
102
RTVSPropertyOp7
 70
     1
102
RTVSPropertyOp8
 70
     1
102
RTVSPropertyOp9
 70
     1
102
RTVSPropertyOp10
 70
     1
102
RTVSPropertyOp11
 70
     1
102
RTVSPropertyOp12
 70
     1
102
RTVSPropertyOp13
 70
     1
102
RTVSPropertyOp14
 70
     1
102
RTVSPropertyOp15
 70
     1
102
RTVSPropertyOp16
 70
     1
102
RTVSPropertyOp17
 70
     1
102
RTVSPropertyOp18
 70
     1
102
RTVSPropertyOp19
 70
     1
102
RTVSPropertyOp20
 70
     1
102
RTVSPropertyOp21
 70
     1
102
RTVSPropertyOp22
 70
     1
102
RTVSPropertyOp23
 70
     1
102
RTVSPropertyOp24
 70
     1
102
RTVSPropertyOp25
 70
     1
102
RTVSPropertyOp26
 70
     1
102
RTVSPropertyOp27
 70
     1
102
RTVSPropertyOp28
 70
     1
102
RTVSPropertyOp29
 70
     1
102
RTVSPropertyOp30
 70
     1
102
RTVSPropertyOp31
 70
     1
102
RTVSPropertyOp32
 70
     1
102
RTVSPropertyOp33
 70
     1
102
RTVSPropertyOp34
 70
     1
102
RTVSPropertyOp35
 70
     1
102
RTVSPropertyOp36
 70
     1
102
RTVSPropertyOp37
 70
     1
102
RTVSPropertyOp38
 70
     1
102
RTVSPropertyOp39
 70
     1
102
RTVSPropertyOp40
 70
     1
102
RTVSPropertyOp41
 70
     1
102
RTVSPropertyOp42
 70
     1
102
RTVSPropertyOp43
 70
     1
102
RTVSPropertyOp44
 70
     1
102
RTVSPropertyOp45
 70
     1
102
RTVSPropertyOp46
 70
     1
102
RTVSPropertyOp47
 70
     1
102
RTVSPropertyOp48
 70
     1
102
RTVSPropertyOp49
 70
     1
102
RTVSPropertyOp50
 70
     1
102
RTVSPropertyOp51
 70
     0
102
RTVSPropertyOp52
 70
     0
102
RTVSPropertyOp53
 70
     1
102
RTVSPropertyOp54
 70
     1
102
RTVSPropertyOp55
 70
     1
102
RTVSPropertyOp56
 70
     1
102
RTVSPropertyOp57
 70
     1
102
RTVSPropertyOp58
 70
     1
102
RTVSPropertyOp59
 70
     1
102
RTVSPropertyOp60
 70
     1
102
RTVSPropertyOp61
 70
     1
102
RTVSPropertyOp62
 70
     1
  0
XRECORD
  5
450
102
{ACAD_REACTORS
330
44F
102
}
330
44F
100
AcDbXrecord
280
     1
102
RTVSPost2010Prop28
280
     0
102
RTVSPost2010PropOp28
 70
     1
102
RTVSPost2010Prop29
280
     1
102
RTVSPost2010PropOp29
 70
     1
102
RTVSPost2010Prop30
280
     1
102
RTVSPost2010PropOp30
 70
     1
102
RTVSPost2010Prop31
280
     0
102
RTVSPost2010PropOp31
 70
     1
102
RTVSPost2010Prop32
280
     0
102
RTVSPost2010PropOp32
 70
     1
102
RTVSPost2010Prop33
280
     0
102
RTVSPost2010PropOp33
 70
     1
102
RTVSPost2010Prop34
280
     0
102
RTVSPost2010PropOp34
 70
     1
102
RTVSPost2010Prop35
280
     0
102
RTVSPost2010PropOp35
 70
     1
102
RTVSPost2010Prop36
280
     0
102
RTVSPost2010PropOp36
 70
     1
102
RTVSPost2010Prop37
 90
       50
102
RTVSPost2010PropOp37
 70
     0
102
RTVSPost2010Prop38
140
0.0
102
RTVSPost2010PropOp38
 70
     0
102
RTVSPost2010Prop39
140
1.0
102
RTVSPost2010PropOp39
 70
     0
102
RTVSPost2010Prop40
 90
        0
102
RTVSPost2010PropOp40
 70
     0
102
RTVSPost2010Prop41ColorIndex
 90
       18
102
RTVSPost2010Prop41ColorRGB
 90
        0
102
RTVSPost2010PropOp41
 70
     0
102
RTVSPost2010Prop42
 90
       50
102
RTVSPost2010PropOp42
 70
     0
102
RTVSPost2010Prop43
 90
        3
102
RTVSPost2010PropOp43
 70
     0
102
RTVSPost2010Prop44ColorIndex
 90
        5
102
RTVSPost2010Prop44ColorRGB
 90
      255
102
RTVSPost2010PropOp44
 70
     0
102
RTVSPost2010Prop45
280
     0
102
RTVSPost2010PropOp45
 70
     1
102
RTVSPost2010Prop46
 90
       50
102
RTVSPost2010PropOp46
 70
     0
102
RTVSPost2010Prop47
 90
       50
102
RTVSPost2010PropOp47
 70
     0
102
RTVSPost2010Prop48
 90
       50
102
RTVSPost2010PropOp48
 70
     0
102
RTVSPost2010Prop49
280
     0
102
RTVSPost2010PropOp49
 70
     1
102
RTVSPost2010Prop50
 90
       50
102
RTVSPost2010PropOp50
 70
     0
102
RTVSPost2010Prop51ColorIndex
 90
      256
102
RTVSPost2010Prop51ColorRGB
 90
-16777216
102
RTVSPost2010PropOp51
 70
     0
102
RTVSPost2010Prop52
140
1.0
102
RTVSPost2010PropOp52
 70
     0
102
RTVSPost2010Prop53
 90
        2
102
RTVSPost2010PropOp53
 70
     0
102
RTVSPost2010Prop54
  1
strokes_ogs.tif
102
RTVSPost2010PropOp54
 70
     0
102
RTVSPost2010Prop55
280
     0
102
RTVSPost2010PropOp55
 70
     1
102
RTVSPost2010Prop56
140
1.0
102
RTVSPost2010PropOp56
 70
     0
102
RTVSPost2010Prop57
140
1.0
102
RTVSPost2010PropOp57
 70
     0
102
RTVSPropertyOp0
 70
     0
102
RTVSPropertyOp1
 70
     0
102
RTVSPropertyOp2
 70
     0
102
RTVSPropertyOp3
 70
     0
102
RTVSPropertyOp4
 70
     0
102
RTVSPropertyOp5
 70
     0
102
RTVSPropertyOp6
 70
     0
102
RTVSPropertyOp7
 70
     0
102
RTVSPropertyOp8
 70
     0
102
RTVSPropertyOp9
 70
     0
102
RTVSPropertyOp10
 70
     0
102
RTVSPropertyOp11
 70
     0
102
RTVSPropertyOp12
 70
     0
102
RTVSPropertyOp13
 70
     0
102
RTVSPropertyOp14
 70
     2
102
RTVSPropertyOp15
 70
     0
102
RTVSPropertyOp16
 70
     0
102
RTVSPropertyOp17
 70
     0
102
RTVSPropertyOp18
 70
     0
102
RTVSPropertyOp19
 70
     0
102
RTVSPropertyOp20
 70
     0
102
RTVSPropertyOp21
 70
     0
102
RTVSPropertyOp22
 70
     0
102
RTVSPropertyOp23
 70
     0
102
RTVSPropertyOp24
 70
     0
102
RTVSPropertyOp25
 70
     0
102
RTVSPropertyOp26
 70
     0
102
RTVSPropertyOp27
 70
     0
102
RTVSPropertyOp28
 70
     1
102
RTVSPropertyOp29
 70
     1
102
RTVSPropertyOp30
 70
     1
102
RTVSPropertyOp31
 70
     1
102
RTVSPropertyOp32
 70
     1
102
RTVSPropertyOp33
 70
     1
102
RTVSPropertyOp34
 70
     1
102
RTVSPropertyOp35
 70
     1
102
RTVSPropertyOp36
 70
     1
102
RTVSPropertyOp37
 70
     0
102
RTVSPropertyOp38
 70
     0
102
RTVSPropertyOp39
 70
     0
102
RTVSPropertyOp40
 70
     0
102
RTVSPropertyOp41
 70
     0
102
RTVSPropertyOp42
 70
     0
102
RTVSPropertyOp43
 70
     0
102
RTVSPropertyOp44
 70
     0
102
RTVSPropertyOp45
 70
     1
102
RTVSPropertyOp46
 70
     0
102
RTVSPropertyOp47
 70
     0
102
RTVSPropertyOp48
 70
     0
102
RTVSPropertyOp49
 70
     1
102
RTVSPropertyOp50
 70
     0
102
RTVSPropertyOp51
 70
     0
102
RTVSPropertyOp52
 70
     0
102
RTVSPropertyOp53
 70
     0
102
RTVSPropertyOp54
 70
     0
102
RTVSPropertyOp55
 70
     1
102
RTVSPropertyOp56
 70
     0
102
RTVSPropertyOp57
 70
     0
102
RTVSPropertyOp58
 70
     0
102
RTVSPropertyOp59
 70
     0
102
RTVSPropertyOp60
 70
     0
102
RTVSPropertyOp61
 70
     0
102
RTVSPropertyOp62
 70
     0
  0
XRECORD
  5
436
102
{ACAD_REACTORS
330
435
102
}
330
435
100
AcDbXrecord
280
     1
102
RTVSPost2010Prop28
280
     0
102
RTVSPost2010PropOp28
 70
     1
102
RTVSPost2010Prop29
280
     1
102
RTVSPost2010PropOp29
 70
     1
102
RTVSPost2010Prop30
280
     1
102
RTVSPost2010PropOp30
 70
     1
102
RTVSPost2010Prop31
280
     0
102
RTVSPost2010PropOp31
 70
     1
102
RTVSPost2010Prop32
280
     0
102
RTVSPost2010PropOp32
 70
     1
102
RTVSPost2010Prop33
280
     0
102
RTVSPost2010PropOp33
 70
     1
102
RTVSPost2010Prop34
280
     0
102
RTVSPost2010PropOp34
 70
     1
102
RTVSPost2010Prop35
280
     0
102
RTVSPost2010PropOp35
 70
     1
102
RTVSPost2010Prop36
280
     0
102
RTVSPost2010PropOp36
 70
     1
102
RTVSPost2010Prop37
 90
       50
102
RTVSPost2010PropOp37
 70
     1
102
RTVSPost2010Prop38
140
0.0
102
RTVSPost2010PropOp38
 70
     1
102
RTVSPost2010Prop39
140
1.0
102
RTVSPost2010PropOp39
 70
     1
102
RTVSPost2010Prop40
 90
        0
102
RTVSPost2010PropOp40
 70
     1
102
RTVSPost2010Prop41ColorIndex
 90
       18
102
RTVSPost2010Prop41ColorRGB
 90
        0
102
RTVSPost2010PropOp41
 70
     1
102
RTVSPost2010Prop42
 90
       50
102
RTVSPost2010PropOp42
 70
     1
102
RTVSPost2010Prop43
 90
        3
102
RTVSPost2010PropOp43
 70
     1
102
RTVSPost2010Prop44ColorIndex
 90
        5
102
RTVSPost2010Prop44ColorRGB
 90
      255
102
RTVSPost2010PropOp44
 70
     1
102
RTVSPost2010Prop45
280
     0
102
RTVSPost2010PropOp45
 70
     1
102
RTVSPost2010Prop46
 90
       50
102
RTVSPost2010PropOp46
 70
     1
102
RTVSPost2010Prop47
 90
       50
102
RTVSPost2010PropOp47
 70
     1
102
RTVSPost2010Prop48
 90
       50
102
RTVSPost2010PropOp48
 70
     1
102
RTVSPost2010Prop49
280
     0
102
RTVSPost2010PropOp49
 70
     1
102
RTVSPost2010Prop50
 90
       50
102
RTVSPost2010PropOp50
 70
     1
102
RTVSPost2010Prop51ColorIndex
 90
      256
102
RTVSPost2010Prop51ColorRGB
 90
-16777216
102
RTVSPost2010PropOp51
 70
     0
102
RTVSPost2010Prop52
140
1.0
102
RTVSPost2010PropOp52
 70
     0
102
RTVSPost2010Prop53
 90
        2
102
RTVSPost2010PropOp53
 70
     1
102
RTVSPost2010Prop54
  1
strokes_ogs.tif
102
RTVSPost2010PropOp54
 70
     1
102
RTVSPost2010Prop55
280
     0
102
RTVSPost2010PropOp55
 70
     1
102
RTVSPost2010Prop56
140
1.0
102
RTVSPost2010PropOp56
 70
     1
102
RTVSPost2010Prop57
140
1.0
102
RTVSPost2010PropOp57
 70
     1
102
RTVSPropertyOp0
 70
     1
102
RTVSPropertyOp1
 70
     1
102
RTVSPropertyOp2
 70
     1
102
RTVSPropertyOp3
 70
     1
102
RTVSPropertyOp4
 70
     1
102
RTVSPropertyOp5
 70
     1
102
RTVSPropertyOp6
 70
     1
102
RTVSPropertyOp7
 70
     1
102
RTVSPropertyOp8
 70
     1
102
RTVSPropertyOp9
 70
     1
102
RTVSPropertyOp10
 70
     1
102
RTVSPropertyOp11
 70
     1
102
RTVSPropertyOp12
 70
     1
102
RTVSPropertyOp13
 70
     1
102
RTVSPropertyOp14
 70
     1
102
RTVSPropertyOp15
 70
     1
102
RTVSPropertyOp16
 70
     1
102
RTVSPropertyOp17
 70
     1
102
RTVSPropertyOp18
 70
     1
102
RTVSPropertyOp19
 70
     1
102
RTVSPropertyOp20
 70
     1
102
RTVSPropertyOp21
 70
     1
102
RTVSPropertyOp22
 70
     1
102
RTVSPropertyOp23
 70
     1
102
RTVSPropertyOp24
 70
     1
102
RTVSPropertyOp25
 70
     1
102
RTVSPropertyOp26
 70
     1
102
RTVSPropertyOp27
 70
     1
102
RTVSPropertyOp28
 70
     1
102
RTVSPropertyOp29
 70
     1
102
RTVSPropertyOp30
 70
     1
102
RTVSPropertyOp31
 70
     1
102
RTVSPropertyOp32
 70
     1
102
RTVSPropertyOp33
 70
     1
102
RTVSPropertyOp34
 70
     1
102
RTVSPropertyOp35
 70
     1
102
RTVSPropertyOp36
 70
     1
102
RTVSPropertyOp37
 70
     1
102
RTVSPropertyOp38
 70
     1
102
RTVSPropertyOp39
 70
     1
102
RTVSPropertyOp40
 70
     1
102
RTVSPropertyOp41
 70
     1
102
RTVSPropertyOp42
 70
     1
102
RTVSPropertyOp43
 70
     1
102
RTVSPropertyOp44
 70
     1
102
RTVSPropertyOp45
 70
     1
102
RTVSPropertyOp46
 70
     1
102
RTVSPropertyOp47
 70
     1
102
RTVSPropertyOp48
 70
     1
102
RTVSPropertyOp49
 70
     1
102
RTVSPropertyOp50
 70
     1
102
RTVSPropertyOp51
 70
     0
102
RTVSPropertyOp52
 70
     0
102
RTVSPropertyOp53
 70
     1
102
RTVSPropertyOp54
 70
     1
102
RTVSPropertyOp55
 70
     1
102
RTVSPropertyOp56
 70
     1
102
RTVSPropertyOp57
 70
     1
102
RTVSPropertyOp58
 70
     1
102
RTVSPropertyOp59
 70
     1
102
RTVSPropertyOp60
 70
     1
102
RTVSPropertyOp61
 70
     1
102
RTVSPropertyOp62
 70
     1
  0
XRECORD
  5
44C
102
{ACAD_REACTORS
330
44B
102
}
330
44B
100
AcDbXrecord
280
     1
102
RTVSPost2010Prop28
280
     0
102
RTVSPost2010PropOp28
 70
     1
102
RTVSPost2010Prop29
280
     1
102
RTVSPost2010PropOp29
 70
     1
102
RTVSPost2010Prop30
280
     1
102
RTVSPost2010PropOp30
 70
     1
102
RTVSPost2010Prop31
280
     0
102
RTVSPost2010PropOp31
 70
     1
102
RTVSPost2010Prop32
280
     0
102
RTVSPost2010PropOp32
 70
     1
102
RTVSPost2010Prop33
280
     0
102
RTVSPost2010PropOp33
 70
     1
102
RTVSPost2010Prop34
280
     0
102
RTVSPost2010PropOp34
 70
     1
102
RTVSPost2010Prop35
280
     0
102
RTVSPost2010PropOp35
 70
     1
102
RTVSPost2010Prop36
280
     0
102
RTVSPost2010PropOp36
 70
     1
102
RTVSPost2010Prop37
 90
       50
102
RTVSPost2010PropOp37
 70
     1
102
RTVSPost2010Prop38
140
0.0
102
RTVSPost2010PropOp38
 70
     1
102
RTVSPost2010Prop39
140
1.0
102
RTVSPost2010PropOp39
 70
     1
102
RTVSPost2010Prop40
 90
        0
102
RTVSPost2010PropOp40
 70
     1
102
RTVSPost2010Prop41ColorIndex
 90
       18
102
RTVSPost2010Prop41ColorRGB
 90
        0
102
RTVSPost2010PropOp41
 70
     1
102
RTVSPost2010Prop42
 90
       50
102
RTVSPost2010PropOp42
 70
     1
102
RTVSPost2010Prop43
 90
        3
102
RTVSPost2010PropOp43
 70
     1
102
RTVSPost2010Prop44ColorIndex
 90
        5
102
RTVSPost2010Prop44ColorRGB
 90
      255
102
RTVSPost2010PropOp44
 70
     1
102
RTVSPost2010Prop45
280
     0
102
RTVSPost2010PropOp45
 70
     1
102
RTVSPost2010Prop46
 90
       50
102
RTVSPost2010PropOp46
 70
     1
102
RTVSPost2010Prop47
 90
       50
102
RTVSPost2010PropOp47
 70
     1
102
RTVSPost2010Prop48
 90
       50
102
RTVSPost2010PropOp48
 70
     1
102
RTVSPost2010Prop49
280
     0
102
RTVSPost2010PropOp49
 70
     1
102
RTVSPost2010Prop50
 90
       50
102
RTVSPost2010PropOp50
 70
     1
102
RTVSPost2010Prop51ColorIndex
 90
      256
102
RTVSPost2010Prop51ColorRGB
 90
-16777216
102
RTVSPost2010PropOp51
 70
     0
102
RTVSPost2010Prop52
140
1.0
102
RTVSPost2010PropOp52
 70
     0
102
RTVSPost2010Prop53
 90
        2
102
RTVSPost2010PropOp53
 70
     1
102
RTVSPost2010Prop54
  1
strokes_ogs.tif
102
RTVSPost2010PropOp54
 70
     1
102
RTVSPost2010Prop55
280
     0
102
RTVSPost2010PropOp55
 70
     1
102
RTVSPost2010Prop56
140
1.0
102
RTVSPost2010PropOp56
 70
     1
102
RTVSPost2010Prop57
140
1.0
102
RTVSPost2010PropOp57
 70
     1
102
RTVSPropertyOp0
 70
     1
102
RTVSPropertyOp1
 70
     1
102
RTVSPropertyOp2
 70
     1
102
RTVSPropertyOp3
 70
     1
102
RTVSPropertyOp4
 70
     1
102
RTVSPropertyOp5
 70
     1
102
RTVSPropertyOp6
 70
     1
102
RTVSPropertyOp7
 70
     1
102
RTVSPropertyOp8
 70
     1
102
RTVSPropertyOp9
 70
     1
102
RTVSPropertyOp10
 70
     1
102
RTVSPropertyOp11
 70
     1
102
RTVSPropertyOp12
 70
     1
102
RTVSPropertyOp13
 70
     1
102
RTVSPropertyOp14
 70
     1
102
RTVSPropertyOp15
 70
     1
102
RTVSPropertyOp16
 70
     1
102
RTVSPropertyOp17
 70
     1
102
RTVSPropertyOp18
 70
     1
102
RTVSPropertyOp19
 70
     1
102
RTVSPropertyOp20
 70
     1
102
RTVSPropertyOp21
 70
     1
102
RTVSPropertyOp22
 70
     1
102
RTVSPropertyOp23
 70
     1
102
RTVSPropertyOp24
 70
     1
102
RTVSPropertyOp25
 70
     1
102
RTVSPropertyOp26
 70
     1
102
RTVSPropertyOp27
 70
     1
102
RTVSPropertyOp28
 70
     1
102
RTVSPropertyOp29
 70
     1
102
RTVSPropertyOp30
 70
     1
102
RTVSPropertyOp31
 70
     1
102
RTVSPropertyOp32
 70
     1
102
RTVSPropertyOp33
 70
     1
102
RTVSPropertyOp34
 70
     1
102
RTVSPropertyOp35
 70
     1
102
RTVSPropertyOp36
 70
     1
102
RTVSPropertyOp37
 70
     1
102
RTVSPropertyOp38
 70
     1
102
RTVSPropertyOp39
 70
     1
102
RTVSPropertyOp40
 70
     1
102
RTVSPropertyOp41
 70
     1
102
RTVSPropertyOp42
 70
     1
102
RTVSPropertyOp43
 70
     1
102
RTVSPropertyOp44
 70
     1
102
RTVSPropertyOp45
 70
     1
102
RTVSPropertyOp46
 70
     1
102
RTVSPropertyOp47
 70
     1
102
RTVSPropertyOp48
 70
     1
102
RTVSPropertyOp49
 70
     1
102
RTVSPropertyOp50
 70
     1
102
RTVSPropertyOp51
 70
     0
102
RTVSPropertyOp52
 70
     0
102
RTVSPropertyOp53
 70
     1
102
RTVSPropertyOp54
 70
     1
102
RTVSPropertyOp55
 70
     1
102
RTVSPropertyOp56
 70
     1
102
RTVSPropertyOp57
 70
     1
102
RTVSPropertyOp58
 70
     1
102
RTVSPropertyOp59
 70
     1
102
RTVSPropertyOp60
 70
     1
102
RTVSPropertyOp61
 70
     1
102
RTVSPropertyOp62
 70
     1
  0
XRECORD
  5
44A
102
{ACAD_REACTORS
330
449
102
}
330
449
100
AcDbXrecord
280
     1
102
RTVSPost2010Prop28
280
     0
102
RTVSPost2010PropOp28
 70
     1
102
RTVSPost2010Prop29
280
     1
102
RTVSPost2010PropOp29
 70
     1
102
RTVSPost2010Prop30
280
     1
102
RTVSPost2010PropOp30
 70
     1
102
RTVSPost2010Prop31
280
     0
102
RTVSPost2010PropOp31
 70
     1
102
RTVSPost2010Prop32
280
     0
102
RTVSPost2010PropOp32
 70
     1
102
RTVSPost2010Prop33
280
     0
102
RTVSPost2010PropOp33
 70
     1
102
RTVSPost2010Prop34
280
     0
102
RTVSPost2010PropOp34
 70
     1
102
RTVSPost2010Prop35
280
     0
102
RTVSPost2010PropOp35
 70
     1
102
RTVSPost2010Prop36
280
     0
102
RTVSPost2010PropOp36
 70
     1
102
RTVSPost2010Prop37
 90
       50
102
RTVSPost2010PropOp37
 70
     1
102
RTVSPost2010Prop38
140
0.0
102
RTVSPost2010PropOp38
 70
     1
102
RTVSPost2010Prop39
140
1.0
102
RTVSPost2010PropOp39
 70
     1
102
RTVSPost2010Prop40
 90
        0
102
RTVSPost2010PropOp40
 70
     1
102
RTVSPost2010Prop41ColorIndex
 90
       18
102
RTVSPost2010Prop41ColorRGB
 90
        0
102
RTVSPost2010PropOp41
 70
     1
102
RTVSPost2010Prop42
 90
       50
102
RTVSPost2010PropOp42
 70
     1
102
RTVSPost2010Prop43
 90
        3
102
RTVSPost2010PropOp43
 70
     1
102
RTVSPost2010Prop44ColorIndex
 90
        5
102
RTVSPost2010Prop44ColorRGB
 90
      255
102
RTVSPost2010PropOp44
 70
     1
102
RTVSPost2010Prop45
280
     0
102
RTVSPost2010PropOp45
 70
     1
102
RTVSPost2010Prop46
 90
       50
102
RTVSPost2010PropOp46
 70
     1
102
RTVSPost2010Prop47
 90
       50
102
RTVSPost2010PropOp47
 70
     1
102
RTVSPost2010Prop48
 90
       50
102
RTVSPost2010PropOp48
 70
     1
102
RTVSPost2010Prop49
280
     0
102
RTVSPost2010PropOp49
 70
     1
102
RTVSPost2010Prop50
 90
       50
102
RTVSPost2010PropOp50
 70
     1
102
RTVSPost2010Prop51ColorIndex
 90
      256
102
RTVSPost2010Prop51ColorRGB
 90
-16777216
102
RTVSPost2010PropOp51
 70
     0
102
RTVSPost2010Prop52
140
1.0
102
RTVSPost2010PropOp52
 70
     0
102
RTVSPost2010Prop53
 90
        2
102
RTVSPost2010PropOp53
 70
     1
102
RTVSPost2010Prop54
  1
strokes_ogs.tif
102
RTVSPost2010PropOp54
 70
     1
102
RTVSPost2010Prop55
280
     0
102
RTVSPost2010PropOp55
 70
     1
102
RTVSPost2010Prop56
140
1.0
102
RTVSPost2010PropOp56
 70
     1
102
RTVSPost2010Prop57
140
1.0
102
RTVSPost2010PropOp57
 70
     1
102
RTVSPropertyOp0
 70
     1
102
RTVSPropertyOp1
 70
     1
102
RTVSPropertyOp2
 70
     1
102
RTVSPropertyOp3
 70
     1
102
RTVSPropertyOp4
 70
     1
102
RTVSPropertyOp5
 70
     1
102
RTVSPropertyOp6
 70
     1
102
RTVSPropertyOp7
 70
     1
102
RTVSPropertyOp8
 70
     1
102
RTVSPropertyOp9
 70
     1
102
RTVSPropertyOp10
 70
     1
102
RTVSPropertyOp11
 70
     1
102
RTVSPropertyOp12
 70
     1
102
RTVSPropertyOp13
 70
     1
102
RTVSPropertyOp14
 70
     1
102
RTVSPropertyOp15
 70
     1
102
RTVSPropertyOp16
 70
     1
102
RTVSPropertyOp17
 70
     1
102
RTVSPropertyOp18
 70
     1
102
RTVSPropertyOp19
 70
     1
102
RTVSPropertyOp20
 70
     1
102
RTVSPropertyOp21
 70
     1
102
RTVSPropertyOp22
 70
     1
102
RTVSPropertyOp23
 70
     1
102
RTVSPropertyOp24
 70
     1
102
RTVSPropertyOp25
 70
     1
102
RTVSPropertyOp26
 70
     1
102
RTVSPropertyOp27
 70
     1
102
RTVSPropertyOp28
 70
     1
102
RTVSPropertyOp29
 70
     1
102
RTVSPropertyOp30
 70
     1
102
RTVSPropertyOp31
 70
     1
102
RTVSPropertyOp32
 70
     1
102
RTVSPropertyOp33
 70
     1
102
RTVSPropertyOp34
 70
     1
102
RTVSPropertyOp35
 70
     1
102
RTVSPropertyOp36
 70
     1
102
RTVSPropertyOp37
 70
     1
102
RTVSPropertyOp38
 70
     1
102
RTVSPropertyOp39
 70
     1
102
RTVSPropertyOp40
 70
     1
102
RTVSPropertyOp41
 70
     1
102
RTVSPropertyOp42
 70
     1
102
RTVSPropertyOp43
 70
     1
102
RTVSPropertyOp44
 70
     1
102
RTVSPropertyOp45
 70
     1
102
RTVSPropertyOp46
 70
     1
102
RTVSPropertyOp47
 70
     1
102
RTVSPropertyOp48
 70
     1
102
RTVSPropertyOp49
 70
     1
102
RTVSPropertyOp50
 70
     1
102
RTVSPropertyOp51
 70
     0
102
RTVSPropertyOp52
 70
     0
102
RTVSPropertyOp53
 70
     1
102
RTVSPropertyOp54
 70
     1
102
RTVSPropertyOp55
 70
     1
102
RTVSPropertyOp56
 70
     1
102
RTVSPropertyOp57
 70
     1
102
RTVSPropertyOp58
 70
     1
102
RTVSPropertyOp59
 70
     1
102
RTVSPropertyOp60
 70
     1
102
RTVSPropertyOp61
 70
     1
102
RTVSPropertyOp62
 70
     1
  0
XRECORD
  5
444
102
{ACAD_REACTORS
330
443
102
}
330
443
100
AcDbXrecord
280
     1
102
RTVSPost2010Prop28
280
     0
102
RTVSPost2010PropOp28
 70
     1
102
RTVSPost2010Prop29
280
     1
102
RTVSPost2010PropOp29
 70
     1
102
RTVSPost2010Prop30
280
     1
102
RTVSPost2010PropOp30
 70
     1
102
RTVSPost2010Prop31
280
     0
102
RTVSPost2010PropOp31
 70
     1
102
RTVSPost2010Prop32
280
     0
102
RTVSPost2010PropOp32
 70
     1
102
RTVSPost2010Prop33
280
     0
102
RTVSPost2010PropOp33
 70
     1
102
RTVSPost2010Prop34
280
     0
102
RTVSPost2010PropOp34
 70
     1
102
RTVSPost2010Prop35
280
     0
102
RTVSPost2010PropOp35
 70
     1
102
RTVSPost2010Prop36
280
     0
102
RTVSPost2010PropOp36
 70
     1
102
RTVSPost2010Prop37
 90
       50
102
RTVSPost2010PropOp37
 70
     1
102
RTVSPost2010Prop38
140
0.0
102
RTVSPost2010PropOp38
 70
     1
102
RTVSPost2010Prop39
140
1.0
102
RTVSPost2010PropOp39
 70
     1
102
RTVSPost2010Prop40
 90
        0
102
RTVSPost2010PropOp40
 70
     1
102
RTVSPost2010Prop41ColorIndex
 90
       18
102
RTVSPost2010Prop41ColorRGB
 90
        0
102
RTVSPost2010PropOp41
 70
     1
102
RTVSPost2010Prop42
 90
       50
102
RTVSPost2010PropOp42
 70
     1
102
RTVSPost2010Prop43
 90
        3
102
RTVSPost2010PropOp43
 70
     1
102
RTVSPost2010Prop44ColorIndex
 90
        5
102
RTVSPost2010Prop44ColorRGB
 90
      255
102
RTVSPost2010PropOp44
 70
     1
102
RTVSPost2010Prop45
280
     0
102
RTVSPost2010PropOp45
 70
     1
102
RTVSPost2010Prop46
 90
       50
102
RTVSPost2010PropOp46
 70
     1
102
RTVSPost2010Prop47
 90
       50
102
RTVSPost2010PropOp47
 70
     1
102
RTVSPost2010Prop48
 90
       50
102
RTVSPost2010PropOp48
 70
     1
102
RTVSPost2010Prop49
280
     0
102
RTVSPost2010PropOp49
 70
     1
102
RTVSPost2010Prop50
 90
       50
102
RTVSPost2010PropOp50
 70
     1
102
RTVSPost2010Prop51ColorIndex
 90
      256
102
RTVSPost2010Prop51ColorRGB
 90
-16777216
102
RTVSPost2010PropOp51
 70
     0
102
RTVSPost2010Prop52
140
1.0
102
RTVSPost2010PropOp52
 70
     0
102
RTVSPost2010Prop53
 90
        2
102
RTVSPost2010PropOp53
 70
     1
102
RTVSPost2010Prop54
  1
strokes_ogs.tif
102
RTVSPost2010PropOp54
 70
     1
102
RTVSPost2010Prop55
280
     0
102
RTVSPost2010PropOp55
 70
     1
102
RTVSPost2010Prop56
140
1.0
102
RTVSPost2010PropOp56
 70
     1
102
RTVSPost2010Prop57
140
1.0
102
RTVSPost2010PropOp57
 70
     1
102
RTVSPropertyOp0
 70
     1
102
RTVSPropertyOp1
 70
     1
102
RTVSPropertyOp2
 70
     1
102
RTVSPropertyOp3
 70
     1
102
RTVSPropertyOp4
 70
     1
102
RTVSPropertyOp5
 70
     1
102
RTVSPropertyOp6
 70
     1
102
RTVSPropertyOp7
 70
     1
102
RTVSPropertyOp8
 70
     1
102
RTVSPropertyOp9
 70
     1
102
RTVSPropertyOp10
 70
     1
102
RTVSPropertyOp11
 70
     1
102
RTVSPropertyOp12
 70
     1
102
RTVSPropertyOp13
 70
     1
102
RTVSPropertyOp14
 70
     1
102
RTVSPropertyOp15
 70
     1
102
RTVSPropertyOp16
 70
     1
102
RTVSPropertyOp17
 70
     1
102
RTVSPropertyOp18
 70
     1
102
RTVSPropertyOp19
 70
     1
102
RTVSPropertyOp20
 70
     1
102
RTVSPropertyOp21
 70
     1
102
RTVSPropertyOp22
 70
     1
102
RTVSPropertyOp23
 70
     1
102
RTVSPropertyOp24
 70
     1
102
RTVSPropertyOp25
 70
     1
102
RTVSPropertyOp26
 70
     1
102
RTVSPropertyOp27
 70
     1
102
RTVSPropertyOp28
 70
     1
102
RTVSPropertyOp29
 70
     1
102
RTVSPropertyOp30
 70
     1
102
RTVSPropertyOp31
 70
     1
102
RTVSPropertyOp32
 70
     1
102
RTVSPropertyOp33
 70
     1
102
RTVSPropertyOp34
 70
     1
102
RTVSPropertyOp35
 70
     1
102
RTVSPropertyOp36
 70
     1
102
RTVSPropertyOp37
 70
     1
102
RTVSPropertyOp38
 70
     1
102
RTVSPropertyOp39
 70
     1
102
RTVSPropertyOp40
 70
     1
102
RTVSPropertyOp41
 70
     1
102
RTVSPropertyOp42
 70
     1
102
RTVSPropertyOp43
 70
     1
102
RTVSPropertyOp44
 70
     1
102
RTVSPropertyOp45
 70
     1
102
RTVSPropertyOp46
 70
     1
102
RTVSPropertyOp47
 70
     1
102
RTVSPropertyOp48
 70
     1
102
RTVSPropertyOp49
 70
     1
102
RTVSPropertyOp50
 70
     1
102
RTVSPropertyOp51
 70
     0
102
RTVSPropertyOp52
 70
     0
102
RTVSPropertyOp53
 70
     1
102
RTVSPropertyOp54
 70
     1
102
RTVSPropertyOp55
 70
     1
102
RTVSPropertyOp56
 70
     1
102
RTVSPropertyOp57
 70
     1
102
RTVSPropertyOp58
 70
     1
102
RTVSPropertyOp59
 70
     1
102
RTVSPropertyOp60
 70
     1
102
RTVSPropertyOp61
 70
     1
102
RTVSPropertyOp62
 70
     1
  0
XRECORD
  5
446
102
{ACAD_REACTORS
330
445
102
}
330
445
100
AcDbXrecord
280
     1
102
RTVSPost2010Prop28
280
     0
102
RTVSPost2010PropOp28
 70
     1
102
RTVSPost2010Prop29
280
     1
102
RTVSPost2010PropOp29
 70
     1
102
RTVSPost2010Prop30
280
     1
102
RTVSPost2010PropOp30
 70
     1
102
RTVSPost2010Prop31
280
     0
102
RTVSPost2010PropOp31
 70
     1
102
RTVSPost2010Prop32
280
     0
102
RTVSPost2010PropOp32
 70
     1
102
RTVSPost2010Prop33
280
     0
102
RTVSPost2010PropOp33
 70
     1
102
RTVSPost2010Prop34
280
     0
102
RTVSPost2010PropOp34
 70
     1
102
RTVSPost2010Prop35
280
     0
102
RTVSPost2010PropOp35
 70
     1
102
RTVSPost2010Prop36
280
     0
102
RTVSPost2010PropOp36
 70
     1
102
RTVSPost2010Prop37
 90
       50
102
RTVSPost2010PropOp37
 70
     1
102
RTVSPost2010Prop38
140
0.0
102
RTVSPost2010PropOp38
 70
     1
102
RTVSPost2010Prop39
140
1.0
102
RTVSPost2010PropOp39
 70
     1
102
RTVSPost2010Prop40
 90
        0
102
RTVSPost2010PropOp40
 70
     1
102
RTVSPost2010Prop41ColorIndex
 90
       18
102
RTVSPost2010Prop41ColorRGB
 90
        0
102
RTVSPost2010PropOp41
 70
     1
102
RTVSPost2010Prop42
 90
       50
102
RTVSPost2010PropOp42
 70
     1
102
RTVSPost2010Prop43
 90
        3
102
RTVSPost2010PropOp43
 70
     1
102
RTVSPost2010Prop44ColorIndex
 90
        5
102
RTVSPost2010Prop44ColorRGB
 90
      255
102
RTVSPost2010PropOp44
 70
     1
102
RTVSPost2010Prop45
280
     0
102
RTVSPost2010PropOp45
 70
     1
102
RTVSPost2010Prop46
 90
       50
102
RTVSPost2010PropOp46
 70
     1
102
RTVSPost2010Prop47
 90
       50
102
RTVSPost2010PropOp47
 70
     1
102
RTVSPost2010Prop48
 90
       50
102
RTVSPost2010PropOp48
 70
     1
102
RTVSPost2010Prop49
280
     0
102
RTVSPost2010PropOp49
 70
     1
102
RTVSPost2010Prop50
 90
       50
102
RTVSPost2010PropOp50
 70
     1
102
RTVSPost2010Prop51ColorIndex
 90
      256
102
RTVSPost2010Prop51ColorRGB
 90
-16777216
102
RTVSPost2010PropOp51
 70
     0
102
RTVSPost2010Prop52
140
1.0
102
RTVSPost2010PropOp52
 70
     0
102
RTVSPost2010Prop53
 90
        2
102
RTVSPost2010PropOp53
 70
     1
102
RTVSPost2010Prop54
  1
strokes_ogs.tif
102
RTVSPost2010PropOp54
 70
     1
102
RTVSPost2010Prop55
280
     0
102
RTVSPost2010PropOp55
 70
     1
102
RTVSPost2010Prop56
140
1.0
102
RTVSPost2010PropOp56
 70
     1
102
RTVSPost2010Prop57
140
1.0
102
RTVSPost2010PropOp57
 70
     1
102
RTVSPropertyOp0
 70
     1
102
RTVSPropertyOp1
 70
     1
102
RTVSPropertyOp2
 70
     1
102
RTVSPropertyOp3
 70
     1
102
RTVSPropertyOp4
 70
     1
102
RTVSPropertyOp5
 70
     1
102
RTVSPropertyOp6
 70
     1
102
RTVSPropertyOp7
 70
     1
102
RTVSPropertyOp8
 70
     1
102
RTVSPropertyOp9
 70
     1
102
RTVSPropertyOp10
 70
     1
102
RTVSPropertyOp11
 70
     1
102
RTVSPropertyOp12
 70
     1
102
RTVSPropertyOp13
 70
     1
102
RTVSPropertyOp14
 70
     1
102
RTVSPropertyOp15
 70
     1
102
RTVSPropertyOp16
 70
     1
102
RTVSPropertyOp17
 70
     1
102
RTVSPropertyOp18
 70
     1
102
RTVSPropertyOp19
 70
     1
102
RTVSPropertyOp20
 70
     1
102
RTVSPropertyOp21
 70
     1
102
RTVSPropertyOp22
 70
     1
102
RTVSPropertyOp23
 70
     1
102
RTVSPropertyOp24
 70
     1
102
RTVSPropertyOp25
 70
     1
102
RTVSPropertyOp26
 70
     1
102
RTVSPropertyOp27
 70
     1
102
RTVSPropertyOp28
 70
     1
102
RTVSPropertyOp29
 70
     1
102
RTVSPropertyOp30
 70
     1
102
RTVSPropertyOp31
 70
     1
102
RTVSPropertyOp32
 70
     1
102
RTVSPropertyOp33
 70
     1
102
RTVSPropertyOp34
 70
     1
102
RTVSPropertyOp35
 70
     1
102
RTVSPropertyOp36
 70
     1
102
RTVSPropertyOp37
 70
     1
102
RTVSPropertyOp38
 70
     1
102
RTVSPropertyOp39
 70
     1
102
RTVSPropertyOp40
 70
     1
102
RTVSPropertyOp41
 70
     1
102
RTVSPropertyOp42
 70
     1
102
RTVSPropertyOp43
 70
     1
102
RTVSPropertyOp44
 70
     1
102
RTVSPropertyOp45
 70
     1
102
RTVSPropertyOp46
 70
     1
102
RTVSPropertyOp47
 70
     1
102
RTVSPropertyOp48
 70
     1
102
RTVSPropertyOp49
 70
     1
102
RTVSPropertyOp50
 70
     1
102
RTVSPropertyOp51
 70
     0
102
RTVSPropertyOp52
 70
     0
102
RTVSPropertyOp53
 70
     1
102
RTVSPropertyOp54
 70
     1
102
RTVSPropertyOp55
 70
     1
102
RTVSPropertyOp56
 70
     1
102
RTVSPropertyOp57
 70
     1
102
RTVSPropertyOp58
 70
     1
102
RTVSPropertyOp59
 70
     1
102
RTVSPropertyOp60
 70
     1
102
RTVSPropertyOp61
 70
     1
102
RTVSPropertyOp62
 70
     1
  0
XRECORD
  5
43C
102
{ACAD_REACTORS
330
43B
102
}
330
43B
100
AcDbXrecord
280
     1
102
RTVSPost2010Prop28
280
     0
102
RTVSPost2010PropOp28
 70
     1
102
RTVSPost2010Prop29
280
     1
102
RTVSPost2010PropOp29
 70
     1
102
RTVSPost2010Prop30
280
     1
102
RTVSPost2010PropOp30
 70
     1
102
RTVSPost2010Prop31
280
     0
102
RTVSPost2010PropOp31
 70
     1
102
RTVSPost2010Prop32
280
     0
102
RTVSPost2010PropOp32
 70
     1
102
RTVSPost2010Prop33
280
     0
102
RTVSPost2010PropOp33
 70
     1
102
RTVSPost2010Prop34
280
     0
102
RTVSPost2010PropOp34
 70
     1
102
RTVSPost2010Prop35
280
     0
102
RTVSPost2010PropOp35
 70
     1
102
RTVSPost2010Prop36
280
     0
102
RTVSPost2010PropOp36
 70
     1
102
RTVSPost2010Prop37
 90
       50
102
RTVSPost2010PropOp37
 70
     1
102
RTVSPost2010Prop38
140
0.0
102
RTVSPost2010PropOp38
 70
     1
102
RTVSPost2010Prop39
140
1.0
102
RTVSPost2010PropOp39
 70
     1
102
RTVSPost2010Prop40
 90
        0
102
RTVSPost2010PropOp40
 70
     1
102
RTVSPost2010Prop41ColorIndex
 90
       18
102
RTVSPost2010Prop41ColorRGB
 90
        0
102
RTVSPost2010PropOp41
 70
     1
102
RTVSPost2010Prop42
 90
       50
102
RTVSPost2010PropOp42
 70
     1
102
RTVSPost2010Prop43
 90
        3
102
RTVSPost2010PropOp43
 70
     1
102
RTVSPost2010Prop44ColorIndex
 90
        5
102
RTVSPost2010Prop44ColorRGB
 90
      255
102
RTVSPost2010PropOp44
 70
     1
102
RTVSPost2010Prop45
280
     0
102
RTVSPost2010PropOp45
 70
     1
102
RTVSPost2010Prop46
 90
       50
102
RTVSPost2010PropOp46
 70
     1
102
RTVSPost2010Prop47
 90
       50
102
RTVSPost2010PropOp47
 70
     1
102
RTVSPost2010Prop48
 90
       50
102
RTVSPost2010PropOp48
 70
     1
102
RTVSPost2010Prop49
280
     0
102
RTVSPost2010PropOp49
 70
     1
102
RTVSPost2010Prop50
 90
       50
102
RTVSPost2010PropOp50
 70
     1
102
RTVSPost2010Prop51ColorIndex
 90
      256
102
RTVSPost2010Prop51ColorRGB
 90
-16777216
102
RTVSPost2010PropOp51
 70
     0
102
RTVSPost2010Prop52
140
1.0
102
RTVSPost2010PropOp52
 70
     0
102
RTVSPost2010Prop53
 90
        2
102
RTVSPost2010PropOp53
 70
     1
102
RTVSPost2010Prop54
  1
strokes_ogs.tif
102
RTVSPost2010PropOp54
 70
     1
102
RTVSPost2010Prop55
280
     0
102
RTVSPost2010PropOp55
 70
     1
102
RTVSPost2010Prop56
140
1.0
102
RTVSPost2010PropOp56
 70
     1
102
RTVSPost2010Prop57
140
1.0
102
RTVSPost2010PropOp57
 70
     1
102
RTVSPropertyOp0
 70
     1
102
RTVSPropertyOp1
 70
     1
102
RTVSPropertyOp2
 70
     1
102
RTVSPropertyOp3
 70
     1
102
RTVSPropertyOp4
 70
     1
102
RTVSPropertyOp5
 70
     1
102
RTVSPropertyOp6
 70
     1
102
RTVSPropertyOp7
 70
     1
102
RTVSPropertyOp8
 70
     1
102
RTVSPropertyOp9
 70
     1
102
RTVSPropertyOp10
 70
     1
102
RTVSPropertyOp11
 70
     1
102
RTVSPropertyOp12
 70
     1
102
RTVSPropertyOp13
 70
     1
102
RTVSPropertyOp14
 70
     1
102
RTVSPropertyOp15
 70
     1
102
RTVSPropertyOp16
 70
     1
102
RTVSPropertyOp17
 70
     1
102
RTVSPropertyOp18
 70
     1
102
RTVSPropertyOp19
 70
     1
102
RTVSPropertyOp20
 70
     1
102
RTVSPropertyOp21
 70
     1
102
RTVSPropertyOp22
 70
     1
102
RTVSPropertyOp23
 70
     1
102
RTVSPropertyOp24
 70
     1
102
RTVSPropertyOp25
 70
     1
102
RTVSPropertyOp26
 70
     1
102
RTVSPropertyOp27
 70
     1
102
RTVSPropertyOp28
 70
     1
102
RTVSPropertyOp29
 70
     1
102
RTVSPropertyOp30
 70
     1
102
RTVSPropertyOp31
 70
     1
102
RTVSPropertyOp32
 70
     1
102
RTVSPropertyOp33
 70
     1
102
RTVSPropertyOp34
 70
     1
102
RTVSPropertyOp35
 70
     1
102
RTVSPropertyOp36
 70
     1
102
RTVSPropertyOp37
 70
     1
102
RTVSPropertyOp38
 70
     1
102
RTVSPropertyOp39
 70
     1
102
RTVSPropertyOp40
 70
     1
102
RTVSPropertyOp41
 70
     1
102
RTVSPropertyOp42
 70
     1
102
RTVSPropertyOp43
 70
     1
102
RTVSPropertyOp44
 70
     1
102
RTVSPropertyOp45
 70
     1
102
RTVSPropertyOp46
 70
     1
102
RTVSPropertyOp47
 70
     1
102
RTVSPropertyOp48
 70
     1
102
RTVSPropertyOp49
 70
     1
102
RTVSPropertyOp50
 70
     1
102
RTVSPropertyOp51
 70
     0
102
RTVSPropertyOp52
 70
     0
102
RTVSPropertyOp53
 70
     1
102
RTVSPropertyOp54
 70
     1
102
RTVSPropertyOp55
 70
     1
102
RTVSPropertyOp56
 70
     1
102
RTVSPropertyOp57
 70
     1
102
RTVSPropertyOp58
 70
     1
102
RTVSPropertyOp59
 70
     1
102
RTVSPropertyOp60
 70
     1
102
RTVSPropertyOp61
 70
     1
102
RTVSPropertyOp62
 70
     1
  0
XRECORD
  5
430
102
{ACAD_REACTORS
330
42F
102
}
330
42F
100
AcDbXrecord
280
     1
102
RTVSPost2010Prop28
280
     0
102
RTVSPost2010PropOp28
 70
     1
102
RTVSPost2010Prop29
280
     1
102
RTVSPost2010PropOp29
 70
     1
102
RTVSPost2010Prop30
280
     1
102
RTVSPost2010PropOp30
 70
     1
102
RTVSPost2010Prop31
280
     0
102
RTVSPost2010PropOp31
 70
     1
102
RTVSPost2010Prop32
280
     0
102
RTVSPost2010PropOp32
 70
     1
102
RTVSPost2010Prop33
280
     0
102
RTVSPost2010PropOp33
 70
     1
102
RTVSPost2010Prop34
280
     0
102
RTVSPost2010PropOp34
 70
     1
102
RTVSPost2010Prop35
280
     0
102
RTVSPost2010PropOp35
 70
     1
102
RTVSPost2010Prop36
280
     0
102
RTVSPost2010PropOp36
 70
     1
102
RTVSPost2010Prop37
 90
       50
102
RTVSPost2010PropOp37
 70
     1
102
RTVSPost2010Prop38
140
0.0
102
RTVSPost2010PropOp38
 70
     1
102
RTVSPost2010Prop39
140
1.0
102
RTVSPost2010PropOp39
 70
     1
102
RTVSPost2010Prop40
 90
        0
102
RTVSPost2010PropOp40
 70
     1
102
RTVSPost2010Prop41ColorIndex
 90
       18
102
RTVSPost2010Prop41ColorRGB
 90
        0
102
RTVSPost2010PropOp41
 70
     1
102
RTVSPost2010Prop42
 90
       50
102
RTVSPost2010PropOp42
 70
     1
102
RTVSPost2010Prop43
 90
        3
102
RTVSPost2010PropOp43
 70
     1
102
RTVSPost2010Prop44ColorIndex
 90
        5
102
RTVSPost2010Prop44ColorRGB
 90
      255
102
RTVSPost2010PropOp44
 70
     1
102
RTVSPost2010Prop45
280
     0
102
RTVSPost2010PropOp45
 70
     1
102
RTVSPost2010Prop46
 90
       50
102
RTVSPost2010PropOp46
 70
     1
102
RTVSPost2010Prop47
 90
       50
102
RTVSPost2010PropOp47
 70
     1
102
RTVSPost2010Prop48
 90
       50
102
RTVSPost2010PropOp48
 70
     1
102
RTVSPost2010Prop49
280
     0
102
RTVSPost2010PropOp49
 70
     1
102
RTVSPost2010Prop50
 90
       50
102
RTVSPost2010PropOp50
 70
     1
102
RTVSPost2010Prop51ColorIndex
 90
      256
102
RTVSPost2010Prop51ColorRGB
 90
-16777216
102
RTVSPost2010PropOp51
 70
     0
102
RTVSPost2010Prop52
140
1.0
102
RTVSPost2010PropOp52
 70
     0
102
RTVSPost2010Prop53
 90
        2
102
RTVSPost2010PropOp53
 70
     1
102
RTVSPost2010Prop54
  1
strokes_ogs.tif
102
RTVSPost2010PropOp54
 70
     1
102
RTVSPost2010Prop55
280
     0
102
RTVSPost2010PropOp55
 70
     1
102
RTVSPost2010Prop56
140
1.0
102
RTVSPost2010PropOp56
 70
     1
102
RTVSPost2010Prop57
140
1.0
102
RTVSPost2010PropOp57
 70
     1
102
RTVSPropertyOp0
 70
     1
102
RTVSPropertyOp1
 70
     1
102
RTVSPropertyOp2
 70
     1
102
RTVSPropertyOp3
 70
     1
102
RTVSPropertyOp4
 70
     1
102
RTVSPropertyOp5
 70
     1
102
RTVSPropertyOp6
 70
     1
102
RTVSPropertyOp7
 70
     1
102
RTVSPropertyOp8
 70
     1
102
RTVSPropertyOp9
 70
     1
102
RTVSPropertyOp10
 70
     1
102
RTVSPropertyOp11
 70
     1
102
RTVSPropertyOp12
 70
     1
102
RTVSPropertyOp13
 70
     1
102
RTVSPropertyOp14
 70
     1
102
RTVSPropertyOp15
 70
     1
102
RTVSPropertyOp16
 70
     1
102
RTVSPropertyOp17
 70
     1
102
RTVSPropertyOp18
 70
     1
102
RTVSPropertyOp19
 70
     1
102
RTVSPropertyOp20
 70
     1
102
RTVSPropertyOp21
 70
     1
102
RTVSPropertyOp22
 70
     1
102
RTVSPropertyOp23
 70
     1
102
RTVSPropertyOp24
 70
     1
102
RTVSPropertyOp25
 70
     1
102
RTVSPropertyOp26
 70
     1
102
RTVSPropertyOp27
 70
     1
102
RTVSPropertyOp28
 70
     1
102
RTVSPropertyOp29
 70
     1
102
RTVSPropertyOp30
 70
     1
102
RTVSPropertyOp31
 70
     1
102
RTVSPropertyOp32
 70
     1
102
RTVSPropertyOp33
 70
     1
102
RTVSPropertyOp34
 70
     1
102
RTVSPropertyOp35
 70
     1
102
RTVSPropertyOp36
 70
     1
102
RTVSPropertyOp37
 70
     1
102
RTVSPropertyOp38
 70
     1
102
RTVSPropertyOp39
 70
     1
102
RTVSPropertyOp40
 70
     1
102
RTVSPropertyOp41
 70
     1
102
RTVSPropertyOp42
 70
     1
102
RTVSPropertyOp43
 70
     1
102
RTVSPropertyOp44
 70
     1
102
RTVSPropertyOp45
 70
     1
102
RTVSPropertyOp46
 70
     1
102
RTVSPropertyOp47
 70
     1
102
RTVSPropertyOp48
 70
     1
102
RTVSPropertyOp49
 70
     1
102
RTVSPropertyOp50
 70
     1
102
RTVSPropertyOp51
 70
     0
102
RTVSPropertyOp52
 70
     0
102
RTVSPropertyOp53
 70
     1
102
RTVSPropertyOp54
 70
     1
102
RTVSPropertyOp55
 70
     1
102
RTVSPropertyOp56
 70
     1
102
RTVSPropertyOp57
 70
     1
102
RTVSPropertyOp58
 70
     1
102
RTVSPropertyOp59
 70
     1
102
RTVSPropertyOp60
 70
     1
102
RTVSPropertyOp61
 70
     1
102
RTVSPropertyOp62
 70
     1
  0
XRECORD
  5
448
102
{ACAD_REACTORS
330
447
102
}
330
447
100
AcDbXrecord
280
     1
102
RTVSPost2010Prop28
280
     0
102
RTVSPost2010PropOp28
 70
     1
102
RTVSPost2010Prop29
280
     1
102
RTVSPost2010PropOp29
 70
     1
102
RTVSPost2010Prop30
280
     1
102
RTVSPost2010PropOp30
 70
     1
102
RTVSPost2010Prop31
280
     0
102
RTVSPost2010PropOp31
 70
     1
102
RTVSPost2010Prop32
280
     0
102
RTVSPost2010PropOp32
 70
     1
102
RTVSPost2010Prop33
280
     0
102
RTVSPost2010PropOp33
 70
     1
102
RTVSPost2010Prop34
280
     0
102
RTVSPost2010PropOp34
 70
     1
102
RTVSPost2010Prop35
280
     0
102
RTVSPost2010PropOp35
 70
     1
102
RTVSPost2010Prop36
280
     0
102
RTVSPost2010PropOp36
 70
     1
102
RTVSPost2010Prop37
 90
       50
102
RTVSPost2010PropOp37
 70
     1
102
RTVSPost2010Prop38
140
0.0
102
RTVSPost2010PropOp38
 70
     1
102
RTVSPost2010Prop39
140
1.0
102
RTVSPost2010PropOp39
 70
     1
102
RTVSPost2010Prop40
 90
        0
102
RTVSPost2010PropOp40
 70
     1
102
RTVSPost2010Prop41ColorIndex
 90
       18
102
RTVSPost2010Prop41ColorRGB
 90
        0
102
RTVSPost2010PropOp41
 70
     1
102
RTVSPost2010Prop42
 90
       50
102
RTVSPost2010PropOp42
 70
     1
102
RTVSPost2010Prop43
 90
        3
102
RTVSPost2010PropOp43
 70
     1
102
RTVSPost2010Prop44ColorIndex
 90
        5
102
RTVSPost2010Prop44ColorRGB
 90
      255
102
RTVSPost2010PropOp44
 70
     1
102
RTVSPost2010Prop45
280
     0
102
RTVSPost2010PropOp45
 70
     1
102
RTVSPost2010Prop46
 90
       50
102
RTVSPost2010PropOp46
 70
     1
102
RTVSPost2010Prop47
 90
       50
102
RTVSPost2010PropOp47
 70
     1
102
RTVSPost2010Prop48
 90
       50
102
RTVSPost2010PropOp48
 70
     1
102
RTVSPost2010Prop49
280
     0
102
RTVSPost2010PropOp49
 70
     1
102
RTVSPost2010Prop50
 90
       50
102
RTVSPost2010PropOp50
 70
     1
102
RTVSPost2010Prop51ColorIndex
 90
      256
102
RTVSPost2010Prop51ColorRGB
 90
-16777216
102
RTVSPost2010PropOp51
 70
     0
102
RTVSPost2010Prop52
140
1.0
102
RTVSPost2010PropOp52
 70
     0
102
RTVSPost2010Prop53
 90
        2
102
RTVSPost2010PropOp53
 70
     1
102
RTVSPost2010Prop54
  1
strokes_ogs.tif
102
RTVSPost2010PropOp54
 70
     1
102
RTVSPost2010Prop55
280
     0
102
RTVSPost2010PropOp55
 70
     1
102
RTVSPost2010Prop56
140
1.0
102
RTVSPost2010PropOp56
 70
     1
102
RTVSPost2010Prop57
140
1.0
102
RTVSPost2010PropOp57
 70
     1
102
RTVSPropertyOp0
 70
     1
102
RTVSPropertyOp1
 70
     1
102
RTVSPropertyOp2
 70
     1
102
RTVSPropertyOp3
 70
     1
102
RTVSPropertyOp4
 70
     1
102
RTVSPropertyOp5
 70
     1
102
RTVSPropertyOp6
 70
     1
102
RTVSPropertyOp7
 70
     1
102
RTVSPropertyOp8
 70
     1
102
RTVSPropertyOp9
 70
     1
102
RTVSPropertyOp10
 70
     1
102
RTVSPropertyOp11
 70
     1
102
RTVSPropertyOp12
 70
     1
102
RTVSPropertyOp13
 70
     1
102
RTVSPropertyOp14
 70
     1
102
RTVSPropertyOp15
 70
     1
102
RTVSPropertyOp16
 70
     1
102
RTVSPropertyOp17
 70
     1
102
RTVSPropertyOp18
 70
     1
102
RTVSPropertyOp19
 70
     1
102
RTVSPropertyOp20
 70
     1
102
RTVSPropertyOp21
 70
     1
102
RTVSPropertyOp22
 70
     1
102
RTVSPropertyOp23
 70
     1
102
RTVSPropertyOp24
 70
     1
102
RTVSPropertyOp25
 70
     1
102
RTVSPropertyOp26
 70
     1
102
RTVSPropertyOp27
 70
     1
102
RTVSPropertyOp28
 70
     1
102
RTVSPropertyOp29
 70
     1
102
RTVSPropertyOp30
 70
     1
102
RTVSPropertyOp31
 70
     1
102
RTVSPropertyOp32
 70
     1
102
RTVSPropertyOp33
 70
     1
102
RTVSPropertyOp34
 70
     1
102
RTVSPropertyOp35
 70
     1
102
RTVSPropertyOp36
 70
     1
102
RTVSPropertyOp37
 70
     1
102
RTVSPropertyOp38
 70
     1
102
RTVSPropertyOp39
 70
     1
102
RTVSPropertyOp40
 70
     1
102
RTVSPropertyOp41
 70
     1
102
RTVSPropertyOp42
 70
     1
102
RTVSPropertyOp43
 70
     1
102
RTVSPropertyOp44
 70
     1
102
RTVSPropertyOp45
 70
     1
102
RTVSPropertyOp46
 70
     1
102
RTVSPropertyOp47
 70
     1
102
RTVSPropertyOp48
 70
     1
102
RTVSPropertyOp49
 70
     1
102
RTVSPropertyOp50
 70
     1
102
RTVSPropertyOp51
 70
     0
102
RTVSPropertyOp52
 70
     0
102
RTVSPropertyOp53
 70
     1
102
RTVSPropertyOp54
 70
     1
102
RTVSPropertyOp55
 70
     1
102
RTVSPropertyOp56
 70
     1
102
RTVSPropertyOp57
 70
     1
102
RTVSPropertyOp58
 70
     1
102
RTVSPropertyOp59
 70
     1
102
RTVSPropertyOp60
 70
     1
102
RTVSPropertyOp61
 70
     1
102
RTVSPropertyOp62
 70
     1
  0
ENDSEC
  0
EOF
