  0
SECTION
  2
HEADER
  9
$ACADVER
  1
AC1015
  9
$ACADMAINTVER
 70
    20
  9
$DWGCODEPAGE
  3
ANSI_932
  9
$INSBASE
 10
0.0
 20
0.0
 30
0.0
  9
$EXTMIN
 10
0.0
 20
0.0
 30
0.0
  9
$EXTMAX
 10
4200.0
 20
2970.0
 30
0.0
  9
$LIMMIN
 10
0.0
 20
0.0
  9
$LIMMAX
 10
12.0
 20
9.0
  9
$ORTHOMODE
 70
     0
  9
$REGENMODE
 70
     1
  9
$FILLMODE
 70
     1
  9
$QTEXTMODE
 70
     0
  9
$MIRRTEXT
 70
     0
  9
$LTSCALE
 40
10.0
  9
$ATTMODE
 70
     1
  9
$TEXTSIZE
 40
0.0
  9
$TRACEWID
 40
0.05
  9
$TEXTSTYLE
  7
STANDARD
  9
$CLAYER
  8
0
  9
$CELTYPE
  6
CONTINUOUS
  9
$CECOLOR
 62
   256
  9
$CELTSCALE
 40
1.0
  9
$DISPSILH
 70
     0
  9
$DIMSCALE
 40
1.0
  9
$DIMASZ
 40
0.18
  9
$DIMEXO
 40
0.0625
  9
$DIMDLI
 40
0.38
  9
$DIMRND
 40
0.0
  9
$DIMDLE
 40
0.0
  9
$DIMEXE
 40
0.18
  9
$DIMTP
 40
0.0
  9
$DIMTM
 40
0.0
  9
$DIMTXT
 40
0.18
  9
$DIMCEN
 40
0.09
  9
$DIMTSZ
 40
0.0
  9
$DIMTOL
 70
     0
  9
$DIMLIM
 70
     0
  9
$DIMTIH
 70
     1
  9
$DIMTOH
 70
     1
  9
$DIMSE1
 70
     0
  9
$DIMSE2
 70
     0
  9
$DIMTAD
 70
     0
  9
$DIMZIN
 70
     0
  9
$DIMBLK
  1

  9
$DIMASO
 70
     1
  9
$DIMSHO
 70
     1
  9
$DIMPOST
  1

  9
$DIMAPOST
  1

  9
$DIMALT
 70
     0
  9
$DIMALTD
 70
     2
  9
$DIMALTF
 40
25.4
  9
$DIMLFAC
 40
1.0
  9
$DIMTOFL
 70
     0
  9
$DIMTVP
 40
0.0
  9
$DIMTIX
 70
     0
  9
$DIMSOXD
 70
     0
  9
$DIMSAH
 70
     0
  9
$DIMBLK1
  1

  9
$DIMBLK2
  1

  9
$DIMSTYLE
  2
Standard
  9
$DIMCLRD
 70
     0
  9
$DIMCLRE
 70
     0
  9
$DIMCLRT
 70
     0
  9
$DIMTFAC
 40
1.0
  9
$DIMGAP
 40
0.09
  9
$DIMJUST
 70
     0
  9
$DIMSD1
 70
     0
  9
$DIMSD2
 70
     0
  9
$DIMTOLJ
 70
     1
  9
$DIMTZIN
 70
     0
  9
$DIMALTZ
 70
     0
  9
$DIMALTTZ
 70
     0
  9
$DIMUPT
 70
     0
  9
$DIMDEC
 70
     4
  9
$DIMTDEC
 70
     4
  9
$DIMALTU
 70
     2
  9
$DIMALTTD
 70
     2
  9
$DIMTXSTY
  7
STANDARD
  9
$DIMAUNIT
 70
     0
  9
$DIMADEC
 70
     0
  9
$DIMALTRND
 40
0.0
  9
$DIMAZIN
 70
     0
  9
$DIMDSEP
 70
    46
  9
$DIMATFIT
 70
     3
  9
$DIMFRAC
 70
     0
  9
$DIMLDRBLK
  1

  9
$DIMLUNIT
 70
     2
  9
$DIMLWD
 70
    -2
  9
$DIMLWE
 70
    -2
  9
$DIMTMOVE
 70
     0
  9
$LUNITS
 70
     2
  9
$LUPREC
 70
     4
  9
$SKETCHINC
 40
0.1
  9
$FILLETRAD
 40
0.0
  9
$AUNITS
 70
     0
  9
$AUPREC
 70
     0
  9
$MENU
  1
.
  9
$ELEVATION
 40
0.0
  9
$PELEVATION
 40
0.0
  9
$THICKNESS
 40
0.0
  9
$LIMCHECK
 70
     0
  9
$CHAMFERA
 40
0.0
  9
$CHAMFERB
 40
0.0
  9
$CHAMFERC
 40
0.0
  9
$CHAMFERD
 40
0.0
  9
$SKPOLY
 70
     0
  9
$TDCREATE
 40
2459640.782476852
  9
$TDUCREATE
 40
2459640.407476852
  9
$TDUPDATE
 40
2459640.782731482
  9
$TDUUPDATE
 40
2459640.407731482
  9
$TDINDWG
 40
0.0002546296
  9
$TDUSRTIMER
 40
0.0002546296
  9
$USRTIMER
 70
     1
  9
$ANGBASE
 50
0.0
  9
$ANGDIR
 70
     0
  9
$PDMODE
 70
     0
  9
$PDSIZE
 40
5.0
  9
$PLINEWID
 40
0.0
  9
$SPLFRAME
 70
     0
  9
$SPLINETYPE
 70
     6
  9
$SPLINESEGS
 70
     8
  9
$HANDSEED
  5
4AA
  9
$SURFTAB1
 70
     6
  9
$SURFTAB2
 70
     6
  9
$SURFTYPE
 70
     6
  9
$SURFU
 70
     6
  9
$SURFV
 70
     6
  9
$UCSBASE
  2

  9
$UCSNAME
  2

  9
$UCSORG
 10
0.0
 20
0.0
 30
0.0
  9
$UCSXDIR
 10
1.0
 20
0.0
 30
0.0
  9
$UCSYDIR
 10
0.0
 20
1.0
 30
0.0
  9
$UCSORTHOREF
  2

  9
$UCSORTHOVIEW
 70
     0
  9
$UCSORGTOP
 10
0.0
 20
0.0
 30
0.0
  9
$UCSORGBOTTOM
 10
0.0
 20
0.0
 30
0.0
  9
$UCSORGLEFT
 10
0.0
 20
0.0
 30
0.0
  9
$UCSORGRIGHT
 10
0.0
 20
0.0
 30
0.0
  9
$UCSORGFRONT
 10
0.0
 20
0.0
 30
0.0
  9
$UCSORGBACK
 10
0.0
 20
0.0
 30
0.0
  9
$PUCSBASE
  2

  9
$PUCSNAME
  2

  9
$PUCSORG
 10
0.0
 20
0.0
 30
0.0
  9
$PUCSXDIR
 10
1.0
 20
0.0
 30
0.0
  9
$PUCSYDIR
 10
0.0
 20
1.0
 30
0.0
  9
$PUCSORTHOREF
  2

  9
$PUCSORTHOVIEW
 70
     0
  9
$PUCSORGTOP
 10
0.0
 20
0.0
 30
0.0
  9
$PUCSORGBOTTOM
 10
0.0
 20
0.0
 30
0.0
  9
$PUCSORGLEFT
 10
0.0
 20
0.0
 30
0.0
  9
$PUCSORGRIGHT
 10
0.0
 20
0.0
 30
0.0
  9
$PUCSORGFRONT
 10
0.0
 20
0.0
 30
0.0
  9
$PUCSORGBACK
 10
0.0
 20
0.0
 30
0.0
  9
$USERI1
 70
     0
  9
$USERI2
 70
     0
  9
$USERI3
 70
     0
  9
$USERI4
 70
     0
  9
$USERI5
 70
     0
  9
$USERR1
 40
0.0
  9
$USERR2
 40
0.0
  9
$USERR3
 40
0.0
  9
$USERR4
 40
0.0
  9
$USERR5
 40
0.0
  9
$WORLDVIEW
 70
     1
  9
$SHADEDGE
 70
     3
  9
$SHADEDIF
 70
    70
  9
$TILEMODE
 70
     1
  9
$MAXACTVP
 70
    64
  9
$PINSBASE
 10
0.0
 20
0.0
 30
0.0
  9
$PLIMCHECK
 70
     0
  9
$PEXTMIN
 10
1.000000000000000E+20
 20
1.000000000000000E+20
 30
1.000000000000000E+20
  9
$PEXTMAX
 10
-1.000000000000000E+20
 20
-1.000000000000000E+20
 30
-1.000000000000000E+20
  9
$PLIMMIN
 10
0.0
 20
0.0
  9
$PLIMMAX
 10
12.0
 20
9.0
  9
$UNITMODE
 70
     0
  9
$VISRETAIN
 70
     1
  9
$PLINEGEN
 70
     0
  9
$PSLTSCALE
 70
     1
  9
$TREEDEPTH
 70
  3020
  9
$CMLSTYLE
  2
Standard
  9
$CMLJUST
 70
     0
  9
$CMLSCALE
 40
1.0
  9
$PROXYGRAPHICS
 70
     1
  9
$MEASUREMENT
 70
     0
  9
$CELWEIGHT
370
    -1
  9
$ENDCAPS
280
     0
  9
$JOINSTYLE
280
     0
  9
$LWDISPLAY
290
     0
  9
$INSUNITS
 70
     0
  9
$HYPERLINKBASE
  1

  9
$STYLESHEET
  1

  9
$XEDIT
290
     1
  9
$CEPSNTYPE
380
     0
  9
$PSTYLEMODE
290
     1
  9
$FINGERPRINTGUID
  2
{6797BFDB-5850-EA44-8F08-2AFE76EF2847}
  9
$VERSIONGUID
  2
{AA60CB35-FACD-C04D-AEA5-3CF466D97759}
  9
$EXTNAMES
290
     1
  9
$PSVPSCALE
 40
0.0
  9
$OLESTARTUP
290
     0
  0
ENDSEC
  0
SECTION
  2
CLASSES
  0
CLASS
  1
ACDBDICTIONARYWDFLT
  2
AcDbDictionaryWithDefault
  3
ObjectDBX Classes
 90
        0
280
     0
281
     0
  0
CLASS
  1
MATERIAL
  2
AcDbMaterial
  3
ObjectDBX Classes
 90
     1153
280
     0
281
     0
  0
CLASS
  1
VISUALSTYLE
  2
AcDbVisualStyle
  3
ObjectDBX Classes
 90
     4095
280
     0
281
     0
  0
CLASS
  1
SCALE
  2
AcDbScale
  3
ObjectDBX Classes
 90
     1153
280
     0
281
     0
  0
CLASS
  1
TABLESTYLE
  2
AcDbTableStyle
  3
ObjectDBX Classes
 90
     4095
280
     0
281
     0
  0
CLASS
  1
MLEADERSTYLE
  2
AcDbMLeaderStyle
  3
ACDB_MLEADERSTYLE_CLASS
 90
     4095
280
     0
281
     0
  0
CLASS
  1
ACDBSECTIONVIEWSTYLE
  2
AcDbSectionViewStyle
  3
ObjectDBX Classes
 90
     1025
280
     0
281
     0
  0
CLASS
  1
ACDBDETAILVIEWSTYLE
  2
AcDbDetailViewStyle
  3
ObjectDBX Classes
 90
     1025
280
     0
281
     0
  0
CLASS
  1
DICTIONARYVAR
  2
AcDbDictionaryVar
  3
ObjectDBX Classes
 90
        0
280
     0
281
     0
  0
CLASS
  1
CELLSTYLEMAP
  2
AcDbCellStyleMap
  3
ObjectDBX Classes
 90
     1152
280
     0
281
     0
  0
CLASS
  1
ACDBPLACEHOLDER
  2
AcDbPlaceHolder
  3
ObjectDBX Classes
 90
        0
280
     0
281
     0
  0
CLASS
  1
LAYOUT
  2
AcDbLayout
  3
ObjectDBX Classes
 90
        0
280
     0
281
     0
  0
ENDSEC
  0
SECTION
  2
TABLES
  0
TABLE
  2
VPORT
  5
8
330
0
100
AcDbSymbolTable
 70
     1
  0
VPORT
  5
8C
330
8
100
AcDbSymbolTableRecord
100
AcDbViewportTableRecord
  2
*Active
 70
     0
 10
0.0
 20
0.0
 11
1.0
 21
1.0
 12
2914.280343990839
 22
1504.115901264415
 13
0.0
 23
0.0
 14
1.0
 24
1.0
 15
0.0
 25
0.0
 16
0.0
 26
0.0
 36
1.0
 17
0.0
 27
0.0
 37
0.0
 40
3901.964071436644
 41
2.288647342995169
 42
50.0
 43
0.0
 44
0.0
 50
0.0
 51
0.0
 71
     0
 72
   100
 73
     1
 74
     0
 75
     1
 76
     0
 77
     0
 78
     0
281
     0
 65
     1
110
0.0
120
0.0
130
0.0
111
1.0
121
0.0
131
0.0
112
0.0
122
1.0
132
0.0
 79
     0
146
0.0
1001
ACAD_NAV_VCDISPLAY
1070
     3
  0
ENDTAB
  0
TABLE
  2
LTYPE
  5
5
330
0
100
AcDbSymbolTable
 70
     9
  0
LTYPE
  5
5A
330
5
100
AcDbSymbolTableRecord
100
AcDbLinetypeTableRecord
  2
ByBlock
 70
     0
  3

 72
    65
 73
     0
 40
0.0
  0
LTYPE
  5
5B
330
5
100
AcDbSymbolTableRecord
100
AcDbLinetypeTableRecord
  2
ByLayer
 70
     0
  3

 72
    65
 73
     0
 40
0.0
  0
LTYPE
  5
5C
330
5
100
AcDbSymbolTableRecord
100
AcDbLinetypeTableRecord
  2
CONTINUOUS
 70
     0
  3
SolidLine
 72
    65
 73
     0
 40
0.0
  0
LTYPE
  5
73
330
5
100
AcDbSymbolTableRecord
100
AcDbLinetypeTableRecord
  2
DOT
 70
     0
  3
--  --  --  --  --  --  --  --     
 72
    65
 73
     2
 40
3.0
 49
1.0
 74
     0
 49
-2.0
 74
     0
  0
LTYPE
  5
74
330
5
100
AcDbSymbolTableRecord
100
AcDbLinetypeTableRecord
  2
DASHED
 70
     0
  3
----    ----    ----    ----    
 72
    65
 73
     2
 40
5.0
 49
2.0
 74
     0
 49
-3.0
 74
     0
  0
LTYPE
  5
75
330
5
100
AcDbSymbolTableRecord
100
AcDbLinetypeTableRecord
  2
DASHED2
 70
     0
  3
------  ------  ------  ------ 
 72
    65
 73
     2
 40
10.0
 49
4.0
 74
     0
 49
-6.0
 74
     0
  0
LTYPE
  5
76
330
5
100
AcDbSymbolTableRecord
100
AcDbLinetypeTableRecord
  2
CENTER
 70
     0
  3
----- - ----- - ----- - ----- - 
 72
    65
 73
     4
 40
10.0
 49
6.0
 74
     0
 49
-3.0
 74
     0
 49
1.0
 74
     0
 49
-3.0
 74
     0
  0
LTYPE
  5
77
330
5
100
AcDbSymbolTableRecord
100
AcDbLinetypeTableRecord
  2
CENTER2
 70
     0
  3
----------  --  ----------  -- 
 72
    65
 73
     4
 40
17.0
 49
12.0
 74
     0
 49
-5.0
 74
     0
 49
2.0
 74
     0
 49
-5.0
 74
     0
  0
LTYPE
  5
78
330
5
100
AcDbSymbolTableRecord
100
AcDbLinetypeTableRecord
  2
PHANTOM
 70
     0
  3
--- - - --- - - --- - - --- - -
 72
    65
 73
     6
 40
13.0
 49
5.0
 74
     0
 49
-3.0
 74
     0
 49
1.0
 74
     0
 49
-3.0
 74
     0
 49
1.0
 74
     0
 49
-3.0
 74
     0
  0
LTYPE
  5
79
330
5
100
AcDbSymbolTableRecord
100
AcDbLinetypeTableRecord
  2
PHANTOM2
 70
     0
  3
--------  -  -  --------  -  -
 72
    65
 73
     6
 40
20.0
 49
6.0
 74
     0
 49
-5.0
 74
     0
 49
2.0
 74
     0
 49
-5.0
 74
     0
 49
2.0
 74
     0
 49
-5.0
 74
     0
  0
LTYPE
  5
7A
330
5
100
AcDbSymbolTableRecord
100
AcDbLinetypeTableRecord
  2
HIDDEN
 70
     0
  3
-   -   -   -   -   -   -   -   
 72
    65
 73
     2
 40
3.0
 49
0.5
 74
     0
 49
-2.5
 74
     0
  0
ENDTAB
  0
TABLE
  2
LAYER
  5
2
330
0
100
AcDbSymbolTable
 70
    11
  0
LAYER
  5
54
102
{ACAD_XDICTIONARY
360
448
102
}
330
2
100
AcDbSymbolTableRecord
100
AcDbLayerTableRecord
  2
0
 70
     0
 62
     7
  6
CONTINUOUS
370
    -3
390
F
  0
LAYER
  5
7F
102
{ACAD_XDICTIONARY
360
44A
102
}
330
2
100
AcDbSymbolTableRecord
100
AcDbLayerTableRecord
  2
2-0
 70
     0
 62
     7
  6
CONTINUOUS
370
    -3
390
F
  0
LAYER
  5
80
102
{ACAD_XDICTIONARY
360
44C
102
}
330
2
100
AcDbSymbolTableRecord
100
AcDbLayerTableRecord
  2
4-0
 70
     0
 62
    -7
  6
CONTINUOUS
370
    -3
390
F
  0
LAYER
  5
81
102
{ACAD_XDICTIONARY
360
44E
102
}
330
2
100
AcDbSymbolTableRecord
100
AcDbLayerTableRecord
  2
5-0
 70
     0
 62
    -7
  6
CONTINUOUS
370
    -3
390
F
  0
LAYER
  5
82
102
{ACAD_XDICTIONARY
360
450
102
}
330
2
100
AcDbSymbolTableRecord
100
AcDbLayerTableRecord
  2
6-0
 70
     0
 62
     7
  6
CONTINUOUS
370
    -3
390
F
  0
LAYER
  5
83
102
{ACAD_XDICTIONARY
360
452
102
}
330
2
100
AcDbSymbolTableRecord
100
AcDbLayerTableRecord
  2
7-0
 70
     0
 62
     7
  6
CONTINUOUS
370
    -3
390
F
  0
LAYER
  5
84
102
{ACAD_XDICTIONARY
360
454
102
}
330
2
100
AcDbSymbolTableRecord
100
AcDbLayerTableRecord
  2
8-0
 70
     0
 62
     1
  6
CONTINUOUS
370
    -3
390
F
  0
LAYER
  5
85
102
{ACAD_XDICTIONARY
360
456
102
}
330
2
100
AcDbSymbolTableRecord
100
AcDbLayerTableRecord
  2
9-0
 70
     0
 62
     6
  6
CENTER
370
    -3
390
F
  0
LAYER
  5
86
102
{ACAD_XDICTIONARY
360
458
102
}
330
2
100
AcDbSymbolTableRecord
100
AcDbLayerTableRecord
  2
B-0
 70
     0
 62
     4
  6
CONTINUOUS
370
    -3
390
F
  0
LAYER
  5
87
102
{ACAD_XDICTIONARY
360
45A
102
}
330
2
100
AcDbSymbolTableRecord
100
AcDbLayerTableRecord
  2
C-0
 70
     0
 62
     5
  6
CONTINUOUS
370
    -3
390
F
  0
LAYER
  5
8D
102
{ACAD_XDICTIONARY
360
45C
102
}
330
2
100
AcDbSymbolTableRecord
100
AcDbLayerTableRecord
  2
1-0
 70
     0
 62
     7
  6
CONTINUOUS
370
    -3
390
F
  0
ENDTAB
  0
TABLE
  2
STYLE
  5
3
330
0
100
AcDbSymbolTable
 70
     6
  0
STYLE
  5
55
330
3
100
AcDbSymbolTableRecord
100
AcDbTextStyleTableRecord
  2
STANDARD
 70
     0
 40
0.0
 41
1.0
 50
0.0
 71
     0
 42
0.0
  3
txt.shx
  4
extfont.shx
  0
STYLE
  5
59
330
3
100
AcDbSymbolTableRecord
100
AcDbTextStyleTableRecord
  2
Annotative
 70
     0
 40
0.0
 41
1.0
 50
0.0
 71
     0
 42
0.2
  3
txt
  4

1001
AcadAnnotative
1000
AnnotativeData
1002
{
1070
     1
1070
     1
1002
}
  0
STYLE
  5
7B
330
3
100
AcDbSymbolTableRecord
100
AcDbTextStyleTableRecord
  2
TATEGAKI
 70
     4
 40
0.0
 41
1.0
 50
0.0
 71
     0
 42
0.0
  3
txt.shx
  4
extfont.shx
  0
STYLE
  5
7C
330
3
100
AcDbSymbolTableRecord
100
AcDbTextStyleTableRecord
  2
DIM
 70
     0
 40
0.0
 41
0.75
 50
0.0
 71
     0
 42
0.0
  3
txt.shx
  4
extfont.shx
  0
STYLE
  5
7D
330
3
100
AcDbSymbolTableRecord
100
AcDbTextStyleTableRecord
  2
_GOTHIC__
 70
     0
 40
0.0
 41
1.0
 50
0.0
 71
     0
 42
0.0
  3
MS Gothic
  4

  0
STYLE
  5
7E
330
3
100
AcDbSymbolTableRecord
100
AcDbTextStyleTableRecord
  2
_TATEGOTHIC_
 70
     4
 40
0.0
 41
1.0
 50
0.0
 71
     0
 42
0.0
  3
@MS Gothic
  4

  0
ENDTAB
  0
TABLE
  2
VIEW
  5
6
330
0
100
AcDbSymbolTable
 70
     0
  0
ENDTAB
  0
TABLE
  2
UCS
  5
7
330
0
100
AcDbSymbolTable
 70
     0
  0
ENDTAB
  0
TABLE
  2
APPID
  5
9
330
0
100
AcDbSymbolTable
 70
     4
  0
APPID
  5
56
330
9
100
AcDbSymbolTableRecord
100
AcDbRegAppTableRecord
  2
ACAD
 70
     0
  0
APPID
  5
5D
330
9
100
AcDbSymbolTableRecord
100
AcDbRegAppTableRecord
  2
AcadAnnotative
 70
     0
  0
APPID
  5
468
330
9
100
AcDbSymbolTableRecord
100
AcDbRegAppTableRecord
  2
ACAD_NAV_VCDISPLAY
 70
     0
  0
APPID
  5
4A1
330
9
100
AcDbSymbolTableRecord
100
AcDbRegAppTableRecord
  2
ACAD_MLEADERVER
 70
     0
  0
ENDTAB
  0
TABLE
  2
DIMSTYLE
  5
A
330
0
100
AcDbSymbolTable
 70
     2
100
AcDbDimStyleTable
 71
     0
  0
DIMSTYLE
105
57
330
A
100
AcDbSymbolTableRecord
100
AcDbDimStyleTableRecord
  2
Standard
 70
     0
340
55
  0
DIMSTYLE
105
58
330
A
100
AcDbSymbolTableRecord
100
AcDbDimStyleTableRecord
  2
Annotative
 70
     0
340
55
1001
AcadAnnotative
1000
AnnotativeData
1002
{
1070
     1
1070
     1
1002
}
  0
ENDTAB
  0
TABLE
  2
BLOCK_RECORD
  5
1
330
0
100
AcDbSymbolTable
 70
     0
  0
BLOCK_RECORD
  5
6F
330
1
100
AcDbSymbolTableRecord
100
AcDbBlockTableRecord
  2
*Model_Space
340
72
  0
BLOCK_RECORD
  5
6B
330
1
100
AcDbSymbolTableRecord
100
AcDbBlockTableRecord
  2
*Paper_Space
340
6E
  0
ENDTAB
  0
ENDSEC
  0
SECTION
  2
BLOCKS
  0
BLOCK
  5
70
330
6F
100
AcDbEntity
  8
0
100
AcDbBlockBegin
  2
*Model_Space
 70
     0
 10
0.0
 20
0.0
 30
0.0
  3
*Model_Space
  1

  0
ENDBLK
  5
71
330
6F
100
AcDbEntity
  8
0
100
AcDbBlockEnd
  0
BLOCK
  5
6C
330
6B
100
AcDbEntity
 67
     1
  8
0
100
AcDbBlockBegin
  2
*Paper_Space
 70
     0
 10
0.0
 20
0.0
 30
0.0
  3
*Paper_Space
  1

  0
ENDBLK
  5
6D
330
6B
100
AcDbEntity
 67
     1
  8
0
100
AcDbBlockEnd
  0
ENDSEC
  0
SECTION
  2
ENTITIES
  0
LINE
  5
8E
330
6F
100
AcDbEntity
  8
1-0
  6
Continuous
 62
     7
100
AcDbLine
 10
0.0
 20
0.0
 30
0.0
 11
4200.0
 21
0.0
 31
0.0
  0
LINE
  5
8F
330
6F
100
AcDbEntity
  8
1-0
  6
Continuous
 62
     7
100
AcDbLine
 10
4200.0
 20
0.0
 30
0.0
 11
4200.0
 21
2970.0
 31
0.0
  0
LINE
  5
90
330
6F
100
AcDbEntity
  8
1-0
  6
Continuous
 62
     7
100
AcDbLine
 10
4200.0
 20
2970.0
 30
0.0
 11
0.0
 21
2970.0
 31
0.0
  0
LINE
  5
91
330
6F
100
AcDbEntity
  8
1-0
  6
Continuous
 62
     7
100
AcDbLine
 10
0.0
 20
2970.0
 30
0.0
 11
0.0
 21
0.0
 31
0.0
  0
LINE
  5
92
330
6F
100
AcDbEntity
  8
7-0
  6
Continuous
 62
     7
100
AcDbLine
 10
100.0
 20
100.0
 30
0.0
 11
4100.0
 21
100.0
 31
0.0
  0
LINE
  5
93
330
6F
100
AcDbEntity
  8
7-0
  6
Continuous
 62
     7
100
AcDbLine
 10
2500.0
 20
300.0
 30
0.0
 11
4100.0
 21
300.0
 31
0.0
  0
LINE
  5
94
330
6F
100
AcDbEntity
  8
6-0
  6
Continuous
 62
     7
100
AcDbLine
 10
2500.0
 20
240.0
 30
0.0
 11
3150.0
 21
240.0
 31
0.0
  0
LINE
  5
95
330
6F
100
AcDbEntity
  8
7-0
  6
Continuous
 62
     7
100
AcDbLine
 10
4100.0
 20
100.0
 30
0.0
 11
4100.0
 21
2870.0
 31
0.0
  0
LINE
  5
96
330
6F
100
AcDbEntity
  8
7-0
  6
Continuous
 62
     7
100
AcDbLine
 10
4100.0
 20
2870.0
 30
0.0
 11
100.0
 21
2870.0
 31
0.0
  0
LINE
  5
97
330
6F
100
AcDbEntity
  8
7-0
  6
Continuous
 62
     7
100
AcDbLine
 10
100.0
 20
2870.0
 30
0.0
 11
100.0
 21
100.0
 31
0.0
  0
LINE
  5
98
330
6F
100
AcDbEntity
  8
6-0
  6
Continuous
 62
     7
100
AcDbLine
 10
3150.0
 20
100.0
 30
0.0
 11
3150.0
 21
300.0
 31
0.0
  0
LINE
  5
99
330
6F
100
AcDbEntity
  8
7-0
  6
Continuous
 62
     7
100
AcDbLine
 10
2500.0
 20
100.0
 30
0.0
 11
2500.0
 21
300.0
 31
0.0
  0
TEXT
  5
9A
330
6F
100
AcDbEntity
  8
C-0
 62
     5
100
AcDbText
 10
2788.434
 20
252.531
 30
0.0
 40
31.104
  1
品番
100
AcDbText
  0
TEXT
  5
9B
330
6F
100
AcDbEntity
  8
C-0
 62
     5
100
AcDbText
 10
2615.595
 20
149.854
 30
0.0
 40
51.84000000000001
  1
KLH-1050HS
100
AcDbText
  0
TEXT
  5
9C
330
6F
100
AcDbEntity
  8
C-0
 62
     5
100
AcDbText
 10
3353.56
 20
192.32
 30
0.0
 40
62.208
  1
アイオ産業株式会社
100
AcDbText
  0
TEXT
  5
9D
330
6F
100
AcDbEntity
  8
C-0
 62
     5
100
AcDbText
 10
3427.941
 20
124.513
 30
0.0
 40
31.104
  1
アイオシステムキッチン事業部
100
AcDbText
  0
ARC
  5
9E
330
6F
100
AcDbEntity
  8
2-0
  6
Continuous
 62
     7
100
AcDbCircle
 10
3255.659538175486
 20
200.204166274297
 30
0.0
 40
63.24278074506601
100
AcDbArc
 50
319.753
 51
220.247
  0
CIRCLE
  5
9F
330
6F
100
AcDbEntity
  8
2-0
  6
Continuous
 62
     7
100
AcDbCircle
 10
3255.659538175486
 20
200.204166274297
 30
0.0
 40
71.58304716886799
  0
CIRCLE
  5
A0
330
6F
100
AcDbEntity
  8
2-0
  6
Continuous
 62
     7
100
AcDbCircle
 10
3255.659538175486
 20
200.204166274297
 30
0.0
 40
72.000060490058
  0
CIRCLE
  5
A1
330
6F
100
AcDbEntity
  8
2-0
  6
Continuous
 62
     7
100
AcDbCircle
 10
3255.659538175486
 20
200.204166274297
 30
0.0
 40
72.417073811248
  0
CIRCLE
  5
A2
330
6F
100
AcDbEntity
  8
2-0
  6
Continuous
 62
     7
100
AcDbCircle
 10
3255.659538175486
 20
200.204166274297
 30
0.0
 40
72.834087132438
  0
CIRCLE
  5
A3
330
6F
100
AcDbEntity
  8
2-0
  6
Continuous
 62
     7
100
AcDbCircle
 10
3255.659538175486
 20
200.204166274297
 30
0.0
 40
73.251100453628
  0
CIRCLE
  5
A4
330
6F
100
AcDbEntity
  8
2-0
  6
Continuous
 62
     7
100
AcDbCircle
 10
3255.659538175486
 20
200.204166274297
 30
0.0
 40
73.459607114223
  0
CIRCLE
  5
A5
330
6F
100
AcDbEntity
  8
2-0
  6
Continuous
 62
     7
100
AcDbCircle
 10
3255.659538175486
 20
200.204166274297
 30
0.0
 40
73.04259379303299
  0
CIRCLE
  5
A6
330
6F
100
AcDbEntity
  8
2-0
  6
Continuous
 62
     7
100
AcDbCircle
 10
3255.659538175486
 20
200.204166274297
 30
0.0
 40
72.62558047184301
  0
CIRCLE
  5
A7
330
6F
100
AcDbEntity
  8
2-0
  6
Continuous
 62
     7
100
AcDbCircle
 10
3255.659538175486
 20
200.204166274297
 30
0.0
 40
72.20856715065299
  0
CIRCLE
  5
A8
330
6F
100
AcDbEntity
  8
2-0
  6
Continuous
 62
     7
100
AcDbCircle
 10
3255.659538175486
 20
200.204166274297
 30
0.0
 40
71.791553829463
  0
CIRCLE
  5
A9
330
6F
100
AcDbEntity
  8
2-0
  6
Continuous
 62
     7
100
AcDbCircle
 10
3255.659538175486
 20
200.204166274297
 30
0.0
 40
71.791553829463
  0
ARC
  5
AA
330
6F
100
AcDbEntity
  8
2-0
  6
Continuous
 62
     7
100
AcDbCircle
 10
3255.659538175486
 20
200.204166274297
 30
0.0
 40
63.45128740566099
100
AcDbArc
 50
319.753
 51
220.247
  0
CIRCLE
  5
AB
330
6F
100
AcDbEntity
  8
2-0
  6
Continuous
 62
     7
100
AcDbCircle
 10
3255.659538175486
 20
200.204166274297
 30
0.0
 40
71.374540508273
  0
ARC
  5
AC
330
6F
100
AcDbEntity
  8
2-0
  6
Continuous
 62
     7
100
AcDbCircle
 10
3255.659538175486
 20
200.204166274297
 30
0.0
 40
63.03427408447099
100
AcDbArc
 50
319.753
 51
220.247
  0
TEXT
  5
AD
330
6F
100
AcDbEntity
  8
2-0
 62
     7
100
AcDbText
 10
3216.455
 20
142.198
 30
0.0
 40
48.64
  1
A
100
AcDbText
  0
TEXT
  5
AE
330
6F
100
AcDbEntity
  8
2-0
 62
     7
100
AcDbText
 10
3258.946
 20
142.301
 30
0.0
 40
48.64
  1
I
100
AcDbText
  0
TEXT
  5
AF
330
6F
100
AcDbEntity
  8
2-0
 62
     7
100
AcDbText
 10
3269.344
 20
142.267
 30
0.0
 40
48.64
  1
O
100
AcDbText
  0
LINE
  5
B0
330
6F
100
AcDbEntity
  8
2-0
  6
CENTER
 62
     8
100
AcDbLine
 10
1135.835159
 20
1313.321051
 30
0.0
 11
1480.835159
 21
1003.321051
 31
0.0
  0
LINE
  5
B1
330
6F
100
AcDbEntity
  8
2-0
  6
CENTER
 62
     8
100
AcDbLine
 10
785.8351589999999
 20
1313.321051
 30
0.0
 11
1130.835159
 21
1003.321051
 31
0.0
  0
LINE
  5
B2
330
6F
100
AcDbEntity
  8
2-0
  6
CENTER
 62
     8
100
AcDbLine
 10
783.835159
 20
1313.321051
 30
0.0
 11
438.835159
 21
1003.321051
 31
0.0
  0
LINE
  5
B3
330
6F
100
AcDbEntity
  8
2-0
  6
Continuous
 62
     7
100
AcDbLine
 10
1130.835159
 20
1313.321051
 30
0.0
 11
1130.835159
 21
693.321051
 31
0.0
  0
LINE
  5
B4
330
6F
100
AcDbEntity
  8
2-0
  6
Continuous
 62
     7
100
AcDbLine
 10
1135.835159
 20
1313.321051
 30
0.0
 11
1135.835159
 21
693.321051
 31
0.0
  0
LINE
  5
B5
330
6F
100
AcDbEntity
  8
2-0
  6
Continuous
 62
     7
100
AcDbLine
 10
783.835159
 20
1313.321051
 30
0.0
 11
783.835159
 21
693.321051
 31
0.0
  0
LINE
  5
B6
330
6F
100
AcDbEntity
  8
2-0
  6
Continuous
 62
     7
100
AcDbLine
 10
785.8351589999999
 20
1313.321051
 30
0.0
 11
785.8351589999999
 21
693.321051
 31
0.0
  0
LINE
  5
B7
330
6F
100
AcDbEntity
  8
8-0
  6
Continuous
 62
     4
100
AcDbLine
 10
394.47968
 20
1313.321051
 30
0.0
 11
277.999483
 21
1313.321051
 31
0.0
  0
LINE
  5
B8
330
6F
100
AcDbEntity
  8
8-0
  6
Continuous
 62
     4
100
AcDbLine
 10
398.835159
 20
693.321051
 30
0.0
 11
277.999483
 21
693.321051
 31
0.0
  0
TEXT
  5
B9
330
6F
100
AcDbEntity
  8
8-0
 62
     4
100
AcDbText
 10
277.379
 20
969.721
 30
0.0
 40
36.288
  1
620
 50
90.0
100
AcDbText
  0
LINE
  5
BA
330
6F
100
AcDbEntity
  8
8-0
  6
Continuous
 62
     4
100
AcDbLine
 10
277.999483078116
 20
693.321051210682
 30
0.0
 11
277.999483078116
 21
1313.321051210682
 31
0.0
  0
CIRCLE
  5
BB
330
6F
100
AcDbEntity
  8
8-0
  6
Continuous
 62
     4
100
AcDbCircle
 10
277.999483078116
 20
693.321051210682
 30
0.0
 40
0.25
  0
CIRCLE
  5
BC
330
6F
100
AcDbEntity
  8
8-0
  6
Continuous
 62
     4
100
AcDbCircle
 10
277.999483078116
 20
693.321051210682
 30
0.0
 40
0.1875
  0
CIRCLE
  5
BD
330
6F
100
AcDbEntity
  8
8-0
  6
Continuous
 62
     4
100
AcDbCircle
 10
277.999483078116
 20
693.321051210682
 30
0.0
 40
0.125
  0
CIRCLE
  5
BE
330
6F
100
AcDbEntity
  8
8-0
  6
Continuous
 62
     4
100
AcDbCircle
 10
277.999483078116
 20
693.321051210682
 30
0.0
 40
0.0625
  0
CIRCLE
  5
BF
330
6F
100
AcDbEntity
  8
8-0
  6
Continuous
 62
     4
100
AcDbCircle
 10
277.999483078116
 20
1313.321051210682
 30
0.0
 40
0.25
  0
CIRCLE
  5
C0
330
6F
100
AcDbEntity
  8
8-0
  6
Continuous
 62
     4
100
AcDbCircle
 10
277.999483078116
 20
1313.321051210682
 30
0.0
 40
0.1875
  0
CIRCLE
  5
C1
330
6F
100
AcDbEntity
  8
8-0
  6
Continuous
 62
     4
100
AcDbCircle
 10
277.999483078116
 20
1313.321051210682
 30
0.0
 40
0.125
  0
CIRCLE
  5
C2
330
6F
100
AcDbEntity
  8
8-0
  6
Continuous
 62
     4
100
AcDbCircle
 10
277.999483078116
 20
1313.321051210682
 30
0.0
 40
0.0625
  0
LINE
  5
C3
330
6F
100
AcDbEntity
  8
8-0
  6
Continuous
 62
     4
100
AcDbLine
 10
257.999483
 20
693.321051
 30
0.0
 11
177.999483
 21
693.321051
 31
0.0
  0
LINE
  5
C4
330
6F
100
AcDbEntity
  8
8-0
  6
Continuous
 62
     4
100
AcDbLine
 10
257.999483
 20
1318.321051
 30
0.0
 11
177.999483
 21
1318.321051
 31
0.0
  0
TEXT
  5
C5
330
6F
100
AcDbEntity
  8
8-0
 62
     4
100
AcDbText
 10
177.379
 20
972.221
 30
0.0
 40
36.288
  1
625
 50
90.0
100
AcDbText
  0
LINE
  5
C6
330
6F
100
AcDbEntity
  8
8-0
  6
Continuous
 62
     4
100
AcDbLine
 10
177.999483078116
 20
1318.321051210682
 30
0.0
 11
177.999483078116
 21
693.321051210682
 31
0.0
  0
CIRCLE
  5
C7
330
6F
100
AcDbEntity
  8
8-0
  6
Continuous
 62
     4
100
AcDbCircle
 10
177.999483078116
 20
1318.321051210682
 30
0.0
 40
0.25
  0
CIRCLE
  5
C8
330
6F
100
AcDbEntity
  8
8-0
  6
Continuous
 62
     4
100
AcDbCircle
 10
177.999483078116
 20
1318.321051210682
 30
0.0
 40
0.1875
  0
CIRCLE
  5
C9
330
6F
100
AcDbEntity
  8
8-0
  6
Continuous
 62
     4
100
AcDbCircle
 10
177.999483078116
 20
1318.321051210682
 30
0.0
 40
0.125
  0
CIRCLE
  5
CA
330
6F
100
AcDbEntity
  8
8-0
  6
Continuous
 62
     4
100
AcDbCircle
 10
177.999483078116
 20
1318.321051210682
 30
0.0
 40
0.0625
  0
CIRCLE
  5
CB
330
6F
100
AcDbEntity
  8
8-0
  6
Continuous
 62
     4
100
AcDbCircle
 10
177.999483078116
 20
693.321051210682
 30
0.0
 40
0.25
  0
CIRCLE
  5
CC
330
6F
100
AcDbEntity
  8
8-0
  6
Continuous
 62
     4
100
AcDbCircle
 10
177.999483078116
 20
693.321051210682
 30
0.0
 40
0.1875
  0
CIRCLE
  5
CD
330
6F
100
AcDbEntity
  8
8-0
  6
Continuous
 62
     4
100
AcDbCircle
 10
177.999483078116
 20
693.321051210682
 30
0.0
 40
0.125
  0
CIRCLE
  5
CE
330
6F
100
AcDbEntity
  8
8-0
  6
Continuous
 62
     4
100
AcDbCircle
 10
177.999483078116
 20
693.321051210682
 30
0.0
 40
0.0625
  0
LINE
  5
CF
330
6F
100
AcDbEntity
  8
2-0
  6
DASHED2
 62
     7
100
AcDbLine
 10
1142.335159
 20
733.321051
 30
0.0
 11
1142.335159
 21
1318.321051
 31
0.0
  0
LINE
  5
D0
330
6F
100
AcDbEntity
  8
2-0
  6
DASHED2
 62
     7
100
AcDbLine
 10
1128.335159
 20
733.321051
 30
0.0
 11
1128.335159
 21
1318.321051
 31
0.0
  0
LINE
  5
D1
330
6F
100
AcDbEntity
  8
2-0
  6
Continuous
 62
     7
100
AcDbLine
 10
1480.835159
 20
693.321051
 30
0.0
 11
1480.835159
 21
1313.321051
 31
0.0
  0
LINE
  5
D2
330
6F
100
AcDbEntity
  8
2-0
  6
Continuous
 62
     7
100
AcDbLine
 10
438.835159
 20
1313.321051
 30
0.0
 11
438.835159
 21
693.321051
 31
0.0
  0
LINE
  5
D3
330
6F
100
AcDbEntity
  8
2-0
  6
DASHED2
 62
     7
100
AcDbLine
 10
1473.835159
 20
733.321051
 30
0.0
 11
1473.835159
 21
1318.321051
 31
0.0
  0
LINE
  5
D4
330
6F
100
AcDbEntity
  8
2-0
  6
DASHED2
 62
     7
100
AcDbLine
 10
445.8351589999999
 20
1318.321051
 30
0.0
 11
445.8351589999999
 21
733.321051
 31
0.0
  0
LINE
  5
D5
330
6F
100
AcDbEntity
  8
2-0
  6
Continuous
 62
     7
100
AcDbLine
 10
434.835159
 20
1318.321051
 30
0.0
 11
434.835159
 21
718.321051
 31
0.0
  0
LINE
  5
D6
330
6F
100
AcDbEntity
  8
2-0
  6
Continuous
 62
     7
100
AcDbLine
 10
1484.835159
 20
718.321051
 30
0.0
 11
1484.835159
 21
1318.321051
 31
0.0
  0
LINE
  5
D7
330
6F
100
AcDbEntity
  8
2-0
  6
DASHED2
 62
     7
100
AcDbLine
 10
445.8351589999999
 20
733.321051
 30
0.0
 11
1473.835159
 21
733.321051
 31
0.0
  0
LINE
  5
D8
330
6F
100
AcDbEntity
  8
8-0
  6
Continuous
 62
     4
100
AcDbLine
 10
1484.835159
 20
547.28021
 30
0.0
 11
1484.835159
 21
429.3002539999999
 31
0.0
  0
LINE
  5
D9
330
6F
100
AcDbEntity
  8
8-0
  6
Continuous
 62
     4
100
AcDbLine
 10
434.835159
 20
543.0296399999999
 30
0.0
 11
434.835159
 21
429.3002539999999
 31
0.0
  0
LINE
  5
DA
330
6F
100
AcDbEntity
  8
8-0
  6
Continuous
 62
     4
100
AcDbLine
 10
1474.835159
 20
429.3002539999999
 30
0.0
 11
444.8351589999999
 21
429.3002539999999
 31
0.0
  0
TEXT
  5
DB
330
6F
100
AcDbEntity
  8
8-0
 62
     4
100
AcDbText
 10
918.8579999999999
 20
453.92
 30
0.0
 40
36.288
  1
1050
100
AcDbText
  0
CIRCLE
  5
DC
330
6F
100
AcDbEntity
  8
8-0
  6
Continuous
 62
     4
100
AcDbCircle
 10
1484.835159174292
 20
429.3002544264989
 30
0.0
 40
0.25
  0
CIRCLE
  5
DD
330
6F
100
AcDbEntity
  8
8-0
  6
Continuous
 62
     4
100
AcDbCircle
 10
1484.835159174292
 20
429.3002544264989
 30
0.0
 40
0.1875
  0
CIRCLE
  5
DE
330
6F
100
AcDbEntity
  8
8-0
  6
Continuous
 62
     4
100
AcDbCircle
 10
1484.835159174292
 20
429.3002544264989
 30
0.0
 40
0.125
  0
CIRCLE
  5
DF
330
6F
100
AcDbEntity
  8
8-0
  6
Continuous
 62
     4
100
AcDbCircle
 10
1484.835159174292
 20
429.3002544264989
 30
0.0
 40
0.0625
  0
ARC
  5
E0
330
6F
100
AcDbEntity
  8
8-0
 62
     4
100
AcDbCircle
 10
1484.835159174292
 20
429.3052544264989
 30
0.0
 40
2.5
100
AcDbArc
 50
0.1145914065300158
 51
180.114591405945
  0
LINE
  5
E1
330
6F
100
AcDbEntity
  8
8-0
 62
     4
100
AcDbLine
 10
1479.835159174292
 20
429.3002544264989
 30
0.0
 11
1474.835159174292
 21
429.3002544264989
 31
0.0
  0
CIRCLE
  5
E2
330
6F
100
AcDbEntity
  8
8-0
  6
Continuous
 62
     4
100
AcDbCircle
 10
434.835159174292
 20
429.3002544264989
 30
0.0
 40
0.25
  0
CIRCLE
  5
E3
330
6F
100
AcDbEntity
  8
8-0
  6
Continuous
 62
     4
100
AcDbCircle
 10
434.835159174292
 20
429.3002544264989
 30
0.0
 40
0.1875
  0
CIRCLE
  5
E4
330
6F
100
AcDbEntity
  8
8-0
  6
Continuous
 62
     4
100
AcDbCircle
 10
434.835159174292
 20
429.3002544264989
 30
0.0
 40
0.125
  0
CIRCLE
  5
E5
330
6F
100
AcDbEntity
  8
8-0
  6
Continuous
 62
     4
100
AcDbCircle
 10
434.835159174292
 20
429.3002544264989
 30
0.0
 40
0.0625
  0
ARC
  5
E6
330
6F
100
AcDbEntity
  8
8-0
 62
     4
100
AcDbCircle
 10
434.835159174292
 20
429.295254426499
 30
0.0
 40
2.5
100
AcDbArc
 50
180.1145914065301
 51
0.1145914059449637
  0
LINE
  5
E7
330
6F
100
AcDbEntity
  8
8-0
 62
     4
100
AcDbLine
 10
439.835159174292
 20
429.3002544265499
 30
0.0
 11
444.835159174292
 21
429.300254426601
 31
0.0
  0
LINE
  5
E8
330
6F
100
AcDbEntity
  8
8-0
  6
Continuous
 62
     4
100
AcDbLine
 10
1130.835159
 20
595.830766
 30
0.0
 11
1130.835159
 21
529.3002539999999
 31
0.0
  0
LINE
  5
E9
330
6F
100
AcDbEntity
  8
8-0
  6
Continuous
 62
     4
100
AcDbLine
 10
785.8351589999999
 20
594.440829
 30
0.0
 11
785.8351589999999
 21
529.3002539999999
 31
0.0
  0
TEXT
  5
EA
330
6F
100
AcDbEntity
  8
8-0
 62
     4
100
AcDbText
 10
927.5579999999999
 20
529.9199999999999
 30
0.0
 40
36.288
  1
345
100
AcDbText
  0
LINE
  5
EB
330
6F
100
AcDbEntity
  8
8-0
  6
Continuous
 62
     4
100
AcDbLine
 10
785.835159174292
 20
529.3002544264989
 30
0.0
 11
1130.835159174292
 21
529.3002544264989
 31
0.0
  0
CIRCLE
  5
EC
330
6F
100
AcDbEntity
  8
8-0
  6
Continuous
 62
     4
100
AcDbCircle
 10
785.835159174292
 20
529.3002544264989
 30
0.0
 40
0.25
  0
CIRCLE
  5
ED
330
6F
100
AcDbEntity
  8
8-0
  6
Continuous
 62
     4
100
AcDbCircle
 10
785.835159174292
 20
529.3002544264989
 30
0.0
 40
0.1875
  0
CIRCLE
  5
EE
330
6F
100
AcDbEntity
  8
8-0
  6
Continuous
 62
     4
100
AcDbCircle
 10
785.835159174292
 20
529.3002544264989
 30
0.0
 40
0.125
  0
CIRCLE
  5
EF
330
6F
100
AcDbEntity
  8
8-0
  6
Continuous
 62
     4
100
AcDbCircle
 10
785.835159174292
 20
529.3002544264989
 30
0.0
 40
0.0625
  0
CIRCLE
  5
F0
330
6F
100
AcDbEntity
  8
8-0
  6
Continuous
 62
     4
100
AcDbCircle
 10
1130.835159174292
 20
529.3002544264989
 30
0.0
 40
0.25
  0
CIRCLE
  5
F1
330
6F
100
AcDbEntity
  8
8-0
  6
Continuous
 62
     4
100
AcDbCircle
 10
1130.835159174292
 20
529.3002544264989
 30
0.0
 40
0.1875
  0
CIRCLE
  5
F2
330
6F
100
AcDbEntity
  8
8-0
  6
Continuous
 62
     4
100
AcDbCircle
 10
1130.835159174292
 20
529.3002544264989
 30
0.0
 40
0.125
  0
CIRCLE
  5
F3
330
6F
100
AcDbEntity
  8
8-0
  6
Continuous
 62
     4
100
AcDbCircle
 10
1130.835159174292
 20
529.3002544264989
 30
0.0
 40
0.0625
  0
LINE
  5
F4
330
6F
100
AcDbEntity
  8
2-0
  6
CENTER
 62
     8
100
AcDbLine
 10
1130.835159
 20
1003.321051
 30
0.0
 11
785.8351589999999
 21
693.321051
 31
0.0
  0
LINE
  5
F5
330
6F
100
AcDbEntity
  8
2-0
  6
DASHED2
 62
     7
100
AcDbLine
 10
1128.335159
 20
1012.321051
 30
0.0
 11
445.8351589999999
 21
1012.321051
 31
0.0
  0
LINE
  5
F6
330
6F
100
AcDbEntity
  8
2-0
  6
DASHED2
 62
     7
100
AcDbLine
 10
1128.335159
 20
1024.321051
 30
0.0
 11
445.8351589999999
 21
1024.321051
 31
0.0
  0
LINE
  5
F7
330
6F
100
AcDbEntity
  8
2-0
  6
DASHED2
 62
     7
100
AcDbLine
 10
1484.835159
 20
718.321051
 30
0.0
 11
434.835159
 21
718.321051
 31
0.0
  0
LINE
  5
F8
330
6F
100
AcDbEntity
  8
8-0
  6
Continuous
 62
     4
100
AcDbLine
 10
783.835159
 20
594.44933
 30
0.0
 11
783.835159
 21
529.3002539999999
 31
0.0
  0
LINE
  5
F9
330
6F
100
AcDbEntity
  8
8-0
  6
Continuous
 62
     4
100
AcDbLine
 10
785.8351589999999
 20
594.440829
 30
0.0
 11
785.8351589999999
 21
529.3002539999999
 31
0.0
  0
TEXT
  5
FA
330
6F
100
AcDbEntity
  8
8-0
 62
     4
100
AcDbText
 10
815.768
 20
462.42
 30
0.0
 40
36.288
  1
2
100
AcDbText
  0
LINE
  5
FB
330
6F
100
AcDbEntity
  8
8-0
  6
Continuous
 62
     4
100
AcDbLine
 10
785.835159174292
 20
529.3002544264989
 30
0.0
 11
783.835159174292
 21
529.3002544264989
 31
0.0
  0
CIRCLE
  5
FC
330
6F
100
AcDbEntity
  8
8-0
  6
Continuous
 62
     4
100
AcDbCircle
 10
785.835159174292
 20
529.3002544264989
 30
0.0
 40
0.25
  0
CIRCLE
  5
FD
330
6F
100
AcDbEntity
  8
8-0
  6
Continuous
 62
     4
100
AcDbCircle
 10
785.835159174292
 20
529.3002544264989
 30
0.0
 40
0.1875
  0
CIRCLE
  5
FE
330
6F
100
AcDbEntity
  8
8-0
  6
Continuous
 62
     4
100
AcDbCircle
 10
785.835159174292
 20
529.3002544264989
 30
0.0
 40
0.125
  0
CIRCLE
  5
FF
330
6F
100
AcDbEntity
  8
8-0
  6
Continuous
 62
     4
100
AcDbCircle
 10
785.835159174292
 20
529.3002544264989
 30
0.0
 40
0.0625
  0
CIRCLE
  5
100
330
6F
100
AcDbEntity
  8
8-0
  6
Continuous
 62
     4
100
AcDbCircle
 10
783.835159174292
 20
529.3002544264989
 30
0.0
 40
0.25
  0
CIRCLE
  5
101
330
6F
100
AcDbEntity
  8
8-0
  6
Continuous
 62
     4
100
AcDbCircle
 10
783.835159174292
 20
529.3002544264989
 30
0.0
 40
0.1875
  0
CIRCLE
  5
102
330
6F
100
AcDbEntity
  8
8-0
  6
Continuous
 62
     4
100
AcDbCircle
 10
783.835159174292
 20
529.3002544264989
 30
0.0
 40
0.125
  0
CIRCLE
  5
103
330
6F
100
AcDbEntity
  8
8-0
  6
Continuous
 62
     4
100
AcDbCircle
 10
783.835159174292
 20
529.3002544264989
 30
0.0
 40
0.0625
  0
LINE
  5
104
330
6F
100
AcDbEntity
  8
8-0
  6
Continuous
 62
     4
100
AcDbLine
 10
434.835159
 20
594.260931
 30
0.0
 11
434.835159
 21
529.3002539999999
 31
0.0
  0
LINE
  5
105
330
6F
100
AcDbEntity
  8
8-0
  6
Continuous
 62
     4
100
AcDbLine
 10
438.835159
 20
593.059394
 30
0.0
 11
438.835159
 21
529.3002539999999
 31
0.0
  0
TEXT
  5
106
330
6F
100
AcDbEntity
  8
8-0
 62
     4
100
AcDbText
 10
468.568
 20
462.42
 30
0.0
 40
36.288
  1
4
100
AcDbText
  0
LINE
  5
107
330
6F
100
AcDbEntity
  8
8-0
  6
Continuous
 62
     4
100
AcDbLine
 10
438.835159174292
 20
529.3002544264989
 30
0.0
 11
434.835159174292
 21
529.3002544264989
 31
0.0
  0
CIRCLE
  5
108
330
6F
100
AcDbEntity
  8
8-0
  6
Continuous
 62
     4
100
AcDbCircle
 10
438.835159174292
 20
529.3002544264989
 30
0.0
 40
0.25
  0
CIRCLE
  5
109
330
6F
100
AcDbEntity
  8
8-0
  6
Continuous
 62
     4
100
AcDbCircle
 10
438.835159174292
 20
529.3002544264989
 30
0.0
 40
0.1875
  0
CIRCLE
  5
10A
330
6F
100
AcDbEntity
  8
8-0
  6
Continuous
 62
     4
100
AcDbCircle
 10
438.835159174292
 20
529.3002544264989
 30
0.0
 40
0.125
  0
CIRCLE
  5
10B
330
6F
100
AcDbEntity
  8
8-0
  6
Continuous
 62
     4
100
AcDbCircle
 10
438.835159174292
 20
529.3002544264989
 30
0.0
 40
0.0625
  0
CIRCLE
  5
10C
330
6F
100
AcDbEntity
  8
8-0
  6
Continuous
 62
     4
100
AcDbCircle
 10
434.835159174292
 20
529.3002544264989
 30
0.0
 40
0.25
  0
CIRCLE
  5
10D
330
6F
100
AcDbEntity
  8
8-0
  6
Continuous
 62
     4
100
AcDbCircle
 10
434.835159174292
 20
529.3002544264989
 30
0.0
 40
0.1875
  0
CIRCLE
  5
10E
330
6F
100
AcDbEntity
  8
8-0
  6
Continuous
 62
     4
100
AcDbCircle
 10
434.835159174292
 20
529.3002544264989
 30
0.0
 40
0.125
  0
CIRCLE
  5
10F
330
6F
100
AcDbEntity
  8
8-0
  6
Continuous
 62
     4
100
AcDbCircle
 10
434.835159174292
 20
529.3002544264989
 30
0.0
 40
0.0625
  0
LINE
  5
110
330
6F
100
AcDbEntity
  8
8-0
  6
Continuous
 62
     4
100
AcDbLine
 10
783.835159
 20
594.44933
 30
0.0
 11
783.835159
 21
529.3002539999999
 31
0.0
  0
LINE
  5
111
330
6F
100
AcDbEntity
  8
8-0
  6
Continuous
 62
     4
100
AcDbLine
 10
438.835159
 20
593.059394
 30
0.0
 11
438.835159
 21
529.3002539999999
 31
0.0
  0
TEXT
  5
112
330
6F
100
AcDbEntity
  8
8-0
 62
     4
100
AcDbText
 10
580.5579999999999
 20
529.9199999999999
 30
0.0
 40
36.288
  1
345
100
AcDbText
  0
LINE
  5
113
330
6F
100
AcDbEntity
  8
8-0
  6
Continuous
 62
     4
100
AcDbLine
 10
438.835159174292
 20
529.3002544264989
 30
0.0
 11
783.835159174292
 21
529.3002544264989
 31
0.0
  0
CIRCLE
  5
114
330
6F
100
AcDbEntity
  8
8-0
  6
Continuous
 62
     4
100
AcDbCircle
 10
438.835159174292
 20
529.3002544264989
 30
0.0
 40
0.25
  0
CIRCLE
  5
115
330
6F
100
AcDbEntity
  8
8-0
  6
Continuous
 62
     4
100
AcDbCircle
 10
438.835159174292
 20
529.3002544264989
 30
0.0
 40
0.1875
  0
CIRCLE
  5
116
330
6F
100
AcDbEntity
  8
8-0
  6
Continuous
 62
     4
100
AcDbCircle
 10
438.835159174292
 20
529.3002544264989
 30
0.0
 40
0.125
  0
CIRCLE
  5
117
330
6F
100
AcDbEntity
  8
8-0
  6
Continuous
 62
     4
100
AcDbCircle
 10
438.835159174292
 20
529.3002544264989
 30
0.0
 40
0.0625
  0
CIRCLE
  5
118
330
6F
100
AcDbEntity
  8
8-0
  6
Continuous
 62
     4
100
AcDbCircle
 10
783.835159174292
 20
529.3002544264989
 30
0.0
 40
0.25
  0
CIRCLE
  5
119
330
6F
100
AcDbEntity
  8
8-0
  6
Continuous
 62
     4
100
AcDbCircle
 10
783.835159174292
 20
529.3002544264989
 30
0.0
 40
0.1875
  0
CIRCLE
  5
11A
330
6F
100
AcDbEntity
  8
8-0
  6
Continuous
 62
     4
100
AcDbCircle
 10
783.835159174292
 20
529.3002544264989
 30
0.0
 40
0.125
  0
CIRCLE
  5
11B
330
6F
100
AcDbEntity
  8
8-0
  6
Continuous
 62
     4
100
AcDbCircle
 10
783.835159174292
 20
529.3002544264989
 30
0.0
 40
0.0625
  0
LINE
  5
11C
330
6F
100
AcDbEntity
  8
2-0
  6
CENTER
 62
     8
100
AcDbLine
 10
438.835159
 20
1003.321051
 30
0.0
 11
783.835159
 21
693.321051
 31
0.0
  0
LINE
  5
11D
330
6F
100
AcDbEntity
  8
2-0
  6
Continuous
 62
     7
100
AcDbLine
 10
783.835159
 20
693.321051
 30
0.0
 11
438.835159
 21
693.321051
 31
0.0
  0
LINE
  5
11E
330
6F
100
AcDbEntity
  8
8-0
  6
Continuous
 62
     4
100
AcDbLine
 10
1480.835159
 20
597.2079499999999
 30
0.0
 11
1480.835159
 21
529.3002539999999
 31
0.0
  0
LINE
  5
11F
330
6F
100
AcDbEntity
  8
8-0
  6
Continuous
 62
     4
100
AcDbLine
 10
1484.835159
 20
597.1781959999999
 30
0.0
 11
1484.835159
 21
529.3002539999999
 31
0.0
  0
TEXT
  5
120
330
6F
100
AcDbEntity
  8
8-0
 62
     4
100
AcDbText
 10
1514.568
 20
462.42
 30
0.0
 40
36.288
  1
4
100
AcDbText
  0
LINE
  5
121
330
6F
100
AcDbEntity
  8
8-0
  6
Continuous
 62
     4
100
AcDbLine
 10
1484.835159174292
 20
529.3002544264989
 30
0.0
 11
1480.835159174292
 21
529.3002544264989
 31
0.0
  0
CIRCLE
  5
122
330
6F
100
AcDbEntity
  8
8-0
  6
Continuous
 62
     4
100
AcDbCircle
 10
1484.835159174292
 20
529.3002544264989
 30
0.0
 40
0.25
  0
CIRCLE
  5
123
330
6F
100
AcDbEntity
  8
8-0
  6
Continuous
 62
     4
100
AcDbCircle
 10
1484.835159174292
 20
529.3002544264989
 30
0.0
 40
0.1875
  0
CIRCLE
  5
124
330
6F
100
AcDbEntity
  8
8-0
  6
Continuous
 62
     4
100
AcDbCircle
 10
1484.835159174292
 20
529.3002544264989
 30
0.0
 40
0.125
  0
CIRCLE
  5
125
330
6F
100
AcDbEntity
  8
8-0
  6
Continuous
 62
     4
100
AcDbCircle
 10
1484.835159174292
 20
529.3002544264989
 30
0.0
 40
0.0625
  0
CIRCLE
  5
126
330
6F
100
AcDbEntity
  8
8-0
  6
Continuous
 62
     4
100
AcDbCircle
 10
1480.835159174292
 20
529.3002544264989
 30
0.0
 40
0.25
  0
CIRCLE
  5
127
330
6F
100
AcDbEntity
  8
8-0
  6
Continuous
 62
     4
100
AcDbCircle
 10
1480.835159174292
 20
529.3002544264989
 30
0.0
 40
0.1875
  0
CIRCLE
  5
128
330
6F
100
AcDbEntity
  8
8-0
  6
Continuous
 62
     4
100
AcDbCircle
 10
1480.835159174292
 20
529.3002544264989
 30
0.0
 40
0.125
  0
CIRCLE
  5
129
330
6F
100
AcDbEntity
  8
8-0
  6
Continuous
 62
     4
100
AcDbCircle
 10
1480.835159174292
 20
529.3002544264989
 30
0.0
 40
0.0625
  0
LINE
  5
12A
330
6F
100
AcDbEntity
  8
8-0
  6
Continuous
 62
     4
100
AcDbLine
 10
1130.835159
 20
595.830766
 30
0.0
 11
1130.835159
 21
529.3002539999999
 31
0.0
  0
LINE
  5
12B
330
6F
100
AcDbEntity
  8
8-0
  6
Continuous
 62
     4
100
AcDbLine
 10
1135.835159
 20
595.8180139999999
 30
0.0
 11
1135.835159
 21
529.3002539999999
 31
0.0
  0
TEXT
  5
12C
330
6F
100
AcDbEntity
  8
8-0
 62
     4
100
AcDbText
 10
1164.268
 20
462.42
 30
0.0
 40
36.288
  1
5
100
AcDbText
  0
LINE
  5
12D
330
6F
100
AcDbEntity
  8
8-0
  6
Continuous
 62
     4
100
AcDbLine
 10
1135.835159174292
 20
529.3002544264989
 30
0.0
 11
1130.835159174292
 21
529.3002544264989
 31
0.0
  0
CIRCLE
  5
12E
330
6F
100
AcDbEntity
  8
8-0
  6
Continuous
 62
     4
100
AcDbCircle
 10
1135.835159174292
 20
529.3002544264989
 30
0.0
 40
0.25
  0
CIRCLE
  5
12F
330
6F
100
AcDbEntity
  8
8-0
  6
Continuous
 62
     4
100
AcDbCircle
 10
1135.835159174292
 20
529.3002544264989
 30
0.0
 40
0.1875
  0
CIRCLE
  5
130
330
6F
100
AcDbEntity
  8
8-0
  6
Continuous
 62
     4
100
AcDbCircle
 10
1135.835159174292
 20
529.3002544264989
 30
0.0
 40
0.125
  0
CIRCLE
  5
131
330
6F
100
AcDbEntity
  8
8-0
  6
Continuous
 62
     4
100
AcDbCircle
 10
1135.835159174292
 20
529.3002544264989
 30
0.0
 40
0.0625
  0
CIRCLE
  5
132
330
6F
100
AcDbEntity
  8
8-0
  6
Continuous
 62
     4
100
AcDbCircle
 10
1130.835159174292
 20
529.3002544264989
 30
0.0
 40
0.25
  0
CIRCLE
  5
133
330
6F
100
AcDbEntity
  8
8-0
  6
Continuous
 62
     4
100
AcDbCircle
 10
1130.835159174292
 20
529.3002544264989
 30
0.0
 40
0.1875
  0
CIRCLE
  5
134
330
6F
100
AcDbEntity
  8
8-0
  6
Continuous
 62
     4
100
AcDbCircle
 10
1130.835159174292
 20
529.3002544264989
 30
0.0
 40
0.125
  0
CIRCLE
  5
135
330
6F
100
AcDbEntity
  8
8-0
  6
Continuous
 62
     4
100
AcDbCircle
 10
1130.835159174292
 20
529.3002544264989
 30
0.0
 40
0.0625
  0
LINE
  5
136
330
6F
100
AcDbEntity
  8
8-0
  6
Continuous
 62
     4
100
AcDbLine
 10
1480.835159
 20
597.2079499999999
 30
0.0
 11
1480.835159
 21
529.3002539999999
 31
0.0
  0
LINE
  5
137
330
6F
100
AcDbEntity
  8
8-0
  6
Continuous
 62
     4
100
AcDbLine
 10
1135.835159
 20
595.8180139999999
 30
0.0
 11
1135.835159
 21
529.3002539999999
 31
0.0
  0
TEXT
  5
138
330
6F
100
AcDbEntity
  8
8-0
 62
     4
100
AcDbText
 10
1277.558
 20
529.9199999999999
 30
0.0
 40
36.288
  1
345
100
AcDbText
  0
LINE
  5
139
330
6F
100
AcDbEntity
  8
8-0
  6
Continuous
 62
     4
100
AcDbLine
 10
1135.835159174292
 20
529.3002544264989
 30
0.0
 11
1480.835159174292
 21
529.3002544264989
 31
0.0
  0
CIRCLE
  5
13A
330
6F
100
AcDbEntity
  8
8-0
  6
Continuous
 62
     4
100
AcDbCircle
 10
1135.835159174292
 20
529.3002544264989
 30
0.0
 40
0.25
  0
CIRCLE
  5
13B
330
6F
100
AcDbEntity
  8
8-0
  6
Continuous
 62
     4
100
AcDbCircle
 10
1135.835159174292
 20
529.3002544264989
 30
0.0
 40
0.1875
  0
CIRCLE
  5
13C
330
6F
100
AcDbEntity
  8
8-0
  6
Continuous
 62
     4
100
AcDbCircle
 10
1135.835159174292
 20
529.3002544264989
 30
0.0
 40
0.125
  0
CIRCLE
  5
13D
330
6F
100
AcDbEntity
  8
8-0
  6
Continuous
 62
     4
100
AcDbCircle
 10
1135.835159174292
 20
529.3002544264989
 30
0.0
 40
0.0625
  0
CIRCLE
  5
13E
330
6F
100
AcDbEntity
  8
8-0
  6
Continuous
 62
     4
100
AcDbCircle
 10
1480.835159174292
 20
529.3002544264989
 30
0.0
 40
0.25
  0
CIRCLE
  5
13F
330
6F
100
AcDbEntity
  8
8-0
  6
Continuous
 62
     4
100
AcDbCircle
 10
1480.835159174292
 20
529.3002544264989
 30
0.0
 40
0.1875
  0
CIRCLE
  5
140
330
6F
100
AcDbEntity
  8
8-0
  6
Continuous
 62
     4
100
AcDbCircle
 10
1480.835159174292
 20
529.3002544264989
 30
0.0
 40
0.125
  0
CIRCLE
  5
141
330
6F
100
AcDbEntity
  8
8-0
  6
Continuous
 62
     4
100
AcDbCircle
 10
1480.835159174292
 20
529.3002544264989
 30
0.0
 40
0.0625
  0
LINE
  5
142
330
6F
100
AcDbEntity
  8
2-0
  6
CENTER
 62
     8
100
AcDbLine
 10
1480.835159
 20
1003.321051
 30
0.0
 11
1135.835159
 21
693.321051
 31
0.0
  0
LINE
  5
143
330
6F
100
AcDbEntity
  8
2-0
  6
Continuous
 62
     7
100
AcDbLine
 10
1480.835159
 20
693.321051
 30
0.0
 11
1135.835159
 21
693.321051
 31
0.0
  0
LINE
  5
144
330
6F
100
AcDbEntity
  8
8-0
  6
Continuous
 62
     4
100
AcDbLine
 10
394.47968
 20
1313.321051
 30
0.0
 11
277.999483
 21
1313.321051
 31
0.0
  0
LINE
  5
145
330
6F
100
AcDbEntity
  8
8-0
  6
Continuous
 62
     4
100
AcDbLine
 10
394.464269
 20
1318.321051
 30
0.0
 11
277.999483
 21
1318.321051
 31
0.0
  0
TEXT
  5
146
330
6F
100
AcDbEntity
  8
8-0
 62
     4
100
AcDbText
 10
244.879
 20
1333.432
 30
0.0
 40
36.288
  1
5
 50
90.0
100
AcDbText
  0
LINE
  5
147
330
6F
100
AcDbEntity
  8
8-0
  6
Continuous
 62
     4
100
AcDbLine
 10
277.999483078116
 20
1318.321051210682
 30
0.0
 11
277.999483078116
 21
1313.321051210682
 31
0.0
  0
CIRCLE
  5
148
330
6F
100
AcDbEntity
  8
8-0
  6
Continuous
 62
     4
100
AcDbCircle
 10
277.999483078116
 20
1318.321051210682
 30
0.0
 40
0.25
  0
CIRCLE
  5
149
330
6F
100
AcDbEntity
  8
8-0
  6
Continuous
 62
     4
100
AcDbCircle
 10
277.999483078116
 20
1318.321051210682
 30
0.0
 40
0.1875
  0
CIRCLE
  5
14A
330
6F
100
AcDbEntity
  8
8-0
  6
Continuous
 62
     4
100
AcDbCircle
 10
277.999483078116
 20
1318.321051210682
 30
0.0
 40
0.125
  0
CIRCLE
  5
14B
330
6F
100
AcDbEntity
  8
8-0
  6
Continuous
 62
     4
100
AcDbCircle
 10
277.999483078116
 20
1318.321051210682
 30
0.0
 40
0.0625
  0
CIRCLE
  5
14C
330
6F
100
AcDbEntity
  8
8-0
  6
Continuous
 62
     4
100
AcDbCircle
 10
277.999483078116
 20
1313.321051210682
 30
0.0
 40
0.25
  0
CIRCLE
  5
14D
330
6F
100
AcDbEntity
  8
8-0
  6
Continuous
 62
     4
100
AcDbCircle
 10
277.999483078116
 20
1313.321051210682
 30
0.0
 40
0.1875
  0
CIRCLE
  5
14E
330
6F
100
AcDbEntity
  8
8-0
  6
Continuous
 62
     4
100
AcDbCircle
 10
277.999483078116
 20
1313.321051210682
 30
0.0
 40
0.125
  0
CIRCLE
  5
14F
330
6F
100
AcDbEntity
  8
8-0
  6
Continuous
 62
     4
100
AcDbCircle
 10
277.999483078116
 20
1313.321051210682
 30
0.0
 40
0.0625
  0
LINE
  5
150
330
6F
100
AcDbEntity
  8
8-0
  6
Continuous
 62
     4
100
AcDbLine
 10
400.835159
 20
1790.323489
 30
0.0
 11
277.999483
 21
1790.323489
 31
0.0
  0
LINE
  5
151
330
6F
100
AcDbEntity
  8
8-0
  6
Continuous
 62
     4
100
AcDbLine
 10
391.835159
 20
2152.323489
 30
0.0
 11
277.999483
 21
2152.323489
 31
0.0
  0
TEXT
  5
152
330
6F
100
AcDbEntity
  8
8-0
 62
     4
100
AcDbText
 10
277.379
 20
1937.723
 30
0.0
 40
36.288
  1
362
 50
90.0
100
AcDbText
  0
LINE
  5
153
330
6F
100
AcDbEntity
  8
8-0
  6
Continuous
 62
     4
100
AcDbLine
 10
277.999483078116
 20
2152.323488653266
 30
0.0
 11
277.999483078116
 21
1790.323488653266
 31
0.0
  0
CIRCLE
  5
154
330
6F
100
AcDbEntity
  8
8-0
  6
Continuous
 62
     4
100
AcDbCircle
 10
277.999483078116
 20
2152.323488653266
 30
0.0
 40
0.25
  0
CIRCLE
  5
155
330
6F
100
AcDbEntity
  8
8-0
  6
Continuous
 62
     4
100
AcDbCircle
 10
277.999483078116
 20
2152.323488653266
 30
0.0
 40
0.1875
  0
CIRCLE
  5
156
330
6F
100
AcDbEntity
  8
8-0
  6
Continuous
 62
     4
100
AcDbCircle
 10
277.999483078116
 20
2152.323488653266
 30
0.0
 40
0.125
  0
CIRCLE
  5
157
330
6F
100
AcDbEntity
  8
8-0
  6
Continuous
 62
     4
100
AcDbCircle
 10
277.999483078116
 20
2152.323488653266
 30
0.0
 40
0.0625
  0
CIRCLE
  5
158
330
6F
100
AcDbEntity
  8
8-0
  6
Continuous
 62
     4
100
AcDbCircle
 10
277.999483078116
 20
1790.323488653266
 30
0.0
 40
0.25
  0
CIRCLE
  5
159
330
6F
100
AcDbEntity
  8
8-0
  6
Continuous
 62
     4
100
AcDbCircle
 10
277.999483078116
 20
1790.323488653266
 30
0.0
 40
0.1875
  0
CIRCLE
  5
15A
330
6F
100
AcDbEntity
  8
8-0
  6
Continuous
 62
     4
100
AcDbCircle
 10
277.999483078116
 20
1790.323488653266
 30
0.0
 40
0.125
  0
CIRCLE
  5
15B
330
6F
100
AcDbEntity
  8
8-0
  6
Continuous
 62
     4
100
AcDbCircle
 10
277.999483078116
 20
1790.323488653266
 30
0.0
 40
0.0625
  0
LINE
  5
15C
330
6F
100
AcDbEntity
  8
8-0
  6
Continuous
 62
     4
100
AcDbLine
 10
1127.335159
 20
2010.070262
 30
0.0
 11
1127.335159
 21
2021.674735
 31
0.0
  0
LINE
  5
15D
330
6F
100
AcDbEntity
  8
8-0
  6
Continuous
 62
     4
100
AcDbLine
 10
1142.335159
 20
2012.644984
 30
0.0
 11
1142.335159
 21
2021.674735
 31
0.0
  0
TEXT
  5
15E
330
6F
100
AcDbEntity
  8
8-0
 62
     4
100
AcDbText
 10
1154.195
 20
2054.795
 30
0.0
 40
36.288
  1
15
100
AcDbText
  0
LINE
  5
15F
330
6F
100
AcDbEntity
  8
8-0
  6
Continuous
 62
     4
100
AcDbLine
 10
1142.335159174292
 20
2021.674735286979
 30
0.0
 11
1127.335159174292
 21
2021.674735286979
 31
0.0
  0
CIRCLE
  5
160
330
6F
100
AcDbEntity
  8
8-0
  6
Continuous
 62
     4
100
AcDbCircle
 10
1142.335159174292
 20
2021.674735286979
 30
0.0
 40
0.25
  0
CIRCLE
  5
161
330
6F
100
AcDbEntity
  8
8-0
  6
Continuous
 62
     4
100
AcDbCircle
 10
1142.335159174292
 20
2021.674735286979
 30
0.0
 40
0.1875
  0
CIRCLE
  5
162
330
6F
100
AcDbEntity
  8
8-0
  6
Continuous
 62
     4
100
AcDbCircle
 10
1142.335159174292
 20
2021.674735286979
 30
0.0
 40
0.125
  0
CIRCLE
  5
163
330
6F
100
AcDbEntity
  8
8-0
  6
Continuous
 62
     4
100
AcDbCircle
 10
1142.335159174292
 20
2021.674735286979
 30
0.0
 40
0.0625
  0
CIRCLE
  5
164
330
6F
100
AcDbEntity
  8
8-0
  6
Continuous
 62
     4
100
AcDbCircle
 10
1127.335159174292
 20
2021.674735286979
 30
0.0
 40
0.25
  0
CIRCLE
  5
165
330
6F
100
AcDbEntity
  8
8-0
  6
Continuous
 62
     4
100
AcDbCircle
 10
1127.335159174292
 20
2021.674735286979
 30
0.0
 40
0.1875
  0
CIRCLE
  5
166
330
6F
100
AcDbEntity
  8
8-0
  6
Continuous
 62
     4
100
AcDbCircle
 10
1127.335159174292
 20
2021.674735286979
 30
0.0
 40
0.125
  0
CIRCLE
  5
167
330
6F
100
AcDbEntity
  8
8-0
  6
Continuous
 62
     4
100
AcDbCircle
 10
1127.335159174292
 20
2021.674735286979
 30
0.0
 40
0.0625
  0
LINE
  5
168
330
6F
100
AcDbEntity
  8
2-0
  6
DASHED2
 62
     7
100
AcDbLine
 10
1142.335159
 20
1807.323489
 30
0.0
 11
1142.335159
 21
2129.623489
 31
0.0
  0
LINE
  5
169
330
6F
100
AcDbEntity
  8
2-0
  6
DASHED2
 62
     7
100
AcDbLine
 10
1127.335159
 20
1807.323489
 30
0.0
 11
1127.335159
 21
2129.623489
 31
0.0
  0
LINE
  5
16A
330
6F
100
AcDbEntity
  8
2-0
  6
Continuous
 62
     7
100
AcDbLine
 10
1467.335159
 20
1807.323489
 30
0.0
 11
1467.335159
 21
2152.323489
 31
0.0
  0
LINE
  5
16B
330
6F
100
AcDbEntity
  8
2-0
  6
Continuous
 62
     7
100
AcDbLine
 10
452.3351589999999
 20
2152.323489
 30
0.0
 11
452.3351589999999
 21
1807.323489
 31
0.0
  0
LINE
  5
16C
330
6F
100
AcDbEntity
  8
2-0
  6
Continuous
 62
     7
100
AcDbLine
 10
1484.835159
 20
1807.323489
 30
0.0
 11
1484.835159
 21
2152.323489
 31
0.0
  0
LINE
  5
16D
330
6F
100
AcDbEntity
  8
2-0
  6
Continuous
 62
     7
100
AcDbLine
 10
434.835159
 20
2152.323489
 30
0.0
 11
434.835159
 21
1807.323489
 31
0.0
  0
LINE
  5
16E
330
6F
100
AcDbEntity
  8
2-0
  6
Continuous
 62
     7
100
AcDbLine
 10
1130.835159
 20
1313.321051
 30
0.0
 11
785.8351589999999
 21
1313.321051
 31
0.0
  0
LINE
  5
16F
330
6F
100
AcDbEntity
  8
2-0
  6
DASHED2
 62
     7
100
AcDbLine
 10
1128.335159
 20
1303.321051
 30
0.0
 11
445.8351589999999
 21
1303.321051
 31
0.0
  0
LINE
  5
170
330
6F
100
AcDbEntity
  8
2-0
  6
Continuous
 62
     7
100
AcDbLine
 10
1484.835159
 20
1318.321051
 30
0.0
 11
434.835159
 21
1318.321051
 31
0.0
  0
LINE
  5
171
330
6F
100
AcDbEntity
  8
2-0
  6
Continuous
 62
     7
100
AcDbLine
 10
786.8351589999999
 20
1790.323489
 30
0.0
 11
1130.835159
 21
1790.323489
 31
0.0
  0
LINE
  5
172
330
6F
100
AcDbEntity
  8
2-0
  6
Continuous
 62
     7
100
AcDbLine
 10
786.8351589999999
 20
1805.323489
 30
0.0
 11
1130.835159
 21
1805.323489
 31
0.0
  0
LINE
  5
173
330
6F
100
AcDbEntity
  8
2-0
  6
DASHED2
 62
     7
100
AcDbLine
 10
1127.335159
 20
1844.623489
 30
0.0
 11
452.3351589999999
 21
1844.623489
 31
0.0
  0
LINE
  5
174
330
6F
100
AcDbEntity
  8
2-0
  6
Continuous
 62
     7
100
AcDbLine
 10
434.835159
 20
1807.323489
 30
0.0
 11
1484.835159
 21
1807.323489
 31
0.0
  0
LINE
  5
175
330
6F
100
AcDbEntity
  8
2-0
  6
Continuous
 62
     7
100
AcDbLine
 10
783.835159
 20
1313.321051
 30
0.0
 11
438.835159
 21
1313.321051
 31
0.0
  0
LINE
  5
176
330
6F
100
AcDbEntity
  8
2-0
  6
Continuous
 62
     7
100
AcDbLine
 10
440.8351589999999
 20
1805.323489
 30
0.0
 11
784.835159
 21
1805.323489
 31
0.0
  0
LINE
  5
177
330
6F
100
AcDbEntity
  8
2-0
  6
Continuous
 62
     7
100
AcDbLine
 10
440.8351589999999
 20
1790.323489
 30
0.0
 11
784.835159
 21
1790.323489
 31
0.0
  0
LINE
  5
178
330
6F
100
AcDbEntity
  8
2-0
  6
Continuous
 62
     7
100
AcDbLine
 10
440.8351589999999
 20
1805.323489
 30
0.0
 11
440.8351589999999
 21
1790.323489
 31
0.0
  0
LINE
  5
179
330
6F
100
AcDbEntity
  8
2-0
  6
Continuous
 62
     7
100
AcDbLine
 10
784.835159
 20
1805.323489
 30
0.0
 11
784.835159
 21
1790.323489
 31
0.0
  0
LINE
  5
17A
330
6F
100
AcDbEntity
  8
2-0
  6
Continuous
 62
     7
100
AcDbLine
 10
786.8351589999999
 20
1805.323489
 30
0.0
 11
786.8351589999999
 21
1790.323489
 31
0.0
  0
LINE
  5
17B
330
6F
100
AcDbEntity
  8
2-0
  6
DASHED2
 62
     7
100
AcDbLine
 10
1473.835159
 20
1303.321051
 30
0.0
 11
1142.335159
 21
1303.321051
 31
0.0
  0
LINE
  5
17C
330
6F
100
AcDbEntity
  8
2-0
  6
Continuous
 62
     7
100
AcDbLine
 10
1480.835159
 20
1313.321051
 30
0.0
 11
1135.835159
 21
1313.321051
 31
0.0
  0
LINE
  5
17D
330
6F
100
AcDbEntity
  8
2-0
  6
Continuous
 62
     7
100
AcDbLine
 10
1133.835159
 20
1805.323489
 30
0.0
 11
1477.835159
 21
1805.323489
 31
0.0
  0
LINE
  5
17E
330
6F
100
AcDbEntity
  8
2-0
  6
Continuous
 62
     7
100
AcDbLine
 10
1133.835159
 20
1790.323489
 30
0.0
 11
1477.835159
 21
1790.323489
 31
0.0
  0
LINE
  5
17F
330
6F
100
AcDbEntity
  8
2-0
  6
Continuous
 62
     7
100
AcDbLine
 10
1130.835159
 20
1805.323489
 30
0.0
 11
1130.835159
 21
1790.323489
 31
0.0
  0
LINE
  5
180
330
6F
100
AcDbEntity
  8
2-0
  6
Continuous
 62
     7
100
AcDbLine
 10
1133.835159
 20
1805.323489
 30
0.0
 11
1133.835159
 21
1790.323489
 31
0.0
  0
LINE
  5
181
330
6F
100
AcDbEntity
  8
2-0
  6
Continuous
 62
     7
100
AcDbLine
 10
1477.835159
 20
1805.323489
 30
0.0
 11
1477.835159
 21
1790.323489
 31
0.0
  0
LINE
  5
182
330
6F
100
AcDbEntity
  8
8-0
  6
Continuous
 62
     4
100
AcDbLine
 10
434.835159
 20
2191.708425
 30
0.0
 11
434.835159
 21
2356.669102
 31
0.0
  0
LINE
  5
183
330
6F
100
AcDbEntity
  8
8-0
  6
Continuous
 62
     4
100
AcDbLine
 10
1134.835159
 20
2356.197707
 30
0.0
 11
1134.835159
 21
2356.669102
 31
0.0
  0
TEXT
  5
184
330
6F
100
AcDbEntity
  8
8-0
 62
     4
100
AcDbText
 10
754.058
 20
2357.289
 30
0.0
 40
36.288
  1
700
100
AcDbText
  0
LINE
  5
185
330
6F
100
AcDbEntity
  8
8-0
  6
Continuous
 62
     4
100
AcDbLine
 10
1134.835159174292
 20
2356.669101578988
 30
0.0
 11
434.835159174292
 21
2356.669101578988
 31
0.0
  0
CIRCLE
  5
186
330
6F
100
AcDbEntity
  8
8-0
  6
Continuous
 62
     4
100
AcDbCircle
 10
1134.835159174292
 20
2356.669101578988
 30
0.0
 40
0.25
  0
CIRCLE
  5
187
330
6F
100
AcDbEntity
  8
8-0
  6
Continuous
 62
     4
100
AcDbCircle
 10
1134.835159174292
 20
2356.669101578988
 30
0.0
 40
0.1875
  0
CIRCLE
  5
188
330
6F
100
AcDbEntity
  8
8-0
  6
Continuous
 62
     4
100
AcDbCircle
 10
1134.835159174292
 20
2356.669101578988
 30
0.0
 40
0.125
  0
CIRCLE
  5
189
330
6F
100
AcDbEntity
  8
8-0
  6
Continuous
 62
     4
100
AcDbCircle
 10
1134.835159174292
 20
2356.669101578988
 30
0.0
 40
0.0625
  0
CIRCLE
  5
18A
330
6F
100
AcDbEntity
  8
8-0
  6
Continuous
 62
     4
100
AcDbCircle
 10
434.835159174292
 20
2356.669101578988
 30
0.0
 40
0.25
  0
CIRCLE
  5
18B
330
6F
100
AcDbEntity
  8
8-0
  6
Continuous
 62
     4
100
AcDbCircle
 10
434.835159174292
 20
2356.669101578988
 30
0.0
 40
0.1875
  0
CIRCLE
  5
18C
330
6F
100
AcDbEntity
  8
8-0
  6
Continuous
 62
     4
100
AcDbCircle
 10
434.835159174292
 20
2356.669101578988
 30
0.0
 40
0.125
  0
CIRCLE
  5
18D
330
6F
100
AcDbEntity
  8
8-0
  6
Continuous
 62
     4
100
AcDbCircle
 10
434.835159174292
 20
2356.669101578988
 30
0.0
 40
0.0625
  0
LINE
  5
18E
330
6F
100
AcDbEntity
  8
2-0
  6
DASHED2
 62
     7
100
AcDbLine
 10
1467.335159
 20
2129.623489
 30
0.0
 11
452.3351589999999
 21
2129.623489
 31
0.0
  0
LINE
  5
18F
330
6F
100
AcDbEntity
  8
2-0
  6
DASHED2
 62
     7
100
AcDbLine
 10
1467.335159
 20
2132.323489
 30
0.0
 11
452.3351589999999
 21
2132.323489
 31
0.0
  0
LINE
  5
190
330
6F
100
AcDbEntity
  8
2-0
  6
Continuous
 62
     7
100
AcDbLine
 10
1484.835159
 20
2152.323489
 30
0.0
 11
434.835159
 21
2152.323489
 31
0.0
  0
LINE
  5
191
330
6F
100
AcDbEntity
  8
8-0
  6
Continuous
 62
     4
100
AcDbLine
 10
452.3351589999999
 20
2192.286986
 30
0.0
 11
452.3351589999999
 21
2256.669102
 31
0.0
  0
LINE
  5
192
330
6F
100
AcDbEntity
  8
8-0
  6
Continuous
 62
     4
100
AcDbLine
 10
492.335159
 20
2196.31135
 30
0.0
 11
492.335159
 21
2256.669102
 31
0.0
  0
TEXT
  5
193
330
6F
100
AcDbEntity
  8
8-0
 62
     4
100
AcDbText
 10
493.6499999999999
 20
2289.789
 30
0.0
 40
36.288
  1
40
100
AcDbText
  0
LINE
  5
194
330
6F
100
AcDbEntity
  8
8-0
  6
Continuous
 62
     4
100
AcDbLine
 10
492.335159174292
 20
2256.669101578987
 30
0.0
 11
452.335159174292
 21
2256.669101578987
 31
0.0
  0
CIRCLE
  5
195
330
6F
100
AcDbEntity
  8
8-0
  6
Continuous
 62
     4
100
AcDbCircle
 10
492.335159174292
 20
2256.669101578987
 30
0.0
 40
0.25
  0
CIRCLE
  5
196
330
6F
100
AcDbEntity
  8
8-0
  6
Continuous
 62
     4
100
AcDbCircle
 10
492.335159174292
 20
2256.669101578987
 30
0.0
 40
0.1875
  0
CIRCLE
  5
197
330
6F
100
AcDbEntity
  8
8-0
  6
Continuous
 62
     4
100
AcDbCircle
 10
492.335159174292
 20
2256.669101578987
 30
0.0
 40
0.125
  0
CIRCLE
  5
198
330
6F
100
AcDbEntity
  8
8-0
  6
Continuous
 62
     4
100
AcDbCircle
 10
492.335159174292
 20
2256.669101578987
 30
0.0
 40
0.0625
  0
CIRCLE
  5
199
330
6F
100
AcDbEntity
  8
8-0
  6
Continuous
 62
     4
100
AcDbCircle
 10
452.335159174292
 20
2256.669101578987
 30
0.0
 40
0.25
  0
CIRCLE
  5
19A
330
6F
100
AcDbEntity
  8
8-0
  6
Continuous
 62
     4
100
AcDbCircle
 10
452.335159174292
 20
2256.669101578987
 30
0.0
 40
0.1875
  0
CIRCLE
  5
19B
330
6F
100
AcDbEntity
  8
8-0
  6
Continuous
 62
     4
100
AcDbCircle
 10
452.335159174292
 20
2256.669101578987
 30
0.0
 40
0.125
  0
CIRCLE
  5
19C
330
6F
100
AcDbEntity
  8
8-0
  6
Continuous
 62
     4
100
AcDbCircle
 10
452.335159174292
 20
2256.669101578987
 30
0.0
 40
0.0625
  0
LINE
  5
19D
330
6F
100
AcDbEntity
  8
8-0
  6
Continuous
 62
     4
100
AcDbLine
 10
452.3351589999999
 20
2192.286986
 30
0.0
 11
452.3351589999999
 21
2256.669102
 31
0.0
  0
LINE
  5
19E
330
6F
100
AcDbEntity
  8
8-0
  6
Continuous
 62
     4
100
AcDbLine
 10
434.835159
 20
2193.896732
 30
0.0
 11
434.835159
 21
2256.669102
 31
0.0
  0
LINE
  5
19F
330
6F
100
AcDbEntity
  8
8-0
  6
Continuous
 62
     4
100
AcDbLine
 10
462.3351589999999
 20
2256.669102
 30
0.0
 11
472.335159
 21
2256.669102
 31
0.0
  0
LINE
  5
1A0
330
6F
100
AcDbEntity
  8
8-0
  6
Continuous
 62
     4
100
AcDbLine
 10
424.8351589999999
 20
2256.669102
 30
0.0
 11
414.8351589999999
 21
2256.669102
 31
0.0
  0
LINE
  5
1A1
330
6F
100
AcDbEntity
  8
8-0
  6
Continuous
 62
     4
100
AcDbLine
 10
443.5851589999999
 20
2256.669102
 30
0.0
 11
419.05726
 21
2287.049813
 31
0.0
  0
LINE
  5
1A2
330
6F
100
AcDbEntity
  8
8-0
  6
Continuous
 62
     4
100
AcDbLine
 10
419.05726
 20
2287.049813
 30
0.0
 11
315.199392
 21
2287.049813
 31
0.0
  0
TEXT
  5
1A3
330
6F
100
AcDbEntity
  8
8-0
 62
     4
100
AcDbText
 10
325.151
 20
2287.67
 30
0.0
 40
36.288
  1
17.5
100
AcDbText
  0
LINE
  5
1A4
330
6F
100
AcDbEntity
  8
8-0
  6
Continuous
 62
     4
100
AcDbLine
 10
452.3351589999999
 20
2256.669102
 30
0.0
 11
434.835159
 21
2256.669102
 31
0.0
  0
LINE
  5
1A5
330
6F
100
AcDbEntity
  8
8-0
  6
Continuous
 62
     4
100
AcDbLine
 10
452.3351589999999
 20
2256.669102
 30
0.0
 11
434.835159
 21
2256.669102
 31
0.0
  0
CIRCLE
  5
1A6
330
6F
100
AcDbEntity
  8
8-0
  6
Continuous
 62
     4
100
AcDbCircle
 10
452.335159174292
 20
2256.669101578987
 30
0.0
 40
0.25
  0
CIRCLE
  5
1A7
330
6F
100
AcDbEntity
  8
8-0
  6
Continuous
 62
     4
100
AcDbCircle
 10
452.335159174292
 20
2256.669101578987
 30
0.0
 40
0.1875
  0
CIRCLE
  5
1A8
330
6F
100
AcDbEntity
  8
8-0
  6
Continuous
 62
     4
100
AcDbCircle
 10
452.335159174292
 20
2256.669101578987
 30
0.0
 40
0.125
  0
CIRCLE
  5
1A9
330
6F
100
AcDbEntity
  8
8-0
  6
Continuous
 62
     4
100
AcDbCircle
 10
452.335159174292
 20
2256.669101578987
 30
0.0
 40
0.0625
  0
ARC
  5
1AA
330
6F
100
AcDbEntity
  8
8-0
 62
     4
100
AcDbCircle
 10
452.335159174292
 20
2256.664101578987
 30
0.0
 40
2.5
100
AcDbArc
 50
180.1145914065301
 51
0.1145914059449637
  0
LINE
  5
1AB
330
6F
100
AcDbEntity
  8
8-0
 62
     4
100
AcDbLine
 10
457.335159174292
 20
2256.669101579038
 30
0.0
 11
462.3351591742919
 21
2256.669101579089
 31
0.0
  0
CIRCLE
  5
1AC
330
6F
100
AcDbEntity
  8
8-0
  6
Continuous
 62
     4
100
AcDbCircle
 10
434.835159174292
 20
2256.669101578987
 30
0.0
 40
0.25
  0
CIRCLE
  5
1AD
330
6F
100
AcDbEntity
  8
8-0
  6
Continuous
 62
     4
100
AcDbCircle
 10
434.835159174292
 20
2256.669101578987
 30
0.0
 40
0.1875
  0
CIRCLE
  5
1AE
330
6F
100
AcDbEntity
  8
8-0
  6
Continuous
 62
     4
100
AcDbCircle
 10
434.835159174292
 20
2256.669101578987
 30
0.0
 40
0.125
  0
CIRCLE
  5
1AF
330
6F
100
AcDbEntity
  8
8-0
  6
Continuous
 62
     4
100
AcDbCircle
 10
434.835159174292
 20
2256.669101578987
 30
0.0
 40
0.0625
  0
ARC
  5
1B0
330
6F
100
AcDbEntity
  8
8-0
 62
     4
100
AcDbCircle
 10
434.835159174292
 20
2256.674101578987
 30
0.0
 40
2.5
100
AcDbArc
 50
0.1145914065300158
 51
180.114591405945
  0
LINE
  5
1B1
330
6F
100
AcDbEntity
  8
8-0
 62
     4
100
AcDbLine
 10
429.835159174292
 20
2256.669101578987
 30
0.0
 11
424.8351591742919
 21
2256.669101578987
 31
0.0
  0
LINE
  5
1B2
330
6F
100
AcDbEntity
  8
2-0
  6
DASHED2
 62
     7
100
AcDbLine
 10
452.3351589999999
 20
2132.323489
 30
0.0
 11
492.335159
 21
2152.323489
 31
0.0
  0
LINE
  5
1B3
330
6F
100
AcDbEntity
  8
2-0
  6
DASHED2
 62
     7
100
AcDbLine
 10
492.335159
 20
2152.323489
 30
0.0
 11
492.335159
 21
2132.323489
 31
0.0
  0
LINE
  5
1B4
330
6F
100
AcDbEntity
  8
8-0
  6
Continuous
 62
     4
100
AcDbLine
 10
1484.835159
 20
2249.879659
 30
0.0
 11
1484.835159
 21
2356.669102
 31
0.0
  0
LINE
  5
1B5
330
6F
100
AcDbEntity
  8
8-0
  6
Continuous
 62
     4
100
AcDbLine
 10
1134.835159
 20
2356.197707
 30
0.0
 11
1134.835159
 21
2356.669102
 31
0.0
  0
TEXT
  5
1B6
330
6F
100
AcDbEntity
  8
8-0
 62
     4
100
AcDbText
 10
1279.058
 20
2357.289
 30
0.0
 40
36.288
  1
350
100
AcDbText
  0
LINE
  5
1B7
330
6F
100
AcDbEntity
  8
8-0
  6
Continuous
 62
     4
100
AcDbLine
 10
1134.835159174292
 20
2356.669101578988
 30
0.0
 11
1484.835159174292
 21
2356.669101578988
 31
0.0
  0
CIRCLE
  5
1B8
330
6F
100
AcDbEntity
  8
8-0
  6
Continuous
 62
     4
100
AcDbCircle
 10
1134.835159174292
 20
2356.669101578988
 30
0.0
 40
0.25
  0
CIRCLE
  5
1B9
330
6F
100
AcDbEntity
  8
8-0
  6
Continuous
 62
     4
100
AcDbCircle
 10
1134.835159174292
 20
2356.669101578988
 30
0.0
 40
0.1875
  0
CIRCLE
  5
1BA
330
6F
100
AcDbEntity
  8
8-0
  6
Continuous
 62
     4
100
AcDbCircle
 10
1134.835159174292
 20
2356.669101578988
 30
0.0
 40
0.125
  0
CIRCLE
  5
1BB
330
6F
100
AcDbEntity
  8
8-0
  6
Continuous
 62
     4
100
AcDbCircle
 10
1134.835159174292
 20
2356.669101578988
 30
0.0
 40
0.0625
  0
CIRCLE
  5
1BC
330
6F
100
AcDbEntity
  8
8-0
  6
Continuous
 62
     4
100
AcDbCircle
 10
1484.835159174292
 20
2356.669101578988
 30
0.0
 40
0.25
  0
CIRCLE
  5
1BD
330
6F
100
AcDbEntity
  8
8-0
  6
Continuous
 62
     4
100
AcDbCircle
 10
1484.835159174292
 20
2356.669101578988
 30
0.0
 40
0.1875
  0
CIRCLE
  5
1BE
330
6F
100
AcDbEntity
  8
8-0
  6
Continuous
 62
     4
100
AcDbCircle
 10
1484.835159174292
 20
2356.669101578988
 30
0.0
 40
0.125
  0
CIRCLE
  5
1BF
330
6F
100
AcDbEntity
  8
8-0
  6
Continuous
 62
     4
100
AcDbCircle
 10
1484.835159174292
 20
2356.669101578988
 30
0.0
 40
0.0625
  0
LINE
  5
1C0
330
6F
100
AcDbEntity
  8
9-0
  6
CENTER
 62
     6
100
AcDbLine
 10
1134.835159
 20
2132.323489
 30
0.0
 11
1134.835159
 21
2352.980231
 31
0.0
  0
LINE
  5
1C1
330
6F
100
AcDbEntity
  8
8-0
  6
Continuous
 62
     4
100
AcDbLine
 10
1154.835159
 20
2192.286986
 30
0.0
 11
1154.835159
 21
2256.669102
 31
0.0
  0
LINE
  5
1C2
330
6F
100
AcDbEntity
  8
8-0
  6
Continuous
 62
     4
100
AcDbLine
 10
1114.835159
 20
2196.31135
 30
0.0
 11
1114.835159
 21
2256.669102
 31
0.0
  0
LINE
  5
1C3
330
6F
100
AcDbEntity
  8
8-0
  6
Continuous
 62
     4
100
AcDbLine
 10
1144.835159
 20
2256.669102
 30
0.0
 11
1124.835159
 21
2256.669102
 31
0.0
  0
LINE
  5
1C4
330
6F
100
AcDbEntity
  8
8-0
  6
Continuous
 62
     4
100
AcDbLine
 10
1134.835159
 20
2256.669102
 30
0.0
 11
1116.114274
 21
2287.017285
 31
0.0
  0
LINE
  5
1C5
330
6F
100
AcDbEntity
  8
8-0
  6
Continuous
 62
     4
100
AcDbLine
 10
1116.114274
 20
2287.017285
 30
0.0
 11
1053.83001
 21
2287.017285
 31
0.0
  0
TEXT
  5
1C6
330
6F
100
AcDbEntity
  8
8-0
 62
     4
100
AcDbText
 10
1065.395
 20
2287.637
 30
0.0
 40
36.288
  1
40
100
AcDbText
  0
CIRCLE
  5
1C7
330
6F
100
AcDbEntity
  8
8-0
  6
Continuous
 62
     4
100
AcDbCircle
 10
1154.835159174292
 20
2256.669101578987
 30
0.0
 40
0.25
  0
CIRCLE
  5
1C8
330
6F
100
AcDbEntity
  8
8-0
  6
Continuous
 62
     4
100
AcDbCircle
 10
1154.835159174292
 20
2256.669101578987
 30
0.0
 40
0.1875
  0
CIRCLE
  5
1C9
330
6F
100
AcDbEntity
  8
8-0
  6
Continuous
 62
     4
100
AcDbCircle
 10
1154.835159174292
 20
2256.669101578987
 30
0.0
 40
0.125
  0
CIRCLE
  5
1CA
330
6F
100
AcDbEntity
  8
8-0
  6
Continuous
 62
     4
100
AcDbCircle
 10
1154.835159174292
 20
2256.669101578987
 30
0.0
 40
0.0625
  0
ARC
  5
1CB
330
6F
100
AcDbEntity
  8
8-0
 62
     4
100
AcDbCircle
 10
1154.835159174292
 20
2256.674101578987
 30
0.0
 40
2.5
100
AcDbArc
 50
0.1145914065300158
 51
180.114591405945
  0
LINE
  5
1CC
330
6F
100
AcDbEntity
  8
8-0
 62
     4
100
AcDbLine
 10
1149.835159174292
 20
2256.669101578987
 30
0.0
 11
1144.835159174292
 21
2256.669101578987
 31
0.0
  0
CIRCLE
  5
1CD
330
6F
100
AcDbEntity
  8
8-0
  6
Continuous
 62
     4
100
AcDbCircle
 10
1114.835159174292
 20
2256.669101578987
 30
0.0
 40
0.25
  0
CIRCLE
  5
1CE
330
6F
100
AcDbEntity
  8
8-0
  6
Continuous
 62
     4
100
AcDbCircle
 10
1114.835159174292
 20
2256.669101578987
 30
0.0
 40
0.1875
  0
CIRCLE
  5
1CF
330
6F
100
AcDbEntity
  8
8-0
  6
Continuous
 62
     4
100
AcDbCircle
 10
1114.835159174292
 20
2256.669101578987
 30
0.0
 40
0.125
  0
CIRCLE
  5
1D0
330
6F
100
AcDbEntity
  8
8-0
  6
Continuous
 62
     4
100
AcDbCircle
 10
1114.835159174292
 20
2256.669101578987
 30
0.0
 40
0.0625
  0
ARC
  5
1D1
330
6F
100
AcDbEntity
  8
8-0
 62
     4
100
AcDbCircle
 10
1114.835159174292
 20
2256.664101578987
 30
0.0
 40
2.5
100
AcDbArc
 50
180.1145914065301
 51
0.1145914059449637
  0
LINE
  5
1D2
330
6F
100
AcDbEntity
  8
8-0
 62
     4
100
AcDbLine
 10
1119.835159174292
 20
2256.669101579038
 30
0.0
 11
1124.835159174292
 21
2256.669101579089
 31
0.0
  0
LINE
  5
1D3
330
6F
100
AcDbEntity
  8
2-0
  6
DASHED2
 62
     7
100
AcDbLine
 10
1154.835159
 20
2152.323489
 30
0.0
 11
1114.835159
 21
2132.323489
 31
0.0
  0
LINE
  5
1D4
330
6F
100
AcDbEntity
  8
2-0
  6
DASHED2
 62
     7
100
AcDbLine
 10
1154.835159
 20
2132.323489
 30
0.0
 11
1154.835159
 21
2152.323489
 31
0.0
  0
LINE
  5
1D5
330
6F
100
AcDbEntity
  8
2-0
  6
DASHED2
 62
     7
100
AcDbLine
 10
1114.835159
 20
2132.323489
 30
0.0
 11
1114.835159
 21
2152.323489
 31
0.0
  0
LINE
  5
1D6
330
6F
100
AcDbEntity
  8
8-0
  6
Continuous
 62
     4
100
AcDbLine
 10
1467.335159
 20
2192.286986
 30
0.0
 11
1467.335159
 21
2256.669102
 31
0.0
  0
LINE
  5
1D7
330
6F
100
AcDbEntity
  8
8-0
  6
Continuous
 62
     4
100
AcDbLine
 10
1484.835159
 20
2193.896732
 30
0.0
 11
1484.835159
 21
2256.669102
 31
0.0
  0
LINE
  5
1D8
330
6F
100
AcDbEntity
  8
8-0
  6
Continuous
 62
     4
100
AcDbLine
 10
1457.335159
 20
2256.669102
 30
0.0
 11
1447.335159
 21
2256.669102
 31
0.0
  0
LINE
  5
1D9
330
6F
100
AcDbEntity
  8
8-0
  6
Continuous
 62
     4
100
AcDbLine
 10
1494.835159
 20
2256.669102
 30
0.0
 11
1504.835159
 21
2256.669102
 31
0.0
  0
LINE
  5
1DA
330
6F
100
AcDbEntity
  8
8-0
  6
Continuous
 62
     4
100
AcDbLine
 10
1476.085159
 20
2256.669102
 30
0.0
 11
1500.613058
 21
2287.049813
 31
0.0
  0
LINE
  5
1DB
330
6F
100
AcDbEntity
  8
8-0
  6
Continuous
 62
     4
100
AcDbLine
 10
1500.613058
 20
2287.049813
 30
0.0
 11
1604.470926
 21
2287.049813
 31
0.0
  0
TEXT
  5
1DC
330
6F
100
AcDbEntity
  8
8-0
 62
     4
100
AcDbText
 10
1510.564
 20
2287.67
 30
0.0
 40
36.288
  1
17.5
100
AcDbText
  0
LINE
  5
1DD
330
6F
100
AcDbEntity
  8
8-0
  6
Continuous
 62
     4
100
AcDbLine
 10
1467.335159
 20
2256.669102
 30
0.0
 11
1484.835159
 21
2256.669102
 31
0.0
  0
LINE
  5
1DE
330
6F
100
AcDbEntity
  8
8-0
  6
Continuous
 62
     4
100
AcDbLine
 10
1467.335159
 20
2256.669102
 30
0.0
 11
1484.835159
 21
2256.669102
 31
0.0
  0
CIRCLE
  5
1DF
330
6F
100
AcDbEntity
  8
8-0
  6
Continuous
 62
     4
100
AcDbCircle
 10
1467.335159174292
 20
2256.669101578987
 30
0.0
 40
0.25
  0
CIRCLE
  5
1E0
330
6F
100
AcDbEntity
  8
8-0
  6
Continuous
 62
     4
100
AcDbCircle
 10
1467.335159174292
 20
2256.669101578987
 30
0.0
 40
0.1875
  0
CIRCLE
  5
1E1
330
6F
100
AcDbEntity
  8
8-0
  6
Continuous
 62
     4
100
AcDbCircle
 10
1467.335159174292
 20
2256.669101578987
 30
0.0
 40
0.125
  0
CIRCLE
  5
1E2
330
6F
100
AcDbEntity
  8
8-0
  6
Continuous
 62
     4
100
AcDbCircle
 10
1467.335159174292
 20
2256.669101578987
 30
0.0
 40
0.0625
  0
ARC
  5
1E3
330
6F
100
AcDbEntity
  8
8-0
 62
     4
100
AcDbCircle
 10
1467.335159174292
 20
2256.674101578987
 30
0.0
 40
2.5
100
AcDbArc
 50
0.1145914065300158
 51
180.114591405945
  0
LINE
  5
1E4
330
6F
100
AcDbEntity
  8
8-0
 62
     4
100
AcDbLine
 10
1462.335159174292
 20
2256.669101578987
 30
0.0
 11
1457.335159174292
 21
2256.669101578987
 31
0.0
  0
CIRCLE
  5
1E5
330
6F
100
AcDbEntity
  8
8-0
  6
Continuous
 62
     4
100
AcDbCircle
 10
1484.835159174292
 20
2256.669101578987
 30
0.0
 40
0.25
  0
CIRCLE
  5
1E6
330
6F
100
AcDbEntity
  8
8-0
  6
Continuous
 62
     4
100
AcDbCircle
 10
1484.835159174292
 20
2256.669101578987
 30
0.0
 40
0.1875
  0
CIRCLE
  5
1E7
330
6F
100
AcDbEntity
  8
8-0
  6
Continuous
 62
     4
100
AcDbCircle
 10
1484.835159174292
 20
2256.669101578987
 30
0.0
 40
0.125
  0
CIRCLE
  5
1E8
330
6F
100
AcDbEntity
  8
8-0
  6
Continuous
 62
     4
100
AcDbCircle
 10
1484.835159174292
 20
2256.669101578987
 30
0.0
 40
0.0625
  0
ARC
  5
1E9
330
6F
100
AcDbEntity
  8
8-0
 62
     4
100
AcDbCircle
 10
1484.835159174292
 20
2256.664101578987
 30
0.0
 40
2.5
100
AcDbArc
 50
180.1145914065301
 51
0.1145914059449637
  0
LINE
  5
1EA
330
6F
100
AcDbEntity
  8
8-0
 62
     4
100
AcDbLine
 10
1489.835159174292
 20
2256.669101579038
 30
0.0
 11
1494.835159174292
 21
2256.669101579089
 31
0.0
  0
LINE
  5
1EB
330
6F
100
AcDbEntity
  8
8-0
  6
Continuous
 62
     4
100
AcDbLine
 10
1467.335159
 20
2192.286986
 30
0.0
 11
1467.335159
 21
2256.669102
 31
0.0
  0
LINE
  5
1EC
330
6F
100
AcDbEntity
  8
8-0
  6
Continuous
 62
     4
100
AcDbLine
 10
1427.335159
 20
2196.31135
 30
0.0
 11
1427.335159
 21
2256.669102
 31
0.0
  0
LINE
  5
1ED
330
6F
100
AcDbEntity
  8
8-0
  6
Continuous
 62
     4
100
AcDbLine
 10
1457.335159
 20
2256.669102
 30
0.0
 11
1437.335159
 21
2256.669102
 31
0.0
  0
LINE
  5
1EE
330
6F
100
AcDbEntity
  8
8-0
  6
Continuous
 62
     4
100
AcDbLine
 10
1447.335159
 20
2256.669102
 30
0.0
 11
1423.614274
 21
2287.017285
 31
0.0
  0
LINE
  5
1EF
330
6F
100
AcDbEntity
  8
8-0
  6
Continuous
 62
     4
100
AcDbLine
 10
1423.614274
 20
2287.017285
 30
0.0
 11
1361.33001
 21
2287.017285
 31
0.0
  0
TEXT
  5
1F0
330
6F
100
AcDbEntity
  8
8-0
 62
     4
100
AcDbText
 10
1372.895
 20
2287.637
 30
0.0
 40
36.288
  1
40
100
AcDbText
  0
CIRCLE
  5
1F1
330
6F
100
AcDbEntity
  8
8-0
  6
Continuous
 62
     4
100
AcDbCircle
 10
1467.335159174292
 20
2256.669101578987
 30
0.0
 40
0.25
  0
CIRCLE
  5
1F2
330
6F
100
AcDbEntity
  8
8-0
  6
Continuous
 62
     4
100
AcDbCircle
 10
1467.335159174292
 20
2256.669101578987
 30
0.0
 40
0.1875
  0
CIRCLE
  5
1F3
330
6F
100
AcDbEntity
  8
8-0
  6
Continuous
 62
     4
100
AcDbCircle
 10
1467.335159174292
 20
2256.669101578987
 30
0.0
 40
0.125
  0
CIRCLE
  5
1F4
330
6F
100
AcDbEntity
  8
8-0
  6
Continuous
 62
     4
100
AcDbCircle
 10
1467.335159174292
 20
2256.669101578987
 30
0.0
 40
0.0625
  0
ARC
  5
1F5
330
6F
100
AcDbEntity
  8
8-0
 62
     4
100
AcDbCircle
 10
1467.335159174292
 20
2256.674101578987
 30
0.0
 40
2.5
100
AcDbArc
 50
0.1145914065300158
 51
180.114591405945
  0
LINE
  5
1F6
330
6F
100
AcDbEntity
  8
8-0
 62
     4
100
AcDbLine
 10
1462.335159174292
 20
2256.669101578987
 30
0.0
 11
1457.335159174292
 21
2256.669101578987
 31
0.0
  0
CIRCLE
  5
1F7
330
6F
100
AcDbEntity
  8
8-0
  6
Continuous
 62
     4
100
AcDbCircle
 10
1427.335159174292
 20
2256.669101578987
 30
0.0
 40
0.25
  0
CIRCLE
  5
1F8
330
6F
100
AcDbEntity
  8
8-0
  6
Continuous
 62
     4
100
AcDbCircle
 10
1427.335159174292
 20
2256.669101578987
 30
0.0
 40
0.1875
  0
CIRCLE
  5
1F9
330
6F
100
AcDbEntity
  8
8-0
  6
Continuous
 62
     4
100
AcDbCircle
 10
1427.335159174292
 20
2256.669101578987
 30
0.0
 40
0.125
  0
CIRCLE
  5
1FA
330
6F
100
AcDbEntity
  8
8-0
  6
Continuous
 62
     4
100
AcDbCircle
 10
1427.335159174292
 20
2256.669101578987
 30
0.0
 40
0.0625
  0
ARC
  5
1FB
330
6F
100
AcDbEntity
  8
8-0
 62
     4
100
AcDbCircle
 10
1427.335159174292
 20
2256.664101578987
 30
0.0
 40
2.5
100
AcDbArc
 50
180.1145914065301
 51
0.1145914059449637
  0
LINE
  5
1FC
330
6F
100
AcDbEntity
  8
8-0
 62
     4
100
AcDbLine
 10
1432.335159174292
 20
2256.669101579038
 30
0.0
 11
1437.335159174292
 21
2256.669101579089
 31
0.0
  0
LINE
  5
1FD
330
6F
100
AcDbEntity
  8
2-0
  6
DASHED2
 62
     7
100
AcDbLine
 10
1427.335159
 20
2132.323489
 30
0.0
 11
1467.335159
 21
2152.323489
 31
0.0
  0
LINE
  5
1FE
330
6F
100
AcDbEntity
  8
2-0
  6
DASHED2
 62
     7
100
AcDbLine
 10
1427.335159
 20
2152.323489
 30
0.0
 11
1427.335159
 21
2132.323489
 31
0.0
  0
CIRCLE
  5
1FF
330
6F
100
AcDbEntity
  8
C-0
  6
CENTER
 62
     5
100
AcDbCircle
 10
433.835159663279
 20
718.3210509938369
 30
0.0
 40
35.65880700000001
  0
TEXT
  5
200
330
6F
100
AcDbEntity
  8
C-0
 62
     5
100
AcDbText
 10
369.761
 20
652.252
 30
0.0
 40
25.92
  1
A
100
AcDbText
  0
CIRCLE
  5
201
330
6F
100
AcDbEntity
  8
C-0
  6
CENTER
 62
     5
100
AcDbCircle
 10
1485.835158685305
 20
718.3210509938369
 30
0.0
 40
35.65880700000001
  0
TEXT
  5
202
330
6F
100
AcDbEntity
  8
C-0
 62
     5
100
AcDbText
 10
1537.941
 20
652.252
 30
0.0
 40
25.92
  1
A
100
AcDbText
  0
TEXT
  5
203
330
6F
100
AcDbEntity
  8
C-0
 62
     5
100
AcDbText
 10
3251.813
 20
577.3189999999999
 30
0.0
 40
20.736
  1
火山性ガラス質複層板 6t（化粧仕上）
100
AcDbText
  0
LINE
  5
204
330
6F
100
AcDbEntity
  8
2-0
  6
Continuous
 62
     7
100
AcDbLine
 10
3168.175187106697
 20
679.444218877784
 30
0.0
 11
3230.199916045533
 21
568.9287873631559
 31
0.0
  0
LINE
  5
205
330
6F
100
AcDbEntity
  8
2-0
  6
Continuous
 62
     7
100
AcDbLine
 10
3230.199916045533
 20
568.9287873631559
 30
0.0
 11
3718.744288339905
 21
568.9287873631559
 31
0.0
  0
LINE
  5
206
330
6F
100
AcDbEntity
  8
2-0
  6
Continuous
 62
     7
100
AcDbLine
 10
3264.060633000001
 20
962.189958
 30
0.0
 11
3349.060633
 21
962.189958
 31
0.0
  0
LINE
  5
207
330
6F
100
AcDbEntity
  8
2-0
  6
Continuous
 62
     7
100
AcDbLine
 10
2996.18154
 20
668.177538
 30
0.0
 11
3349.060633
 21
668.177538
 31
0.0
  0
LINE
  5
208
330
6F
100
AcDbEntity
  8
2-0
  6
Continuous
 62
     7
100
AcDbLine
 10
2996.18154
 20
698.177538
 30
0.0
 11
3304.060633000001
 21
698.177538
 31
0.0
  0
LINE
  5
209
330
6F
100
AcDbEntity
  8
2-0
  6
Continuous
 62
     7
100
AcDbLine
 10
2996.18154
 20
755.677538
 30
0.0
 11
2996.18154
 21
668.177538
 31
0.0
  0
LINE
  5
20A
330
6F
100
AcDbEntity
  8
2-0
  6
Continuous
 62
     7
100
AcDbLine
 10
3280.210113000001
 20
698.177538
 30
0.0
 11
3280.210113000001
 21
962.189958
 31
0.0
  0
LINE
  5
20B
330
6F
100
AcDbEntity
  8
2-0
  6
Continuous
 62
     7
100
AcDbLine
 10
3264.060633000001
 20
698.177538
 30
0.0
 11
3264.060633000001
 21
962.189958
 31
0.0
  0
LINE
  5
20C
330
6F
100
AcDbEntity
  8
2-0
  6
Continuous
 62
     7
100
AcDbLine
 10
3276.560633000001
 20
698.177538
 30
0.0
 11
3276.560633000001
 21
962.189958
 31
0.0
  0
TEXT
  5
20D
330
6F
100
AcDbEntity
  8
C-0
 62
     5
100
AcDbText
 10
2929.503
 20
820.6789999999999
 30
0.0
 40
20.736
  1
パーチクルボード
100
AcDbText
  0
LINE
  5
20E
330
6F
100
AcDbEntity
  8
2-0
  6
Continuous
 62
     7
100
AcDbLine
 10
3210.923059489508
 20
722.0423960031809
 30
0.0
 11
3152.6901545563
 21
812.8005075311749
 31
0.0
  0
LINE
  5
20F
330
6F
100
AcDbEntity
  8
2-0
  6
Continuous
 62
     7
100
AcDbLine
 10
3152.6901545563
 20
812.8005075311749
 30
0.0
 11
2922.576518192664
 21
812.8005075311749
 31
0.0
  0
LINE
  5
210
330
6F
100
AcDbEntity
  8
2-0
  6
Continuous
 62
     7
100
AcDbLine
 10
2996.18154
 20
743.177538
 30
0.0
 11
3264.060633000001
 21
743.177538
 31
0.0
  0
LINE
  5
211
330
6F
100
AcDbEntity
  8
2-0
  6
Continuous
 62
     7
100
AcDbLine
 10
2996.18154
 20
755.677538
 30
0.0
 11
3264.060633000001
 21
755.677538
 31
0.0
  0
LINE
  5
212
330
6F
100
AcDbEntity
  8
2-0
  6
Continuous
 62
     7
100
AcDbLine
 10
3304.060633000001
 20
668.177538
 30
0.0
 11
3304.060633000001
 21
962.189958
 31
0.0
  0
LINE
  5
213
330
6F
100
AcDbEntity
  8
2-0
  6
Continuous
 62
     7
100
AcDbLine
 10
3349.060633
 20
668.177538
 30
0.0
 11
3349.060633
 21
962.189958
 31
0.0
  0
TEXT
  5
214
330
6F
100
AcDbEntity
  8
C-0
 62
     5
100
AcDbText
 10
3267.566
 20
529.5650000000001
 30
0.0
 40
20.736
  1
(不燃認定品)
100
AcDbText
  0
LINE
  5
215
330
6F
100
AcDbEntity
  8
2-0
  6
Continuous
 62
     7
100
AcDbLine
 10
3300.210113
 20
698.177538
 30
0.0
 11
3300.210113
 21
962.189958
 31
0.0
  0
LINE
  5
216
330
6F
100
AcDbEntity
  8
2-0
  6
Continuous
 62
     7
100
AcDbLine
 10
3295.210113
 20
698.177538
 30
0.0
 11
3295.210113
 21
962.189958
 31
0.0
  0
LINE
  5
217
330
6F
100
AcDbEntity
  8
2-0
  6
Continuous
 62
     7
100
AcDbLine
 10
3290.210113
 20
698.177538
 30
0.0
 11
3290.210113
 21
962.189958
 31
0.0
  0
LINE
  5
218
330
6F
100
AcDbEntity
  8
2-0
  6
Continuous
 62
     7
100
AcDbLine
 10
3285.210113
 20
698.177538
 30
0.0
 11
3285.210113
 21
962.189958
 31
0.0
  0
LINE
  5
219
330
6F
100
AcDbEntity
  8
2-0
  6
Continuous
 62
     7
100
AcDbLine
 10
3286.999769173419
 20
833.1485503581799
 30
0.0
 11
3228.766864240212
 21
924.815752795264
 31
0.0
  0
LINE
  5
21A
330
6F
100
AcDbEntity
  8
2-0
  6
Continuous
 62
     7
100
AcDbLine
 10
3228.766864240212
 20
924.815752795264
 30
0.0
 11
3053.085046058394
 21
924.815752795264
 31
0.0
  0
TEXT
  5
21B
330
6F
100
AcDbEntity
  8
C-0
 62
     5
100
AcDbText
 10
3056.78
 20
931.7849999999999
 30
0.0
 40
20.736
  1
ラワンベニヤ
100
AcDbText
  0
LINE
  5
21C
330
6F
100
AcDbEntity
  8
2-0
  6
Continuous
 62
     7
100
AcDbLine
 10
3334.491886798367
 20
836.796895610224
 30
0.0
 11
3396.516615737203
 21
726.2814640955919
 31
0.0
  0
LINE
  5
21D
330
6F
100
AcDbEntity
  8
2-0
  6
Continuous
 62
     7
100
AcDbLine
 10
3396.516615737203
 20
726.2814640955919
 30
0.0
 11
3885.060988031574
 21
726.2814640955919
 31
0.0
  0
TEXT
  5
21E
330
6F
100
AcDbEntity
  8
C-0
 62
     5
100
AcDbText
 10
3418.129
 20
734.671
 30
0.0
 40
20.736
  1
火山性ガラス質複層板 9t（化粧仕上）
100
AcDbText
  0
TEXT
  5
21F
330
6F
100
AcDbEntity
  8
C-0
 62
     5
100
AcDbText
 10
3433.883
 20
686.9169999999999
 30
0.0
 40
20.736
  1
(不燃認定品)
100
AcDbText
  0
TEXT
  5
220
330
6F
100
AcDbEntity
  8
C-0
 62
     5
100
AcDbText
 10
3244.702
 20
434.5559999999999
 30
0.0
 40
25.92
  1
Ａ部 詳細図
100
AcDbText
  0
LINE
  5
221
330
6F
100
AcDbEntity
  8
2-0
  6
Continuous
 62
     7
100
AcDbLine
 10
3165.616935
 20
474.95172
 30
0.0
 11
3498.397463
 21
474.95172
 31
0.0
  0
LINE
  5
222
330
6F
100
AcDbEntity
  8
2-0
  6
Continuous
 62
     7
100
AcDbLine
 10
3165.616935
 20
424.95172
 30
0.0
 11
3498.397463
 21
424.95172
 31
0.0
  0
LINE
  5
223
330
6F
100
AcDbEntity
  8
2-0
  6
Continuous
 62
     7
100
AcDbLine
 10
3165.616935
 20
474.95172
 30
0.0
 11
3165.616935
 21
424.95172
 31
0.0
  0
LINE
  5
224
330
6F
100
AcDbEntity
  8
2-0
  6
Continuous
 62
     7
100
AcDbLine
 10
3498.397463
 20
474.95172
 30
0.0
 11
3498.397463
 21
424.95172
 31
0.0
  0
LINE
  5
225
330
6F
100
AcDbEntity
  8
2-0
  6
Continuous
 62
     7
100
AcDbLine
 10
2741.921287
 20
1180.738117
 30
0.0
 11
2741.921287
 21
449.95172
 31
0.0
  0
LINE
  5
226
330
6F
100
AcDbEntity
  8
2-0
  6
Continuous
 62
     7
100
AcDbLine
 10
2741.921287
 20
1180.738117
 30
0.0
 11
3949.881670000001
 21
1180.738117
 31
0.0
  0
LINE
  5
227
330
6F
100
AcDbEntity
  8
2-0
  6
Continuous
 62
     7
100
AcDbLine
 10
2741.921287
 20
449.95172
 30
0.0
 11
3165.616935
 21
449.95172
 31
0.0
  0
LINE
  5
228
330
6F
100
AcDbEntity
  8
2-0
  6
Continuous
 62
     7
100
AcDbLine
 10
3949.881670000001
 20
1180.738117
 30
0.0
 11
3949.881670000001
 21
449.95172
 31
0.0
  0
LINE
  5
229
330
6F
100
AcDbEntity
  8
2-0
  6
Continuous
 62
     7
100
AcDbLine
 10
3498.397463
 20
449.95172
 30
0.0
 11
3949.881670000001
 21
449.95172
 31
0.0
  0
LINE
  5
22A
330
6F
100
AcDbEntity
  8
2-0
  6
Continuous
 62
     4
100
AcDbLine
 10
3006.21523
 20
698.177538
 30
0.0
 11
2910.947145
 21
698.177538
 31
0.0
  0
LINE
  5
22B
330
6F
100
AcDbEntity
  8
2-0
  6
Continuous
 62
     4
100
AcDbLine
 10
3006.087713
 20
668.177538
 30
0.0
 11
2910.947145
 21
668.177538
 31
0.0
  0
LINE
  5
22C
330
6F
100
AcDbEntity
  8
2-0
  6
Continuous
 62
     4
100
AcDbLine
 10
2910.947145
 20
708.177538
 30
0.0
 11
2910.947145
 21
718.177538
 31
0.0
  0
LINE
  5
22D
330
6F
100
AcDbEntity
  8
2-0
  6
Continuous
 62
     4
100
AcDbLine
 10
2910.947145
 20
658.177538
 30
0.0
 11
2910.947145
 21
648.177538
 31
0.0
  0
TEXT
  5
22E
330
6F
100
AcDbEntity
  8
2-0
 62
     4
100
AcDbText
 10
2907.647
 20
675.178
 30
0.0
 40
25.92
  1
6
 50
90.0
100
AcDbText
  0
LINE
  5
22F
330
6F
100
AcDbEntity
  8
2-0
  6
Continuous
 62
     4
100
AcDbLine
 10
2910.947145
 20
698.177538
 30
0.0
 11
2910.947145
 21
668.177538
 31
0.0
  0
CIRCLE
  5
230
330
6F
100
AcDbEntity
  8
2-0
  6
Continuous
 62
     4
100
AcDbCircle
 10
2910.947144944499
 20
698.177537773602
 30
0.0
 40
0.25
  0
CIRCLE
  5
231
330
6F
100
AcDbEntity
  8
2-0
  6
Continuous
 62
     4
100
AcDbCircle
 10
2910.947144944499
 20
698.177537773602
 30
0.0
 40
0.1875
  0
CIRCLE
  5
232
330
6F
100
AcDbEntity
  8
2-0
  6
Continuous
 62
     4
100
AcDbCircle
 10
2910.947144944499
 20
698.177537773602
 30
0.0
 40
0.125
  0
CIRCLE
  5
233
330
6F
100
AcDbEntity
  8
2-0
  6
Continuous
 62
     4
100
AcDbCircle
 10
2910.947144944499
 20
698.177537773602
 30
0.0
 40
0.0625
  0
ARC
  5
234
330
6F
100
AcDbEntity
  8
2-0
 62
     4
100
AcDbCircle
 10
2910.952144944499
 20
698.177537773602
 30
0.0
 40
2.5
100
AcDbArc
 50
270.1145914065301
 51
90.11459140594496
  0
LINE
  5
235
330
6F
100
AcDbEntity
  8
2-0
 62
     4
100
AcDbLine
 10
2910.947144944423
 20
703.1775377736019
 30
0.0
 11
2910.947144944346
 21
708.177537773602
 31
0.0
  0
CIRCLE
  5
236
330
6F
100
AcDbEntity
  8
2-0
  6
Continuous
 62
     4
100
AcDbCircle
 10
2910.947144944499
 20
668.177537773602
 30
0.0
 40
0.25
  0
CIRCLE
  5
237
330
6F
100
AcDbEntity
  8
2-0
  6
Continuous
 62
     4
100
AcDbCircle
 10
2910.947144944499
 20
668.177537773602
 30
0.0
 40
0.1875
  0
CIRCLE
  5
238
330
6F
100
AcDbEntity
  8
2-0
  6
Continuous
 62
     4
100
AcDbCircle
 10
2910.947144944499
 20
668.177537773602
 30
0.0
 40
0.125
  0
CIRCLE
  5
239
330
6F
100
AcDbEntity
  8
2-0
  6
Continuous
 62
     4
100
AcDbCircle
 10
2910.947144944499
 20
668.177537773602
 30
0.0
 40
0.0625
  0
ARC
  5
23A
330
6F
100
AcDbEntity
  8
2-0
 62
     4
100
AcDbCircle
 10
2910.942144944499
 20
668.177537773602
 30
0.0
 40
2.5
100
AcDbArc
 50
90.11459140653
 51
270.114591405945
  0
LINE
  5
23B
330
6F
100
AcDbEntity
  8
2-0
 62
     4
100
AcDbLine
 10
2910.947144944525
 20
663.177537773602
 30
0.0
 11
2910.94714494455
 21
658.177537773602
 31
0.0
  0
LINE
  5
23C
330
6F
100
AcDbEntity
  8
2-0
  6
Continuous
 62
     4
100
AcDbLine
 10
3006.21523
 20
698.177538
 30
0.0
 11
2910.947145
 21
698.177538
 31
0.0
  0
LINE
  5
23D
330
6F
100
AcDbEntity
  8
2-0
  6
Continuous
 62
     4
100
AcDbLine
 10
3006.023954
 20
743.177538
 30
0.0
 11
2910.947145
 21
743.177538
 31
0.0
  0
LINE
  5
23E
330
6F
100
AcDbEntity
  8
2-0
  6
Continuous
 62
     4
100
AcDbLine
 10
2910.947145
 20
708.177538
 30
0.0
 11
2910.947145
 21
733.177538
 31
0.0
  0
TEXT
  5
23F
330
6F
100
AcDbEntity
  8
2-0
 62
     4
100
AcDbText
 10
2907.647
 20
712.678
 30
0.0
 40
25.92
  1
9
 50
90.0
100
AcDbText
  0
CIRCLE
  5
240
330
6F
100
AcDbEntity
  8
2-0
  6
Continuous
 62
     4
100
AcDbCircle
 10
2910.947144944499
 20
698.177537773602
 30
0.0
 40
0.25
  0
CIRCLE
  5
241
330
6F
100
AcDbEntity
  8
2-0
  6
Continuous
 62
     4
100
AcDbCircle
 10
2910.947144944499
 20
698.177537773602
 30
0.0
 40
0.1875
  0
CIRCLE
  5
242
330
6F
100
AcDbEntity
  8
2-0
  6
Continuous
 62
     4
100
AcDbCircle
 10
2910.947144944499
 20
698.177537773602
 30
0.0
 40
0.125
  0
CIRCLE
  5
243
330
6F
100
AcDbEntity
  8
2-0
  6
Continuous
 62
     4
100
AcDbCircle
 10
2910.947144944499
 20
698.177537773602
 30
0.0
 40
0.0625
  0
ARC
  5
244
330
6F
100
AcDbEntity
  8
2-0
 62
     4
100
AcDbCircle
 10
2910.952144944499
 20
698.177537773602
 30
0.0
 40
2.5
100
AcDbArc
 50
270.1145914065301
 51
90.11459140594496
  0
LINE
  5
245
330
6F
100
AcDbEntity
  8
2-0
 62
     4
100
AcDbLine
 10
2910.947144944423
 20
703.1775377736019
 30
0.0
 11
2910.947144944346
 21
708.177537773602
 31
0.0
  0
CIRCLE
  5
246
330
6F
100
AcDbEntity
  8
2-0
  6
Continuous
 62
     4
100
AcDbCircle
 10
2910.947144944499
 20
743.177537773602
 30
0.0
 40
0.25
  0
CIRCLE
  5
247
330
6F
100
AcDbEntity
  8
2-0
  6
Continuous
 62
     4
100
AcDbCircle
 10
2910.947144944499
 20
743.177537773602
 30
0.0
 40
0.1875
  0
CIRCLE
  5
248
330
6F
100
AcDbEntity
  8
2-0
  6
Continuous
 62
     4
100
AcDbCircle
 10
2910.947144944499
 20
743.177537773602
 30
0.0
 40
0.125
  0
CIRCLE
  5
249
330
6F
100
AcDbEntity
  8
2-0
  6
Continuous
 62
     4
100
AcDbCircle
 10
2910.947144944499
 20
743.177537773602
 30
0.0
 40
0.0625
  0
ARC
  5
24A
330
6F
100
AcDbEntity
  8
2-0
 62
     4
100
AcDbCircle
 10
2910.942144944499
 20
743.177537773602
 30
0.0
 40
2.5
100
AcDbArc
 50
90.11459140653
 51
270.114591405945
  0
LINE
  5
24B
330
6F
100
AcDbEntity
  8
2-0
 62
     4
100
AcDbLine
 10
2910.947144944525
 20
738.177537773602
 30
0.0
 11
2910.94714494455
 21
733.177537773602
 31
0.0
  0
LINE
  5
24C
330
6F
100
AcDbEntity
  8
2-0
  6
Continuous
 62
     4
100
AcDbLine
 10
3006.077087
 20
755.677538
 30
0.0
 11
2910.947145
 21
755.677538
 31
0.0
  0
LINE
  5
24D
330
6F
100
AcDbEntity
  8
2-0
  6
Continuous
 62
     4
100
AcDbLine
 10
3006.023954
 20
743.177538
 30
0.0
 11
2910.947145
 21
743.177538
 31
0.0
  0
LINE
  5
24E
330
6F
100
AcDbEntity
  8
2-0
  6
Continuous
 62
     4
100
AcDbLine
 10
2910.947145
 20
765.677538
 30
0.0
 11
2910.947145
 21
775.677538
 31
0.0
  0
LINE
  5
24F
330
6F
100
AcDbEntity
  8
2-0
  6
Continuous
 62
     4
100
AcDbLine
 10
2910.947145
 20
733.177538
 30
0.0
 11
2910.947145
 21
723.177538
 31
0.0
  0
TEXT
  5
250
330
6F
100
AcDbEntity
  8
2-0
 62
     4
100
AcDbText
 10
2909.433
 20
770.228
 30
0.0
 40
25.92
  1
2.5
 50
90.0
100
AcDbText
  0
LINE
  5
251
330
6F
100
AcDbEntity
  8
2-0
  6
Continuous
 62
     4
100
AcDbLine
 10
2910.947145
 20
755.677538
 30
0.0
 11
2910.947145
 21
743.177538
 31
0.0
  0
CIRCLE
  5
252
330
6F
100
AcDbEntity
  8
2-0
  6
Continuous
 62
     4
100
AcDbCircle
 10
2910.947144944499
 20
755.677537773602
 30
0.0
 40
0.25
  0
CIRCLE
  5
253
330
6F
100
AcDbEntity
  8
2-0
  6
Continuous
 62
     4
100
AcDbCircle
 10
2910.947144944499
 20
755.677537773602
 30
0.0
 40
0.1875
  0
CIRCLE
  5
254
330
6F
100
AcDbEntity
  8
2-0
  6
Continuous
 62
     4
100
AcDbCircle
 10
2910.947144944499
 20
755.677537773602
 30
0.0
 40
0.125
  0
CIRCLE
  5
255
330
6F
100
AcDbEntity
  8
2-0
  6
Continuous
 62
     4
100
AcDbCircle
 10
2910.947144944499
 20
755.677537773602
 30
0.0
 40
0.0625
  0
ARC
  5
256
330
6F
100
AcDbEntity
  8
2-0
 62
     4
100
AcDbCircle
 10
2910.952144944499
 20
755.677537773602
 30
0.0
 40
2.5
100
AcDbArc
 50
270.1145914065301
 51
90.11459140594496
  0
LINE
  5
257
330
6F
100
AcDbEntity
  8
2-0
 62
     4
100
AcDbLine
 10
2910.947144944423
 20
760.677537773602
 30
0.0
 11
2910.947144944346
 21
765.6775377736019
 31
0.0
  0
CIRCLE
  5
258
330
6F
100
AcDbEntity
  8
2-0
  6
Continuous
 62
     4
100
AcDbCircle
 10
2910.947144944499
 20
743.177537773602
 30
0.0
 40
0.25
  0
CIRCLE
  5
259
330
6F
100
AcDbEntity
  8
2-0
  6
Continuous
 62
     4
100
AcDbCircle
 10
2910.947144944499
 20
743.177537773602
 30
0.0
 40
0.1875
  0
CIRCLE
  5
25A
330
6F
100
AcDbEntity
  8
2-0
  6
Continuous
 62
     4
100
AcDbCircle
 10
2910.947144944499
 20
743.177537773602
 30
0.0
 40
0.125
  0
CIRCLE
  5
25B
330
6F
100
AcDbEntity
  8
2-0
  6
Continuous
 62
     4
100
AcDbCircle
 10
2910.947144944499
 20
743.177537773602
 30
0.0
 40
0.0625
  0
ARC
  5
25C
330
6F
100
AcDbEntity
  8
2-0
 62
     4
100
AcDbCircle
 10
2910.942144944499
 20
743.177537773602
 30
0.0
 40
2.5
100
AcDbArc
 50
90.11459140653
 51
270.114591405945
  0
LINE
  5
25D
330
6F
100
AcDbEntity
  8
2-0
 62
     4
100
AcDbLine
 10
2910.947144944525
 20
738.177537773602
 30
0.0
 11
2910.94714494455
 21
733.177537773602
 31
0.0
  0
LINE
  5
25E
330
6F
100
AcDbEntity
  8
2-0
  6
Continuous
 62
     4
100
AcDbLine
 10
2984.303261
 20
755.677538
 30
0.0
 11
2860.947145
 21
755.677538
 31
0.0
  0
LINE
  5
25F
330
6F
100
AcDbEntity
  8
2-0
  6
Continuous
 62
     4
100
AcDbLine
 10
2983.931336
 20
668.177538
 30
0.0
 11
2860.947145
 21
668.177538
 31
0.0
  0
LINE
  5
260
330
6F
100
AcDbEntity
  8
2-0
  6
Continuous
 62
     4
100
AcDbLine
 10
2860.947145
 20
745.677538
 30
0.0
 11
2860.947145
 21
678.177538
 31
0.0
  0
TEXT
  5
261
330
6F
100
AcDbEntity
  8
2-0
 62
     4
100
AcDbText
 10
2857.647
 20
679.928
 30
0.0
 40
25.92
  1
17.5
 50
90.0
100
AcDbText
  0
CIRCLE
  5
262
330
6F
100
AcDbEntity
  8
2-0
  6
Continuous
 62
     4
100
AcDbCircle
 10
2860.947144944499
 20
755.6775377735989
 30
0.0
 40
0.25
  0
CIRCLE
  5
263
330
6F
100
AcDbEntity
  8
2-0
  6
Continuous
 62
     4
100
AcDbCircle
 10
2860.947144944499
 20
755.6775377735989
 30
0.0
 40
0.1875
  0
CIRCLE
  5
264
330
6F
100
AcDbEntity
  8
2-0
  6
Continuous
 62
     4
100
AcDbCircle
 10
2860.947144944499
 20
755.6775377735989
 30
0.0
 40
0.125
  0
CIRCLE
  5
265
330
6F
100
AcDbEntity
  8
2-0
  6
Continuous
 62
     4
100
AcDbCircle
 10
2860.947144944499
 20
755.6775377735989
 30
0.0
 40
0.0625
  0
ARC
  5
266
330
6F
100
AcDbEntity
  8
2-0
 62
     4
100
AcDbCircle
 10
2860.942144944499
 20
755.6775377735989
 30
0.0
 40
2.5
100
AcDbArc
 50
90.11459140653
 51
270.114591405945
  0
LINE
  5
267
330
6F
100
AcDbEntity
  8
2-0
 62
     4
100
AcDbLine
 10
2860.947144944525
 20
750.6775377735989
 30
0.0
 11
2860.94714494455
 21
745.6775377735989
 31
0.0
  0
CIRCLE
  5
268
330
6F
100
AcDbEntity
  8
2-0
  6
Continuous
 62
     4
100
AcDbCircle
 10
2860.947144944499
 20
668.177537773602
 30
0.0
 40
0.25
  0
CIRCLE
  5
269
330
6F
100
AcDbEntity
  8
2-0
  6
Continuous
 62
     4
100
AcDbCircle
 10
2860.947144944499
 20
668.177537773602
 30
0.0
 40
0.1875
  0
CIRCLE
  5
26A
330
6F
100
AcDbEntity
  8
2-0
  6
Continuous
 62
     4
100
AcDbCircle
 10
2860.947144944499
 20
668.177537773602
 30
0.0
 40
0.125
  0
CIRCLE
  5
26B
330
6F
100
AcDbEntity
  8
2-0
  6
Continuous
 62
     4
100
AcDbCircle
 10
2860.947144944499
 20
668.177537773602
 30
0.0
 40
0.0625
  0
ARC
  5
26C
330
6F
100
AcDbEntity
  8
2-0
 62
     4
100
AcDbCircle
 10
2860.952144944499
 20
668.177537773602
 30
0.0
 40
2.5
100
AcDbArc
 50
270.1145914065301
 51
90.11459140594496
  0
LINE
  5
26D
330
6F
100
AcDbEntity
  8
2-0
 62
     4
100
AcDbLine
 10
2860.947144944423
 20
673.177537773602
 30
0.0
 11
2860.947144944346
 21
678.1775377736019
 31
0.0
  0
LINE
  5
26E
330
6F
100
AcDbEntity
  8
2-0
  6
Continuous
 62
     4
100
AcDbLine
 10
3261.560633
 20
970.3446019999999
 30
0.0
 11
3261.560633
 21
1093.700718
 31
0.0
  0
LINE
  5
26F
330
6F
100
AcDbEntity
  8
2-0
  6
Continuous
 62
     4
100
AcDbLine
 10
3349.060633
 20
970.716527
 30
0.0
 11
3349.060633
 21
1093.700718
 31
0.0
  0
LINE
  5
270
330
6F
100
AcDbEntity
  8
2-0
  6
Continuous
 62
     4
100
AcDbLine
 10
3271.560633
 20
1093.700718
 30
0.0
 11
3339.060633000001
 21
1093.700718
 31
0.0
  0
TEXT
  5
271
330
6F
100
AcDbEntity
  8
2-0
 62
     4
100
AcDbText
 10
3275.327
 20
1097.001
 30
0.0
 40
25.92
  1
17.5
100
AcDbText
  0
CIRCLE
  5
272
330
6F
100
AcDbEntity
  8
2-0
  6
Continuous
 62
     4
100
AcDbCircle
 10
3261.560632851813
 20
1093.700718283829
 30
0.0
 40
0.25
  0
CIRCLE
  5
273
330
6F
100
AcDbEntity
  8
2-0
  6
Continuous
 62
     4
100
AcDbCircle
 10
3261.560632851813
 20
1093.700718283829
 30
0.0
 40
0.1875
  0
CIRCLE
  5
274
330
6F
100
AcDbEntity
  8
2-0
  6
Continuous
 62
     4
100
AcDbCircle
 10
3261.560632851813
 20
1093.700718283829
 30
0.0
 40
0.125
  0
CIRCLE
  5
275
330
6F
100
AcDbEntity
  8
2-0
  6
Continuous
 62
     4
100
AcDbCircle
 10
3261.560632851813
 20
1093.700718283829
 30
0.0
 40
0.0625
  0
ARC
  5
276
330
6F
100
AcDbEntity
  8
2-0
 62
     4
100
AcDbCircle
 10
3261.560632851813
 20
1093.695718283829
 30
0.0
 40
2.5
100
AcDbArc
 50
180.1145914065301
 51
0.1145914059449637
  0
LINE
  5
277
330
6F
100
AcDbEntity
  8
2-0
 62
     4
100
AcDbLine
 10
3266.560632851813
 20
1093.70071828388
 30
0.0
 11
3271.560632851813
 21
1093.700718283931
 31
0.0
  0
CIRCLE
  5
278
330
6F
100
AcDbEntity
  8
2-0
  6
Continuous
 62
     4
100
AcDbCircle
 10
3349.060632851811
 20
1093.700718283829
 30
0.0
 40
0.25
  0
CIRCLE
  5
279
330
6F
100
AcDbEntity
  8
2-0
  6
Continuous
 62
     4
100
AcDbCircle
 10
3349.060632851811
 20
1093.700718283829
 30
0.0
 40
0.1875
  0
CIRCLE
  5
27A
330
6F
100
AcDbEntity
  8
2-0
  6
Continuous
 62
     4
100
AcDbCircle
 10
3349.060632851811
 20
1093.700718283829
 30
0.0
 40
0.125
  0
CIRCLE
  5
27B
330
6F
100
AcDbEntity
  8
2-0
  6
Continuous
 62
     4
100
AcDbCircle
 10
3349.060632851811
 20
1093.700718283829
 30
0.0
 40
0.0625
  0
ARC
  5
27C
330
6F
100
AcDbEntity
  8
2-0
 62
     4
100
AcDbCircle
 10
3349.060632851811
 20
1093.705718283829
 30
0.0
 40
2.5
100
AcDbArc
 50
0.1145914065300158
 51
180.114591405945
  0
LINE
  5
27D
330
6F
100
AcDbEntity
  8
2-0
 62
     4
100
AcDbLine
 10
3344.06063285181
 20
1093.700718283829
 30
0.0
 11
3339.06063285181
 21
1093.700718283829
 31
0.0
  0
LINE
  5
27E
330
6F
100
AcDbEntity
  8
2-0
  6
Continuous
 62
     4
100
AcDbLine
 10
3261.560633
 20
948.5707770000001
 30
0.0
 11
3261.560633
 21
1043.700718
 31
0.0
  0
LINE
  5
27F
330
6F
100
AcDbEntity
  8
2-0
  6
Continuous
 62
     4
100
AcDbLine
 10
3274.060633
 20
948.6239089999999
 30
0.0
 11
3274.060633
 21
1043.700718
 31
0.0
  0
LINE
  5
280
330
6F
100
AcDbEntity
  8
2-0
  6
Continuous
 62
     4
100
AcDbLine
 10
3251.560633
 20
1043.700718
 30
0.0
 11
3241.560633000001
 21
1043.700718
 31
0.0
  0
LINE
  5
281
330
6F
100
AcDbEntity
  8
2-0
  6
Continuous
 62
     4
100
AcDbLine
 10
3284.060633
 20
1043.700718
 30
0.0
 11
3294.060633
 21
1043.700718
 31
0.0
  0
TEXT
  5
282
330
6F
100
AcDbEntity
  8
2-0
 62
     4
100
AcDbText
 10
3197.887000000001
 20
1047.001
 30
0.0
 40
25.92
  1
2.5
100
AcDbText
  0
LINE
  5
283
330
6F
100
AcDbEntity
  8
2-0
  6
Continuous
 62
     4
100
AcDbLine
 10
3261.560633
 20
1043.700718
 30
0.0
 11
3274.060633
 21
1043.700718
 31
0.0
  0
CIRCLE
  5
284
330
6F
100
AcDbEntity
  8
2-0
  6
Continuous
 62
     4
100
AcDbCircle
 10
3261.560632851811
 20
1043.700718283829
 30
0.0
 40
0.25
  0
CIRCLE
  5
285
330
6F
100
AcDbEntity
  8
2-0
  6
Continuous
 62
     4
100
AcDbCircle
 10
3261.560632851811
 20
1043.700718283829
 30
0.0
 40
0.1875
  0
CIRCLE
  5
286
330
6F
100
AcDbEntity
  8
2-0
  6
Continuous
 62
     4
100
AcDbCircle
 10
3261.560632851811
 20
1043.700718283829
 30
0.0
 40
0.125
  0
CIRCLE
  5
287
330
6F
100
AcDbEntity
  8
2-0
  6
Continuous
 62
     4
100
AcDbCircle
 10
3261.560632851811
 20
1043.700718283829
 30
0.0
 40
0.0625
  0
ARC
  5
288
330
6F
100
AcDbEntity
  8
2-0
 62
     4
100
AcDbCircle
 10
3261.560632851811
 20
1043.705718283829
 30
0.0
 40
2.5
100
AcDbArc
 50
0.1145914065300158
 51
180.114591405945
  0
LINE
  5
289
330
6F
100
AcDbEntity
  8
2-0
 62
     4
100
AcDbLine
 10
3256.56063285181
 20
1043.700718283829
 30
0.0
 11
3251.56063285181
 21
1043.700718283829
 31
0.0
  0
CIRCLE
  5
28A
330
6F
100
AcDbEntity
  8
2-0
  6
Continuous
 62
     4
100
AcDbCircle
 10
3274.06063285181
 20
1043.700718283829
 30
0.0
 40
0.25
  0
CIRCLE
  5
28B
330
6F
100
AcDbEntity
  8
2-0
  6
Continuous
 62
     4
100
AcDbCircle
 10
3274.06063285181
 20
1043.700718283829
 30
0.0
 40
0.1875
  0
CIRCLE
  5
28C
330
6F
100
AcDbEntity
  8
2-0
  6
Continuous
 62
     4
100
AcDbCircle
 10
3274.06063285181
 20
1043.700718283829
 30
0.0
 40
0.125
  0
CIRCLE
  5
28D
330
6F
100
AcDbEntity
  8
2-0
  6
Continuous
 62
     4
100
AcDbCircle
 10
3274.06063285181
 20
1043.700718283829
 30
0.0
 40
0.0625
  0
ARC
  5
28E
330
6F
100
AcDbEntity
  8
2-0
 62
     4
100
AcDbCircle
 10
3274.06063285181
 20
1043.695718283829
 30
0.0
 40
2.5
100
AcDbArc
 50
180.1145914065301
 51
0.1145914059449637
  0
LINE
  5
28F
330
6F
100
AcDbEntity
  8
2-0
 62
     4
100
AcDbLine
 10
3279.06063285181
 20
1043.70071828388
 30
0.0
 11
3284.06063285181
 21
1043.700718283931
 31
0.0
  0
LINE
  5
290
330
6F
100
AcDbEntity
  8
2-0
  6
Continuous
 62
     4
100
AcDbLine
 10
3304.060633000001
 20
948.432633
 30
0.0
 11
3304.060633000001
 21
1043.700718
 31
0.0
  0
LINE
  5
291
330
6F
100
AcDbEntity
  8
2-0
  6
Continuous
 62
     4
100
AcDbLine
 10
3274.060633
 20
948.6239089999999
 30
0.0
 11
3274.060633
 21
1043.700718
 31
0.0
  0
LINE
  5
292
330
6F
100
AcDbEntity
  8
2-0
  6
Continuous
 62
     4
100
AcDbLine
 10
3314.060633
 20
1043.700718
 30
0.0
 11
3324.060633
 21
1043.700718
 31
0.0
  0
LINE
  5
293
330
6F
100
AcDbEntity
  8
2-0
  6
Continuous
 62
     4
100
AcDbLine
 10
3264.060633000001
 20
1043.700718
 30
0.0
 11
3254.060633
 21
1043.700718
 31
0.0
  0
TEXT
  5
294
330
6F
100
AcDbEntity
  8
2-0
 62
     4
100
AcDbText
 10
3283.077
 20
1047.001
 30
0.0
 40
25.92
  1
6
100
AcDbText
  0
LINE
  5
295
330
6F
100
AcDbEntity
  8
2-0
  6
Continuous
 62
     4
100
AcDbLine
 10
3304.060633000001
 20
1043.700718
 30
0.0
 11
3274.060633
 21
1043.700718
 31
0.0
  0
CIRCLE
  5
296
330
6F
100
AcDbEntity
  8
2-0
  6
Continuous
 62
     4
100
AcDbCircle
 10
3304.06063285181
 20
1043.700718283829
 30
0.0
 40
0.25
  0
CIRCLE
  5
297
330
6F
100
AcDbEntity
  8
2-0
  6
Continuous
 62
     4
100
AcDbCircle
 10
3304.06063285181
 20
1043.700718283829
 30
0.0
 40
0.1875
  0
CIRCLE
  5
298
330
6F
100
AcDbEntity
  8
2-0
  6
Continuous
 62
     4
100
AcDbCircle
 10
3304.06063285181
 20
1043.700718283829
 30
0.0
 40
0.125
  0
CIRCLE
  5
299
330
6F
100
AcDbEntity
  8
2-0
  6
Continuous
 62
     4
100
AcDbCircle
 10
3304.06063285181
 20
1043.700718283829
 30
0.0
 40
0.0625
  0
ARC
  5
29A
330
6F
100
AcDbEntity
  8
2-0
 62
     4
100
AcDbCircle
 10
3304.06063285181
 20
1043.695718283829
 30
0.0
 40
2.5
100
AcDbArc
 50
180.1145914065301
 51
0.1145914059449637
  0
LINE
  5
29B
330
6F
100
AcDbEntity
  8
2-0
 62
     4
100
AcDbLine
 10
3309.06063285181
 20
1043.70071828388
 30
0.0
 11
3314.06063285181
 21
1043.700718283931
 31
0.0
  0
CIRCLE
  5
29C
330
6F
100
AcDbEntity
  8
2-0
  6
Continuous
 62
     4
100
AcDbCircle
 10
3274.06063285181
 20
1043.700718283829
 30
0.0
 40
0.25
  0
CIRCLE
  5
29D
330
6F
100
AcDbEntity
  8
2-0
  6
Continuous
 62
     4
100
AcDbCircle
 10
3274.06063285181
 20
1043.700718283829
 30
0.0
 40
0.1875
  0
CIRCLE
  5
29E
330
6F
100
AcDbEntity
  8
2-0
  6
Continuous
 62
     4
100
AcDbCircle
 10
3274.06063285181
 20
1043.700718283829
 30
0.0
 40
0.125
  0
CIRCLE
  5
29F
330
6F
100
AcDbEntity
  8
2-0
  6
Continuous
 62
     4
100
AcDbCircle
 10
3274.06063285181
 20
1043.700718283829
 30
0.0
 40
0.0625
  0
ARC
  5
2A0
330
6F
100
AcDbEntity
  8
2-0
 62
     4
100
AcDbCircle
 10
3274.06063285181
 20
1043.705718283829
 30
0.0
 40
2.5
100
AcDbArc
 50
0.1145914065300158
 51
180.114591405945
  0
LINE
  5
2A1
330
6F
100
AcDbEntity
  8
2-0
 62
     4
100
AcDbLine
 10
3269.06063285181
 20
1043.700718283829
 30
0.0
 11
3264.060632851811
 21
1043.700718283829
 31
0.0
  0
LINE
  5
2A2
330
6F
100
AcDbEntity
  8
2-0
  6
Continuous
 62
     4
100
AcDbLine
 10
3304.060633000001
 20
948.432633
 30
0.0
 11
3304.060633000001
 21
1043.700718
 31
0.0
  0
LINE
  5
2A3
330
6F
100
AcDbEntity
  8
2-0
  6
Continuous
 62
     4
100
AcDbLine
 10
3349.060633
 20
948.5601499999999
 30
0.0
 11
3349.060633
 21
1043.700718
 31
0.0
  0
LINE
  5
2A4
330
6F
100
AcDbEntity
  8
2-0
  6
Continuous
 62
     4
100
AcDbLine
 10
3314.060633
 20
1043.700718
 30
0.0
 11
3339.060633000001
 21
1043.700718
 31
0.0
  0
TEXT
  5
2A5
330
6F
100
AcDbEntity
  8
2-0
 62
     4
100
AcDbText
 10
3320.577
 20
1047.001
 30
0.0
 40
25.92
  1
9
100
AcDbText
  0
CIRCLE
  5
2A6
330
6F
100
AcDbEntity
  8
2-0
  6
Continuous
 62
     4
100
AcDbCircle
 10
3304.06063285181
 20
1043.700718283829
 30
0.0
 40
0.25
  0
CIRCLE
  5
2A7
330
6F
100
AcDbEntity
  8
2-0
  6
Continuous
 62
     4
100
AcDbCircle
 10
3304.06063285181
 20
1043.700718283829
 30
0.0
 40
0.1875
  0
CIRCLE
  5
2A8
330
6F
100
AcDbEntity
  8
2-0
  6
Continuous
 62
     4
100
AcDbCircle
 10
3304.06063285181
 20
1043.700718283829
 30
0.0
 40
0.125
  0
CIRCLE
  5
2A9
330
6F
100
AcDbEntity
  8
2-0
  6
Continuous
 62
     4
100
AcDbCircle
 10
3304.06063285181
 20
1043.700718283829
 30
0.0
 40
0.0625
  0
ARC
  5
2AA
330
6F
100
AcDbEntity
  8
2-0
 62
     4
100
AcDbCircle
 10
3304.06063285181
 20
1043.695718283829
 30
0.0
 40
2.5
100
AcDbArc
 50
180.1145914065301
 51
0.1145914059449637
  0
LINE
  5
2AB
330
6F
100
AcDbEntity
  8
2-0
 62
     4
100
AcDbLine
 10
3309.06063285181
 20
1043.70071828388
 30
0.0
 11
3314.06063285181
 21
1043.700718283931
 31
0.0
  0
CIRCLE
  5
2AC
330
6F
100
AcDbEntity
  8
2-0
  6
Continuous
 62
     4
100
AcDbCircle
 10
3349.060632851811
 20
1043.700718283829
 30
0.0
 40
0.25
  0
CIRCLE
  5
2AD
330
6F
100
AcDbEntity
  8
2-0
  6
Continuous
 62
     4
100
AcDbCircle
 10
3349.060632851811
 20
1043.700718283829
 30
0.0
 40
0.1875
  0
CIRCLE
  5
2AE
330
6F
100
AcDbEntity
  8
2-0
  6
Continuous
 62
     4
100
AcDbCircle
 10
3349.060632851811
 20
1043.700718283829
 30
0.0
 40
0.125
  0
CIRCLE
  5
2AF
330
6F
100
AcDbEntity
  8
2-0
  6
Continuous
 62
     4
100
AcDbCircle
 10
3349.060632851811
 20
1043.700718283829
 30
0.0
 40
0.0625
  0
ARC
  5
2B0
330
6F
100
AcDbEntity
  8
2-0
 62
     4
100
AcDbCircle
 10
3349.060632851811
 20
1043.705718283829
 30
0.0
 40
2.5
100
AcDbArc
 50
0.1145914065300158
 51
180.114591405945
  0
LINE
  5
2B1
330
6F
100
AcDbEntity
  8
2-0
 62
     4
100
AcDbLine
 10
3344.06063285181
 20
1043.700718283829
 30
0.0
 11
3339.06063285181
 21
1043.700718283829
 31
0.0
  0
LINE
  5
2B2
330
6F
100
AcDbEntity
  8
2-0
  6
Continuous
 62
     7
100
AcDbLine
 10
3168.175187
 20
679.4442189999999
 30
0.0
 11
3183.40811
 21
663.738193
 31
0.0
  0
LINE
  5
2B3
330
6F
100
AcDbEntity
  8
2-0
  6
Continuous
 62
     7
100
AcDbLine
 10
3168.175187
 20
679.4442189999999
 30
0.0
 11
3173.646433
 21
658.259634
 31
0.0
  0
LINE
  5
2B4
330
6F
100
AcDbEntity
  8
2-0
  6
Continuous
 62
     7
100
AcDbLine
 10
3210.923059000001
 20
722.042396
 30
0.0
 11
3206.445952
 21
738.379131
 31
0.0
  0
LINE
  5
2B5
330
6F
100
AcDbEntity
  8
2-0
  6
Continuous
 62
     7
100
AcDbLine
 10
3210.923059000001
 20
722.042396
 30
0.0
 11
3197.938406
 21
732.920455
 31
0.0
  0
LINE
  5
2B6
330
6F
100
AcDbEntity
  8
2-0
  6
Continuous
 62
     7
100
AcDbLine
 10
3286.999769
 20
833.1485499999999
 30
0.0
 11
3281.885638
 21
852.6698109999999
 31
0.0
  0
LINE
  5
2B7
330
6F
100
AcDbEntity
  8
2-0
  6
Continuous
 62
     7
100
AcDbLine
 10
3286.999769
 20
833.1485499999999
 30
0.0
 11
3271.502005
 21
846.07346
 31
0.0
  0
LINE
  5
2B8
330
6F
100
AcDbEntity
  8
2-0
  6
Continuous
 62
     7
100
AcDbLine
 10
3334.491887
 20
836.7968959999998
 30
0.0
 11
3348.189893
 21
821.9154129999999
 31
0.0
  0
LINE
  5
2B9
330
6F
100
AcDbEntity
  8
2-0
  6
Continuous
 62
     7
100
AcDbLine
 10
3334.491887
 20
836.7968959999998
 30
0.0
 11
3340.058897
 21
817.3520429999999
 31
0.0
  0
TEXT
  5
2BA
330
6F
100
AcDbEntity
  8
C-0
 62
     5
100
AcDbText
 10
2745.008
 20
1291.164
 30
0.0
 40
25.92
  1
ご注意
100
AcDbText
  0
TEXT
  5
2BB
330
6F
100
AcDbEntity
  8
C-0
 62
     5
100
AcDbText
 10
2810.883
 20
1227.057
 30
0.0
 40
25.92
  1
〇　底板6ｍｍ、側板9ｍｍの不燃加工となっております。
100
AcDbText
  0
TEXT
  5
2BC
330
6F
100
AcDbEntity
  8
C-0
 62
     5
100
AcDbText
 10
3182.864
 20
2493.808
 30
0.0
 40
25.92
  1
火山性ガラス質複層板
100
AcDbText
  0
TEXT
  5
2BD
330
6F
100
AcDbEntity
  8
C-0
 62
     5
100
AcDbText
 10
3182.864
 20
2543.808
 30
0.0
 40
25.92
  1
火山性ガラス質複層板
100
AcDbText
  0
LINE
  5
2BE
330
6F
100
AcDbEntity
  8
C-0
  6
Continuous
 62
     5
100
AcDbLine
 10
2808.853285000001
 20
2581.362638
 30
0.0
 11
3833.087678
 21
2581.362638
 31
0.0
  0
TEXT
  5
2BF
330
6F
100
AcDbEntity
  8
C-0
 62
     5
100
AcDbText
 10
3182.864
 20
2243.808
 30
0.0
 40
25.92
  1
耐震レハ゛ーラッチ
100
AcDbText
  0
LINE
  5
2C0
330
6F
100
AcDbEntity
  8
C-0
  6
Continuous
 62
     5
100
AcDbLine
 10
2808.853285000001
 20
2231.362638
 30
0.0
 11
3833.087678
 21
2231.362638
 31
0.0
  0
LINE
  5
2C1
330
6F
100
AcDbEntity
  8
C-0
  6
Continuous
 62
     5
100
AcDbLine
 10
2808.853285000001
 20
2181.362638
 30
0.0
 11
3833.087678
 21
2181.362638
 31
0.0
  0
LINE
  5
2C2
330
6F
100
AcDbEntity
  8
C-0
  6
Continuous
 62
     5
100
AcDbLine
 10
2808.853285000001
 20
2481.362638
 30
0.0
 11
3833.087678
 21
2481.362638
 31
0.0
  0
TEXT
  5
2C3
330
6F
100
AcDbEntity
  8
C-0
 62
     5
100
AcDbText
 10
3182.864
 20
2443.808
 30
0.0
 40
25.92
  1
プレコート（PB）
100
AcDbText
  0
TEXT
  5
2C4
330
6F
100
AcDbEntity
  8
C-0
 62
     5
100
AcDbText
 10
3182.864
 20
2293.808
 30
0.0
 40
25.92
  1
木口テープ貼り
100
AcDbText
  0
TEXT
  5
2C5
330
6F
100
AcDbEntity
  8
C-0
 62
     5
100
AcDbText
 10
3182.864
 20
2343.808
 30
0.0
 40
25.92
  1
ウレタンコート化粧ボード（PB)
100
AcDbText
  0
TEXT
  5
2C6
330
6F
100
AcDbEntity
  8
C-0
 62
     5
100
AcDbText
 10
3182.864
 20
2643.808
 30
0.0
 40
25.92
  1
ウレタンコート化粧ボード（PB)
100
AcDbText
  0
LINE
  5
2C7
330
6F
100
AcDbEntity
  8
C-0
  6
Continuous
 62
     5
100
AcDbLine
 10
2808.853285000001
 20
2681.362638
 30
0.0
 11
3833.087678
 21
2681.362638
 31
0.0
  0
LINE
  5
2C8
330
6F
100
AcDbEntity
  8
C-0
  6
Continuous
 62
     5
100
AcDbLine
 10
3001.264237
 20
2681.362638
 30
0.0
 11
3001.264237
 21
2231.362638
 31
0.0
  0
LINE
  5
2C9
330
6F
100
AcDbEntity
  8
C-0
  6
Continuous
 62
     5
100
AcDbLine
 10
3152.736664
 20
2681.362638
 30
0.0
 11
3152.736664
 21
2181.362638
 31
0.0
  0
LINE
  5
2CA
330
6F
100
AcDbEntity
  8
C-0
  6
Continuous
 62
     5
100
AcDbLine
 10
2808.853285000001
 20
2681.362638
 30
0.0
 11
2808.853285000001
 21
2181.362638
 31
0.0
  0
TEXT
  5
2CB
330
6F
100
AcDbEntity
  8
C-0
 62
     5
100
AcDbText
 10
2848.444
 20
2193.808
 30
0.0
 40
25.92
  1
丁番
100
AcDbText
  0
TEXT
  5
2CC
330
6F
100
AcDbEntity
  8
C-0
 62
     5
100
AcDbText
 10
2848.444
 20
2443.808
 30
0.0
 40
25.92
  1
扉
100
AcDbText
  0
TEXT
  5
2CD
330
6F
100
AcDbEntity
  8
C-0
 62
     5
100
AcDbText
 10
3021.203
 20
2343.808
 30
0.0
 40
25.92
  1
裏
100
AcDbText
  0
TEXT
  5
2CE
330
6F
100
AcDbEntity
  8
C-0
 62
     5
100
AcDbText
 10
3021.203
 20
2243.808
 30
0.0
 40
25.92
  1
ラッチ
100
AcDbText
  0
TEXT
  5
2CF
330
6F
100
AcDbEntity
  8
C-0
 62
     5
100
AcDbText
 10
3021.203
 20
2293.808
 30
0.0
 40
25.92
  1
木口
100
AcDbText
  0
TEXT
  5
2D0
330
6F
100
AcDbEntity
  8
C-0
 62
     5
100
AcDbText
 10
3021.203
 20
2493.808
 30
0.0
 40
25.92
  1
地板
100
AcDbText
  0
TEXT
  5
2D1
330
6F
100
AcDbEntity
  8
C-0
 62
     5
100
AcDbText
 10
3021.203
 20
2443.808
 30
0.0
 40
25.92
  1
表
100
AcDbText
  0
TEXT
  5
2D2
330
6F
100
AcDbEntity
  8
C-0
 62
     5
100
AcDbText
 10
2848.444
 20
2543.808
 30
0.0
 40
25.92
  1
不燃部
100
AcDbText
  0
TEXT
  5
2D3
330
6F
100
AcDbEntity
  8
C-0
 62
     5
100
AcDbText
 10
2848.444
 20
2643.808
 30
0.0
 40
25.92
  1
木部本体
100
AcDbText
  0
TEXT
  5
2D4
330
6F
100
AcDbEntity
  8
C-0
 62
     5
100
AcDbText
 10
3021.203
 20
2643.808
 30
0.0
 40
25.92
  1
側板
100
AcDbText
  0
TEXT
  5
2D5
330
6F
100
AcDbEntity
  8
C-0
 62
     5
100
AcDbText
 10
3182.864
 20
2593.808
 30
0.0
 40
25.92
  1
クリーンイーゴスMDF
100
AcDbText
  0
TEXT
  5
2D6
330
6F
100
AcDbEntity
  8
C-0
 62
     5
100
AcDbText
 10
3021.203
 20
2543.808
 30
0.0
 40
25.92
  1
側板
100
AcDbText
  0
TEXT
  5
2D7
330
6F
100
AcDbEntity
  8
C-0
 62
     5
100
AcDbText
 10
3021.203
 20
2593.808
 30
0.0
 40
25.92
  1
背板
100
AcDbText
  0
LINE
  5
2D8
330
6F
100
AcDbEntity
  8
C-0
  6
Continuous
 62
     5
100
AcDbLine
 10
3833.087678
 20
2681.362638
 30
0.0
 11
3833.087678
 21
2181.362638
 31
0.0
  0
TEXT
  5
2D9
330
6F
100
AcDbEntity
  8
C-0
 62
     5
100
AcDbText
 10
3182.864
 20
2393.808
 30
0.0
 40
25.92
  1
（SW）は鏡面仕上げ
100
AcDbText
  0
TEXT
  5
2DA
330
6F
100
AcDbEntity
  8
C-0
 62
     5
100
AcDbText
 10
2808.373
 20
2108.358
 30
0.0
 40
25.92
  1
※　弊社製品はすべてF☆☆☆☆に対応しております。
100
AcDbText
  0
TEXT
  5
2DB
330
6F
100
AcDbEntity
  8
C-0
 62
     5
100
AcDbText
 10
3184.471
 20
2193.061
 30
0.0
 40
25.92
  1
スライドヒンジ
100
AcDbText
  0
LINE
  5
2DC
330
6F
100
AcDbEntity
  8
8-0
  6
Continuous
 62
     4
100
AcDbLine
 10
2449.40223
 20
1360.773482
 30
0.0
 11
2449.40223
 21
1427.323406
 31
0.0
  0
LINE
  5
2DD
330
6F
100
AcDbEntity
  8
8-0
  6
Continuous
 62
     4
100
AcDbLine
 10
2104.40223
 20
1362.239929
 30
0.0
 11
2104.40223
 21
1427.323406
 31
0.0
  0
TEXT
  5
2DE
330
6F
100
AcDbEntity
  8
8-0
 62
     4
100
AcDbText
 10
2246.125
 20
1427.943
 30
0.0
 40
36.288
  1
345
100
AcDbText
  0
LINE
  5
2DF
330
6F
100
AcDbEntity
  8
8-0
  6
Continuous
 62
     4
100
AcDbLine
 10
2104.402230492524
 20
1427.323406157481
 30
0.0
 11
2449.402230492524
 21
1427.323406157481
 31
0.0
  0
CIRCLE
  5
2E0
330
6F
100
AcDbEntity
  8
8-0
  6
Continuous
 62
     4
100
AcDbCircle
 10
2104.402230492524
 20
1427.323406157481
 30
0.0
 40
0.25
  0
CIRCLE
  5
2E1
330
6F
100
AcDbEntity
  8
8-0
  6
Continuous
 62
     4
100
AcDbCircle
 10
2104.402230492524
 20
1427.323406157481
 30
0.0
 40
0.1875
  0
CIRCLE
  5
2E2
330
6F
100
AcDbEntity
  8
8-0
  6
Continuous
 62
     4
100
AcDbCircle
 10
2104.402230492524
 20
1427.323406157481
 30
0.0
 40
0.125
  0
CIRCLE
  5
2E3
330
6F
100
AcDbEntity
  8
8-0
  6
Continuous
 62
     4
100
AcDbCircle
 10
2104.402230492524
 20
1427.323406157481
 30
0.0
 40
0.0625
  0
CIRCLE
  5
2E4
330
6F
100
AcDbEntity
  8
8-0
  6
Continuous
 62
     4
100
AcDbCircle
 10
2449.402230492524
 20
1427.323406157481
 30
0.0
 40
0.25
  0
CIRCLE
  5
2E5
330
6F
100
AcDbEntity
  8
8-0
  6
Continuous
 62
     4
100
AcDbCircle
 10
2449.402230492524
 20
1427.323406157481
 30
0.0
 40
0.1875
  0
CIRCLE
  5
2E6
330
6F
100
AcDbEntity
  8
8-0
  6
Continuous
 62
     4
100
AcDbCircle
 10
2449.402230492524
 20
1427.323406157481
 30
0.0
 40
0.125
  0
CIRCLE
  5
2E7
330
6F
100
AcDbEntity
  8
8-0
  6
Continuous
 62
     4
100
AcDbCircle
 10
2449.402230492524
 20
1427.323406157481
 30
0.0
 40
0.0625
  0
LINE
  5
2E8
330
6F
100
AcDbEntity
  8
8-0
  6
Continuous
 62
     4
100
AcDbLine
 10
2466.40223
 20
564.318696
 30
0.0
 11
2466.40223
 21
484.3186959999999
 31
0.0
  0
LINE
  5
2E9
330
6F
100
AcDbEntity
  8
8-0
  6
Continuous
 62
     4
100
AcDbLine
 10
2104.40223
 20
599.4191759999999
 30
0.0
 11
2104.40223
 21
484.3186959999999
 31
0.0
  0
TEXT
  5
2EA
330
6F
100
AcDbEntity
  8
8-0
 62
     4
100
AcDbText
 10
2254.625
 20
484.939
 30
0.0
 40
36.288
  1
362
100
AcDbText
  0
LINE
  5
2EB
330
6F
100
AcDbEntity
  8
8-0
  6
Continuous
 62
     4
100
AcDbLine
 10
2104.402230492524
 20
484.3186962638799
 30
0.0
 11
2466.402230492525
 21
484.3186962638799
 31
0.0
  0
CIRCLE
  5
2EC
330
6F
100
AcDbEntity
  8
8-0
  6
Continuous
 62
     4
100
AcDbCircle
 10
2104.402230492524
 20
484.3186962638799
 30
0.0
 40
0.25
  0
CIRCLE
  5
2ED
330
6F
100
AcDbEntity
  8
8-0
  6
Continuous
 62
     4
100
AcDbCircle
 10
2104.402230492524
 20
484.3186962638799
 30
0.0
 40
0.1875
  0
CIRCLE
  5
2EE
330
6F
100
AcDbEntity
  8
8-0
  6
Continuous
 62
     4
100
AcDbCircle
 10
2104.402230492524
 20
484.3186962638799
 30
0.0
 40
0.125
  0
CIRCLE
  5
2EF
330
6F
100
AcDbEntity
  8
8-0
  6
Continuous
 62
     4
100
AcDbCircle
 10
2104.402230492524
 20
484.3186962638799
 30
0.0
 40
0.0625
  0
CIRCLE
  5
2F0
330
6F
100
AcDbEntity
  8
8-0
  6
Continuous
 62
     4
100
AcDbCircle
 10
2466.402230492525
 20
484.3186962638799
 30
0.0
 40
0.25
  0
CIRCLE
  5
2F1
330
6F
100
AcDbEntity
  8
8-0
  6
Continuous
 62
     4
100
AcDbCircle
 10
2466.402230492525
 20
484.3186962638799
 30
0.0
 40
0.1875
  0
CIRCLE
  5
2F2
330
6F
100
AcDbEntity
  8
8-0
  6
Continuous
 62
     4
100
AcDbCircle
 10
2466.402230492525
 20
484.3186962638799
 30
0.0
 40
0.125
  0
CIRCLE
  5
2F3
330
6F
100
AcDbEntity
  8
8-0
  6
Continuous
 62
     4
100
AcDbCircle
 10
2466.402230492525
 20
484.3186962638799
 30
0.0
 40
0.0625
  0
LINE
  5
2F4
330
6F
100
AcDbEntity
  8
8-0
  6
Continuous
 62
     4
100
AcDbLine
 10
2449.40223
 20
675.8686199999999
 30
0.0
 11
2449.40223
 21
584.318696
 31
0.0
  0
LINE
  5
2F5
330
6F
100
AcDbEntity
  8
8-0
  6
Continuous
 62
     4
100
AcDbLine
 10
2104.40223
 20
674.4021739999999
 30
0.0
 11
2104.40223
 21
584.318696
 31
0.0
  0
TEXT
  5
2F6
330
6F
100
AcDbEntity
  8
8-0
 62
     4
100
AcDbText
 10
2246.125
 20
584.9389999999999
 30
0.0
 40
36.288
  1
345
100
AcDbText
  0
LINE
  5
2F7
330
6F
100
AcDbEntity
  8
8-0
  6
Continuous
 62
     4
100
AcDbLine
 10
2104.402230492524
 20
584.31869626388
 30
0.0
 11
2449.402230492524
 21
584.31869626388
 31
0.0
  0
CIRCLE
  5
2F8
330
6F
100
AcDbEntity
  8
8-0
  6
Continuous
 62
     4
100
AcDbCircle
 10
2104.402230492524
 20
584.31869626388
 30
0.0
 40
0.25
  0
CIRCLE
  5
2F9
330
6F
100
AcDbEntity
  8
8-0
  6
Continuous
 62
     4
100
AcDbCircle
 10
2104.402230492524
 20
584.31869626388
 30
0.0
 40
0.1875
  0
CIRCLE
  5
2FA
330
6F
100
AcDbEntity
  8
8-0
  6
Continuous
 62
     4
100
AcDbCircle
 10
2104.402230492524
 20
584.31869626388
 30
0.0
 40
0.125
  0
CIRCLE
  5
2FB
330
6F
100
AcDbEntity
  8
8-0
  6
Continuous
 62
     4
100
AcDbCircle
 10
2104.402230492524
 20
584.31869626388
 30
0.0
 40
0.0625
  0
CIRCLE
  5
2FC
330
6F
100
AcDbEntity
  8
8-0
  6
Continuous
 62
     4
100
AcDbCircle
 10
2449.402230492524
 20
584.31869626388
 30
0.0
 40
0.25
  0
CIRCLE
  5
2FD
330
6F
100
AcDbEntity
  8
8-0
  6
Continuous
 62
     4
100
AcDbCircle
 10
2449.402230492524
 20
584.31869626388
 30
0.0
 40
0.1875
  0
CIRCLE
  5
2FE
330
6F
100
AcDbEntity
  8
8-0
  6
Continuous
 62
     4
100
AcDbCircle
 10
2449.402230492524
 20
584.31869626388
 30
0.0
 40
0.125
  0
CIRCLE
  5
2FF
330
6F
100
AcDbEntity
  8
8-0
  6
Continuous
 62
     4
100
AcDbCircle
 10
2449.402230492524
 20
584.31869626388
 30
0.0
 40
0.0625
  0
LINE
  5
300
330
6F
100
AcDbEntity
  8
2-0
  6
Continuous
 62
     7
100
AcDbLine
 10
2104.40223
 20
735.821051
 30
0.0
 11
2449.40223
 21
735.821051
 31
0.0
  0
LINE
  5
301
330
6F
100
AcDbEntity
  8
2-0
  6
Continuous
 62
     7
100
AcDbLine
 10
2104.40223
 20
1303.321051
 30
0.0
 11
2449.40223
 21
1303.321051
 31
0.0
  0
LINE
  5
302
330
6F
100
AcDbEntity
  8
2-0
  6
Continuous
 62
     7
100
AcDbLine
 10
2104.40223
 20
718.321051
 30
0.0
 11
2449.40223
 21
718.321051
 31
0.0
  0
LINE
  5
303
330
6F
100
AcDbEntity
  8
2-0
  6
Continuous
 62
     7
100
AcDbLine
 10
2104.40223
 20
1318.321051
 30
0.0
 11
2449.40223
 21
1318.321051
 31
0.0
  0
LINE
  5
304
330
6F
100
AcDbEntity
  8
8-0
  6
Continuous
 62
     4
100
AcDbLine
 10
1966.79308
 20
718.321051
 30
0.0
 11
1851.832404
 21
718.321051
 31
0.0
  0
LINE
  5
305
330
6F
100
AcDbEntity
  8
8-0
  6
Continuous
 62
     4
100
AcDbLine
 10
1835.920553
 20
1018.321051
 30
0.0
 11
1851.832404
 21
1018.321051
 31
0.0
  0
TEXT
  5
306
330
6F
100
AcDbEntity
  8
8-0
 62
     4
100
AcDbText
 10
1851.212
 20
834.721
 30
0.0
 40
36.288
  1
300
 50
90.0
100
AcDbText
  0
LINE
  5
307
330
6F
100
AcDbEntity
  8
8-0
  6
Continuous
 62
     4
100
AcDbLine
 10
1851.832403660351
 20
1018.321051210681
 30
0.0
 11
1851.832403660351
 21
718.3210512106811
 31
0.0
  0
CIRCLE
  5
308
330
6F
100
AcDbEntity
  8
8-0
  6
Continuous
 62
     4
100
AcDbCircle
 10
1851.832403660351
 20
1018.321051210681
 30
0.0
 40
0.25
  0
CIRCLE
  5
309
330
6F
100
AcDbEntity
  8
8-0
  6
Continuous
 62
     4
100
AcDbCircle
 10
1851.832403660351
 20
1018.321051210681
 30
0.0
 40
0.1875
  0
CIRCLE
  5
30A
330
6F
100
AcDbEntity
  8
8-0
  6
Continuous
 62
     4
100
AcDbCircle
 10
1851.832403660351
 20
1018.321051210681
 30
0.0
 40
0.125
  0
CIRCLE
  5
30B
330
6F
100
AcDbEntity
  8
8-0
  6
Continuous
 62
     4
100
AcDbCircle
 10
1851.832403660351
 20
1018.321051210681
 30
0.0
 40
0.0625
  0
CIRCLE
  5
30C
330
6F
100
AcDbEntity
  8
8-0
  6
Continuous
 62
     4
100
AcDbCircle
 10
1851.832403660351
 20
718.3210512106811
 30
0.0
 40
0.25
  0
CIRCLE
  5
30D
330
6F
100
AcDbEntity
  8
8-0
  6
Continuous
 62
     4
100
AcDbCircle
 10
1851.832403660351
 20
718.3210512106811
 30
0.0
 40
0.1875
  0
CIRCLE
  5
30E
330
6F
100
AcDbEntity
  8
8-0
  6
Continuous
 62
     4
100
AcDbCircle
 10
1851.832403660351
 20
718.3210512106811
 30
0.0
 40
0.125
  0
CIRCLE
  5
30F
330
6F
100
AcDbEntity
  8
8-0
  6
Continuous
 62
     4
100
AcDbCircle
 10
1851.832403660351
 20
718.3210512106811
 30
0.0
 40
0.0625
  0
LINE
  5
310
330
6F
100
AcDbEntity
  8
2-0
  6
Continuous
 62
     7
100
AcDbLine
 10
2127.10223
 20
735.821051
 30
0.0
 11
2127.10223
 21
1303.321051
 31
0.0
  0
LINE
  5
311
330
6F
100
AcDbEntity
  8
2-0
  6
Continuous
 62
     7
100
AcDbLine
 10
2124.40223
 20
735.821051
 30
0.0
 11
2124.40223
 21
1303.321051
 31
0.0
  0
LINE
  5
312
330
6F
100
AcDbEntity
  8
2-0
  6
Continuous
 62
     7
100
AcDbLine
 10
2104.40223
 20
718.321051
 30
0.0
 11
2104.40223
 21
1318.321051
 31
0.0
  0
LINE
  5
313
330
6F
100
AcDbEntity
  8
8-0
  6
Continuous
 62
     4
100
AcDbLine
 10
2066.839313
 20
770.821051
 30
0.0
 11
1951.832404
 21
770.821051
 31
0.0
  0
LINE
  5
314
330
6F
100
AcDbEntity
  8
8-0
  6
Continuous
 62
     4
100
AcDbLine
 10
2066.746847
 20
735.821051
 30
0.0
 11
1951.832404
 21
735.821051
 31
0.0
  0
TEXT
  5
315
330
6F
100
AcDbEntity
  8
8-0
 62
     4
100
AcDbText
 10
1918.712
 20
771.103
 30
0.0
 40
36.288
  1
35
 50
90.0
100
AcDbText
  0
LINE
  5
316
330
6F
100
AcDbEntity
  8
8-0
  6
Continuous
 62
     4
100
AcDbLine
 10
1951.832403660351
 20
735.821051210681
 30
0.0
 11
1951.832403660351
 21
770.8210512106798
 31
0.0
  0
CIRCLE
  5
317
330
6F
100
AcDbEntity
  8
8-0
  6
Continuous
 62
     4
100
AcDbCircle
 10
1951.832403660351
 20
735.821051210681
 30
0.0
 40
0.25
  0
CIRCLE
  5
318
330
6F
100
AcDbEntity
  8
8-0
  6
Continuous
 62
     4
100
AcDbCircle
 10
1951.832403660351
 20
735.821051210681
 30
0.0
 40
0.1875
  0
CIRCLE
  5
319
330
6F
100
AcDbEntity
  8
8-0
  6
Continuous
 62
     4
100
AcDbCircle
 10
1951.832403660351
 20
735.821051210681
 30
0.0
 40
0.125
  0
CIRCLE
  5
31A
330
6F
100
AcDbEntity
  8
8-0
  6
Continuous
 62
     4
100
AcDbCircle
 10
1951.832403660351
 20
735.821051210681
 30
0.0
 40
0.0625
  0
CIRCLE
  5
31B
330
6F
100
AcDbEntity
  8
8-0
  6
Continuous
 62
     4
100
AcDbCircle
 10
1951.832403660351
 20
770.8210512106798
 30
0.0
 40
0.25
  0
CIRCLE
  5
31C
330
6F
100
AcDbEntity
  8
8-0
  6
Continuous
 62
     4
100
AcDbCircle
 10
1951.832403660351
 20
770.8210512106798
 30
0.0
 40
0.1875
  0
CIRCLE
  5
31D
330
6F
100
AcDbEntity
  8
8-0
  6
Continuous
 62
     4
100
AcDbCircle
 10
1951.832403660351
 20
770.8210512106798
 30
0.0
 40
0.125
  0
CIRCLE
  5
31E
330
6F
100
AcDbEntity
  8
8-0
  6
Continuous
 62
     4
100
AcDbCircle
 10
1951.832403660351
 20
770.8210512106798
 30
0.0
 40
0.0625
  0
LINE
  5
31F
330
6F
100
AcDbEntity
  8
8-0
  6
Continuous
 62
     4
100
AcDbLine
 10
2066.79308
 20
718.321051
 30
0.0
 11
1951.832404
 21
718.321051
 31
0.0
  0
LINE
  5
320
330
6F
100
AcDbEntity
  8
8-0
  6
Continuous
 62
     4
100
AcDbLine
 10
2046.746847
 20
735.821051
 30
0.0
 11
1951.832404
 21
735.821051
 31
0.0
  0
LINE
  5
321
330
6F
100
AcDbEntity
  8
8-0
  6
Continuous
 62
     4
100
AcDbLine
 10
1951.832404
 20
708.321051
 30
0.0
 11
1951.832404
 21
698.321051
 31
0.0
  0
LINE
  5
322
330
6F
100
AcDbEntity
  8
8-0
  6
Continuous
 62
     4
100
AcDbLine
 10
1951.832404
 20
745.821051
 30
0.0
 11
1951.832404
 21
755.821051
 31
0.0
  0
LINE
  5
323
330
6F
100
AcDbEntity
  8
8-0
  6
Continuous
 62
     4
100
AcDbLine
 10
1951.832404
 20
727.071051
 30
0.0
 11
1921.561295
 21
707.603192
 31
0.0
  0
LINE
  5
324
330
6F
100
AcDbEntity
  8
8-0
  6
Continuous
 62
     4
100
AcDbLine
 10
1921.561295
 20
707.603192
 30
0.0
 11
1921.561295
 21
603.7453229999999
 31
0.0
  0
TEXT
  5
325
330
6F
100
AcDbEntity
  8
8-0
 62
     4
100
AcDbText
 10
1920.941
 20
610.874
 30
0.0
 40
36.288
  1
17.5
 50
90.0
100
AcDbText
  0
LINE
  5
326
330
6F
100
AcDbEntity
  8
8-0
  6
Continuous
 62
     4
100
AcDbLine
 10
1951.832404
 20
718.321051
 30
0.0
 11
1951.832404
 21
735.821051
 31
0.0
  0
LINE
  5
327
330
6F
100
AcDbEntity
  8
8-0
  6
Continuous
 62
     4
100
AcDbLine
 10
1951.832404
 20
718.321051
 30
0.0
 11
1951.832404
 21
735.821051
 31
0.0
  0
CIRCLE
  5
328
330
6F
100
AcDbEntity
  8
8-0
  6
Continuous
 62
     4
100
AcDbCircle
 10
1951.832403660351
 20
718.3210512106811
 30
0.0
 40
0.25
  0
CIRCLE
  5
329
330
6F
100
AcDbEntity
  8
8-0
  6
Continuous
 62
     4
100
AcDbCircle
 10
1951.832403660351
 20
718.3210512106811
 30
0.0
 40
0.1875
  0
CIRCLE
  5
32A
330
6F
100
AcDbEntity
  8
8-0
  6
Continuous
 62
     4
100
AcDbCircle
 10
1951.832403660351
 20
718.3210512106811
 30
0.0
 40
0.125
  0
CIRCLE
  5
32B
330
6F
100
AcDbEntity
  8
8-0
  6
Continuous
 62
     4
100
AcDbCircle
 10
1951.832403660351
 20
718.3210512106811
 30
0.0
 40
0.0625
  0
ARC
  5
32C
330
6F
100
AcDbEntity
  8
8-0
 62
     4
100
AcDbCircle
 10
1951.827403660351
 20
718.3210512106811
 30
0.0
 40
2.5
100
AcDbArc
 50
90.11459140653
 51
270.114591405945
  0
LINE
  5
32D
330
6F
100
AcDbEntity
  8
8-0
 62
     4
100
AcDbLine
 10
1951.832403660377
 20
713.321051210681
 30
0.0
 11
1951.832403660402
 21
708.321051210681
 31
0.0
  0
CIRCLE
  5
32E
330
6F
100
AcDbEntity
  8
8-0
  6
Continuous
 62
     4
100
AcDbCircle
 10
1951.832403660351
 20
735.821051210681
 30
0.0
 40
0.25
  0
CIRCLE
  5
32F
330
6F
100
AcDbEntity
  8
8-0
  6
Continuous
 62
     4
100
AcDbCircle
 10
1951.832403660351
 20
735.821051210681
 30
0.0
 40
0.1875
  0
CIRCLE
  5
330
330
6F
100
AcDbEntity
  8
8-0
  6
Continuous
 62
     4
100
AcDbCircle
 10
1951.832403660351
 20
735.821051210681
 30
0.0
 40
0.125
  0
CIRCLE
  5
331
330
6F
100
AcDbEntity
  8
8-0
  6
Continuous
 62
     4
100
AcDbCircle
 10
1951.832403660351
 20
735.821051210681
 30
0.0
 40
0.0625
  0
ARC
  5
332
330
6F
100
AcDbEntity
  8
8-0
 62
     4
100
AcDbCircle
 10
1951.837403660351
 20
735.821051210681
 30
0.0
 40
2.5
100
AcDbArc
 50
270.1145914065301
 51
90.11459140594496
  0
LINE
  5
333
330
6F
100
AcDbEntity
  8
8-0
 62
     4
100
AcDbLine
 10
1951.832403660274
 20
740.821051210681
 30
0.0
 11
1951.832403660198
 21
745.821051210681
 31
0.0
  0
LINE
  5
334
330
6F
100
AcDbEntity
  8
2-0
  6
DASHED2
 62
     7
100
AcDbLine
 10
2104.40223
 20
735.821051
 30
0.0
 11
2124.40223
 21
770.821051
 31
0.0
  0
LINE
  5
335
330
6F
100
AcDbEntity
  8
2-0
  6
DASHED2
 62
     7
100
AcDbLine
 10
2104.40223
 20
770.821051
 30
0.0
 11
2124.40223
 21
770.821051
 31
0.0
  0
LINE
  5
336
330
6F
100
AcDbEntity
  8
9-0
  6
CENTER
 62
     6
100
AcDbLine
 10
2187.623587
 20
1018.321051
 30
0.0
 11
1855.920553
 21
1018.321051
 31
0.0
  0
LINE
  5
337
330
6F
100
AcDbEntity
  8
8-0
  6
Continuous
 62
     4
100
AcDbLine
 10
2066.746847
 20
1303.321051
 30
0.0
 11
1951.739938
 21
1303.321051
 31
0.0
  0
LINE
  5
338
330
6F
100
AcDbEntity
  8
8-0
  6
Continuous
 62
     4
100
AcDbLine
 10
2065.71945
 20
1263.321051
 30
0.0
 11
1951.739938
 21
1263.321051
 31
0.0
  0
LINE
  5
339
330
6F
100
AcDbEntity
  8
8-0
  6
Continuous
 62
     4
100
AcDbLine
 10
1951.739938
 20
1293.321051
 30
0.0
 11
1951.739938
 21
1273.321051
 31
0.0
  0
LINE
  5
33A
330
6F
100
AcDbEntity
  8
8-0
  6
Continuous
 62
     4
100
AcDbLine
 10
1951.739938
 20
1283.321051
 30
0.0
 11
1921.680463
 21
1262.246224
 31
0.0
  0
LINE
  5
33B
330
6F
100
AcDbEntity
  8
8-0
  6
Continuous
 62
     4
100
AcDbLine
 10
1921.680463
 20
1262.246224
 30
0.0
 11
1921.680463
 21
1199.96196
 31
0.0
  0
TEXT
  5
33C
330
6F
100
AcDbEntity
  8
8-0
 62
     4
100
AcDbText
 10
1921.06
 20
1208.704
 30
0.0
 40
36.288
  1
40
 50
90.0
100
AcDbText
  0
CIRCLE
  5
33D
330
6F
100
AcDbEntity
  8
8-0
  6
Continuous
 62
     4
100
AcDbCircle
 10
1951.739937906924
 20
1303.321051210681
 30
0.0
 40
0.25
  0
CIRCLE
  5
33E
330
6F
100
AcDbEntity
  8
8-0
  6
Continuous
 62
     4
100
AcDbCircle
 10
1951.739937906924
 20
1303.321051210681
 30
0.0
 40
0.1875
  0
CIRCLE
  5
33F
330
6F
100
AcDbEntity
  8
8-0
  6
Continuous
 62
     4
100
AcDbCircle
 10
1951.739937906924
 20
1303.321051210681
 30
0.0
 40
0.125
  0
CIRCLE
  5
340
330
6F
100
AcDbEntity
  8
8-0
  6
Continuous
 62
     4
100
AcDbCircle
 10
1951.739937906924
 20
1303.321051210681
 30
0.0
 40
0.0625
  0
ARC
  5
341
330
6F
100
AcDbEntity
  8
8-0
 62
     4
100
AcDbCircle
 10
1951.734937906924
 20
1303.321051210681
 30
0.0
 40
2.5
100
AcDbArc
 50
90.11459140653
 51
270.114591405945
  0
LINE
  5
342
330
6F
100
AcDbEntity
  8
8-0
 62
     4
100
AcDbLine
 10
1951.73993790695
 20
1298.321051210681
 30
0.0
 11
1951.739937906975
 21
1293.321051210681
 31
0.0
  0
CIRCLE
  5
343
330
6F
100
AcDbEntity
  8
8-0
  6
Continuous
 62
     4
100
AcDbCircle
 10
1951.739937906924
 20
1263.321051210681
 30
0.0
 40
0.25
  0
CIRCLE
  5
344
330
6F
100
AcDbEntity
  8
8-0
  6
Continuous
 62
     4
100
AcDbCircle
 10
1951.739937906924
 20
1263.321051210681
 30
0.0
 40
0.1875
  0
CIRCLE
  5
345
330
6F
100
AcDbEntity
  8
8-0
  6
Continuous
 62
     4
100
AcDbCircle
 10
1951.739937906924
 20
1263.321051210681
 30
0.0
 40
0.125
  0
CIRCLE
  5
346
330
6F
100
AcDbEntity
  8
8-0
  6
Continuous
 62
     4
100
AcDbCircle
 10
1951.739937906924
 20
1263.321051210681
 30
0.0
 40
0.0625
  0
ARC
  5
347
330
6F
100
AcDbEntity
  8
8-0
 62
     4
100
AcDbCircle
 10
1951.744937906924
 20
1263.321051210681
 30
0.0
 40
2.5
100
AcDbArc
 50
270.1145914065301
 51
90.11459140594496
  0
LINE
  5
348
330
6F
100
AcDbEntity
  8
8-0
 62
     4
100
AcDbLine
 10
1951.739937906847
 20
1268.321051210681
 30
0.0
 11
1951.739937906771
 21
1273.321051210681
 31
0.0
  0
LINE
  5
349
330
6F
100
AcDbEntity
  8
8-0
  6
Continuous
 62
     4
100
AcDbLine
 10
2066.79308
 20
1318.321051
 30
0.0
 11
1951.832404
 21
1318.321051
 31
0.0
  0
LINE
  5
34A
330
6F
100
AcDbEntity
  8
8-0
  6
Continuous
 62
     4
100
AcDbLine
 10
2066.746847
 20
1303.321051
 30
0.0
 11
1951.832404
 21
1303.321051
 31
0.0
  0
LINE
  5
34B
330
6F
100
AcDbEntity
  8
8-0
  6
Continuous
 62
     4
100
AcDbLine
 10
1951.832404
 20
1328.321051
 30
0.0
 11
1951.832404
 21
1338.321051
 31
0.0
  0
LINE
  5
34C
330
6F
100
AcDbEntity
  8
8-0
  6
Continuous
 62
     4
100
AcDbLine
 10
1951.832404
 20
1293.321051
 30
0.0
 11
1951.832404
 21
1283.321051
 31
0.0
  0
LINE
  5
34D
330
6F
100
AcDbEntity
  8
8-0
  6
Continuous
 62
     4
100
AcDbLine
 10
1951.832404
 20
1310.821051
 30
0.0
 11
1921.561295
 21
1329.038911
 31
0.0
  0
LINE
  5
34E
330
6F
100
AcDbEntity
  8
8-0
  6
Continuous
 62
     4
100
AcDbLine
 10
1921.561295
 20
1329.038911
 30
0.0
 11
1921.561295
 21
1387.414545
 31
0.0
  0
TEXT
  5
34F
330
6F
100
AcDbEntity
  8
8-0
 62
     4
100
AcDbText
 10
1920.941
 20
1335.827
 30
0.0
 40
36.288
  1
15
 50
90.0
100
AcDbText
  0
LINE
  5
350
330
6F
100
AcDbEntity
  8
8-0
  6
Continuous
 62
     4
100
AcDbLine
 10
1951.832404
 20
1318.321051
 30
0.0
 11
1951.832404
 21
1303.321051
 31
0.0
  0
LINE
  5
351
330
6F
100
AcDbEntity
  8
8-0
  6
Continuous
 62
     4
100
AcDbLine
 10
1951.832404
 20
1318.321051
 30
0.0
 11
1951.832404
 21
1303.321051
 31
0.0
  0
CIRCLE
  5
352
330
6F
100
AcDbEntity
  8
8-0
  6
Continuous
 62
     4
100
AcDbCircle
 10
1951.832403660351
 20
1318.321051210681
 30
0.0
 40
0.25
  0
CIRCLE
  5
353
330
6F
100
AcDbEntity
  8
8-0
  6
Continuous
 62
     4
100
AcDbCircle
 10
1951.832403660351
 20
1318.321051210681
 30
0.0
 40
0.1875
  0
CIRCLE
  5
354
330
6F
100
AcDbEntity
  8
8-0
  6
Continuous
 62
     4
100
AcDbCircle
 10
1951.832403660351
 20
1318.321051210681
 30
0.0
 40
0.125
  0
CIRCLE
  5
355
330
6F
100
AcDbEntity
  8
8-0
  6
Continuous
 62
     4
100
AcDbCircle
 10
1951.832403660351
 20
1318.321051210681
 30
0.0
 40
0.0625
  0
ARC
  5
356
330
6F
100
AcDbEntity
  8
8-0
 62
     4
100
AcDbCircle
 10
1951.837403660351
 20
1318.321051210681
 30
0.0
 40
2.5
100
AcDbArc
 50
270.1145914065301
 51
90.11459140594496
  0
LINE
  5
357
330
6F
100
AcDbEntity
  8
8-0
 62
     4
100
AcDbLine
 10
1951.832403660274
 20
1323.321051210681
 30
0.0
 11
1951.832403660198
 21
1328.321051210681
 31
0.0
  0
CIRCLE
  5
358
330
6F
100
AcDbEntity
  8
8-0
  6
Continuous
 62
     4
100
AcDbCircle
 10
1951.832403660351
 20
1303.321051210681
 30
0.0
 40
0.25
  0
CIRCLE
  5
359
330
6F
100
AcDbEntity
  8
8-0
  6
Continuous
 62
     4
100
AcDbCircle
 10
1951.832403660351
 20
1303.321051210681
 30
0.0
 40
0.1875
  0
CIRCLE
  5
35A
330
6F
100
AcDbEntity
  8
8-0
  6
Continuous
 62
     4
100
AcDbCircle
 10
1951.832403660351
 20
1303.321051210681
 30
0.0
 40
0.125
  0
CIRCLE
  5
35B
330
6F
100
AcDbEntity
  8
8-0
  6
Continuous
 62
     4
100
AcDbCircle
 10
1951.832403660351
 20
1303.321051210681
 30
0.0
 40
0.0625
  0
ARC
  5
35C
330
6F
100
AcDbEntity
  8
8-0
 62
     4
100
AcDbCircle
 10
1951.827403660351
 20
1303.321051210681
 30
0.0
 40
2.5
100
AcDbArc
 50
90.11459140653
 51
270.114591405945
  0
LINE
  5
35D
330
6F
100
AcDbEntity
  8
8-0
 62
     4
100
AcDbLine
 10
1951.832403660377
 20
1298.321051210681
 30
0.0
 11
1951.832403660402
 21
1293.321051210681
 31
0.0
  0
LINE
  5
35E
330
6F
100
AcDbEntity
  8
2-0
  6
DASHED2
 62
     7
100
AcDbLine
 10
2124.40223
 20
1300.621051
 30
0.0
 11
2104.40223
 21
1260.621051
 31
0.0
  0
LINE
  5
35F
330
6F
100
AcDbEntity
  8
2-0
  6
DASHED2
 62
     7
100
AcDbLine
 10
2104.40223
 20
1260.621051
 30
0.0
 11
2124.40223
 21
1260.621051
 31
0.0
  0
LINE
  5
360
330
6F
100
AcDbEntity
  8
8-0
  6
Continuous
 62
     4
100
AcDbLine
 10
2525.403768
 20
1313.321051
 30
0.0
 11
2640.364444
 21
1313.321051
 31
0.0
  0
LINE
  5
361
330
6F
100
AcDbEntity
  8
8-0
  6
Continuous
 62
     4
100
AcDbLine
 10
2509.40223
 20
693.321051
 30
0.0
 11
2640.364444
 21
693.321051
 31
0.0
  0
TEXT
  5
362
330
6F
100
AcDbEntity
  8
8-0
 62
     4
100
AcDbText
 10
2639.744
 20
969.721
 30
0.0
 40
36.288
  1
620
 50
90.0
100
AcDbText
  0
LINE
  5
363
330
6F
100
AcDbEntity
  8
8-0
  6
Continuous
 62
     4
100
AcDbLine
 10
2640.364444024926
 20
693.3210512106811
 30
0.0
 11
2640.364444024927
 21
1313.321051210681
 31
0.0
  0
CIRCLE
  5
364
330
6F
100
AcDbEntity
  8
8-0
  6
Continuous
 62
     4
100
AcDbCircle
 10
2640.364444024926
 20
693.3210512106811
 30
0.0
 40
0.25
  0
CIRCLE
  5
365
330
6F
100
AcDbEntity
  8
8-0
  6
Continuous
 62
     4
100
AcDbCircle
 10
2640.364444024926
 20
693.3210512106811
 30
0.0
 40
0.1875
  0
CIRCLE
  5
366
330
6F
100
AcDbEntity
  8
8-0
  6
Continuous
 62
     4
100
AcDbCircle
 10
2640.364444024926
 20
693.3210512106811
 30
0.0
 40
0.125
  0
CIRCLE
  5
367
330
6F
100
AcDbEntity
  8
8-0
  6
Continuous
 62
     4
100
AcDbCircle
 10
2640.364444024926
 20
693.3210512106811
 30
0.0
 40
0.0625
  0
CIRCLE
  5
368
330
6F
100
AcDbEntity
  8
8-0
  6
Continuous
 62
     4
100
AcDbCircle
 10
2640.364444024927
 20
1313.321051210681
 30
0.0
 40
0.25
  0
CIRCLE
  5
369
330
6F
100
AcDbEntity
  8
8-0
  6
Continuous
 62
     4
100
AcDbCircle
 10
2640.364444024927
 20
1313.321051210681
 30
0.0
 40
0.1875
  0
CIRCLE
  5
36A
330
6F
100
AcDbEntity
  8
8-0
  6
Continuous
 62
     4
100
AcDbCircle
 10
2640.364444024927
 20
1313.321051210681
 30
0.0
 40
0.125
  0
CIRCLE
  5
36B
330
6F
100
AcDbEntity
  8
8-0
  6
Continuous
 62
     4
100
AcDbCircle
 10
2640.364444024927
 20
1313.321051210681
 30
0.0
 40
0.0625
  0
LINE
  5
36C
330
6F
100
AcDbEntity
  8
2-0
  6
Continuous
 62
     7
100
AcDbLine
 10
2449.40223
 20
718.321051
 30
0.0
 11
2449.40223
 21
1318.321051
 31
0.0
  0
LINE
  5
36D
330
6F
100
AcDbEntity
  8
2-0
  6
Continuous
 62
     7
100
AcDbLine
 10
2451.40223
 20
693.321051
 30
0.0
 11
2451.40223
 21
1213.321051
 31
0.0
  0
LINE
  5
36E
330
6F
100
AcDbEntity
  8
2-0
  6
Continuous
 62
     7
100
AcDbLine
 10
2466.40223
 20
693.321051
 30
0.0
 11
2466.40223
 21
1313.321051
 31
0.0
  0
LINE
  5
36F
330
6F
100
AcDbEntity
  8
8-0
  6
Continuous
 62
     4
100
AcDbLine
 10
2466.40223
 20
673.321051
 30
0.0
 11
2466.40223
 21
584.318696
 31
0.0
  0
LINE
  5
370
330
6F
100
AcDbEntity
  8
8-0
  6
Continuous
 62
     4
100
AcDbLine
 10
2451.40223
 20
675.860119
 30
0.0
 11
2451.40223
 21
584.318696
 31
0.0
  0
LINE
  5
371
330
6F
100
AcDbEntity
  8
8-0
  6
Continuous
 62
     4
100
AcDbLine
 10
2476.40223
 20
584.318696
 30
0.0
 11
2486.40223
 21
584.318696
 31
0.0
  0
LINE
  5
372
330
6F
100
AcDbEntity
  8
8-0
  6
Continuous
 62
     4
100
AcDbLine
 10
2441.40223
 20
584.318696
 30
0.0
 11
2431.40223
 21
584.318696
 31
0.0
  0
LINE
  5
373
330
6F
100
AcDbEntity
  8
8-0
  6
Continuous
 62
     4
100
AcDbLine
 10
2458.90223
 20
584.318696
 30
0.0
 11
2488.551729
 21
530.0186959999999
 31
0.0
  0
LINE
  5
374
330
6F
100
AcDbEntity
  8
8-0
  6
Continuous
 62
     4
100
AcDbLine
 10
2488.551729
 20
530.0186959999999
 30
0.0
 11
2546.927364
 21
530.0186959999999
 31
0.0
  0
TEXT
  5
375
330
6F
100
AcDbEntity
  8
8-0
 62
     4
100
AcDbText
 10
2498.162000000001
 20
530.639
 30
0.0
 40
36.288
  1
15
100
AcDbText
  0
LINE
  5
376
330
6F
100
AcDbEntity
  8
8-0
  6
Continuous
 62
     4
100
AcDbLine
 10
2466.40223
 20
584.318696
 30
0.0
 11
2451.40223
 21
584.318696
 31
0.0
  0
LINE
  5
377
330
6F
100
AcDbEntity
  8
8-0
  6
Continuous
 62
     4
100
AcDbLine
 10
2466.40223
 20
584.318696
 30
0.0
 11
2451.40223
 21
584.318696
 31
0.0
  0
CIRCLE
  5
378
330
6F
100
AcDbEntity
  8
8-0
  6
Continuous
 62
     4
100
AcDbCircle
 10
2466.402230492525
 20
584.31869626388
 30
0.0
 40
0.25
  0
CIRCLE
  5
379
330
6F
100
AcDbEntity
  8
8-0
  6
Continuous
 62
     4
100
AcDbCircle
 10
2466.402230492525
 20
584.31869626388
 30
0.0
 40
0.1875
  0
CIRCLE
  5
37A
330
6F
100
AcDbEntity
  8
8-0
  6
Continuous
 62
     4
100
AcDbCircle
 10
2466.402230492525
 20
584.31869626388
 30
0.0
 40
0.125
  0
CIRCLE
  5
37B
330
6F
100
AcDbEntity
  8
8-0
  6
Continuous
 62
     4
100
AcDbCircle
 10
2466.402230492525
 20
584.31869626388
 30
0.0
 40
0.0625
  0
ARC
  5
37C
330
6F
100
AcDbEntity
  8
8-0
 62
     4
100
AcDbCircle
 10
2466.402230492525
 20
584.3136962638801
 30
0.0
 40
2.5
100
AcDbArc
 50
180.1145914065301
 51
0.1145914059449637
  0
LINE
  5
37D
330
6F
100
AcDbEntity
  8
8-0
 62
     4
100
AcDbLine
 10
2471.402230492524
 20
584.3186962639309
 30
0.0
 11
2476.402230492525
 21
584.318696263982
 31
0.0
  0
CIRCLE
  5
37E
330
6F
100
AcDbEntity
  8
8-0
  6
Continuous
 62
     4
100
AcDbCircle
 10
2451.402230492524
 20
584.31869626388
 30
0.0
 40
0.25
  0
CIRCLE
  5
37F
330
6F
100
AcDbEntity
  8
8-0
  6
Continuous
 62
     4
100
AcDbCircle
 10
2451.402230492524
 20
584.31869626388
 30
0.0
 40
0.1875
  0
CIRCLE
  5
380
330
6F
100
AcDbEntity
  8
8-0
  6
Continuous
 62
     4
100
AcDbCircle
 10
2451.402230492524
 20
584.31869626388
 30
0.0
 40
0.125
  0
CIRCLE
  5
381
330
6F
100
AcDbEntity
  8
8-0
  6
Continuous
 62
     4
100
AcDbCircle
 10
2451.402230492524
 20
584.31869626388
 30
0.0
 40
0.0625
  0
ARC
  5
382
330
6F
100
AcDbEntity
  8
8-0
 62
     4
100
AcDbCircle
 10
2451.402230492524
 20
584.32369626388
 30
0.0
 40
2.5
100
AcDbArc
 50
0.1145914065300158
 51
180.114591405945
  0
LINE
  5
383
330
6F
100
AcDbEntity
  8
8-0
 62
     4
100
AcDbLine
 10
2446.402230492525
 20
584.31869626388
 30
0.0
 11
2441.402230492525
 21
584.31869626388
 31
0.0
  0
LINE
  5
384
330
6F
100
AcDbEntity
  8
8-0
  6
Continuous
 62
     4
100
AcDbLine
 10
2449.40223
 20
675.8686199999999
 30
0.0
 11
2449.40223
 21
584.318696
 31
0.0
  0
LINE
  5
385
330
6F
100
AcDbEntity
  8
8-0
  6
Continuous
 62
     4
100
AcDbLine
 10
2451.40223
 20
675.860119
 30
0.0
 11
2451.40223
 21
584.318696
 31
0.0
  0
LINE
  5
386
330
6F
100
AcDbEntity
  8
8-0
  6
Continuous
 62
     4
100
AcDbLine
 10
2439.402230000001
 20
584.318696
 30
0.0
 11
2429.40223
 21
584.318696
 31
0.0
  0
LINE
  5
387
330
6F
100
AcDbEntity
  8
8-0
  6
Continuous
 62
     4
100
AcDbLine
 10
2461.40223
 20
584.318696
 30
0.0
 11
2471.402230000001
 21
584.318696
 31
0.0
  0
LINE
  5
388
330
6F
100
AcDbEntity
  8
8-0
  6
Continuous
 62
     4
100
AcDbLine
 10
2450.40223
 20
584.318696
 30
0.0
 11
2424.21505
 21
530.0186959999999
 31
0.0
  0
LINE
  5
389
330
6F
100
AcDbEntity
  8
8-0
  6
Continuous
 62
     4
100
AcDbLine
 10
2424.21505
 20
530.0186959999999
 30
0.0
 11
2386.093223
 21
530.0186959999999
 31
0.0
  0
TEXT
  5
38A
330
6F
100
AcDbEntity
  8
8-0
 62
     4
100
AcDbText
 10
2396.777
 20
530.639
 30
0.0
 40
36.288
  1
2
100
AcDbText
  0
LINE
  5
38B
330
6F
100
AcDbEntity
  8
8-0
  6
Continuous
 62
     4
100
AcDbLine
 10
2449.40223
 20
584.318696
 30
0.0
 11
2451.40223
 21
584.318696
 31
0.0
  0
LINE
  5
38C
330
6F
100
AcDbEntity
  8
8-0
  6
Continuous
 62
     4
100
AcDbLine
 10
2449.40223
 20
584.318696
 30
0.0
 11
2451.40223
 21
584.318696
 31
0.0
  0
CIRCLE
  5
38D
330
6F
100
AcDbEntity
  8
8-0
  6
Continuous
 62
     4
100
AcDbCircle
 10
2449.402230492524
 20
584.31869626388
 30
0.0
 40
0.25
  0
CIRCLE
  5
38E
330
6F
100
AcDbEntity
  8
8-0
  6
Continuous
 62
     4
100
AcDbCircle
 10
2449.402230492524
 20
584.31869626388
 30
0.0
 40
0.1875
  0
CIRCLE
  5
38F
330
6F
100
AcDbEntity
  8
8-0
  6
Continuous
 62
     4
100
AcDbCircle
 10
2449.402230492524
 20
584.31869626388
 30
0.0
 40
0.125
  0
CIRCLE
  5
390
330
6F
100
AcDbEntity
  8
8-0
  6
Continuous
 62
     4
100
AcDbCircle
 10
2449.402230492524
 20
584.31869626388
 30
0.0
 40
0.0625
  0
ARC
  5
391
330
6F
100
AcDbEntity
  8
8-0
 62
     4
100
AcDbCircle
 10
2449.402230492524
 20
584.32369626388
 30
0.0
 40
2.5
100
AcDbArc
 50
0.1145914065300158
 51
180.114591405945
  0
LINE
  5
392
330
6F
100
AcDbEntity
  8
8-0
 62
     4
100
AcDbLine
 10
2444.402230492525
 20
584.31869626388
 30
0.0
 11
2439.402230492524
 21
584.31869626388
 31
0.0
  0
CIRCLE
  5
393
330
6F
100
AcDbEntity
  8
8-0
  6
Continuous
 62
     4
100
AcDbCircle
 10
2451.402230492524
 20
584.31869626388
 30
0.0
 40
0.25
  0
CIRCLE
  5
394
330
6F
100
AcDbEntity
  8
8-0
  6
Continuous
 62
     4
100
AcDbCircle
 10
2451.402230492524
 20
584.31869626388
 30
0.0
 40
0.1875
  0
CIRCLE
  5
395
330
6F
100
AcDbEntity
  8
8-0
  6
Continuous
 62
     4
100
AcDbCircle
 10
2451.402230492524
 20
584.31869626388
 30
0.0
 40
0.125
  0
CIRCLE
  5
396
330
6F
100
AcDbEntity
  8
8-0
  6
Continuous
 62
     4
100
AcDbCircle
 10
2451.402230492524
 20
584.31869626388
 30
0.0
 40
0.0625
  0
ARC
  5
397
330
6F
100
AcDbEntity
  8
8-0
 62
     4
100
AcDbCircle
 10
2451.402230492524
 20
584.3136962638801
 30
0.0
 40
2.5
100
AcDbArc
 50
180.1145914065301
 51
0.1145914059449637
  0
LINE
  5
398
330
6F
100
AcDbEntity
  8
8-0
 62
     4
100
AcDbLine
 10
2456.402230492524
 20
584.3186962639309
 30
0.0
 11
2461.402230492524
 21
584.318696263982
 31
0.0
  0
LINE
  5
399
330
6F
100
AcDbEntity
  8
8-0
  6
Continuous
 62
     4
100
AcDbLine
 10
2525.403768
 20
1313.321051
 30
0.0
 11
2640.364444
 21
1313.321051
 31
0.0
  0
LINE
  5
39A
330
6F
100
AcDbEntity
  8
8-0
  6
Continuous
 62
     4
100
AcDbLine
 10
2525.407250000001
 20
1318.321051
 30
0.0
 11
2640.364444
 21
1318.321051
 31
0.0
  0
TEXT
  5
39B
330
6F
100
AcDbEntity
  8
8-0
 62
     4
100
AcDbText
 10
2707.244
 20
1343.932
 30
0.0
 40
36.288
  1
5
 50
90.0
100
AcDbText
  0
LINE
  5
39C
330
6F
100
AcDbEntity
  8
8-0
  6
Continuous
 62
     4
100
AcDbLine
 10
2640.364444024926
 20
1318.321051210681
 30
0.0
 11
2640.364444024926
 21
1313.321051210681
 31
0.0
  0
CIRCLE
  5
39D
330
6F
100
AcDbEntity
  8
8-0
  6
Continuous
 62
     4
100
AcDbCircle
 10
2640.364444024926
 20
1318.321051210681
 30
0.0
 40
0.25
  0
CIRCLE
  5
39E
330
6F
100
AcDbEntity
  8
8-0
  6
Continuous
 62
     4
100
AcDbCircle
 10
2640.364444024926
 20
1318.321051210681
 30
0.0
 40
0.1875
  0
CIRCLE
  5
39F
330
6F
100
AcDbEntity
  8
8-0
  6
Continuous
 62
     4
100
AcDbCircle
 10
2640.364444024926
 20
1318.321051210681
 30
0.0
 40
0.125
  0
CIRCLE
  5
3A0
330
6F
100
AcDbEntity
  8
8-0
  6
Continuous
 62
     4
100
AcDbCircle
 10
2640.364444024926
 20
1318.321051210681
 30
0.0
 40
0.0625
  0
CIRCLE
  5
3A1
330
6F
100
AcDbEntity
  8
8-0
  6
Continuous
 62
     4
100
AcDbCircle
 10
2640.364444024926
 20
1313.321051210681
 30
0.0
 40
0.25
  0
CIRCLE
  5
3A2
330
6F
100
AcDbEntity
  8
8-0
  6
Continuous
 62
     4
100
AcDbCircle
 10
2640.364444024926
 20
1313.321051210681
 30
0.0
 40
0.1875
  0
CIRCLE
  5
3A3
330
6F
100
AcDbEntity
  8
8-0
  6
Continuous
 62
     4
100
AcDbCircle
 10
2640.364444024926
 20
1313.321051210681
 30
0.0
 40
0.125
  0
CIRCLE
  5
3A4
330
6F
100
AcDbEntity
  8
8-0
  6
Continuous
 62
     4
100
AcDbCircle
 10
2640.364444024926
 20
1313.321051210681
 30
0.0
 40
0.0625
  0
LINE
  5
3A5
330
6F
100
AcDbEntity
  8
2-0
  6
Continuous
 62
     7
100
AcDbLine
 10
2451.40223
 20
1313.321051
 30
0.0
 11
2466.40223
 21
1313.321051
 31
0.0
  0
CIRCLE
  5
3A6
330
6F
100
AcDbEntity
  8
2-0
  6
Continuous
 62
     7
100
AcDbCircle
 10
2144.60223
 20
1018.321051
 30
0.0
 40
2.5
  0
ARC
  5
3A7
330
6F
100
AcDbEntity
  8
2-0
  6
Continuous
 62
     7
100
AcDbCircle
 10
2404.41473
 20
1024.321051
 30
0.0
 40
7.6875
100
AcDbArc
 50
282.68
 51
77.31999999999999
  0
LINE
  5
3A8
330
6F
100
AcDbEntity
  8
2-0
  6
Continuous
 62
     7
100
AcDbLine
 10
2128.10223
 20
1031.821051
 30
0.0
 11
2406.10223
 21
1031.821051
 31
0.0
  0
CIRCLE
  5
3A9
330
6F
100
AcDbEntity
  8
2-0
  6
Continuous
 62
     7
100
AcDbCircle
 10
2383.60223
 20
1018.321051
 30
0.0
 40
2.5
  0
ARC
  5
3AA
330
6F
100
AcDbEntity
  8
2-0
  6
Continuous
 62
     7
100
AcDbCircle
 10
2128.10223
 20
1017.821051
 30
0.0
 40
1.0
100
AcDbArc
 50
180.0
 51
270.0
  0
ARC
  5
3AB
330
6F
100
AcDbEntity
  8
2-0
  6
Continuous
 62
     7
100
AcDbCircle
 10
2128.10223
 20
1030.821051
 30
0.0
 40
1.0
100
AcDbArc
 50
90.0
 51
180.0
  0
LINE
  5
3AC
330
6F
100
AcDbEntity
  8
2-0
  6
Continuous
 62
     7
100
AcDbLine
 10
2128.10223
 20
1016.821051
 30
0.0
 11
2135.10223
 21
1016.821051
 31
0.0
  0
LINE
  5
3AD
330
6F
100
AcDbEntity
  8
2-0
  6
Continuous
 62
     7
100
AcDbLine
 10
2138.10223
 20
1020.821051
 30
0.0
 11
2151.10223
 21
1020.821051
 31
0.0
  0
ARC
  5
3AE
330
6F
100
AcDbEntity
  8
2-0
  6
Continuous
 62
     7
100
AcDbCircle
 10
2138.10223
 20
1018.821051
 30
0.0
 40
2.0
100
AcDbArc
 50
90.0
 51
180.0
  0
LINE
  5
3AF
330
6F
100
AcDbEntity
  8
2-0
  6
Continuous
 62
     7
100
AcDbLine
 10
2153.10223
 20
1018.821051
 30
0.0
 11
2153.10223
 21
1017.821051
 31
0.0
  0
ARC
  5
3B0
330
6F
100
AcDbEntity
  8
2-0
  6
Continuous
 62
     7
100
AcDbCircle
 10
2151.10223
 20
1018.821051
 30
0.0
 40
2.0
100
AcDbArc
 50
0.0
 51
90.0
  0
LINE
  5
3B1
330
6F
100
AcDbEntity
  8
2-0
  6
Continuous
 62
     7
100
AcDbLine
 10
2154.10223
 20
1016.821051
 30
0.0
 11
2164.10223
 21
1016.821051
 31
0.0
  0
ARC
  5
3B2
330
6F
100
AcDbEntity
  8
2-0
  6
Continuous
 62
     7
100
AcDbCircle
 10
2154.10223
 20
1017.821051
 30
0.0
 40
1.0
100
AcDbArc
 50
180.0
 51
270.0
  0
LINE
  5
3B3
330
6F
100
AcDbEntity
  8
2-0
  6
Continuous
 62
     7
100
AcDbLine
 10
2165.10223
 20
1017.821051
 30
0.0
 11
2165.10223
 21
1019.321051
 31
0.0
  0
ARC
  5
3B4
330
6F
100
AcDbEntity
  8
2-0
  6
Continuous
 62
     7
100
AcDbCircle
 10
2164.10223
 20
1017.821051
 30
0.0
 40
1.0
100
AcDbArc
 50
270.0
 51
0.0
  0
LINE
  5
3B5
330
6F
100
AcDbEntity
  8
2-0
  6
Continuous
 62
     7
100
AcDbLine
 10
2362.10223
 20
1019.321051
 30
0.0
 11
2165.10223
 21
1019.321051
 31
0.0
  0
LINE
  5
3B6
330
6F
100
AcDbEntity
  8
2-0
  6
Continuous
 62
     7
100
AcDbLine
 10
2364.10223
 20
1016.821051
 30
0.0
 11
2374.10223
 21
1016.821051
 31
0.0
  0
ARC
  5
3B7
330
6F
100
AcDbEntity
  8
2-0
  6
Continuous
 62
     7
100
AcDbCircle
 10
2364.10223
 20
1017.821051
 30
0.0
 40
1.0
100
AcDbArc
 50
180.0
 51
270.0
  0
LINE
  5
3B8
330
6F
100
AcDbEntity
  8
2-0
  6
Continuous
 62
     7
100
AcDbLine
 10
2363.10223
 20
1018.321051
 30
0.0
 11
2363.10223
 21
1017.821051
 31
0.0
  0
ARC
  5
3B9
330
6F
100
AcDbEntity
  8
2-0
  6
Continuous
 62
     7
100
AcDbCircle
 10
2362.10223
 20
1018.321051
 30
0.0
 40
1.0
100
AcDbArc
 50
0.0
 51
90.0
  0
LINE
  5
3BA
330
6F
100
AcDbEntity
  8
2-0
  6
Continuous
 62
     7
100
AcDbLine
 10
2375.10223
 20
1017.821051
 30
0.0
 11
2375.10223
 21
1018.821051
 31
0.0
  0
ARC
  5
3BB
330
6F
100
AcDbEntity
  8
2-0
  6
Continuous
 62
     7
100
AcDbCircle
 10
2374.10223
 20
1017.821051
 30
0.0
 40
1.0
100
AcDbArc
 50
270.0
 51
0.0
  0
LINE
  5
3BC
330
6F
100
AcDbEntity
  8
2-0
  6
Continuous
 62
     7
100
AcDbLine
 10
2377.10223
 20
1020.821051
 30
0.0
 11
2390.10223
 21
1020.821051
 31
0.0
  0
ARC
  5
3BD
330
6F
100
AcDbEntity
  8
2-0
  6
Continuous
 62
     7
100
AcDbCircle
 10
2377.10223
 20
1018.821051
 30
0.0
 40
2.0
100
AcDbArc
 50
90.0
 51
180.0
  0
LINE
  5
3BE
330
6F
100
AcDbEntity
  8
2-0
  6
Continuous
 62
     7
100
AcDbLine
 10
2392.10223
 20
1018.821051
 30
0.0
 11
2392.10223
 21
1017.821051
 31
0.0
  0
ARC
  5
3BF
330
6F
100
AcDbEntity
  8
2-0
  6
Continuous
 62
     7
100
AcDbCircle
 10
2390.10223
 20
1018.821051
 30
0.0
 40
2.0
100
AcDbArc
 50
0.0
 51
90.0
  0
LINE
  5
3C0
330
6F
100
AcDbEntity
  8
2-0
  6
Continuous
 62
     7
100
AcDbLine
 10
2393.10223
 20
1016.821051
 30
0.0
 11
2406.10223
 21
1016.821051
 31
0.0
  0
ARC
  5
3C1
330
6F
100
AcDbEntity
  8
2-0
  6
Continuous
 62
     7
100
AcDbCircle
 10
2393.10223
 20
1017.821051
 30
0.0
 40
1.0
100
AcDbArc
 50
180.0
 51
270.0
  0
LINE
  5
3C2
330
6F
100
AcDbEntity
  8
2-0
  6
Continuous
 62
     7
100
AcDbLine
 10
2136.10223
 20
1018.821051
 30
0.0
 11
2136.10223
 21
1017.821051
 31
0.0
  0
ARC
  5
3C3
330
6F
100
AcDbEntity
  8
2-0
  6
Continuous
 62
     7
100
AcDbCircle
 10
2135.10223
 20
1017.821051
 30
0.0
 40
1.0
100
AcDbArc
 50
270.0
 51
0.0
  0
LINE
  5
3C4
330
6F
100
AcDbEntity
  8
8-0
  6
Continuous
 62
     4
100
AcDbLine
 10
2127.10223
 20
997.821051
 30
0.0
 11
2127.10223
 21
932.882679
 31
0.0
  0
LINE
  5
3C5
330
6F
100
AcDbEntity
  8
8-0
  6
Continuous
 62
     4
100
AcDbLine
 10
2412.10223
 20
1004.321051
 30
0.0
 11
2412.10223
 21
932.882679
 31
0.0
  0
TEXT
  5
3C6
330
6F
100
AcDbEntity
  8
8-0
 62
     4
100
AcDbText
 10
2238.825
 20
933.5030000000001
 30
0.0
 40
36.288
  1
285
100
AcDbText
  0
LINE
  5
3C7
330
6F
100
AcDbEntity
  8
8-0
  6
Continuous
 62
     4
100
AcDbLine
 10
2412.102230492522
 20
932.8826785263741
 30
0.0
 11
2127.102230492525
 21
932.8826785263741
 31
0.0
  0
CIRCLE
  5
3C8
330
6F
100
AcDbEntity
  8
8-0
  6
Continuous
 62
     4
100
AcDbCircle
 10
2412.102230492522
 20
932.8826785263741
 30
0.0
 40
0.25
  0
CIRCLE
  5
3C9
330
6F
100
AcDbEntity
  8
8-0
  6
Continuous
 62
     4
100
AcDbCircle
 10
2412.102230492522
 20
932.8826785263741
 30
0.0
 40
0.1875
  0
CIRCLE
  5
3CA
330
6F
100
AcDbEntity
  8
8-0
  6
Continuous
 62
     4
100
AcDbCircle
 10
2412.102230492522
 20
932.8826785263741
 30
0.0
 40
0.125
  0
CIRCLE
  5
3CB
330
6F
100
AcDbEntity
  8
8-0
  6
Continuous
 62
     4
100
AcDbCircle
 10
2412.102230492522
 20
932.8826785263741
 30
0.0
 40
0.0625
  0
CIRCLE
  5
3CC
330
6F
100
AcDbEntity
  8
8-0
  6
Continuous
 62
     4
100
AcDbCircle
 10
2127.102230492525
 20
932.8826785263741
 30
0.0
 40
0.25
  0
CIRCLE
  5
3CD
330
6F
100
AcDbEntity
  8
8-0
  6
Continuous
 62
     4
100
AcDbCircle
 10
2127.102230492525
 20
932.8826785263741
 30
0.0
 40
0.1875
  0
CIRCLE
  5
3CE
330
6F
100
AcDbEntity
  8
8-0
  6
Continuous
 62
     4
100
AcDbCircle
 10
2127.102230492525
 20
932.8826785263741
 30
0.0
 40
0.125
  0
CIRCLE
  5
3CF
330
6F
100
AcDbEntity
  8
8-0
  6
Continuous
 62
     4
100
AcDbCircle
 10
2127.102230492525
 20
932.8826785263741
 30
0.0
 40
0.0625
  0
LINE
  5
3D0
330
6F
100
AcDbEntity
  8
8-0
  6
Continuous
 62
     4
100
AcDbLine
 10
2449.40223
 20
675.8686199999999
 30
0.0
 11
2449.40223
 21
584.318696
 31
0.0
  0
LINE
  5
3D1
330
6F
100
AcDbEntity
  8
8-0
  6
Continuous
 62
     4
100
AcDbLine
 10
2104.40223
 20
674.4021739999999
 30
0.0
 11
2104.40223
 21
584.318696
 31
0.0
  0
TEXT
  5
3D2
330
6F
100
AcDbEntity
  8
8-0
 62
     4
100
AcDbText
 10
2246.125
 20
584.9389999999999
 30
0.0
 40
36.288
  1
345
100
AcDbText
  0
LINE
  5
3D3
330
6F
100
AcDbEntity
  8
8-0
  6
Continuous
 62
     4
100
AcDbLine
 10
2104.402230492524
 20
584.31869626388
 30
0.0
 11
2449.402230492524
 21
584.31869626388
 31
0.0
  0
CIRCLE
  5
3D4
330
6F
100
AcDbEntity
  8
8-0
  6
Continuous
 62
     4
100
AcDbCircle
 10
2104.402230492524
 20
584.31869626388
 30
0.0
 40
0.25
  0
CIRCLE
  5
3D5
330
6F
100
AcDbEntity
  8
8-0
  6
Continuous
 62
     4
100
AcDbCircle
 10
2104.402230492524
 20
584.31869626388
 30
0.0
 40
0.1875
  0
CIRCLE
  5
3D6
330
6F
100
AcDbEntity
  8
8-0
  6
Continuous
 62
     4
100
AcDbCircle
 10
2104.402230492524
 20
584.31869626388
 30
0.0
 40
0.125
  0
CIRCLE
  5
3D7
330
6F
100
AcDbEntity
  8
8-0
  6
Continuous
 62
     4
100
AcDbCircle
 10
2104.402230492524
 20
584.31869626388
 30
0.0
 40
0.0625
  0
CIRCLE
  5
3D8
330
6F
100
AcDbEntity
  8
8-0
  6
Continuous
 62
     4
100
AcDbCircle
 10
2449.402230492524
 20
584.31869626388
 30
0.0
 40
0.25
  0
CIRCLE
  5
3D9
330
6F
100
AcDbEntity
  8
8-0
  6
Continuous
 62
     4
100
AcDbCircle
 10
2449.402230492524
 20
584.31869626388
 30
0.0
 40
0.1875
  0
CIRCLE
  5
3DA
330
6F
100
AcDbEntity
  8
8-0
  6
Continuous
 62
     4
100
AcDbCircle
 10
2449.402230492524
 20
584.31869626388
 30
0.0
 40
0.125
  0
CIRCLE
  5
3DB
330
6F
100
AcDbEntity
  8
8-0
  6
Continuous
 62
     4
100
AcDbCircle
 10
2449.402230492524
 20
584.31869626388
 30
0.0
 40
0.0625
  0
LINE
  5
3DC
330
6F
100
AcDbEntity
  8
2-0
  6
Continuous
 62
     7
100
AcDbLine
 10
2451.40223
 20
693.321051
 30
0.0
 11
2451.40223
 21
1313.321051
 31
0.0
  0
LINE
  5
3DD
330
6F
100
AcDbEntity
  8
8-0
  6
Continuous
 62
     4
100
AcDbLine
 10
2466.40223
 20
673.321051
 30
0.0
 11
2466.40223
 21
584.318696
 31
0.0
  0
LINE
  5
3DE
330
6F
100
AcDbEntity
  8
8-0
  6
Continuous
 62
     4
100
AcDbLine
 10
2451.40223
 20
675.860119
 30
0.0
 11
2451.40223
 21
584.318696
 31
0.0
  0
LINE
  5
3DF
330
6F
100
AcDbEntity
  8
8-0
  6
Continuous
 62
     4
100
AcDbLine
 10
2476.40223
 20
584.318696
 30
0.0
 11
2486.40223
 21
584.318696
 31
0.0
  0
LINE
  5
3E0
330
6F
100
AcDbEntity
  8
8-0
  6
Continuous
 62
     4
100
AcDbLine
 10
2441.40223
 20
584.318696
 30
0.0
 11
2431.40223
 21
584.318696
 31
0.0
  0
LINE
  5
3E1
330
6F
100
AcDbEntity
  8
8-0
  6
Continuous
 62
     4
100
AcDbLine
 10
2458.90223
 20
584.318696
 30
0.0
 11
2488.551729
 21
530.0186959999999
 31
0.0
  0
LINE
  5
3E2
330
6F
100
AcDbEntity
  8
8-0
  6
Continuous
 62
     4
100
AcDbLine
 10
2488.551729
 20
530.0186959999999
 30
0.0
 11
2546.927364
 21
530.0186959999999
 31
0.0
  0
TEXT
  5
3E3
330
6F
100
AcDbEntity
  8
8-0
 62
     4
100
AcDbText
 10
2498.162000000001
 20
530.639
 30
0.0
 40
36.288
  1
15
100
AcDbText
  0
LINE
  5
3E4
330
6F
100
AcDbEntity
  8
8-0
  6
Continuous
 62
     4
100
AcDbLine
 10
2466.40223
 20
584.318696
 30
0.0
 11
2451.40223
 21
584.318696
 31
0.0
  0
LINE
  5
3E5
330
6F
100
AcDbEntity
  8
8-0
  6
Continuous
 62
     4
100
AcDbLine
 10
2466.40223
 20
584.318696
 30
0.0
 11
2451.40223
 21
584.318696
 31
0.0
  0
CIRCLE
  5
3E6
330
6F
100
AcDbEntity
  8
8-0
  6
Continuous
 62
     4
100
AcDbCircle
 10
2466.402230492525
 20
584.31869626388
 30
0.0
 40
0.25
  0
CIRCLE
  5
3E7
330
6F
100
AcDbEntity
  8
8-0
  6
Continuous
 62
     4
100
AcDbCircle
 10
2466.402230492525
 20
584.31869626388
 30
0.0
 40
0.1875
  0
CIRCLE
  5
3E8
330
6F
100
AcDbEntity
  8
8-0
  6
Continuous
 62
     4
100
AcDbCircle
 10
2466.402230492525
 20
584.31869626388
 30
0.0
 40
0.125
  0
CIRCLE
  5
3E9
330
6F
100
AcDbEntity
  8
8-0
  6
Continuous
 62
     4
100
AcDbCircle
 10
2466.402230492525
 20
584.31869626388
 30
0.0
 40
0.0625
  0
ARC
  5
3EA
330
6F
100
AcDbEntity
  8
8-0
 62
     4
100
AcDbCircle
 10
2466.402230492525
 20
584.3136962638801
 30
0.0
 40
2.5
100
AcDbArc
 50
180.1145914065301
 51
0.1145914059449637
  0
LINE
  5
3EB
330
6F
100
AcDbEntity
  8
8-0
 62
     4
100
AcDbLine
 10
2471.402230492524
 20
584.3186962639309
 30
0.0
 11
2476.402230492525
 21
584.318696263982
 31
0.0
  0
CIRCLE
  5
3EC
330
6F
100
AcDbEntity
  8
8-0
  6
Continuous
 62
     4
100
AcDbCircle
 10
2451.402230492524
 20
584.31869626388
 30
0.0
 40
0.25
  0
CIRCLE
  5
3ED
330
6F
100
AcDbEntity
  8
8-0
  6
Continuous
 62
     4
100
AcDbCircle
 10
2451.402230492524
 20
584.31869626388
 30
0.0
 40
0.1875
  0
CIRCLE
  5
3EE
330
6F
100
AcDbEntity
  8
8-0
  6
Continuous
 62
     4
100
AcDbCircle
 10
2451.402230492524
 20
584.31869626388
 30
0.0
 40
0.125
  0
CIRCLE
  5
3EF
330
6F
100
AcDbEntity
  8
8-0
  6
Continuous
 62
     4
100
AcDbCircle
 10
2451.402230492524
 20
584.31869626388
 30
0.0
 40
0.0625
  0
ARC
  5
3F0
330
6F
100
AcDbEntity
  8
8-0
 62
     4
100
AcDbCircle
 10
2451.402230492524
 20
584.32369626388
 30
0.0
 40
2.5
100
AcDbArc
 50
0.1145914065300158
 51
180.114591405945
  0
LINE
  5
3F1
330
6F
100
AcDbEntity
  8
8-0
 62
     4
100
AcDbLine
 10
2446.402230492525
 20
584.31869626388
 30
0.0
 11
2441.402230492525
 21
584.31869626388
 31
0.0
  0
LINE
  5
3F2
330
6F
100
AcDbEntity
  8
8-0
  6
Continuous
 62
     4
100
AcDbLine
 10
2449.40223
 20
675.8686199999999
 30
0.0
 11
2449.40223
 21
584.318696
 31
0.0
  0
LINE
  5
3F3
330
6F
100
AcDbEntity
  8
8-0
  6
Continuous
 62
     4
100
AcDbLine
 10
2451.40223
 20
675.860119
 30
0.0
 11
2451.40223
 21
584.318696
 31
0.0
  0
LINE
  5
3F4
330
6F
100
AcDbEntity
  8
8-0
  6
Continuous
 62
     4
100
AcDbLine
 10
2439.402230000001
 20
584.318696
 30
0.0
 11
2429.40223
 21
584.318696
 31
0.0
  0
LINE
  5
3F5
330
6F
100
AcDbEntity
  8
8-0
  6
Continuous
 62
     4
100
AcDbLine
 10
2461.40223
 20
584.318696
 30
0.0
 11
2471.402230000001
 21
584.318696
 31
0.0
  0
LINE
  5
3F6
330
6F
100
AcDbEntity
  8
8-0
  6
Continuous
 62
     4
100
AcDbLine
 10
2450.40223
 20
584.318696
 30
0.0
 11
2424.21505
 21
530.0186959999999
 31
0.0
  0
LINE
  5
3F7
330
6F
100
AcDbEntity
  8
8-0
  6
Continuous
 62
     4
100
AcDbLine
 10
2424.21505
 20
530.0186959999999
 30
0.0
 11
2386.093223
 21
530.0186959999999
 31
0.0
  0
TEXT
  5
3F8
330
6F
100
AcDbEntity
  8
8-0
 62
     4
100
AcDbText
 10
2396.777
 20
530.639
 30
0.0
 40
36.288
  1
2
100
AcDbText
  0
LINE
  5
3F9
330
6F
100
AcDbEntity
  8
8-0
  6
Continuous
 62
     4
100
AcDbLine
 10
2449.40223
 20
584.318696
 30
0.0
 11
2451.40223
 21
584.318696
 31
0.0
  0
LINE
  5
3FA
330
6F
100
AcDbEntity
  8
8-0
  6
Continuous
 62
     4
100
AcDbLine
 10
2449.40223
 20
584.318696
 30
0.0
 11
2451.40223
 21
584.318696
 31
0.0
  0
CIRCLE
  5
3FB
330
6F
100
AcDbEntity
  8
8-0
  6
Continuous
 62
     4
100
AcDbCircle
 10
2449.402230492524
 20
584.31869626388
 30
0.0
 40
0.25
  0
CIRCLE
  5
3FC
330
6F
100
AcDbEntity
  8
8-0
  6
Continuous
 62
     4
100
AcDbCircle
 10
2449.402230492524
 20
584.31869626388
 30
0.0
 40
0.1875
  0
CIRCLE
  5
3FD
330
6F
100
AcDbEntity
  8
8-0
  6
Continuous
 62
     4
100
AcDbCircle
 10
2449.402230492524
 20
584.31869626388
 30
0.0
 40
0.125
  0
CIRCLE
  5
3FE
330
6F
100
AcDbEntity
  8
8-0
  6
Continuous
 62
     4
100
AcDbCircle
 10
2449.402230492524
 20
584.31869626388
 30
0.0
 40
0.0625
  0
ARC
  5
3FF
330
6F
100
AcDbEntity
  8
8-0
 62
     4
100
AcDbCircle
 10
2449.402230492524
 20
584.32369626388
 30
0.0
 40
2.5
100
AcDbArc
 50
0.1145914065300158
 51
180.114591405945
  0
LINE
  5
400
330
6F
100
AcDbEntity
  8
8-0
 62
     4
100
AcDbLine
 10
2444.402230492525
 20
584.31869626388
 30
0.0
 11
2439.402230492524
 21
584.31869626388
 31
0.0
  0
CIRCLE
  5
401
330
6F
100
AcDbEntity
  8
8-0
  6
Continuous
 62
     4
100
AcDbCircle
 10
2451.402230492524
 20
584.31869626388
 30
0.0
 40
0.25
  0
CIRCLE
  5
402
330
6F
100
AcDbEntity
  8
8-0
  6
Continuous
 62
     4
100
AcDbCircle
 10
2451.402230492524
 20
584.31869626388
 30
0.0
 40
0.1875
  0
CIRCLE
  5
403
330
6F
100
AcDbEntity
  8
8-0
  6
Continuous
 62
     4
100
AcDbCircle
 10
2451.402230492524
 20
584.31869626388
 30
0.0
 40
0.125
  0
CIRCLE
  5
404
330
6F
100
AcDbEntity
  8
8-0
  6
Continuous
 62
     4
100
AcDbCircle
 10
2451.402230492524
 20
584.31869626388
 30
0.0
 40
0.0625
  0
ARC
  5
405
330
6F
100
AcDbEntity
  8
8-0
 62
     4
100
AcDbCircle
 10
2451.402230492524
 20
584.3136962638801
 30
0.0
 40
2.5
100
AcDbArc
 50
180.1145914065301
 51
0.1145914059449637
  0
LINE
  5
406
330
6F
100
AcDbEntity
  8
8-0
 62
     4
100
AcDbLine
 10
2456.402230492524
 20
584.3186962639309
 30
0.0
 11
2461.402230492524
 21
584.318696263982
 31
0.0
  0
LINE
  5
407
330
6F
100
AcDbEntity
  8
2-0
  6
Continuous
 62
     7
100
AcDbLine
 10
2448.90223
 20
697.220371
 30
0.0
 11
2448.90223
 21
716.220371
 31
0.0
  0
LINE
  5
408
330
6F
100
AcDbEntity
  8
2-0
  6
Continuous
 62
     7
100
AcDbLine
 10
2451.40223
 20
693.321051
 30
0.0
 11
2466.40223
 21
693.321051
 31
0.0
  0
LINE
  5
409
330
6F
100
AcDbEntity
  8
1-0
  6
Continuous
 62
     7
100
AcDbLine
 10
2451.40223
 20
697.220371
 30
0.0
 11
2448.90223
 21
697.220371
 31
0.0
  0
LINE
  5
40A
330
6F
100
AcDbEntity
  8
1-0
  6
Continuous
 62
     7
100
AcDbLine
 10
2451.40223
 20
716.220371
 30
0.0
 11
2448.90223
 21
716.220371
 31
0.0
  0
LINE
  5
40B
330
6F
100
AcDbEntity
  8
1-0
  6
Continuous
 62
     7
100
AcDbLine
 10
2448.90223
 20
716.220371
 30
0.0
 11
2443.40223
 21
716.220371
 31
0.0
  0
LINE
  5
40C
330
6F
100
AcDbEntity
  8
1-0
  6
Continuous
 62
     7
100
AcDbLine
 10
2442.90223
 20
715.720371
 30
0.0
 11
2442.90223
 21
708.2203709999999
 31
0.0
  0
LINE
  5
40D
330
6F
100
AcDbEntity
  8
1-0
  6
Continuous
 62
     7
100
AcDbLine
 10
2445.90223
 20
705.220371
 30
0.0
 11
2448.90223
 21
705.220371
 31
0.0
  0
ARC
  5
40E
330
6F
100
AcDbEntity
  8
1-0
  6
Continuous
 62
     7
100
AcDbCircle
 10
2445.90223
 20
708.2203709999999
 30
0.0
 40
3.0
100
AcDbArc
 50
180.0
 51
270.0
  0
LINE
  5
40F
330
6F
100
AcDbEntity
  8
1-0
  6
Continuous
 62
     7
100
AcDbLine
 10
2442.90223
 20
715.720371
 30
0.0
 11
2442.90223
 21
708.2203709999999
 31
0.0
  0
ARC
  5
410
330
6F
100
AcDbEntity
  8
1-0
  6
Continuous
 62
     7
100
AcDbCircle
 10
2443.40223
 20
715.720371
 30
0.0
 40
0.5
100
AcDbArc
 50
90.0
 51
180.0
  0
LINE
  5
411
330
6F
100
AcDbEntity
  8
1-0
  6
Continuous
 62
     7
100
AcDbLine
 10
2448.90223
 20
706.720371
 30
0.0
 11
2448.90223
 21
716.220371
 31
0.0
  0
ARC
  5
412
330
6F
100
AcDbEntity
  8
1-0
  6
Continuous
 62
     7
100
AcDbCircle
 10
2452.16473
 20
711.470371
 30
0.0
 40
5.7625
100
AcDbArc
 50
124.483
 51
235.517
  0
ARC
  5
413
330
6F
100
AcDbEntity
  8
1-0
  6
Continuous
 62
     7
100
AcDbCircle
 10
2446.150217
 20
708.34055
 30
0.0
 40
1.451915
100
AcDbArc
 50
68.435
 51
346.548
  0
LINE
  5
414
330
6F
100
AcDbEntity
  8
1-0
  6
Continuous
 62
     7
100
AcDbLine
 10
2421.765679
 20
718.2870749999999
 30
0.0
 11
2437.123129
 21
718.2870749999999
 31
0.0
  0
LINE
  5
415
330
6F
100
AcDbEntity
  8
1-0
  6
Continuous
 62
     7
100
AcDbLine
 10
2421.765679
 20
716.7870749999999
 30
0.0
 11
2437.123129
 21
716.7870749999999
 31
0.0
  0
LINE
  5
416
330
6F
100
AcDbEntity
  8
1-0
  6
Continuous
 62
     7
100
AcDbLine
 10
2437.765679
 20
707.2870749999999
 30
0.0
 11
2438.616969
 21
716.6512709999999
 31
0.0
  0
ARC
  5
417
330
6F
100
AcDbEntity
  8
1-0
  6
Continuous
 62
     7
100
AcDbCircle
 10
2437.123129
 20
716.7870749999999
 30
0.0
 40
1.5
100
AcDbArc
 50
354.806
 51
90.0
  0
LINE
  5
418
330
6F
100
AcDbEntity
  8
1-0
  6
Continuous
 62
     7
100
AcDbLine
 10
2436.271839
 20
707.4228779999999
 30
0.0
 11
2437.123129
 21
716.7870749999999
 31
0.0
  0
LINE
  5
419
330
6F
100
AcDbEntity
  8
1-0
  6
Continuous
 62
     7
100
AcDbLine
 10
2421.765679
 20
718.2870749999999
 30
0.0
 11
2421.765679
 21
716.7870749999999
 31
0.0
  0
LINE
  5
41A
330
6F
100
AcDbEntity
  8
1-0
  6
Continuous
 62
     7
100
AcDbLine
 10
2436.271839
 20
707.4228779999999
 30
0.0
 11
2437.765679
 21
707.2870749999999
 31
0.0
  0
ARC
  5
41B
330
6F
100
AcDbEntity
  8
1-0
  6
Continuous
 62
     7
100
AcDbCircle
 10
2427.870359
 20
719.9686759999999
 30
0.0
 40
5.7625
100
AcDbArc
 50
214.483
 51
325.517
  0
LINE
  5
41C
330
6F
100
AcDbEntity
  8
1-0
  6
Continuous
 62
     7
100
AcDbLine
 10
2439.609781
 20
703.026525
 30
0.0
 11
2428.401268
 21
701.1378069999999
 31
0.0
  0
ARC
  5
41D
330
6F
100
AcDbEntity
  8
1-0
  6
Continuous
 62
     7
100
AcDbCircle
 10
2428.318186
 20
701.6308559999999
 30
0.0
 40
0.5
100
AcDbArc
 50
189.565
 51
279.565
  0
LINE
  5
41E
330
6F
100
AcDbEntity
  8
1-0
  6
Continuous
 62
     7
100
AcDbLine
 10
2427.825137
 20
701.547773
 30
0.0
 11
2427.077395
 21
705.985214
 31
0.0
  0
LINE
  5
41F
330
6F
100
AcDbEntity
  8
1-0
  6
Continuous
 62
     7
100
AcDbLine
 10
2427.077395
 20
705.985214
 30
0.0
 11
2433.312378
 21
714.740273
 31
0.0
  0
LINE
  5
420
330
6F
100
AcDbEntity
  8
1-0
  6
Continuous
 62
     7
100
AcDbLine
 10
2434.215849
 20
714.511795
 30
0.0
 11
2435.16488
 21
706.863013
 31
0.0
  0
ARC
  5
421
330
6F
100
AcDbEntity
  8
1-0
  6
Continuous
 62
     7
100
AcDbCircle
 10
2433.719654
 20
714.450229
 30
0.0
 40
0.5
100
AcDbArc
 50
7.073
 51
144.543
  0
LINE
  5
422
330
6F
100
AcDbEntity
  8
1-0
  6
Continuous
 62
     7
100
AcDbLine
 10
2435.744158
 20
706.4315299999999
 30
0.0
 11
2443.021128
 21
707.6577539999999
 31
0.0
  0
ARC
  5
423
330
6F
100
AcDbEntity
  8
1-0
  6
Continuous
 62
     7
100
AcDbCircle
 10
2435.661075
 20
706.924579
 30
0.0
 40
0.5
100
AcDbArc
 50
187.073
 51
279.565
  0
CIRCLE
  5
424
330
6F
100
AcDbEntity
  8
1-0
  6
Continuous
 62
     7
100
AcDbCircle
 10
2431.592058
 20
705.6291139999999
 30
0.0
 40
1.451915
  0
LINE
  5
425
330
6F
100
AcDbEntity
  8
1-0
  6
Continuous
 62
     7
100
AcDbLine
 10
2443.298278
 20
706.81034
 30
0.0
 11
2435.288115
 21
695.371839
 31
0.0
  0
LINE
  5
426
330
6F
100
AcDbEntity
  8
1-0
  6
Continuous
 62
     7
100
AcDbLine
 10
2445.577204000001
 20
705.1833339999999
 30
0.0
 11
2437.581662
 21
693.7657129999999
 31
0.0
  0
ARC
  5
427
330
6F
100
AcDbEntity
  8
1-0
  6
Continuous
 62
     7
100
AcDbCircle
 10
2436.762538
 20
694.339329
 30
0.0
 40
1.0
100
AcDbArc
 50
234.997
 51
324.997
  0
LINE
  5
428
330
6F
100
AcDbEntity
  8
1-0
  6
Continuous
 62
     7
100
AcDbLine
 10
2435.533622
 20
693.979099
 30
0.0
 11
2436.188921
 21
693.520206
 31
0.0
  0
ARC
  5
429
330
6F
100
AcDbEntity
  8
1-0
  6
Continuous
 62
     7
100
AcDbCircle
 10
2436.107239
 20
694.798223
 30
0.0
 40
1.0
100
AcDbArc
 50
144.997
 51
234.997
  0
LINE
  5
42A
330
6F
100
AcDbEntity
  8
1-0
  6
Continuous
 62
     7
100
AcDbLine
 10
2440.102426
 20
702.246667
 30
0.0
 11
2435.288115
 21
695.371839
 31
0.0
  0
ARC
  5
42B
330
6F
100
AcDbEntity
  8
1-0
  6
Continuous
 62
     7
100
AcDbCircle
 10
2439.692864
 20
702.5334759999999
 30
0.0
 40
0.5
100
AcDbArc
 50
324.997
 51
99.56500000000001
  0
LINE
  5
42C
330
6F
100
AcDbEntity
  8
1-0
  6
Continuous
 62
     4
100
AcDbLine
 10
1552.894028
 20
2152.323489
 30
0.0
 11
1635.884532
 21
2152.323489
 31
0.0
  0
LINE
  5
42D
330
6F
100
AcDbEntity
  8
1-0
  6
Continuous
 62
     4
100
AcDbLine
 10
1552.894028
 20
1807.323489
 30
0.0
 11
1635.884532
 21
1807.323489
 31
0.0
  0
TEXT
  5
42E
330
6F
100
AcDbEntity
  8
1-0
 62
     4
100
AcDbText
 10
1635.265
 20
1946.223
 30
0.0
 40
36.288
  1
345
 50
90.0
100
AcDbText
  0
LINE
  5
42F
330
6F
100
AcDbEntity
  8
1-0
  6
Continuous
 62
     4
100
AcDbLine
 10
1635.884531981757
 20
1807.323488653266
 30
0.0
 11
1635.884531981757
 21
2152.323488653266
 31
0.0
  0
CIRCLE
  5
430
330
6F
100
AcDbEntity
  8
1-0
  6
Continuous
 62
     4
100
AcDbCircle
 10
1635.884531981757
 20
1807.323488653266
 30
0.0
 40
0.25
  0
CIRCLE
  5
431
330
6F
100
AcDbEntity
  8
1-0
  6
Continuous
 62
     4
100
AcDbCircle
 10
1635.884531981757
 20
1807.323488653266
 30
0.0
 40
0.1875
  0
CIRCLE
  5
432
330
6F
100
AcDbEntity
  8
1-0
  6
Continuous
 62
     4
100
AcDbCircle
 10
1635.884531981757
 20
1807.323488653266
 30
0.0
 40
0.125
  0
CIRCLE
  5
433
330
6F
100
AcDbEntity
  8
1-0
  6
Continuous
 62
     4
100
AcDbCircle
 10
1635.884531981757
 20
1807.323488653266
 30
0.0
 40
0.0625
  0
CIRCLE
  5
434
330
6F
100
AcDbEntity
  8
1-0
  6
Continuous
 62
     4
100
AcDbCircle
 10
1635.884531981757
 20
2152.323488653266
 30
0.0
 40
0.25
  0
CIRCLE
  5
435
330
6F
100
AcDbEntity
  8
1-0
  6
Continuous
 62
     4
100
AcDbCircle
 10
1635.884531981757
 20
2152.323488653266
 30
0.0
 40
0.1875
  0
CIRCLE
  5
436
330
6F
100
AcDbEntity
  8
1-0
  6
Continuous
 62
     4
100
AcDbCircle
 10
1635.884531981757
 20
2152.323488653266
 30
0.0
 40
0.125
  0
CIRCLE
  5
437
330
6F
100
AcDbEntity
  8
1-0
  6
Continuous
 62
     4
100
AcDbCircle
 10
1635.884531981757
 20
2152.323488653266
 30
0.0
 40
0.0625
  0
LINE
  5
438
330
6F
100
AcDbEntity
  8
1-0
  6
Continuous
 62
     4
100
AcDbLine
 10
1552.894028
 20
718.321051
 30
0.0
 11
1638.566755
 21
718.321051
 31
0.0
  0
LINE
  5
439
330
6F
100
AcDbEntity
  8
1-0
  6
Continuous
 62
     4
100
AcDbLine
 10
1552.894028
 20
1318.321051
 30
0.0
 11
1638.566755
 21
1318.321051
 31
0.0
  0
TEXT
  5
43A
330
6F
100
AcDbEntity
  8
1-0
 62
     4
100
AcDbText
 10
1637.947
 20
984.721
 30
0.0
 40
36.288
  1
600
 50
90.0
100
AcDbText
  0
LINE
  5
43B
330
6F
100
AcDbEntity
  8
1-0
  6
Continuous
 62
     4
100
AcDbLine
 10
1638.566754627403
 20
1318.321051210681
 30
0.0
 11
1638.566754627403
 21
718.321051210682
 31
0.0
  0
CIRCLE
  5
43C
330
6F
100
AcDbEntity
  8
1-0
  6
Continuous
 62
     4
100
AcDbCircle
 10
1638.566754627403
 20
1318.321051210681
 30
0.0
 40
0.25
  0
CIRCLE
  5
43D
330
6F
100
AcDbEntity
  8
1-0
  6
Continuous
 62
     4
100
AcDbCircle
 10
1638.566754627403
 20
1318.321051210681
 30
0.0
 40
0.1875
  0
CIRCLE
  5
43E
330
6F
100
AcDbEntity
  8
1-0
  6
Continuous
 62
     4
100
AcDbCircle
 10
1638.566754627403
 20
1318.321051210681
 30
0.0
 40
0.125
  0
CIRCLE
  5
43F
330
6F
100
AcDbEntity
  8
1-0
  6
Continuous
 62
     4
100
AcDbCircle
 10
1638.566754627403
 20
1318.321051210681
 30
0.0
 40
0.0625
  0
CIRCLE
  5
440
330
6F
100
AcDbEntity
  8
1-0
  6
Continuous
 62
     4
100
AcDbCircle
 10
1638.566754627403
 20
718.321051210682
 30
0.0
 40
0.25
  0
CIRCLE
  5
441
330
6F
100
AcDbEntity
  8
1-0
  6
Continuous
 62
     4
100
AcDbCircle
 10
1638.566754627403
 20
718.321051210682
 30
0.0
 40
0.1875
  0
CIRCLE
  5
442
330
6F
100
AcDbEntity
  8
1-0
  6
Continuous
 62
     4
100
AcDbCircle
 10
1638.566754627403
 20
718.321051210682
 30
0.0
 40
0.125
  0
CIRCLE
  5
443
330
6F
100
AcDbEntity
  8
1-0
  6
Continuous
 62
     4
100
AcDbCircle
 10
1638.566754627403
 20
718.321051210682
 30
0.0
 40
0.0625
  0
LINE
  5
444
330
6F
100
AcDbEntity
  8
1-0
  6
Continuous
 62
     7
100
AcDbLine
 10
785.8351589999999
 20
693.321051
 30
0.0
 11
1130.835159
 21
693.321051
 31
0.0
  0
TEXT
  5
445
330
6F
100
AcDbEntity
  8
C-0
 62
     5
100
AcDbText
 10
3977.866
 20
48.607
 30
0.0
 40
31.104
  1
2022.1
100
AcDbText
  0
ENDSEC
  0
SECTION
  2
OBJECTS
  0
DICTIONARY
  5
C
330
0
100
AcDbDictionary
281
     1
  3
ACAD_CIP_PREVIOUS_PRODUCT_INFO
350
447
  3
ACAD_COLOR
350
62
  3
ACAD_DETAILVIEWSTYLE
350
69
  3
ACAD_GROUP
350
D
  3
ACAD_LAYOUT
350
61
  3
ACAD_MATERIAL
350
10
  3
ACAD_MLEADERSTYLE
350
65
  3
ACAD_MLINESTYLE
350
5E
  3
ACAD_PLOTSETTINGS
350
60
  3
ACAD_PLOTSTYLENAME
350
E
  3
ACAD_SCALELIST
350
42
  3
ACAD_SECTIONVIEWSTYLE
350
67
  3
ACAD_TABLESTYLE
350
63
  3
ACAD_VISUALSTYLE
350
29
  3
ACDB_RECOMPOSE_DATA
350
46B
  3
AcDbVariableDictionary
350
45E
  3
DWGPROPS
350
46C
  0
DICTIONARY
  5
448
330
54
100
AcDbDictionary
280
     1
281
     1
  3
ADSK_XREC_LAYER_RECONCILED
360
449
  0
DICTIONARY
  5
44A
330
7F
100
AcDbDictionary
280
     1
281
     1
  3
ADSK_XREC_LAYER_RECONCILED
360
44B
  0
DICTIONARY
  5
44C
330
80
100
AcDbDictionary
280
     1
281
     1
  3
ADSK_XREC_LAYER_RECONCILED
360
44D
  0
DICTIONARY
  5
44E
330
81
100
AcDbDictionary
280
     1
281
     1
  3
ADSK_XREC_LAYER_RECONCILED
360
44F
  0
DICTIONARY
  5
450
330
82
100
AcDbDictionary
280
     1
281
     1
  3
ADSK_XREC_LAYER_RECONCILED
360
451
  0
DICTIONARY
  5
452
330
83
100
AcDbDictionary
280
     1
281
     1
  3
ADSK_XREC_LAYER_RECONCILED
360
453
  0
DICTIONARY
  5
454
330
84
100
AcDbDictionary
280
     1
281
     1
  3
ADSK_XREC_LAYER_RECONCILED
360
455
  0
DICTIONARY
  5
456
330
85
100
AcDbDictionary
280
     1
281
     1
  3
ADSK_XREC_LAYER_RECONCILED
360
457
  0
DICTIONARY
  5
458
330
86
100
AcDbDictionary
280
     1
281
     1
  3
ADSK_XREC_LAYER_RECONCILED
360
459
  0
DICTIONARY
  5
45A
330
87
100
AcDbDictionary
280
     1
281
     1
  3
ADSK_XREC_LAYER_RECONCILED
360
45B
  0
DICTIONARY
  5
45C
330
8D
100
AcDbDictionary
280
     1
281
     1
  3
ADSK_XREC_LAYER_RECONCILED
360
45D
  0
XRECORD
  5
447
102
{ACAD_REACTORS
330
C
102
}
330
C
100
AcDbXrecord
280
     1
300
ACDLT
300
2020
300

  0
DICTIONARY
  5
62
102
{ACAD_REACTORS
330
C
102
}
330
C
100
AcDbDictionary
281
     1
  0
DICTIONARY
  5
69
102
{ACAD_REACTORS
330
C
102
}
330
C
100
AcDbDictionary
281
     1
  3
Imperial24
350
6A
  0
DICTIONARY
  5
D
102
{ACAD_REACTORS
330
C
102
}
330
C
100
AcDbDictionary
281
     1
  0
DICTIONARY
  5
61
102
{ACAD_REACTORS
330
C
102
}
330
C
100
AcDbDictionary
281
     1
  3
Model
350
72
  3
レイアウト1
350
6E
  0
DICTIONARY
  5
10
102
{ACAD_REACTORS
330
C
102
}
330
C
100
AcDbDictionary
281
     1
  3
ByBlock
350
19
  3
ByLayer
350
11
  3
Global
350
21
  0
DICTIONARY
  5
65
102
{ACAD_REACTORS
330
C
102
}
330
C
100
AcDbDictionary
281
     1
  3
Standard
350
66
  0
DICTIONARY
  5
5E
102
{ACAD_REACTORS
330
C
102
}
330
C
100
AcDbDictionary
281
     1
  3
Standard
350
5F
  0
DICTIONARY
  5
60
102
{ACAD_REACTORS
330
C
102
}
330
C
100
AcDbDictionary
281
     1
  0
ACDBDICTIONARYWDFLT
  5
E
102
{ACAD_REACTORS
330
C
102
}
330
C
100
AcDbDictionary
281
     1
  3
Normal
350
F
100
AcDbDictionaryWithDefault
340
F
  0
DICTIONARY
  5
42
102
{ACAD_REACTORS
330
C
102
}
330
C
100
AcDbDictionary
281
     1
  3
A0
350
43
  3
A1
350
44
  3
A2
350
45
  3
A3
350
46
  3
A4
350
47
  3
A5
350
48
  3
A6
350
49
  3
A7
350
4A
  3
A8
350
4B
  3
A9
350
4C
  3
B0
350
4D
  3
B1
350
4E
  3
B2
350
4F
  3
B3
350
50
  3
B4
350
51
  3
B5
350
52
  3
B6
350
53
  0
DICTIONARY
  5
67
102
{ACAD_REACTORS
330
C
102
}
330
C
100
AcDbDictionary
281
     1
  3
Imperial24
350
68
  0
DICTIONARY
  5
63
102
{ACAD_REACTORS
330
C
102
}
330
C
100
AcDbDictionary
281
     1
  3
Standard
350
64
  0
DICTIONARY
  5
29
102
{ACAD_REACTORS
330
C
102
}
330
C
100
AcDbDictionary
281
     1
  3
2dWireframe
350
2F
  3
Basic
350
2E
  3
Brighten
350
35
  3
ColorChange
350
39
  3
Conceptual
350
32
  3
Dim
350
34
  3
EdgeColorOff
350
41
  3
Facepattern
350
38
  3
Flat
350
2A
  3
FlatWithEdges
350
2B
  3
Gouraud
350
2C
  3
GouraudWithEdges
350
2D
  3
Hidden
350
31
  3
JitterOff
350
3F
  3
Linepattern
350
37
  3
OverhangOff
350
40
  3
Realistic
350
33
  3
Shaded
350
3E
  3
Shaded with edges
350
3D
  3
Shades of Gray
350
3A
  3
Sketchy
350
3B
  3
Thicken
350
36
  3
Wireframe
350
30
  3
X-Ray
350
3C
  0
XRECORD
  5
46B
102
{ACAD_REACTORS
330
C
102
}
330
C
100
AcDbXrecord
280
     1
 90
        1
330
64
  0
DICTIONARY
  5
45E
102
{ACAD_REACTORS
330
C
102
}
330
C
100
AcDbDictionary
281
     1
  3
CANNOSCALE
350
463
  3
CMLEADERSTYLE
350
460
  3
CTABLESTYLE
350
45F
  3
CVIEWDETAILSTYLE
350
461
  3
CVIEWSECTIONSTYLE
350
462
  3
DIMASSOC
350
466
  3
INDEXCTL
350
465
  3
SORTENTS
350
464
  3
XCLIPFRAME
350
467
  0
XRECORD
  5
46C
102
{ACAD_REACTORS
330
C
102
}
330
C
100
AcDbXrecord
280
     1
  1
DWGPROPS COOKIE
  2

  3

  4

  6

  7

  8
suzuki
  9

300
=
301
=
302
=
303
=
304
=
305
=
306
=
307
=
308
=
309
=
 40
0.0002546296296296
 41
2459640.782476852
 42
2459640.782731482
  1

 90
        0
  0
XRECORD
  5
449
102
{ACAD_REACTORS
330
448
102
}
330
448
100
AcDbXrecord
280
     1
290
     1
  0
XRECORD
  5
44B
102
{ACAD_REACTORS
330
44A
102
}
330
44A
100
AcDbXrecord
280
     1
290
     1
  0
XRECORD
  5
44D
102
{ACAD_REACTORS
330
44C
102
}
330
44C
100
AcDbXrecord
280
     1
290
     1
  0
XRECORD
  5
44F
102
{ACAD_REACTORS
330
44E
102
}
330
44E
100
AcDbXrecord
280
     1
290
     1
  0
XRECORD
  5
451
102
{ACAD_REACTORS
330
450
102
}
330
450
100
AcDbXrecord
280
     1
290
     1
  0
XRECORD
  5
453
102
{ACAD_REACTORS
330
452
102
}
330
452
100
AcDbXrecord
280
     1
290
     1
  0
XRECORD
  5
455
102
{ACAD_REACTORS
330
454
102
}
330
454
100
AcDbXrecord
280
     1
290
     1
  0
XRECORD
  5
457
102
{ACAD_REACTORS
330
456
102
}
330
456
100
AcDbXrecord
280
     1
290
     1
  0
XRECORD
  5
459
102
{ACAD_REACTORS
330
458
102
}
330
458
100
AcDbXrecord
280
     1
290
     1
  0
XRECORD
  5
45B
102
{ACAD_REACTORS
330
45A
102
}
330
45A
100
AcDbXrecord
280
     1
290
     1
  0
XRECORD
  5
45D
102
{ACAD_REACTORS
330
45C
102
}
330
45C
100
AcDbXrecord
280
     1
290
     1
  0
ACDBDETAILVIEWSTYLE
  5
6A
102
{ACAD_XDICTIONARY
360
4A4
102
}
102
{ACAD_REACTORS
330
69
102
}
330
69
100
AcDbModelDocViewStyle
 70
     0
  3
Imperial24
290
     0
100
AcDbDetailViewStyle
 70
     0
 71
     0
 90
        3
 71
     1
340
55
 40
0.24
340
0
 40
0.24
300

 40
0.36
280
     3
 71
     2
340
5C
 90
       25
 71
     3
340
55
 40
0.24
 90
        1
 40
0.75
 90
        1
300
%<\AcVar ViewType \f "%tc1">% %<\AcVar ViewDetailId>%\PSCALE %<\AcVar ViewScale \f "%sn">%
 71
     4
340
5C
 90
       25
340
5C
 90
       25
280
     0
  0
LAYOUT
  5
72
102
{ACAD_XDICTIONARY
360
4A8
102
}
102
{ACAD_REACTORS
330
61
102
}
330
61
100
AcDbPlotSettings
  1

  2
DocuCentre-V 4070
  4

  6

 40
0.0
 41
0.0
 42
0.0
 43
0.0
 44
0.0
 45
0.0
 46
0.0
 47
0.0
 48
0.0
 49
0.0
140
0.0
141
0.0
142
1.0
143
1.0
 70
  1712
 72
     0
 73
     0
 74
     0
  7

 75
     0
147
1.0
148
0.0
149
0.0
100
AcDbLayout
  1
Model
 70
     1
 71
     0
 10
0.0
 20
0.0
 11
12.0
 21
9.0
 12
0.0
 22
0.0
 32
0.0
 14
0.0
 24
0.0
 34
0.0
 15
0.0
 25
0.0
 35
0.0
146
0.0
 13
0.0
 23
0.0
 33
0.0
 16
1.0
 26
0.0
 36
0.0
 17
0.0
 27
1.0
 37
0.0
 76
     0
330
6F
331
8C
  0
LAYOUT
  5
6E
102
{ACAD_XDICTIONARY
360
4A6
102
}
102
{ACAD_REACTORS
330
61
102
}
330
61
100
AcDbPlotSettings
  1

  2
DocuCentre-V 4070
  4

  6

 40
0.0
 41
0.0
 42
0.0
 43
0.0
 44
0.0
 45
0.0
 46
0.0
 47
0.0
 48
0.0
 49
0.0
140
0.0
141
0.0
142
1.0
143
1.0
 70
   688
 72
     0
 73
     0
 74
     5
  7

 75
    16
147
1.0
148
0.0
149
0.0
100
AcDbLayout
  1
レイアウト1
 70
     1
 71
     1
 10
0.0
 20
0.0
 11
12.0
 21
9.0
 12
0.0
 22
0.0
 32
0.0
 14
1.000000000000000E+20
 24
1.000000000000000E+20
 34
1.000000000000000E+20
 15
-1.000000000000000E+20
 25
-1.000000000000000E+20
 35
-1.000000000000000E+20
146
0.0
 13
0.0
 23
0.0
 33
0.0
 16
1.0
 26
0.0
 36
0.0
 17
0.0
 27
1.0
 37
0.0
 76
     0
330
6B
  0
MATERIAL
  5
19
102
{ACAD_XDICTIONARY
360
1A
102
}
102
{ACAD_REACTORS
330
10
102
}
330
10
100
AcDbMaterial
  1
ByBlock
 72
     0
 43
0.0208333333333333
 43
0.0
 43
0.0
 43
0.0
 43
0.0
 43
0.0208333333333333
 43
0.0
 43
0.0
 43
0.0
 43
0.0
 43
1.0
 43
0.0
 43
0.0
 43
0.0
 43
0.0
 43
1.0
 77
     0
 47
0.0208333333333333
 47
0.0
 47
0.0
 47
0.0
 47
0.0
 47
0.0208333333333333
 47
0.0
 47
0.0
 47
0.0
 47
0.0
 47
1.0
 47
0.0
 47
0.0
 47
0.0
 47
0.0
 47
1.0
171
     0
 49
0.0208333333333333
 49
0.0
 49
0.0
 49
0.0
 49
0.0
 49
0.0208333333333333
 49
0.0
 49
0.0
 49
0.0
 49
0.0
 49
1.0
 49
0.0
 49
0.0
 49
0.0
 49
0.0
 49
1.0
175
     0
142
0.0208333333333333
142
0.0
142
0.0
142
0.0
142
0.0
142
0.0208333333333333
142
0.0
142
0.0
142
0.0
142
0.0
142
1.0
142
0.0
142
0.0
142
0.0
142
0.0
142
1.0
179
     0
144
0.0208333333333333
144
0.0
144
0.0
144
0.0
144
0.0
144
0.0208333333333333
144
0.0
144
0.0
144
0.0
144
0.0
144
1.0
144
0.0
144
0.0
144
0.0
144
0.0
144
1.0
147
0.0208333333333333
147
0.0
147
0.0
147
0.0
147
0.0
147
0.0208333333333333
147
0.0
147
0.0
147
0.0
147
0.0
147
1.0
147
0.0
147
0.0
147
0.0
147
0.0
147
1.0
  0
MATERIAL
  5
11
102
{ACAD_XDICTIONARY
360
12
102
}
102
{ACAD_REACTORS
330
10
102
}
330
10
100
AcDbMaterial
  1
ByLayer
 72
     0
 43
0.0208333333333333
 43
0.0
 43
0.0
 43
0.0
 43
0.0
 43
0.0208333333333333
 43
0.0
 43
0.0
 43
0.0
 43
0.0
 43
1.0
 43
0.0
 43
0.0
 43
0.0
 43
0.0
 43
1.0
 77
     0
 47
0.0208333333333333
 47
0.0
 47
0.0
 47
0.0
 47
0.0
 47
0.0208333333333333
 47
0.0
 47
0.0
 47
0.0
 47
0.0
 47
1.0
 47
0.0
 47
0.0
 47
0.0
 47
0.0
 47
1.0
171
     0
 49
0.0208333333333333
 49
0.0
 49
0.0
 49
0.0
 49
0.0
 49
0.0208333333333333
 49
0.0
 49
0.0
 49
0.0
 49
0.0
 49
1.0
 49
0.0
 49
0.0
 49
0.0
 49
0.0
 49
1.0
175
     0
142
0.0208333333333333
142
0.0
142
0.0
142
0.0
142
0.0
142
0.0208333333333333
142
0.0
142
0.0
142
0.0
142
0.0
142
1.0
142
0.0
142
0.0
142
0.0
142
0.0
142
1.0
179
     0
144
0.0208333333333333
144
0.0
144
0.0
144
0.0
144
0.0
144
0.0208333333333333
144
0.0
144
0.0
144
0.0
144
0.0
144
1.0
144
0.0
144
0.0
144
0.0
144
0.0
144
1.0
147
0.0208333333333333
147
0.0
147
0.0
147
0.0
147
0.0
147
0.0208333333333333
147
0.0
147
0.0
147
0.0
147
0.0
147
1.0
147
0.0
147
0.0
147
0.0
147
0.0
147
1.0
  0
MATERIAL
  5
21
102
{ACAD_XDICTIONARY
360
22
102
}
102
{ACAD_REACTORS
330
10
102
}
330
10
100
AcDbMaterial
  1
Global
 72
     0
 43
0.0208333333333333
 43
0.0
 43
0.0
 43
0.0
 43
0.0
 43
0.0208333333333333
 43
0.0
 43
0.0
 43
0.0
 43
0.0
 43
1.0
 43
0.0
 43
0.0
 43
0.0
 43
0.0
 43
1.0
 77
     0
 47
0.0208333333333333
 47
0.0
 47
0.0
 47
0.0
 47
0.0
 47
0.0208333333333333
 47
0.0
 47
0.0
 47
0.0
 47
0.0
 47
1.0
 47
0.0
 47
0.0
 47
0.0
 47
0.0
 47
1.0
171
     0
 49
0.0208333333333333
 49
0.0
 49
0.0
 49
0.0
 49
0.0
 49
0.0208333333333333
 49
0.0
 49
0.0
 49
0.0
 49
0.0
 49
1.0
 49
0.0
 49
0.0
 49
0.0
 49
0.0
 49
1.0
175
     0
142
0.0208333333333333
142
0.0
142
0.0
142
0.0
142
0.0
142
0.0208333333333333
142
0.0
142
0.0
142
0.0
142
0.0
142
1.0
142
0.0
142
0.0
142
0.0
142
0.0
142
1.0
179
     0
144
0.0208333333333333
144
0.0
144
0.0
144
0.0
144
0.0
144
0.0208333333333333
144
0.0
144
0.0
144
0.0
144
0.0
144
1.0
144
0.0
144
0.0
144
0.0
144
0.0
144
1.0
147
0.0208333333333333
147
0.0
147
0.0
147
0.0
147
0.0
147
0.0208333333333333
147
0.0
147
0.0
147
0.0
147
0.0
147
1.0
147
0.0
147
0.0
147
0.0
147
0.0
147
1.0
  0
MLEADERSTYLE
  5
66
102
{ACAD_REACTORS
330
65
102
}
330
65
100
AcDbMLeaderStyle
170
     2
171
     1
172
     0
 90
        2
 40
0.0
 41
0.0
173
     1
 91
-1056964608
340
5A
 92
       -2
290
     1
 42
0.09
291
     1
 43
0.36
  3
Standard
 44
0.18
300

342
55
174
     1
178
     6
175
     1
176
     0
 93
-1056964608
 45
0.18
292
     0
297
     0
 46
0.18
 94
-1056964608
 47
1.0
 49
1.0
140
1.0
293
     1
141
0.0
294
     1
177
     0
142
1.0
295
     0
296
     0
143
0.125
1001
ACAD_MLEADERVER
1070
     2
  0
MLINESTYLE
  5
5F
102
{ACAD_REACTORS
330
5E
102
}
330
5E
100
AcDbMlineStyle
  2
STANDARD
 70
     0
  3

 62
   256
 51
90.0
 52
90.0
 71
     2
 49
0.5
 62
   256
  6
BYLAYER
 49
-0.5
 62
   256
  6
BYLAYER
  0
ACDBPLACEHOLDER
  5
F
102
{ACAD_REACTORS
330
E
102
}
330
E
  0
SCALE
  5
43
102
{ACAD_REACTORS
330
42
102
}
330
42
100
AcDbScale
 70
     0
300
1:1
140
1.0
141
1.0
290
     1
  0
SCALE
  5
44
102
{ACAD_REACTORS
330
42
102
}
330
42
100
AcDbScale
 70
     0
300
1/128" = 1'-0"
140
0.0078125
141
12.0
290
     0
  0
SCALE
  5
45
102
{ACAD_REACTORS
330
42
102
}
330
42
100
AcDbScale
 70
     0
300
1/64" = 1'-0"
140
0.015625
141
12.0
290
     0
  0
SCALE
  5
46
102
{ACAD_REACTORS
330
42
102
}
330
42
100
AcDbScale
 70
     0
300
1/32" = 1'-0"
140
0.03125
141
12.0
290
     0
  0
SCALE
  5
47
102
{ACAD_REACTORS
330
42
102
}
330
42
100
AcDbScale
 70
     0
300
1/16" = 1'-0"
140
0.0625
141
12.0
290
     0
  0
SCALE
  5
48
102
{ACAD_REACTORS
330
42
102
}
330
42
100
AcDbScale
 70
     0
300
3/32" = 1'-0"
140
0.09375
141
12.0
290
     0
  0
SCALE
  5
49
102
{ACAD_REACTORS
330
42
102
}
330
42
100
AcDbScale
 70
     0
300
1/8" = 1'-0"
140
0.125
141
12.0
290
     0
  0
SCALE
  5
4A
102
{ACAD_REACTORS
330
42
102
}
330
42
100
AcDbScale
 70
     0
300
3/16" = 1'-0"
140
0.1875
141
12.0
290
     0
  0
SCALE
  5
4B
102
{ACAD_REACTORS
330
42
102
}
330
42
100
AcDbScale
 70
     0
300
1/4" = 1'-0"
140
0.25
141
12.0
290
     0
  0
SCALE
  5
4C
102
{ACAD_REACTORS
330
42
102
}
330
42
100
AcDbScale
 70
     0
300
3/8" = 1'-0"
140
0.375
141
12.0
290
     0
  0
SCALE
  5
4D
102
{ACAD_REACTORS
330
42
102
}
330
42
100
AcDbScale
 70
     0
300
1/2" = 1'-0"
140
0.5
141
12.0
290
     0
  0
SCALE
  5
4E
102
{ACAD_REACTORS
330
42
102
}
330
42
100
AcDbScale
 70
     0
300
3/4" = 1'-0"
140
0.75
141
12.0
290
     0
  0
SCALE
  5
4F
102
{ACAD_REACTORS
330
42
102
}
330
42
100
AcDbScale
 70
     0
300
1" = 1'-0"
140
1.0
141
12.0
290
     0
  0
SCALE
  5
50
102
{ACAD_REACTORS
330
42
102
}
330
42
100
AcDbScale
 70
     0
300
1-1/2" = 1'-0"
140
1.5
141
12.0
290
     0
  0
SCALE
  5
51
102
{ACAD_REACTORS
330
42
102
}
330
42
100
AcDbScale
 70
     0
300
3" = 1'-0"
140
3.0
141
12.0
290
     0
  0
SCALE
  5
52
102
{ACAD_REACTORS
330
42
102
}
330
42
100
AcDbScale
 70
     0
300
6" = 1'-0"
140
6.0
141
12.0
290
     0
  0
SCALE
  5
53
102
{ACAD_REACTORS
330
42
102
}
330
42
100
AcDbScale
 70
     0
300
1'-0" = 1'-0"
140
12.0
141
12.0
290
     0
  0
ACDBSECTIONVIEWSTYLE
  5
68
102
{ACAD_XDICTIONARY
360
4A2
102
}
102
{ACAD_REACTORS
330
67
102
}
330
67
100
AcDbModelDocViewStyle
 70
     0
  3
Imperial24
290
     0
100
AcDbSectionViewStyle
 70
     0
 71
     0
 90
       78
 71
     1
340
55
 40
0.24
340
0
340
0
 40
0.24
300
I, O, Q, S, X, Z
 40
0.48
 90
        3
 40
0.18
 90
        1
 71
     2
340
5C
 90
       25
340
5C
 90
       50
 40
0.24
 40
0.0
 40
0.24
 71
     3
340
55
 40
0.24
 90
        1
 40
0.75
 90
        1
300
%<\AcVar ViewType \f "%tc1">% %<\AcVar ViewSectionStartId>%-%<\AcVar ViewSectionEndId>%\PSCALE %<\AcVar ViewScale \f "%sn">%
 71
     4
300
ANSI31
 40
1.0
 90
        0
290
     0
290
     0
 90
        6
 40
0.0
 40
1.570796326794896
 40
0.2617993877991494
 40
1.308996938995747
 40
-0.2617993877991494
 40
1.832595714594046
  0
TABLESTYLE
  5
64
102
{ACAD_XDICTIONARY
360
469
102
}
102
{ACAD_REACTORS
330
63
102
}
330
63
100
AcDbTableStyle
  3
Standard
 70
     0
 71
     0
 40
0.06
 41
0.06
280
     0
281
     0
  7
STANDARD
140
0.18
170
     2
 62
     0
 63
     7
283
     0
274
    -2
284
     1
 64
     0
275
    -2
285
     1
 65
     0
276
    -2
286
     1
 66
     0
277
    -2
287
     1
 67
     0
278
    -2
288
     1
 68
     0
279
    -2
289
     1
 69
     0
  7
STANDARD
140
0.25
170
     5
 62
     0
 63
     7
283
     0
274
    -2
284
     1
 64
     0
275
    -2
285
     1
 65
     0
276
    -2
286
     1
 66
     0
277
    -2
287
     1
 67
     0
278
    -2
288
     1
 68
     0
279
    -2
289
     1
 69
     0
  7
STANDARD
140
0.18
170
     5
 62
     0
 63
     7
283
     0
274
    -2
284
     1
 64
     0
275
    -2
285
     1
 65
     0
276
    -2
286
     1
 66
     0
277
    -2
287
     1
 67
     0
278
    -2
288
     1
 68
     0
279
    -2
289
     1
 69
     0
  0
VISUALSTYLE
  5
2F
102
{ACAD_XDICTIONARY
360
47A
102
}
102
{ACAD_REACTORS
330
29
102
}
330
29
100
AcDbVisualStyle
  2
2dWireframe
 70
     4
 71
     0
 72
     2
 73
     0
 90
        0
 40
-0.6
 41
-30.0
 62
     5
 63
     7
 74
     1
 91
        4
 64
     7
 65
   257
 75
     1
175
     1
 42
1.0
 92
        0
 66
   257
 43
1.0
 76
     1
 77
     6
 78
     2
 67
     7
 79
     5
170
     0
171
     0
290
     0
174
     0
 93
        1
 44
0.0
173
     0
291
     0
 45
0.0
1001
ACAD
1000
AcDbSavedByObjectVersion
1070
     0
  0
VISUALSTYLE
  5
2E
102
{ACAD_XDICTIONARY
360
478
102
}
102
{ACAD_REACTORS
330
29
102
}
330
29
100
AcDbVisualStyle
  2
Basic
 70
     7
 71
     1
 72
     0
 73
     1
 90
        0
 40
-0.6
 41
-30.0
 62
     5
 63
     7
 74
     0
 91
        4
 64
     7
 65
   257
 75
     1
175
     1
 42
1.0
 92
        8
 66
     7
 43
1.0
 76
     1
 77
     6
 78
     2
 67
     7
 79
     5
170
     0
171
     0
290
     0
174
     0
 93
        1
 44
0.0
173
     0
291
     1
 45
0.0
1001
ACAD
1000
AcDbSavedByObjectVersion
1070
     0
  0
VISUALSTYLE
  5
35
102
{ACAD_XDICTIONARY
360
486
102
}
102
{ACAD_REACTORS
330
29
102
}
330
29
100
AcDbVisualStyle
  2
Brighten
 70
    12
 71
     2
 72
     2
 73
     0
 90
        0
 40
-0.6
 41
-30.0
 62
     5
 63
     7
 74
     1
 91
        4
 64
     7
 65
   257
 75
     1
175
     1
 42
1.0
 92
        8
 66
     7
 43
1.0
 76
     1
 77
     6
 78
     2
 67
     7
 79
     5
170
     0
171
     0
290
     0
174
     0
 93
        1
 44
50.0
173
     0
291
     1
 45
0.0
1001
ACAD
1000
AcDbSavedByObjectVersion
1070
     0
  0
VISUALSTYLE
  5
39
102
{ACAD_XDICTIONARY
360
48E
102
}
102
{ACAD_REACTORS
330
29
102
}
330
29
100
AcDbVisualStyle
  2
ColorChange
 70
    16
 71
     2
 72
     2
 73
     3
 90
        0
 40
-0.6
 41
-30.0
 62
     5
 63
     8
 74
     1
 91
        4
 64
     7
 65
   257
 75
     1
175
     1
 42
1.0
 92
        8
 66
     8
 43
1.0
 76
     1
 77
     6
 78
     2
 67
     7
 79
     5
170
     0
171
     0
290
     0
174
     0
 93
        1
 44
0.0
173
     0
291
     1
 45
0.0
1001
ACAD
1000
AcDbSavedByObjectVersion
1070
     0
  0
VISUALSTYLE
  5
32
102
{ACAD_XDICTIONARY
360
480
102
}
102
{ACAD_REACTORS
330
29
102
}
330
29
100
AcDbVisualStyle
  2
Conceptual
 70
     9
 71
     3
 72
     2
 73
     0
 90
        0
 40
-0.6
 41
-30.0
 62
     5
 63
     7
 74
     2
 91
        2
 64
     7
 65
   257
 75
     1
175
     1
 42
179.0
 92
        8
 66
     7
 43
1.0
 76
     1
 77
     6
 78
     2
 67
     7
 79
     3
170
     0
171
     0
290
     0
174
     0
 93
        1
 44
0.0
173
     0
291
     0
 45
0.0
1001
ACAD
1000
AcDbSavedByObjectVersion
1070
     0
  0
VISUALSTYLE
  5
34
102
{ACAD_XDICTIONARY
360
484
102
}
102
{ACAD_REACTORS
330
29
102
}
330
29
100
AcDbVisualStyle
  2
Dim
 70
    11
 71
     2
 72
     2
 73
     0
 90
        0
 40
-0.6
 41
-30.0
 62
     5
 63
     7
 74
     1
 91
        4
 64
     7
 65
   257
 75
     1
175
     1
 42
1.0
 92
        8
 66
     7
 43
1.0
 76
     1
 77
     6
 78
     2
 67
     7
 79
     5
170
     0
171
     0
290
     0
174
     0
 93
        1
 44
-50.0
173
     0
291
     1
 45
0.0
1001
ACAD
1000
AcDbSavedByObjectVersion
1070
     0
  0
VISUALSTYLE
  5
41
102
{ACAD_XDICTIONARY
360
49E
102
}
102
{ACAD_REACTORS
330
29
102
}
330
29
100
AcDbVisualStyle
  2
EdgeColorOff
 70
    22
 71
     2
 72
     2
 73
     0
 90
        0
 40
-0.6
 41
-30.0
 62
     5
 63
     7
 74
     1
 91
        4
 64
     7
 65
   257
 75
     1
175
     1
 42
1.0
 92
        8
 66
     7
 43
1.0
 76
     1
 77
     6
 78
     2
 67
     7
 79
     5
170
     0
171
     0
290
     0
174
     0
 93
        1
 44
0.0
173
     0
291
     1
 45
0.0
1001
ACAD
1000
AcDbSavedByObjectVersion
1070
     0
  0
VISUALSTYLE
  5
38
102
{ACAD_XDICTIONARY
360
48C
102
}
102
{ACAD_REACTORS
330
29
102
}
330
29
100
AcDbVisualStyle
  2
Facepattern
 70
    15
 71
     2
 72
     2
 73
     0
 90
        0
 40
-0.6
 41
-30.0
 62
     5
 63
     7
 74
     1
 91
        4
 64
     7
 65
   257
 75
     1
175
     1
 42
1.0
 92
        8
 66
     7
 43
1.0
 76
     1
 77
     6
 78
     2
 67
     7
 79
     5
170
     0
171
     0
290
     0
174
     0
 93
        1
 44
0.0
173
     0
291
     1
 45
0.0
1001
ACAD
1000
AcDbSavedByObjectVersion
1070
     0
  0
VISUALSTYLE
  5
2A
102
{ACAD_XDICTIONARY
360
470
102
}
102
{ACAD_REACTORS
330
29
102
}
330
29
100
AcDbVisualStyle
  2
Flat
 70
     0
 71
     2
 72
     1
 73
     1
 90
        2
 40
-0.6
 41
30.0
 62
     5
 63
     7
 74
     0
 91
        0
 64
     7
 65
   257
 75
     1
175
     1
 42
1.0
 92
        8
 66
     7
 43
1.0
 76
     1
 77
     6
 78
     2
 67
     7
 79
     5
170
     0
171
     0
290
     0
174
     0
 93
       13
 44
0.0
173
     0
291
     1
 45
0.0
1001
ACAD
1000
AcDbSavedByObjectVersion
1070
     0
  0
VISUALSTYLE
  5
2B
102
{ACAD_XDICTIONARY
360
472
102
}
102
{ACAD_REACTORS
330
29
102
}
330
29
100
AcDbVisualStyle
  2
FlatWithEdges
 70
     1
 71
     2
 72
     1
 73
     1
 90
        2
 40
-0.6
 41
30.0
 62
     5
 63
     7
 74
     1
 91
        0
 64
     7
 65
   257
 75
     1
175
     1
 42
1.0
 92
        0
 66
   257
 43
1.0
 76
     1
 77
     6
 78
     2
 67
     7
 79
     5
170
     0
171
     0
290
     0
174
     0
 93
       13
 44
0.0
173
     0
291
     1
 45
0.0
1001
ACAD
1000
AcDbSavedByObjectVersion
1070
     0
  0
VISUALSTYLE
  5
2C
102
{ACAD_XDICTIONARY
360
474
102
}
102
{ACAD_REACTORS
330
29
102
}
330
29
100
AcDbVisualStyle
  2
Gouraud
 70
     2
 71
     2
 72
     2
 73
     1
 90
        2
 40
-0.6
 41
30.0
 62
     5
 63
     7
 74
     0
 91
        0
 64
     7
 65
   257
 75
     1
175
     1
 42
1.0
 92
        0
 66
     7
 43
1.0
 76
     1
 77
     6
 78
     2
 67
     7
 79
     5
170
     0
171
     0
290
     0
174
     0
 93
       13
 44
0.0
173
     0
291
     1
 45
0.0
1001
ACAD
1000
AcDbSavedByObjectVersion
1070
     0
  0
VISUALSTYLE
  5
2D
102
{ACAD_XDICTIONARY
360
476
102
}
102
{ACAD_REACTORS
330
29
102
}
330
29
100
AcDbVisualStyle
  2
GouraudWithEdges
 70
     3
 71
     2
 72
     2
 73
     1
 90
        2
 40
-0.6
 41
30.0
 62
     5
 63
     7
 74
     1
 91
        0
 64
     7
 65
   257
 75
     1
175
     1
 42
1.0
 92
        0
 66
   257
 43
1.0
 76
     1
 77
     6
 78
     2
 67
     7
 79
     5
170
     0
171
     0
290
     0
174
     0
 93
       13
 44
0.0
173
     0
291
     1
 45
0.0
1001
ACAD
1000
AcDbSavedByObjectVersion
1070
     0
  0
VISUALSTYLE
  5
31
102
{ACAD_XDICTIONARY
360
47E
102
}
102
{ACAD_REACTORS
330
29
102
}
330
29
100
AcDbVisualStyle
  2
Hidden
 70
     6
 71
     1
 72
     2
 73
     2
 90
        0
 40
-0.6
 41
-30.0
 62
     5
 63
     7
 74
     2
 91
        2
 64
     7
 65
   257
 75
     2
175
     1
 42
40.0
 92
        0
 66
   257
 43
1.0
 76
     1
 77
     6
 78
     2
 67
     7
 79
     3
170
     0
171
     0
290
     0
174
     0
 93
        1
 44
0.0
173
     0
291
     0
 45
0.0
1001
ACAD
1000
AcDbSavedByObjectVersion
1070
     0
  0
VISUALSTYLE
  5
3F
102
{ACAD_XDICTIONARY
360
49A
102
}
102
{ACAD_REACTORS
330
29
102
}
330
29
100
AcDbVisualStyle
  2
JitterOff
 70
    20
 71
     2
 72
     2
 73
     0
 90
        0
 40
-0.6
 41
-30.0
 62
     5
 63
     7
 74
     1
 91
        4
 64
     7
 65
   257
 75
     1
175
     1
 42
1.0
 92
       10
 66
     7
 43
1.0
 76
     1
 77
     6
 78
     2
 67
     7
 79
     5
170
     0
171
     0
290
     0
174
     0
 93
        1
 44
0.0
173
     0
291
     1
 45
0.0
1001
ACAD
1000
AcDbSavedByObjectVersion
1070
     0
  0
VISUALSTYLE
  5
37
102
{ACAD_XDICTIONARY
360
48A
102
}
102
{ACAD_REACTORS
330
29
102
}
330
29
100
AcDbVisualStyle
  2
Linepattern
 70
    14
 71
     2
 72
     2
 73
     0
 90
        0
 40
-0.6
 41
-30.0
 62
     5
 63
     7
 74
     1
 91
        4
 64
     7
 65
   257
 75
     7
175
     7
 42
1.0
 92
        8
 66
     7
 43
1.0
 76
     1
 77
     6
 78
     2
 67
     7
 79
     5
170
     0
171
     0
290
     0
174
     0
 93
        1
 44
0.0
173
     0
291
     1
 45
0.0
1001
ACAD
1000
AcDbSavedByObjectVersion
1070
     0
  0
VISUALSTYLE
  5
40
102
{ACAD_XDICTIONARY
360
49C
102
}
102
{ACAD_REACTORS
330
29
102
}
330
29
100
AcDbVisualStyle
  2
OverhangOff
 70
    21
 71
     2
 72
     2
 73
     0
 90
        0
 40
-0.6
 41
-30.0
 62
     5
 63
     7
 74
     1
 91
        4
 64
     7
 65
   257
 75
     1
175
     1
 42
1.0
 92
        9
 66
     7
 43
1.0
 76
     1
 77
     6
 78
     2
 67
     7
 79
     5
170
     0
171
     0
290
     0
174
     0
 93
        1
 44
0.0
173
     0
291
     1
 45
0.0
1001
ACAD
1000
AcDbSavedByObjectVersion
1070
     0
  0
VISUALSTYLE
  5
33
102
{ACAD_XDICTIONARY
360
482
102
}
102
{ACAD_REACTORS
330
29
102
}
330
29
100
AcDbVisualStyle
  2
Realistic
 70
     8
 71
     2
 72
     3
 73
     0
 90
        2
 40
-0.6
 41
30.0
 62
     5
 63
     7
 74
     0
 91
        0
 64
     7
 65
   257
 75
     1
175
     1
 42
1.0
 92
        8
 66
   257
 43
1.0
 76
     1
 77
     6
 78
     2
 67
     7
 79
     3
170
     0
171
     0
290
     0
174
     0
 93
       13
 44
0.0
173
     0
291
     0
 45
0.0
1001
ACAD
1000
AcDbSavedByObjectVersion
1070
     0
  0
VISUALSTYLE
  5
3E
102
{ACAD_XDICTIONARY
360
498
102
}
102
{ACAD_REACTORS
330
29
102
}
330
29
100
AcDbVisualStyle
  2
Shaded
 70
    27
 71
     2
 72
     2
 73
     1
 90
        2
 40
-0.6
 41
30.0
 62
     5
 63
     7
 74
     0
 91
        4
 64
     7
 65
   257
 75
     1
175
     1
 42
1.0
 92
        8
 66
   257
 43
1.0
 76
     1
 77
     6
 78
     2
 67
     8
 79
     3
170
     0
171
     0
290
     0
174
     0
 93
        5
 44
0.0
173
     0
291
     0
 45
0.0
1001
ACAD
1000
AcDbSavedByObjectVersion
1070
     0
  0
VISUALSTYLE
  5
3D
102
{ACAD_XDICTIONARY
360
496
102
}
102
{ACAD_REACTORS
330
29
102
}
330
29
100
AcDbVisualStyle
  2
Shaded with edges
 70
    26
 71
     2
 72
     2
 73
     1
 90
        2
 40
-0.6
 41
30.0
 62
     5
 63
     7
 74
     1
 91
        2
 64
     7
 65
   257
 75
     2
175
     1
 42
1.0
 92
        8
 66
   257
 43
1.0
 76
     1
 77
     6
 78
     2
 67
     7
 79
     3
170
     0
171
     0
290
     0
174
     0
 93
        5
 44
0.0
173
     0
291
     0
 45
0.0
1001
ACAD
1000
AcDbSavedByObjectVersion
1070
     0
  0
VISUALSTYLE
  5
3A
102
{ACAD_XDICTIONARY
360
490
102
}
102
{ACAD_REACTORS
330
29
102
}
330
29
100
AcDbVisualStyle
  2
Shades of Gray
 70
    23
 71
     2
 72
     2
 73
     3
 90
        0
 40
-0.6
 41
-30.0
 62
     5
 63
     7
 74
     2
 91
        2
 64
     7
 65
     7
 75
     1
175
     1
 42
40.0
 92
        8
 66
     7
 43
1.0
 76
     1
 77
     6
 78
     2
 67
     7
 79
     3
170
     0
171
     0
290
     0
174
     0
 93
        1
 44
0.0
173
     0
291
     0
 45
0.0
1001
ACAD
1000
AcDbSavedByObjectVersion
1070
     0
  0
VISUALSTYLE
  5
3B
102
{ACAD_XDICTIONARY
360
492
102
}
102
{ACAD_REACTORS
330
29
102
}
330
29
100
AcDbVisualStyle
  2
Sketchy
 70
    24
 71
     1
 72
     2
 73
     2
 90
        0
 40
-0.6
 41
-30.0
 62
     5
 63
     7
 74
     2
 91
        2
 64
     7
 65
     7
 75
     1
175
     1
 42
40.0
 92
       11
 66
     7
 43
1.0
 76
     1
 77
     6
 78
     2
 67
     7
 79
     6
170
     0
171
     0
290
     0
174
     0
 93
        1
 44
0.0
173
     0
291
     0
 45
0.0
1001
ACAD
1000
AcDbSavedByObjectVersion
1070
     0
  0
VISUALSTYLE
  5
36
102
{ACAD_XDICTIONARY
360
488
102
}
102
{ACAD_REACTORS
330
29
102
}
330
29
100
AcDbVisualStyle
  2
Thicken
 70
    13
 71
     2
 72
     2
 73
     0
 90
        0
 40
-0.6
 41
-30.0
 62
     5
 63
     7
 74
     1
 91
        4
 64
     7
 65
   257
 75
     1
175
     1
 42
1.0
 92
       12
 66
     7
 43
1.0
 76
     1
 77
     6
 78
     2
 67
     7
 79
     5
170
     0
171
     0
290
     0
174
     0
 93
        1
 44
0.0
173
     0
291
     1
 45
0.0
1001
ACAD
1000
AcDbSavedByObjectVersion
1070
     0
  0
VISUALSTYLE
  5
30
102
{ACAD_XDICTIONARY
360
47C
102
}
102
{ACAD_REACTORS
330
29
102
}
330
29
100
AcDbVisualStyle
  2
Wireframe
 70
     5
 71
     0
 72
     2
 73
     0
 90
        0
 40
-0.6
 41
-30.0
 62
     5
 63
     7
 74
     1
 91
        4
 64
     7
 65
   257
 75
     1
175
     1
 42
1.0
 92
        0
 66
   257
 43
1.0
 76
     1
 77
     6
 78
     2
 67
     7
 79
     3
170
     0
171
     0
290
     0
174
     0
 93
        1
 44
0.0
173
     0
291
     0
 45
0.0
1001
ACAD
1000
AcDbSavedByObjectVersion
1070
     0
  0
VISUALSTYLE
  5
3C
102
{ACAD_XDICTIONARY
360
494
102
}
102
{ACAD_REACTORS
330
29
102
}
330
29
100
AcDbVisualStyle
  2
X-Ray
 70
    25
 71
     2
 72
     2
 73
     1
 90
        1
 40
0.5
 41
-30.0
 62
     5
 63
     7
 74
     1
 91
        0
 64
     7
 65
   257
 75
     1
175
     1
 42
1.0
 92
        8
 66
     7
 43
1.0
 76
     1
 77
     6
 78
     2
 67
     7
 79
     3
170
     0
171
     0
290
     0
174
     0
 93
       13
 44
0.0
173
     0
291
     0
 45
0.0
1001
ACAD
1000
AcDbSavedByObjectVersion
1070
     0
  0
DICTIONARYVAR
  5
463
102
{ACAD_REACTORS
330
45E
102
}
330
45E
100
DictionaryVariables
280
     0
  1
1:1
  0
DICTIONARYVAR
  5
460
102
{ACAD_REACTORS
330
45E
102
}
330
45E
100
DictionaryVariables
280
     0
  1
STANDARD
  0
DICTIONARYVAR
  5
45F
102
{ACAD_REACTORS
330
45E
102
}
330
45E
100
DictionaryVariables
280
     0
  1
STANDARD
  0
DICTIONARYVAR
  5
461
102
{ACAD_REACTORS
330
45E
102
}
330
45E
100
DictionaryVariables
280
     0
  1
Imperial24
  0
DICTIONARYVAR
  5
462
102
{ACAD_REACTORS
330
45E
102
}
330
45E
100
DictionaryVariables
280
     0
  1
Imperial24
  0
DICTIONARYVAR
  5
466
102
{ACAD_REACTORS
330
45E
102
}
330
45E
100
DictionaryVariables
280
     0
  1
1
  0
DICTIONARYVAR
  5
465
102
{ACAD_REACTORS
330
45E
102
}
330
45E
100
DictionaryVariables
280
     0
  1
0
  0
DICTIONARYVAR
  5
464
102
{ACAD_REACTORS
330
45E
102
}
330
45E
100
DictionaryVariables
280
     0
  1
127
  0
DICTIONARYVAR
  5
467
102
{ACAD_REACTORS
330
45E
102
}
330
45E
100
DictionaryVariables
280
     0
  1
2
  0
DICTIONARY
  5
4A4
330
6A
100
AcDbDictionary
280
     1
281
     1
  3
ACAD_XREC_ROUNDTRIP
360
4A5
  0
DICTIONARY
  5
4A8
330
72
100
AcDbDictionary
280
     1
281
     1
  3
ACAD_XREC_ROUNDTRIP
360
4A9
  0
DICTIONARY
  5
4A6
330
6E
100
AcDbDictionary
280
     1
281
     1
  3
ACAD_XREC_ROUNDTRIP
360
4A7
  0
DICTIONARY
  5
1A
330
19
100
AcDbDictionary
280
     1
281
     1
  3
ACAD_XREC_ROUNDTRIP
360
46E
  3
BUMPTILE
360
1C
  3
DIFFUSETILE
360
1B
  3
OPACITYTILE
360
1F
  3
REFLECTIONTILE
360
1E
  3
REFRACTIONTILE
360
20
  3
SPECULARTILE
360
1D
  0
DICTIONARY
  5
12
330
11
100
AcDbDictionary
280
     1
281
     1
  3
ACAD_XREC_ROUNDTRIP
360
46D
  3
BUMPTILE
360
14
  3
DIFFUSETILE
360
13
  3
OPACITYTILE
360
17
  3
REFLECTIONTILE
360
16
  3
REFRACTIONTILE
360
18
  3
SPECULARTILE
360
15
  0
DICTIONARY
  5
22
330
21
100
AcDbDictionary
280
     1
281
     1
  3
ACAD_XREC_ROUNDTRIP
360
46F
  3
BUMPTILE
360
24
  3
DIFFUSETILE
360
23
  3
OPACITYTILE
360
27
  3
REFLECTIONTILE
360
26
  3
REFRACTIONTILE
360
28
  3
SPECULARTILE
360
25
  0
DICTIONARY
  5
4A2
330
68
100
AcDbDictionary
280
     1
281
     1
  3
ACAD_XREC_ROUNDTRIP
360
4A3
  0
DICTIONARY
  5
469
330
64
100
AcDbDictionary
280
     1
281
     1
  3
ACAD_ROUNDTRIP_2008_TABLESTYLE_CELLSTYLEMAP
360
46A
  3
ACAD_XREC_ROUNDTRIP
360
4A0
  0
DICTIONARY
  5
47A
330
2F
100
AcDbDictionary
280
     1
281
     1
  3
ACAD_XREC_ROUNDTRIP
360
47B
  0
DICTIONARY
  5
478
330
2E
100
AcDbDictionary
280
     1
281
     1
  3
ACAD_XREC_ROUNDTRIP
360
479
  0
DICTIONARY
  5
486
330
35
100
AcDbDictionary
280
     1
281
     1
  3
ACAD_XREC_ROUNDTRIP
360
487
  0
DICTIONARY
  5
48E
330
39
100
AcDbDictionary
280
     1
281
     1
  3
ACAD_XREC_ROUNDTRIP
360
48F
  0
DICTIONARY
  5
480
330
32
100
AcDbDictionary
280
     1
281
     1
  3
ACAD_XREC_ROUNDTRIP
360
481
  0
DICTIONARY
  5
484
330
34
100
AcDbDictionary
280
     1
281
     1
  3
ACAD_XREC_ROUNDTRIP
360
485
  0
DICTIONARY
  5
49E
330
41
100
AcDbDictionary
280
     1
281
     1
  3
ACAD_XREC_ROUNDTRIP
360
49F
  0
DICTIONARY
  5
48C
330
38
100
AcDbDictionary
280
     1
281
     1
  3
ACAD_XREC_ROUNDTRIP
360
48D
  0
DICTIONARY
  5
470
330
2A
100
AcDbDictionary
280
     1
281
     1
  3
ACAD_XREC_ROUNDTRIP
360
471
  0
DICTIONARY
  5
472
330
2B
100
AcDbDictionary
280
     1
281
     1
  3
ACAD_XREC_ROUNDTRIP
360
473
  0
DICTIONARY
  5
474
330
2C
100
AcDbDictionary
280
     1
281
     1
  3
ACAD_XREC_ROUNDTRIP
360
475
  0
DICTIONARY
  5
476
330
2D
100
AcDbDictionary
280
     1
281
     1
  3
ACAD_XREC_ROUNDTRIP
360
477
  0
DICTIONARY
  5
47E
330
31
100
AcDbDictionary
280
     1
281
     1
  3
ACAD_XREC_ROUNDTRIP
360
47F
  0
DICTIONARY
  5
49A
330
3F
100
AcDbDictionary
280
     1
281
     1
  3
ACAD_XREC_ROUNDTRIP
360
49B
  0
DICTIONARY
  5
48A
330
37
100
AcDbDictionary
280
     1
281
     1
  3
ACAD_XREC_ROUNDTRIP
360
48B
  0
DICTIONARY
  5
49C
330
40
100
AcDbDictionary
280
     1
281
     1
  3
ACAD_XREC_ROUNDTRIP
360
49D
  0
DICTIONARY
  5
482
330
33
100
AcDbDictionary
280
     1
281
     1
  3
ACAD_XREC_ROUNDTRIP
360
483
  0
DICTIONARY
  5
498
330
3E
100
AcDbDictionary
280
     1
281
     1
  3
ACAD_XREC_ROUNDTRIP
360
499
  0
DICTIONARY
  5
496
330
3D
100
AcDbDictionary
280
     1
281
     1
  3
ACAD_XREC_ROUNDTRIP
360
497
  0
DICTIONARY
  5
490
330
3A
100
AcDbDictionary
280
     1
281
     1
  3
ACAD_XREC_ROUNDTRIP
360
491
  0
DICTIONARY
  5
492
330
3B
100
AcDbDictionary
280
     1
281
     1
  3
ACAD_XREC_ROUNDTRIP
360
493
  0
DICTIONARY
  5
488
330
36
100
AcDbDictionary
280
     1
281
     1
  3
ACAD_XREC_ROUNDTRIP
360
489
  0
DICTIONARY
  5
47C
330
30
100
AcDbDictionary
280
     1
281
     1
  3
ACAD_XREC_ROUNDTRIP
360
47D
  0
DICTIONARY
  5
494
330
3C
100
AcDbDictionary
280
     1
281
     1
  3
ACAD_XREC_ROUNDTRIP
360
495
  0
XRECORD
  5
4A5
102
{ACAD_REACTORS
330
4A4
102
}
330
4A4
100
AcDbXrecord
280
     1
102
DISPLAYNAME
  1
Imperial24
102
FLAGS
 90
        0
  0
XRECORD
  5
4A9
102
{ACAD_REACTORS
330
4A8
102
}
330
4A8
100
AcDbXrecord
280
     1
102
SHADEPLOT
 70
     0
102
SHADEPLOTRESLEVEL
 70
     2
102
SHADEPLOTCUSTOMDPI
 70
   300
  0
XRECORD
  5
4A7
102
{ACAD_REACTORS
330
4A6
102
}
330
4A6
100
AcDbXrecord
280
     1
102
SHADEPLOT
 70
     0
102
SHADEPLOTRESLEVEL
 70
     2
102
SHADEPLOTCUSTOMDPI
 70
   300
  0
XRECORD
  5
46E
102
{ACAD_REACTORS
330
1A
102
}
330
1A
100
AcDbXrecord
280
     1
102
MATERIAL
148
0.0
149
0.0
149
0.0
 93
        0
 94
      127
282
     0
 72
     0
 77
     0
171
     0
175
     0
179
     0
273
     0
  0
XRECORD
  5
1C
102
{ACAD_REACTORS
330
1A
102
}
330
1A
100
AcDbXrecord
280
     1
270
     1
271
     1
  0
XRECORD
  5
1B
102
{ACAD_REACTORS
330
1A
102
}
330
1A
100
AcDbXrecord
280
     1
270
     1
271
     1
  0
XRECORD
  5
1F
102
{ACAD_REACTORS
330
1A
102
}
330
1A
100
AcDbXrecord
280
     1
270
     1
271
     1
  0
XRECORD
  5
1E
102
{ACAD_REACTORS
330
1A
102
}
330
1A
100
AcDbXrecord
280
     1
270
     1
271
     1
  0
XRECORD
  5
20
102
{ACAD_REACTORS
330
1A
102
}
330
1A
100
AcDbXrecord
280
     1
270
     1
271
     1
  0
XRECORD
  5
1D
102
{ACAD_REACTORS
330
1A
102
}
330
1A
100
AcDbXrecord
280
     1
270
     1
271
     1
  0
XRECORD
  5
46D
102
{ACAD_REACTORS
330
12
102
}
330
12
100
AcDbXrecord
280
     1
102
MATERIAL
148
0.0
149
0.0
149
0.0
 93
        0
 94
      127
282
     0
 72
     0
 77
     0
171
     0
175
     0
179
     0
273
     0
  0
XRECORD
  5
14
102
{ACAD_REACTORS
330
12
102
}
330
12
100
AcDbXrecord
280
     1
270
     1
271
     1
  0
XRECORD
  5
13
102
{ACAD_REACTORS
330
12
102
}
330
12
100
AcDbXrecord
280
     1
270
     1
271
     1
  0
XRECORD
  5
17
102
{ACAD_REACTORS
330
12
102
}
330
12
100
AcDbXrecord
280
     1
270
     1
271
     1
  0
XRECORD
  5
16
102
{ACAD_REACTORS
330
12
102
}
330
12
100
AcDbXrecord
280
     1
270
     1
271
     1
  0
XRECORD
  5
18
102
{ACAD_REACTORS
330
12
102
}
330
12
100
AcDbXrecord
280
     1
270
     1
271
     1
  0
XRECORD
  5
15
102
{ACAD_REACTORS
330
12
102
}
330
12
100
AcDbXrecord
280
     1
270
     1
271
     1
  0
XRECORD
  5
46F
102
{ACAD_REACTORS
330
22
102
}
330
22
100
AcDbXrecord
280
     1
102
MATERIAL
148
0.0
149
0.0
149
0.0
 93
        0
 94
      127
282
     0
 72
     0
 77
     0
171
     0
175
     0
179
     0
273
     0
  0
XRECORD
  5
24
102
{ACAD_REACTORS
330
22
102
}
330
22
100
AcDbXrecord
280
     1
270
     1
271
     1
  0
XRECORD
  5
23
102
{ACAD_REACTORS
330
22
102
}
330
22
100
AcDbXrecord
280
     1
270
     1
271
     1
  0
XRECORD
  5
27
102
{ACAD_REACTORS
330
22
102
}
330
22
100
AcDbXrecord
280
     1
270
     1
271
     1
  0
XRECORD
  5
26
102
{ACAD_REACTORS
330
22
102
}
330
22
100
AcDbXrecord
280
     1
270
     1
271
     1
  0
XRECORD
  5
28
102
{ACAD_REACTORS
330
22
102
}
330
22
100
AcDbXrecord
280
     1
270
     1
271
     1
  0
XRECORD
  5
25
102
{ACAD_REACTORS
330
22
102
}
330
22
100
AcDbXrecord
280
     1
270
     1
271
     1
  0
XRECORD
  5
4A3
102
{ACAD_REACTORS
330
4A2
102
}
330
4A2
100
AcDbXrecord
280
     1
102
DISPLAYNAME
  1
Imperial24
102
FLAGS
 90
        0
  0
CELLSTYLEMAP
  5
46A
102
{ACAD_REACTORS
330
469
102
}
330
469
100
AcDbCellStyleMap
 90
        3
300
CELLSTYLE
  1
TABLEFORMAT_BEGIN
 90
        5
170
     1
 91
        0
 92
    32768
 62
   257
 93
        1
300
CONTENTFORMAT
  1
CONTENTFORMAT_BEGIN
 90
        0
 91
        0
 92
      512
 93
        0
300

 40
0.0
140
1.0
 94
        5
 62
     0
340
55
144
0.25
309
CONTENTFORMAT_END
171
     0
 94
        0
309
TABLEFORMAT_END
  1
CELLSTYLE_BEGIN
 90
        1
 91
        1
300
_TITLE
309
CELLSTYLE_END
300
CELLSTYLE
  1
TABLEFORMAT_BEGIN
 90
        5
170
     1
 91
        0
 92
        0
 62
   257
 93
        1
300
CONTENTFORMAT
  1
CONTENTFORMAT_BEGIN
 90
        0
 91
        0
 92
      512
 93
        0
300

 40
0.0
140
1.0
 94
        5
 62
     0
340
55
144
0.18
309
CONTENTFORMAT_END
171
     0
 94
        0
309
TABLEFORMAT_END
  1
CELLSTYLE_BEGIN
 90
        2
 91
        1
300
_HEADER
309
CELLSTYLE_END
300
CELLSTYLE
  1
TABLEFORMAT_BEGIN
 90
        5
170
     1
 91
        0
 92
        0
 62
   257
 93
        1
300
CONTENTFORMAT
  1
CONTENTFORMAT_BEGIN
 90
        0
 91
        0
 92
      512
 93
        0
300

 40
0.0
140
1.0
 94
        2
 62
     0
340
55
144
0.18
309
CONTENTFORMAT_END
171
     0
 94
        0
309
TABLEFORMAT_END
  1
CELLSTYLE_BEGIN
 90
        3
 91
        2
300
_DATA
309
CELLSTYLE_END
  0
XRECORD
  5
4A0
102
{ACAD_REACTORS
330
469
102
}
330
469
100
AcDbXrecord
280
     1
102
ACAD_ROUNDTRIP_PRE2007_TABLESTYLE
 90
      512
 91
        0
  1

 92
      512
 93
        0
  2

 94
      512
 95
        0
  3

  0
XRECORD
  5
47B
102
{ACAD_REACTORS
330
47A
102
}
330
47A
100
AcDbXrecord
280
     1
102
RTVSPost2010Prop28
280
     1
102
RTVSPost2010PropOp28
 70
     1
102
RTVSPost2010Prop29
280
     1
102
RTVSPost2010PropOp29
 70
     1
102
RTVSPost2010Prop30
280
     0
102
RTVSPost2010PropOp30
 70
     1
102
RTVSPost2010Prop31
280
     0
102
RTVSPost2010PropOp31
 70
     1
102
RTVSPost2010Prop32
280
     0
102
RTVSPost2010PropOp32
 70
     1
102
RTVSPost2010Prop33
280
     0
102
RTVSPost2010PropOp33
 70
     1
102
RTVSPost2010Prop34
280
     0
102
RTVSPost2010PropOp34
 70
     1
102
RTVSPost2010Prop35
280
     0
102
RTVSPost2010PropOp35
 70
     1
102
RTVSPost2010Prop36
280
     0
102
RTVSPost2010PropOp36
 70
     1
102
RTVSPost2010Prop37
 90
       50
102
RTVSPost2010PropOp37
 70
     1
102
RTVSPost2010Prop38
140
0.0
102
RTVSPost2010PropOp38
 70
     1
102
RTVSPost2010Prop39
140
1.0
102
RTVSPost2010PropOp39
 70
     1
102
RTVSPost2010Prop40
 90
        0
102
RTVSPost2010PropOp40
 70
     1
102
RTVSPost2010Prop41ColorIndex
 90
       18
102
RTVSPost2010Prop41ColorRGB
 90
        0
102
RTVSPost2010PropOp41
 70
     1
102
RTVSPost2010Prop42
 90
       50
102
RTVSPost2010PropOp42
 70
     1
102
RTVSPost2010Prop43
 90
        3
102
RTVSPost2010PropOp43
 70
     1
102
RTVSPost2010Prop44ColorIndex
 90
        5
102
RTVSPost2010Prop44ColorRGB
 90
      255
102
RTVSPost2010PropOp44
 70
     1
102
RTVSPost2010Prop45
280
     0
102
RTVSPost2010PropOp45
 70
     1
102
RTVSPost2010Prop46
 90
       50
102
RTVSPost2010PropOp46
 70
     1
102
RTVSPost2010Prop47
 90
       50
102
RTVSPost2010PropOp47
 70
     1
102
RTVSPost2010Prop48
 90
       50
102
RTVSPost2010PropOp48
 70
     1
102
RTVSPost2010Prop49
280
     0
102
RTVSPost2010PropOp49
 70
     1
102
RTVSPost2010Prop50
 90
       50
102
RTVSPost2010PropOp50
 70
     1
102
RTVSPost2010Prop51ColorIndex
 90
      256
102
RTVSPost2010Prop51ColorRGB
 90
-16777216
102
RTVSPost2010PropOp51
 70
     0
102
RTVSPost2010Prop52
140
1.0
102
RTVSPost2010PropOp52
 70
     0
102
RTVSPost2010Prop53
 90
        2
102
RTVSPost2010PropOp53
 70
     1
102
RTVSPost2010Prop54
  1
strokes_ogs.tif
102
RTVSPost2010PropOp54
 70
     1
102
RTVSPost2010Prop55
280
     0
102
RTVSPost2010PropOp55
 70
     1
102
RTVSPost2010Prop56
140
1.0
102
RTVSPost2010PropOp56
 70
     1
102
RTVSPost2010Prop57
140
1.0
102
RTVSPost2010PropOp57
 70
     1
102
RTVSPropertyOp0
 70
     1
102
RTVSPropertyOp1
 70
     1
102
RTVSPropertyOp2
 70
     1
102
RTVSPropertyOp3
 70
     1
102
RTVSPropertyOp4
 70
     1
102
RTVSPropertyOp5
 70
     1
102
RTVSPropertyOp6
 70
     1
102
RTVSPropertyOp7
 70
     1
102
RTVSPropertyOp8
 70
     1
102
RTVSPropertyOp9
 70
     1
102
RTVSPropertyOp10
 70
     1
102
RTVSPropertyOp11
 70
     1
102
RTVSPropertyOp12
 70
     1
102
RTVSPropertyOp13
 70
     1
102
RTVSPropertyOp14
 70
     1
102
RTVSPropertyOp15
 70
     1
102
RTVSPropertyOp16
 70
     1
102
RTVSPropertyOp17
 70
     1
102
RTVSPropertyOp18
 70
     1
102
RTVSPropertyOp19
 70
     1
102
RTVSPropertyOp20
 70
     1
102
RTVSPropertyOp21
 70
     1
102
RTVSPropertyOp22
 70
     1
102
RTVSPropertyOp23
 70
     1
102
RTVSPropertyOp24
 70
     1
102
RTVSPropertyOp25
 70
     1
102
RTVSPropertyOp26
 70
     1
102
RTVSPropertyOp27
 70
     1
102
RTVSPropertyOp28
 70
     1
102
RTVSPropertyOp29
 70
     1
102
RTVSPropertyOp30
 70
     1
102
RTVSPropertyOp31
 70
     1
102
RTVSPropertyOp32
 70
     1
102
RTVSPropertyOp33
 70
     1
102
RTVSPropertyOp34
 70
     1
102
RTVSPropertyOp35
 70
     1
102
RTVSPropertyOp36
 70
     1
102
RTVSPropertyOp37
 70
     1
102
RTVSPropertyOp38
 70
     1
102
RTVSPropertyOp39
 70
     1
102
RTVSPropertyOp40
 70
     1
102
RTVSPropertyOp41
 70
     1
102
RTVSPropertyOp42
 70
     1
102
RTVSPropertyOp43
 70
     1
102
RTVSPropertyOp44
 70
     1
102
RTVSPropertyOp45
 70
     1
102
RTVSPropertyOp46
 70
     1
102
RTVSPropertyOp47
 70
     1
102
RTVSPropertyOp48
 70
     1
102
RTVSPropertyOp49
 70
     1
102
RTVSPropertyOp50
 70
     1
102
RTVSPropertyOp51
 70
     0
102
RTVSPropertyOp52
 70
     0
102
RTVSPropertyOp53
 70
     1
102
RTVSPropertyOp54
 70
     1
102
RTVSPropertyOp55
 70
     1
102
RTVSPropertyOp56
 70
     1
102
RTVSPropertyOp57
 70
     1
102
RTVSPropertyOp58
 70
     1
102
RTVSPropertyOp59
 70
     1
102
RTVSPropertyOp60
 70
     1
102
RTVSPropertyOp61
 70
     1
102
RTVSPropertyOp62
 70
     1
  0
XRECORD
  5
479
102
{ACAD_REACTORS
330
478
102
}
330
478
100
AcDbXrecord
280
     1
102
RTVSPost2010Prop28
280
     0
102
RTVSPost2010PropOp28
 70
     1
102
RTVSPost2010Prop29
280
     1
102
RTVSPost2010PropOp29
 70
     1
102
RTVSPost2010Prop30
280
     1
102
RTVSPost2010PropOp30
 70
     1
102
RTVSPost2010Prop31
280
     0
102
RTVSPost2010PropOp31
 70
     1
102
RTVSPost2010Prop32
280
     0
102
RTVSPost2010PropOp32
 70
     1
102
RTVSPost2010Prop33
280
     0
102
RTVSPost2010PropOp33
 70
     1
102
RTVSPost2010Prop34
280
     0
102
RTVSPost2010PropOp34
 70
     1
102
RTVSPost2010Prop35
280
     0
102
RTVSPost2010PropOp35
 70
     1
102
RTVSPost2010Prop36
280
     0
102
RTVSPost2010PropOp36
 70
     1
102
RTVSPost2010Prop37
 90
       50
102
RTVSPost2010PropOp37
 70
     1
102
RTVSPost2010Prop38
140
0.0
102
RTVSPost2010PropOp38
 70
     1
102
RTVSPost2010Prop39
140
1.0
102
RTVSPost2010PropOp39
 70
     1
102
RTVSPost2010Prop40
 90
        0
102
RTVSPost2010PropOp40
 70
     1
102
RTVSPost2010Prop41ColorIndex
 90
       18
102
RTVSPost2010Prop41ColorRGB
 90
        0
102
RTVSPost2010PropOp41
 70
     1
102
RTVSPost2010Prop42
 90
       50
102
RTVSPost2010PropOp42
 70
     1
102
RTVSPost2010Prop43
 90
        3
102
RTVSPost2010PropOp43
 70
     1
102
RTVSPost2010Prop44ColorIndex
 90
        5
102
RTVSPost2010Prop44ColorRGB
 90
      255
102
RTVSPost2010PropOp44
 70
     1
102
RTVSPost2010Prop45
280
     0
102
RTVSPost2010PropOp45
 70
     1
102
RTVSPost2010Prop46
 90
       50
102
RTVSPost2010PropOp46
 70
     1
102
RTVSPost2010Prop47
 90
       50
102
RTVSPost2010PropOp47
 70
     1
102
RTVSPost2010Prop48
 90
       50
102
RTVSPost2010PropOp48
 70
     1
102
RTVSPost2010Prop49
280
     0
102
RTVSPost2010PropOp49
 70
     1
102
RTVSPost2010Prop50
 90
       50
102
RTVSPost2010PropOp50
 70
     1
102
RTVSPost2010Prop51ColorIndex
 90
      256
102
RTVSPost2010Prop51ColorRGB
 90
-16777216
102
RTVSPost2010PropOp51
 70
     0
102
RTVSPost2010Prop52
140
1.0
102
RTVSPost2010PropOp52
 70
     0
102
RTVSPost2010Prop53
 90
        2
102
RTVSPost2010PropOp53
 70
     1
102
RTVSPost2010Prop54
  1
strokes_ogs.tif
102
RTVSPost2010PropOp54
 70
     1
102
RTVSPost2010Prop55
280
     0
102
RTVSPost2010PropOp55
 70
     1
102
RTVSPost2010Prop56
140
1.0
102
RTVSPost2010PropOp56
 70
     1
102
RTVSPost2010Prop57
140
1.0
102
RTVSPost2010PropOp57
 70
     1
102
RTVSPropertyOp0
 70
     1
102
RTVSPropertyOp1
 70
     1
102
RTVSPropertyOp2
 70
     1
102
RTVSPropertyOp3
 70
     1
102
RTVSPropertyOp4
 70
     1
102
RTVSPropertyOp5
 70
     1
102
RTVSPropertyOp6
 70
     1
102
RTVSPropertyOp7
 70
     1
102
RTVSPropertyOp8
 70
     1
102
RTVSPropertyOp9
 70
     1
102
RTVSPropertyOp10
 70
     1
102
RTVSPropertyOp11
 70
     1
102
RTVSPropertyOp12
 70
     1
102
RTVSPropertyOp13
 70
     1
102
RTVSPropertyOp14
 70
     1
102
RTVSPropertyOp15
 70
     1
102
RTVSPropertyOp16
 70
     1
102
RTVSPropertyOp17
 70
     1
102
RTVSPropertyOp18
 70
     1
102
RTVSPropertyOp19
 70
     1
102
RTVSPropertyOp20
 70
     1
102
RTVSPropertyOp21
 70
     1
102
RTVSPropertyOp22
 70
     1
102
RTVSPropertyOp23
 70
     1
102
RTVSPropertyOp24
 70
     1
102
RTVSPropertyOp25
 70
     1
102
RTVSPropertyOp26
 70
     1
102
RTVSPropertyOp27
 70
     1
102
RTVSPropertyOp28
 70
     1
102
RTVSPropertyOp29
 70
     1
102
RTVSPropertyOp30
 70
     1
102
RTVSPropertyOp31
 70
     1
102
RTVSPropertyOp32
 70
     1
102
RTVSPropertyOp33
 70
     1
102
RTVSPropertyOp34
 70
     1
102
RTVSPropertyOp35
 70
     1
102
RTVSPropertyOp36
 70
     1
102
RTVSPropertyOp37
 70
     1
102
RTVSPropertyOp38
 70
     1
102
RTVSPropertyOp39
 70
     1
102
RTVSPropertyOp40
 70
     1
102
RTVSPropertyOp41
 70
     1
102
RTVSPropertyOp42
 70
     1
102
RTVSPropertyOp43
 70
     1
102
RTVSPropertyOp44
 70
     1
102
RTVSPropertyOp45
 70
     1
102
RTVSPropertyOp46
 70
     1
102
RTVSPropertyOp47
 70
     1
102
RTVSPropertyOp48
 70
     1
102
RTVSPropertyOp49
 70
     1
102
RTVSPropertyOp50
 70
     1
102
RTVSPropertyOp51
 70
     0
102
RTVSPropertyOp52
 70
     0
102
RTVSPropertyOp53
 70
     1
102
RTVSPropertyOp54
 70
     1
102
RTVSPropertyOp55
 70
     1
102
RTVSPropertyOp56
 70
     1
102
RTVSPropertyOp57
 70
     1
102
RTVSPropertyOp58
 70
     1
102
RTVSPropertyOp59
 70
     1
102
RTVSPropertyOp60
 70
     1
102
RTVSPropertyOp61
 70
     1
102
RTVSPropertyOp62
 70
     1
  0
XRECORD
  5
487
102
{ACAD_REACTORS
330
486
102
}
330
486
100
AcDbXrecord
280
     1
102
RTVSPost2010Prop28
280
     0
102
RTVSPost2010PropOp28
 70
     1
102
RTVSPost2010Prop29
280
     1
102
RTVSPost2010PropOp29
 70
     1
102
RTVSPost2010Prop30
280
     1
102
RTVSPost2010PropOp30
 70
     1
102
RTVSPost2010Prop31
280
     0
102
RTVSPost2010PropOp31
 70
     1
102
RTVSPost2010Prop32
280
     0
102
RTVSPost2010PropOp32
 70
     1
102
RTVSPost2010Prop33
280
     0
102
RTVSPost2010PropOp33
 70
     1
102
RTVSPost2010Prop34
280
     0
102
RTVSPost2010PropOp34
 70
     1
102
RTVSPost2010Prop35
280
     0
102
RTVSPost2010PropOp35
 70
     1
102
RTVSPost2010Prop36
280
     0
102
RTVSPost2010PropOp36
 70
     1
102
RTVSPost2010Prop37
 90
       50
102
RTVSPost2010PropOp37
 70
     1
102
RTVSPost2010Prop38
140
0.0
102
RTVSPost2010PropOp38
 70
     1
102
RTVSPost2010Prop39
140
1.0
102
RTVSPost2010PropOp39
 70
     1
102
RTVSPost2010Prop40
 90
        0
102
RTVSPost2010PropOp40
 70
     1
102
RTVSPost2010Prop41ColorIndex
 90
       18
102
RTVSPost2010Prop41ColorRGB
 90
        0
102
RTVSPost2010PropOp41
 70
     1
102
RTVSPost2010Prop42
 90
       50
102
RTVSPost2010PropOp42
 70
     1
102
RTVSPost2010Prop43
 90
        3
102
RTVSPost2010PropOp43
 70
     1
102
RTVSPost2010Prop44ColorIndex
 90
        5
102
RTVSPost2010Prop44ColorRGB
 90
      255
102
RTVSPost2010PropOp44
 70
     1
102
RTVSPost2010Prop45
280
     0
102
RTVSPost2010PropOp45
 70
     1
102
RTVSPost2010Prop46
 90
       50
102
RTVSPost2010PropOp46
 70
     1
102
RTVSPost2010Prop47
 90
       50
102
RTVSPost2010PropOp47
 70
     1
102
RTVSPost2010Prop48
 90
       50
102
RTVSPost2010PropOp48
 70
     1
102
RTVSPost2010Prop49
280
     0
102
RTVSPost2010PropOp49
 70
     1
102
RTVSPost2010Prop50
 90
       50
102
RTVSPost2010PropOp50
 70
     1
102
RTVSPost2010Prop51ColorIndex
 90
      256
102
RTVSPost2010Prop51ColorRGB
 90
-16777216
102
RTVSPost2010PropOp51
 70
     0
102
RTVSPost2010Prop52
140
1.0
102
RTVSPost2010PropOp52
 70
     0
102
RTVSPost2010Prop53
 90
        2
102
RTVSPost2010PropOp53
 70
     1
102
RTVSPost2010Prop54
  1
strokes_ogs.tif
102
RTVSPost2010PropOp54
 70
     1
102
RTVSPost2010Prop55
280
     0
102
RTVSPost2010PropOp55
 70
     1
102
RTVSPost2010Prop56
140
1.0
102
RTVSPost2010PropOp56
 70
     1
102
RTVSPost2010Prop57
140
1.0
102
RTVSPost2010PropOp57
 70
     1
102
RTVSPropertyOp0
 70
     1
102
RTVSPropertyOp1
 70
     1
102
RTVSPropertyOp2
 70
     1
102
RTVSPropertyOp3
 70
     1
102
RTVSPropertyOp4
 70
     1
102
RTVSPropertyOp5
 70
     1
102
RTVSPropertyOp6
 70
     1
102
RTVSPropertyOp7
 70
     1
102
RTVSPropertyOp8
 70
     1
102
RTVSPropertyOp9
 70
     1
102
RTVSPropertyOp10
 70
     1
102
RTVSPropertyOp11
 70
     1
102
RTVSPropertyOp12
 70
     1
102
RTVSPropertyOp13
 70
     1
102
RTVSPropertyOp14
 70
     1
102
RTVSPropertyOp15
 70
     1
102
RTVSPropertyOp16
 70
     1
102
RTVSPropertyOp17
 70
     1
102
RTVSPropertyOp18
 70
     1
102
RTVSPropertyOp19
 70
     1
102
RTVSPropertyOp20
 70
     1
102
RTVSPropertyOp21
 70
     1
102
RTVSPropertyOp22
 70
     1
102
RTVSPropertyOp23
 70
     1
102
RTVSPropertyOp24
 70
     1
102
RTVSPropertyOp25
 70
     1
102
RTVSPropertyOp26
 70
     1
102
RTVSPropertyOp27
 70
     1
102
RTVSPropertyOp28
 70
     1
102
RTVSPropertyOp29
 70
     1
102
RTVSPropertyOp30
 70
     1
102
RTVSPropertyOp31
 70
     1
102
RTVSPropertyOp32
 70
     1
102
RTVSPropertyOp33
 70
     1
102
RTVSPropertyOp34
 70
     1
102
RTVSPropertyOp35
 70
     1
102
RTVSPropertyOp36
 70
     1
102
RTVSPropertyOp37
 70
     1
102
RTVSPropertyOp38
 70
     1
102
RTVSPropertyOp39
 70
     1
102
RTVSPropertyOp40
 70
     1
102
RTVSPropertyOp41
 70
     1
102
RTVSPropertyOp42
 70
     1
102
RTVSPropertyOp43
 70
     1
102
RTVSPropertyOp44
 70
     1
102
RTVSPropertyOp45
 70
     1
102
RTVSPropertyOp46
 70
     1
102
RTVSPropertyOp47
 70
     1
102
RTVSPropertyOp48
 70
     1
102
RTVSPropertyOp49
 70
     1
102
RTVSPropertyOp50
 70
     1
102
RTVSPropertyOp51
 70
     0
102
RTVSPropertyOp52
 70
     0
102
RTVSPropertyOp53
 70
     1
102
RTVSPropertyOp54
 70
     1
102
RTVSPropertyOp55
 70
     1
102
RTVSPropertyOp56
 70
     1
102
RTVSPropertyOp57
 70
     1
102
RTVSPropertyOp58
 70
     1
102
RTVSPropertyOp59
 70
     1
102
RTVSPropertyOp60
 70
     1
102
RTVSPropertyOp61
 70
     1
102
RTVSPropertyOp62
 70
     1
  0
XRECORD
  5
48F
102
{ACAD_REACTORS
330
48E
102
}
330
48E
100
AcDbXrecord
280
     1
102
RTVSPost2010Prop28
280
     0
102
RTVSPost2010PropOp28
 70
     1
102
RTVSPost2010Prop29
280
     1
102
RTVSPost2010PropOp29
 70
     1
102
RTVSPost2010Prop30
280
     1
102
RTVSPost2010PropOp30
 70
     1
102
RTVSPost2010Prop31
280
     0
102
RTVSPost2010PropOp31
 70
     1
102
RTVSPost2010Prop32
280
     0
102
RTVSPost2010PropOp32
 70
     1
102
RTVSPost2010Prop33
280
     0
102
RTVSPost2010PropOp33
 70
     1
102
RTVSPost2010Prop34
280
     0
102
RTVSPost2010PropOp34
 70
     1
102
RTVSPost2010Prop35
280
     0
102
RTVSPost2010PropOp35
 70
     1
102
RTVSPost2010Prop36
280
     0
102
RTVSPost2010PropOp36
 70
     1
102
RTVSPost2010Prop37
 90
       50
102
RTVSPost2010PropOp37
 70
     1
102
RTVSPost2010Prop38
140
0.0
102
RTVSPost2010PropOp38
 70
     1
102
RTVSPost2010Prop39
140
1.0
102
RTVSPost2010PropOp39
 70
     1
102
RTVSPost2010Prop40
 90
        0
102
RTVSPost2010PropOp40
 70
     1
102
RTVSPost2010Prop41ColorIndex
 90
       18
102
RTVSPost2010Prop41ColorRGB
 90
        0
102
RTVSPost2010PropOp41
 70
     1
102
RTVSPost2010Prop42
 90
       50
102
RTVSPost2010PropOp42
 70
     1
102
RTVSPost2010Prop43
 90
        3
102
RTVSPost2010PropOp43
 70
     1
102
RTVSPost2010Prop44ColorIndex
 90
        5
102
RTVSPost2010Prop44ColorRGB
 90
      255
102
RTVSPost2010PropOp44
 70
     1
102
RTVSPost2010Prop45
280
     0
102
RTVSPost2010PropOp45
 70
     1
102
RTVSPost2010Prop46
 90
       50
102
RTVSPost2010PropOp46
 70
     1
102
RTVSPost2010Prop47
 90
       50
102
RTVSPost2010PropOp47
 70
     1
102
RTVSPost2010Prop48
 90
       50
102
RTVSPost2010PropOp48
 70
     1
102
RTVSPost2010Prop49
280
     0
102
RTVSPost2010PropOp49
 70
     1
102
RTVSPost2010Prop50
 90
       50
102
RTVSPost2010PropOp50
 70
     1
102
RTVSPost2010Prop51ColorIndex
 90
      256
102
RTVSPost2010Prop51ColorRGB
 90
-16777216
102
RTVSPost2010PropOp51
 70
     0
102
RTVSPost2010Prop52
140
1.0
102
RTVSPost2010PropOp52
 70
     0
102
RTVSPost2010Prop53
 90
        2
102
RTVSPost2010PropOp53
 70
     1
102
RTVSPost2010Prop54
  1
strokes_ogs.tif
102
RTVSPost2010PropOp54
 70
     1
102
RTVSPost2010Prop55
280
     0
102
RTVSPost2010PropOp55
 70
     1
102
RTVSPost2010Prop56
140
1.0
102
RTVSPost2010PropOp56
 70
     1
102
RTVSPost2010Prop57
140
1.0
102
RTVSPost2010PropOp57
 70
     1
102
RTVSPropertyOp0
 70
     1
102
RTVSPropertyOp1
 70
     1
102
RTVSPropertyOp2
 70
     1
102
RTVSPropertyOp3
 70
     1
102
RTVSPropertyOp4
 70
     1
102
RTVSPropertyOp5
 70
     1
102
RTVSPropertyOp6
 70
     1
102
RTVSPropertyOp7
 70
     1
102
RTVSPropertyOp8
 70
     1
102
RTVSPropertyOp9
 70
     1
102
RTVSPropertyOp10
 70
     1
102
RTVSPropertyOp11
 70
     1
102
RTVSPropertyOp12
 70
     1
102
RTVSPropertyOp13
 70
     1
102
RTVSPropertyOp14
 70
     1
102
RTVSPropertyOp15
 70
     1
102
RTVSPropertyOp16
 70
     1
102
RTVSPropertyOp17
 70
     1
102
RTVSPropertyOp18
 70
     1
102
RTVSPropertyOp19
 70
     1
102
RTVSPropertyOp20
 70
     1
102
RTVSPropertyOp21
 70
     1
102
RTVSPropertyOp22
 70
     1
102
RTVSPropertyOp23
 70
     1
102
RTVSPropertyOp24
 70
     1
102
RTVSPropertyOp25
 70
     1
102
RTVSPropertyOp26
 70
     1
102
RTVSPropertyOp27
 70
     1
102
RTVSPropertyOp28
 70
     1
102
RTVSPropertyOp29
 70
     1
102
RTVSPropertyOp30
 70
     1
102
RTVSPropertyOp31
 70
     1
102
RTVSPropertyOp32
 70
     1
102
RTVSPropertyOp33
 70
     1
102
RTVSPropertyOp34
 70
     1
102
RTVSPropertyOp35
 70
     1
102
RTVSPropertyOp36
 70
     1
102
RTVSPropertyOp37
 70
     1
102
RTVSPropertyOp38
 70
     1
102
RTVSPropertyOp39
 70
     1
102
RTVSPropertyOp40
 70
     1
102
RTVSPropertyOp41
 70
     1
102
RTVSPropertyOp42
 70
     1
102
RTVSPropertyOp43
 70
     1
102
RTVSPropertyOp44
 70
     1
102
RTVSPropertyOp45
 70
     1
102
RTVSPropertyOp46
 70
     1
102
RTVSPropertyOp47
 70
     1
102
RTVSPropertyOp48
 70
     1
102
RTVSPropertyOp49
 70
     1
102
RTVSPropertyOp50
 70
     1
102
RTVSPropertyOp51
 70
     0
102
RTVSPropertyOp52
 70
     0
102
RTVSPropertyOp53
 70
     1
102
RTVSPropertyOp54
 70
     1
102
RTVSPropertyOp55
 70
     1
102
RTVSPropertyOp56
 70
     1
102
RTVSPropertyOp57
 70
     1
102
RTVSPropertyOp58
 70
     1
102
RTVSPropertyOp59
 70
     1
102
RTVSPropertyOp60
 70
     1
102
RTVSPropertyOp61
 70
     1
102
RTVSPropertyOp62
 70
     1
  0
XRECORD
  5
481
102
{ACAD_REACTORS
330
480
102
}
330
480
100
AcDbXrecord
280
     1
102
RTVSPost2010Prop28
280
     0
102
RTVSPost2010PropOp28
 70
     1
102
RTVSPost2010Prop29
280
     1
102
RTVSPost2010PropOp29
 70
     1
102
RTVSPost2010Prop30
280
     1
102
RTVSPost2010PropOp30
 70
     1
102
RTVSPost2010Prop31
280
     0
102
RTVSPost2010PropOp31
 70
     1
102
RTVSPost2010Prop32
280
     0
102
RTVSPost2010PropOp32
 70
     1
102
RTVSPost2010Prop33
280
     0
102
RTVSPost2010PropOp33
 70
     1
102
RTVSPost2010Prop34
280
     0
102
RTVSPost2010PropOp34
 70
     1
102
RTVSPost2010Prop35
280
     0
102
RTVSPost2010PropOp35
 70
     1
102
RTVSPost2010Prop36
280
     0
102
RTVSPost2010PropOp36
 70
     1
102
RTVSPost2010Prop37
 90
       50
102
RTVSPost2010PropOp37
 70
     1
102
RTVSPost2010Prop38
140
0.0
102
RTVSPost2010PropOp38
 70
     1
102
RTVSPost2010Prop39
140
1.0
102
RTVSPost2010PropOp39
 70
     1
102
RTVSPost2010Prop40
 90
        0
102
RTVSPost2010PropOp40
 70
     1
102
RTVSPost2010Prop41ColorIndex
 90
       18
102
RTVSPost2010Prop41ColorRGB
 90
        0
102
RTVSPost2010PropOp41
 70
     1
102
RTVSPost2010Prop42
 90
       50
102
RTVSPost2010PropOp42
 70
     1
102
RTVSPost2010Prop43
 90
        3
102
RTVSPost2010PropOp43
 70
     1
102
RTVSPost2010Prop44ColorIndex
 90
        5
102
RTVSPost2010Prop44ColorRGB
 90
      255
102
RTVSPost2010PropOp44
 70
     1
102
RTVSPost2010Prop45
280
     0
102
RTVSPost2010PropOp45
 70
     1
102
RTVSPost2010Prop46
 90
       50
102
RTVSPost2010PropOp46
 70
     1
102
RTVSPost2010Prop47
 90
       50
102
RTVSPost2010PropOp47
 70
     1
102
RTVSPost2010Prop48
 90
       50
102
RTVSPost2010PropOp48
 70
     1
102
RTVSPost2010Prop49
280
     0
102
RTVSPost2010PropOp49
 70
     1
102
RTVSPost2010Prop50
 90
       50
102
RTVSPost2010PropOp50
 70
     1
102
RTVSPost2010Prop51ColorIndex
 90
      256
102
RTVSPost2010Prop51ColorRGB
 90
-16777216
102
RTVSPost2010PropOp51
 70
     0
102
RTVSPost2010Prop52
140
1.0
102
RTVSPost2010PropOp52
 70
     0
102
RTVSPost2010Prop53
 90
        2
102
RTVSPost2010PropOp53
 70
     1
102
RTVSPost2010Prop54
  1
strokes_ogs.tif
102
RTVSPost2010PropOp54
 70
     1
102
RTVSPost2010Prop55
280
     0
102
RTVSPost2010PropOp55
 70
     1
102
RTVSPost2010Prop56
140
1.0
102
RTVSPost2010PropOp56
 70
     1
102
RTVSPost2010Prop57
140
1.0
102
RTVSPost2010PropOp57
 70
     1
102
RTVSPropertyOp0
 70
     1
102
RTVSPropertyOp1
 70
     1
102
RTVSPropertyOp2
 70
     1
102
RTVSPropertyOp3
 70
     1
102
RTVSPropertyOp4
 70
     1
102
RTVSPropertyOp5
 70
     1
102
RTVSPropertyOp6
 70
     1
102
RTVSPropertyOp7
 70
     1
102
RTVSPropertyOp8
 70
     1
102
RTVSPropertyOp9
 70
     1
102
RTVSPropertyOp10
 70
     1
102
RTVSPropertyOp11
 70
     1
102
RTVSPropertyOp12
 70
     1
102
RTVSPropertyOp13
 70
     1
102
RTVSPropertyOp14
 70
     1
102
RTVSPropertyOp15
 70
     1
102
RTVSPropertyOp16
 70
     1
102
RTVSPropertyOp17
 70
     1
102
RTVSPropertyOp18
 70
     1
102
RTVSPropertyOp19
 70
     1
102
RTVSPropertyOp20
 70
     1
102
RTVSPropertyOp21
 70
     1
102
RTVSPropertyOp22
 70
     1
102
RTVSPropertyOp23
 70
     1
102
RTVSPropertyOp24
 70
     1
102
RTVSPropertyOp25
 70
     1
102
RTVSPropertyOp26
 70
     1
102
RTVSPropertyOp27
 70
     1
102
RTVSPropertyOp28
 70
     1
102
RTVSPropertyOp29
 70
     1
102
RTVSPropertyOp30
 70
     1
102
RTVSPropertyOp31
 70
     1
102
RTVSPropertyOp32
 70
     1
102
RTVSPropertyOp33
 70
     1
102
RTVSPropertyOp34
 70
     1
102
RTVSPropertyOp35
 70
     1
102
RTVSPropertyOp36
 70
     1
102
RTVSPropertyOp37
 70
     1
102
RTVSPropertyOp38
 70
     1
102
RTVSPropertyOp39
 70
     1
102
RTVSPropertyOp40
 70
     1
102
RTVSPropertyOp41
 70
     1
102
RTVSPropertyOp42
 70
     1
102
RTVSPropertyOp43
 70
     1
102
RTVSPropertyOp44
 70
     1
102
RTVSPropertyOp45
 70
     1
102
RTVSPropertyOp46
 70
     1
102
RTVSPropertyOp47
 70
     1
102
RTVSPropertyOp48
 70
     1
102
RTVSPropertyOp49
 70
     1
102
RTVSPropertyOp50
 70
     1
102
RTVSPropertyOp51
 70
     0
102
RTVSPropertyOp52
 70
     0
102
RTVSPropertyOp53
 70
     1
102
RTVSPropertyOp54
 70
     1
102
RTVSPropertyOp55
 70
     1
102
RTVSPropertyOp56
 70
     1
102
RTVSPropertyOp57
 70
     1
102
RTVSPropertyOp58
 70
     1
102
RTVSPropertyOp59
 70
     1
102
RTVSPropertyOp60
 70
     1
102
RTVSPropertyOp61
 70
     1
102
RTVSPropertyOp62
 70
     1
  0
XRECORD
  5
485
102
{ACAD_REACTORS
330
484
102
}
330
484
100
AcDbXrecord
280
     1
102
RTVSPost2010Prop28
280
     0
102
RTVSPost2010PropOp28
 70
     1
102
RTVSPost2010Prop29
280
     1
102
RTVSPost2010PropOp29
 70
     1
102
RTVSPost2010Prop30
280
     1
102
RTVSPost2010PropOp30
 70
     1
102
RTVSPost2010Prop31
280
     0
102
RTVSPost2010PropOp31
 70
     1
102
RTVSPost2010Prop32
280
     0
102
RTVSPost2010PropOp32
 70
     1
102
RTVSPost2010Prop33
280
     0
102
RTVSPost2010PropOp33
 70
     1
102
RTVSPost2010Prop34
280
     0
102
RTVSPost2010PropOp34
 70
     1
102
RTVSPost2010Prop35
280
     0
102
RTVSPost2010PropOp35
 70
     1
102
RTVSPost2010Prop36
280
     0
102
RTVSPost2010PropOp36
 70
     1
102
RTVSPost2010Prop37
 90
       50
102
RTVSPost2010PropOp37
 70
     1
102
RTVSPost2010Prop38
140
0.0
102
RTVSPost2010PropOp38
 70
     1
102
RTVSPost2010Prop39
140
1.0
102
RTVSPost2010PropOp39
 70
     1
102
RTVSPost2010Prop40
 90
        0
102
RTVSPost2010PropOp40
 70
     1
102
RTVSPost2010Prop41ColorIndex
 90
       18
102
RTVSPost2010Prop41ColorRGB
 90
        0
102
RTVSPost2010PropOp41
 70
     1
102
RTVSPost2010Prop42
 90
       50
102
RTVSPost2010PropOp42
 70
     1
102
RTVSPost2010Prop43
 90
        3
102
RTVSPost2010PropOp43
 70
     1
102
RTVSPost2010Prop44ColorIndex
 90
        5
102
RTVSPost2010Prop44ColorRGB
 90
      255
102
RTVSPost2010PropOp44
 70
     1
102
RTVSPost2010Prop45
280
     0
102
RTVSPost2010PropOp45
 70
     1
102
RTVSPost2010Prop46
 90
       50
102
RTVSPost2010PropOp46
 70
     1
102
RTVSPost2010Prop47
 90
       50
102
RTVSPost2010PropOp47
 70
     1
102
RTVSPost2010Prop48
 90
       50
102
RTVSPost2010PropOp48
 70
     1
102
RTVSPost2010Prop49
280
     0
102
RTVSPost2010PropOp49
 70
     1
102
RTVSPost2010Prop50
 90
       50
102
RTVSPost2010PropOp50
 70
     1
102
RTVSPost2010Prop51ColorIndex
 90
      256
102
RTVSPost2010Prop51ColorRGB
 90
-16777216
102
RTVSPost2010PropOp51
 70
     0
102
RTVSPost2010Prop52
140
1.0
102
RTVSPost2010PropOp52
 70
     0
102
RTVSPost2010Prop53
 90
        2
102
RTVSPost2010PropOp53
 70
     1
102
RTVSPost2010Prop54
  1
strokes_ogs.tif
102
RTVSPost2010PropOp54
 70
     1
102
RTVSPost2010Prop55
280
     0
102
RTVSPost2010PropOp55
 70
     1
102
RTVSPost2010Prop56
140
1.0
102
RTVSPost2010PropOp56
 70
     1
102
RTVSPost2010Prop57
140
1.0
102
RTVSPost2010PropOp57
 70
     1
102
RTVSPropertyOp0
 70
     1
102
RTVSPropertyOp1
 70
     1
102
RTVSPropertyOp2
 70
     1
102
RTVSPropertyOp3
 70
     1
102
RTVSPropertyOp4
 70
     1
102
RTVSPropertyOp5
 70
     1
102
RTVSPropertyOp6
 70
     1
102
RTVSPropertyOp7
 70
     1
102
RTVSPropertyOp8
 70
     1
102
RTVSPropertyOp9
 70
     1
102
RTVSPropertyOp10
 70
     1
102
RTVSPropertyOp11
 70
     1
102
RTVSPropertyOp12
 70
     1
102
RTVSPropertyOp13
 70
     1
102
RTVSPropertyOp14
 70
     1
102
RTVSPropertyOp15
 70
     1
102
RTVSPropertyOp16
 70
     1
102
RTVSPropertyOp17
 70
     1
102
RTVSPropertyOp18
 70
     1
102
RTVSPropertyOp19
 70
     1
102
RTVSPropertyOp20
 70
     1
102
RTVSPropertyOp21
 70
     1
102
RTVSPropertyOp22
 70
     1
102
RTVSPropertyOp23
 70
     1
102
RTVSPropertyOp24
 70
     1
102
RTVSPropertyOp25
 70
     1
102
RTVSPropertyOp26
 70
     1
102
RTVSPropertyOp27
 70
     1
102
RTVSPropertyOp28
 70
     1
102
RTVSPropertyOp29
 70
     1
102
RTVSPropertyOp30
 70
     1
102
RTVSPropertyOp31
 70
     1
102
RTVSPropertyOp32
 70
     1
102
RTVSPropertyOp33
 70
     1
102
RTVSPropertyOp34
 70
     1
102
RTVSPropertyOp35
 70
     1
102
RTVSPropertyOp36
 70
     1
102
RTVSPropertyOp37
 70
     1
102
RTVSPropertyOp38
 70
     1
102
RTVSPropertyOp39
 70
     1
102
RTVSPropertyOp40
 70
     1
102
RTVSPropertyOp41
 70
     1
102
RTVSPropertyOp42
 70
     1
102
RTVSPropertyOp43
 70
     1
102
RTVSPropertyOp44
 70
     1
102
RTVSPropertyOp45
 70
     1
102
RTVSPropertyOp46
 70
     1
102
RTVSPropertyOp47
 70
     1
102
RTVSPropertyOp48
 70
     1
102
RTVSPropertyOp49
 70
     1
102
RTVSPropertyOp50
 70
     1
102
RTVSPropertyOp51
 70
     0
102
RTVSPropertyOp52
 70
     0
102
RTVSPropertyOp53
 70
     1
102
RTVSPropertyOp54
 70
     1
102
RTVSPropertyOp55
 70
     1
102
RTVSPropertyOp56
 70
     1
102
RTVSPropertyOp57
 70
     1
102
RTVSPropertyOp58
 70
     1
102
RTVSPropertyOp59
 70
     1
102
RTVSPropertyOp60
 70
     1
102
RTVSPropertyOp61
 70
     1
102
RTVSPropertyOp62
 70
     1
  0
XRECORD
  5
49F
102
{ACAD_REACTORS
330
49E
102
}
330
49E
100
AcDbXrecord
280
     1
102
RTVSPost2010Prop28
280
     0
102
RTVSPost2010PropOp28
 70
     1
102
RTVSPost2010Prop29
280
     1
102
RTVSPost2010PropOp29
 70
     1
102
RTVSPost2010Prop30
280
     1
102
RTVSPost2010PropOp30
 70
     1
102
RTVSPost2010Prop31
280
     0
102
RTVSPost2010PropOp31
 70
     1
102
RTVSPost2010Prop32
280
     0
102
RTVSPost2010PropOp32
 70
     1
102
RTVSPost2010Prop33
280
     0
102
RTVSPost2010PropOp33
 70
     1
102
RTVSPost2010Prop34
280
     0
102
RTVSPost2010PropOp34
 70
     1
102
RTVSPost2010Prop35
280
     0
102
RTVSPost2010PropOp35
 70
     1
102
RTVSPost2010Prop36
280
     0
102
RTVSPost2010PropOp36
 70
     1
102
RTVSPost2010Prop37
 90
       50
102
RTVSPost2010PropOp37
 70
     0
102
RTVSPost2010Prop38
140
0.0
102
RTVSPost2010PropOp38
 70
     0
102
RTVSPost2010Prop39
140
1.0
102
RTVSPost2010PropOp39
 70
     0
102
RTVSPost2010Prop40
 90
        0
102
RTVSPost2010PropOp40
 70
     0
102
RTVSPost2010Prop41ColorIndex
 90
       18
102
RTVSPost2010Prop41ColorRGB
 90
        0
102
RTVSPost2010PropOp41
 70
     0
102
RTVSPost2010Prop42
 90
       50
102
RTVSPost2010PropOp42
 70
     0
102
RTVSPost2010Prop43
 90
        3
102
RTVSPost2010PropOp43
 70
     0
102
RTVSPost2010Prop44ColorIndex
 90
        5
102
RTVSPost2010Prop44ColorRGB
 90
      255
102
RTVSPost2010PropOp44
 70
     0
102
RTVSPost2010Prop45
280
     0
102
RTVSPost2010PropOp45
 70
     1
102
RTVSPost2010Prop46
 90
       50
102
RTVSPost2010PropOp46
 70
     0
102
RTVSPost2010Prop47
 90
       50
102
RTVSPost2010PropOp47
 70
     0
102
RTVSPost2010Prop48
 90
       50
102
RTVSPost2010PropOp48
 70
     0
102
RTVSPost2010Prop49
280
     0
102
RTVSPost2010PropOp49
 70
     1
102
RTVSPost2010Prop50
 90
       50
102
RTVSPost2010PropOp50
 70
     0
102
RTVSPost2010Prop51ColorIndex
 90
      256
102
RTVSPost2010Prop51ColorRGB
 90
-16777216
102
RTVSPost2010PropOp51
 70
     0
102
RTVSPost2010Prop52
140
1.0
102
RTVSPost2010PropOp52
 70
     0
102
RTVSPost2010Prop53
 90
        2
102
RTVSPost2010PropOp53
 70
     0
102
RTVSPost2010Prop54
  1
strokes_ogs.tif
102
RTVSPost2010PropOp54
 70
     0
102
RTVSPost2010Prop55
280
     0
102
RTVSPost2010PropOp55
 70
     1
102
RTVSPost2010Prop56
140
1.0
102
RTVSPost2010PropOp56
 70
     0
102
RTVSPost2010Prop57
140
1.0
102
RTVSPost2010PropOp57
 70
     0
102
RTVSPropertyOp0
 70
     0
102
RTVSPropertyOp1
 70
     0
102
RTVSPropertyOp2
 70
     0
102
RTVSPropertyOp3
 70
     0
102
RTVSPropertyOp4
 70
     0
102
RTVSPropertyOp5
 70
     0
102
RTVSPropertyOp6
 70
     0
102
RTVSPropertyOp7
 70
     0
102
RTVSPropertyOp8
 70
     0
102
RTVSPropertyOp9
 70
     0
102
RTVSPropertyOp10
 70
     0
102
RTVSPropertyOp11
 70
     0
102
RTVSPropertyOp12
 70
     0
102
RTVSPropertyOp13
 70
     0
102
RTVSPropertyOp14
 70
     2
102
RTVSPropertyOp15
 70
     0
102
RTVSPropertyOp16
 70
     0
102
RTVSPropertyOp17
 70
     0
102
RTVSPropertyOp18
 70
     0
102
RTVSPropertyOp19
 70
     0
102
RTVSPropertyOp20
 70
     0
102
RTVSPropertyOp21
 70
     0
102
RTVSPropertyOp22
 70
     0
102
RTVSPropertyOp23
 70
     0
102
RTVSPropertyOp24
 70
     0
102
RTVSPropertyOp25
 70
     0
102
RTVSPropertyOp26
 70
     0
102
RTVSPropertyOp27
 70
     0
102
RTVSPropertyOp28
 70
     1
102
RTVSPropertyOp29
 70
     1
102
RTVSPropertyOp30
 70
     1
102
RTVSPropertyOp31
 70
     1
102
RTVSPropertyOp32
 70
     1
102
RTVSPropertyOp33
 70
     1
102
RTVSPropertyOp34
 70
     1
102
RTVSPropertyOp35
 70
     1
102
RTVSPropertyOp36
 70
     1
102
RTVSPropertyOp37
 70
     0
102
RTVSPropertyOp38
 70
     0
102
RTVSPropertyOp39
 70
     0
102
RTVSPropertyOp40
 70
     0
102
RTVSPropertyOp41
 70
     0
102
RTVSPropertyOp42
 70
     0
102
RTVSPropertyOp43
 70
     0
102
RTVSPropertyOp44
 70
     0
102
RTVSPropertyOp45
 70
     1
102
RTVSPropertyOp46
 70
     0
102
RTVSPropertyOp47
 70
     0
102
RTVSPropertyOp48
 70
     0
102
RTVSPropertyOp49
 70
     1
102
RTVSPropertyOp50
 70
     0
102
RTVSPropertyOp51
 70
     0
102
RTVSPropertyOp52
 70
     0
102
RTVSPropertyOp53
 70
     0
102
RTVSPropertyOp54
 70
     0
102
RTVSPropertyOp55
 70
     1
102
RTVSPropertyOp56
 70
     0
102
RTVSPropertyOp57
 70
     0
102
RTVSPropertyOp58
 70
     0
102
RTVSPropertyOp59
 70
     0
102
RTVSPropertyOp60
 70
     0
102
RTVSPropertyOp61
 70
     0
102
RTVSPropertyOp62
 70
     0
  0
XRECORD
  5
48D
102
{ACAD_REACTORS
330
48C
102
}
330
48C
100
AcDbXrecord
280
     1
102
RTVSPost2010Prop28
280
     0
102
RTVSPost2010PropOp28
 70
     1
102
RTVSPost2010Prop29
280
     1
102
RTVSPost2010PropOp29
 70
     1
102
RTVSPost2010Prop30
280
     1
102
RTVSPost2010PropOp30
 70
     1
102
RTVSPost2010Prop31
280
     0
102
RTVSPost2010PropOp31
 70
     1
102
RTVSPost2010Prop32
280
     0
102
RTVSPost2010PropOp32
 70
     1
102
RTVSPost2010Prop33
280
     0
102
RTVSPost2010PropOp33
 70
     1
102
RTVSPost2010Prop34
280
     0
102
RTVSPost2010PropOp34
 70
     1
102
RTVSPost2010Prop35
280
     0
102
RTVSPost2010PropOp35
 70
     1
102
RTVSPost2010Prop36
280
     0
102
RTVSPost2010PropOp36
 70
     1
102
RTVSPost2010Prop37
 90
       50
102
RTVSPost2010PropOp37
 70
     1
102
RTVSPost2010Prop38
140
0.0
102
RTVSPost2010PropOp38
 70
     1
102
RTVSPost2010Prop39
140
1.0
102
RTVSPost2010PropOp39
 70
     1
102
RTVSPost2010Prop40
 90
        0
102
RTVSPost2010PropOp40
 70
     1
102
RTVSPost2010Prop41ColorIndex
 90
       18
102
RTVSPost2010Prop41ColorRGB
 90
        0
102
RTVSPost2010PropOp41
 70
     1
102
RTVSPost2010Prop42
 90
       50
102
RTVSPost2010PropOp42
 70
     1
102
RTVSPost2010Prop43
 90
        3
102
RTVSPost2010PropOp43
 70
     1
102
RTVSPost2010Prop44ColorIndex
 90
        5
102
RTVSPost2010Prop44ColorRGB
 90
      255
102
RTVSPost2010PropOp44
 70
     1
102
RTVSPost2010Prop45
280
     0
102
RTVSPost2010PropOp45
 70
     1
102
RTVSPost2010Prop46
 90
       50
102
RTVSPost2010PropOp46
 70
     1
102
RTVSPost2010Prop47
 90
       50
102
RTVSPost2010PropOp47
 70
     1
102
RTVSPost2010Prop48
 90
       50
102
RTVSPost2010PropOp48
 70
     1
102
RTVSPost2010Prop49
280
     0
102
RTVSPost2010PropOp49
 70
     1
102
RTVSPost2010Prop50
 90
       50
102
RTVSPost2010PropOp50
 70
     1
102
RTVSPost2010Prop51ColorIndex
 90
      256
102
RTVSPost2010Prop51ColorRGB
 90
-16777216
102
RTVSPost2010PropOp51
 70
     0
102
RTVSPost2010Prop52
140
1.0
102
RTVSPost2010PropOp52
 70
     0
102
RTVSPost2010Prop53
 90
        2
102
RTVSPost2010PropOp53
 70
     1
102
RTVSPost2010Prop54
  1
strokes_ogs.tif
102
RTVSPost2010PropOp54
 70
     1
102
RTVSPost2010Prop55
280
     0
102
RTVSPost2010PropOp55
 70
     1
102
RTVSPost2010Prop56
140
1.0
102
RTVSPost2010PropOp56
 70
     1
102
RTVSPost2010Prop57
140
1.0
102
RTVSPost2010PropOp57
 70
     1
102
RTVSPropertyOp0
 70
     1
102
RTVSPropertyOp1
 70
     1
102
RTVSPropertyOp2
 70
     1
102
RTVSPropertyOp3
 70
     1
102
RTVSPropertyOp4
 70
     1
102
RTVSPropertyOp5
 70
     1
102
RTVSPropertyOp6
 70
     1
102
RTVSPropertyOp7
 70
     1
102
RTVSPropertyOp8
 70
     1
102
RTVSPropertyOp9
 70
     1
102
RTVSPropertyOp10
 70
     1
102
RTVSPropertyOp11
 70
     1
102
RTVSPropertyOp12
 70
     1
102
RTVSPropertyOp13
 70
     1
102
RTVSPropertyOp14
 70
     1
102
RTVSPropertyOp15
 70
     1
102
RTVSPropertyOp16
 70
     1
102
RTVSPropertyOp17
 70
     1
102
RTVSPropertyOp18
 70
     1
102
RTVSPropertyOp19
 70
     1
102
RTVSPropertyOp20
 70
     1
102
RTVSPropertyOp21
 70
     1
102
RTVSPropertyOp22
 70
     1
102
RTVSPropertyOp23
 70
     1
102
RTVSPropertyOp24
 70
     1
102
RTVSPropertyOp25
 70
     1
102
RTVSPropertyOp26
 70
     1
102
RTVSPropertyOp27
 70
     1
102
RTVSPropertyOp28
 70
     1
102
RTVSPropertyOp29
 70
     1
102
RTVSPropertyOp30
 70
     1
102
RTVSPropertyOp31
 70
     1
102
RTVSPropertyOp32
 70
     1
102
RTVSPropertyOp33
 70
     1
102
RTVSPropertyOp34
 70
     1
102
RTVSPropertyOp35
 70
     1
102
RTVSPropertyOp36
 70
     1
102
RTVSPropertyOp37
 70
     1
102
RTVSPropertyOp38
 70
     1
102
RTVSPropertyOp39
 70
     1
102
RTVSPropertyOp40
 70
     1
102
RTVSPropertyOp41
 70
     1
102
RTVSPropertyOp42
 70
     1
102
RTVSPropertyOp43
 70
     1
102
RTVSPropertyOp44
 70
     1
102
RTVSPropertyOp45
 70
     1
102
RTVSPropertyOp46
 70
     1
102
RTVSPropertyOp47
 70
     1
102
RTVSPropertyOp48
 70
     1
102
RTVSPropertyOp49
 70
     1
102
RTVSPropertyOp50
 70
     1
102
RTVSPropertyOp51
 70
     0
102
RTVSPropertyOp52
 70
     0
102
RTVSPropertyOp53
 70
     1
102
RTVSPropertyOp54
 70
     1
102
RTVSPropertyOp55
 70
     1
102
RTVSPropertyOp56
 70
     1
102
RTVSPropertyOp57
 70
     1
102
RTVSPropertyOp58
 70
     1
102
RTVSPropertyOp59
 70
     1
102
RTVSPropertyOp60
 70
     1
102
RTVSPropertyOp61
 70
     1
102
RTVSPropertyOp62
 70
     1
  0
XRECORD
  5
471
102
{ACAD_REACTORS
330
470
102
}
330
470
100
AcDbXrecord
280
     1
102
RTVSPost2010Prop28
280
     0
102
RTVSPost2010PropOp28
 70
     1
102
RTVSPost2010Prop29
280
     1
102
RTVSPost2010PropOp29
 70
     1
102
RTVSPost2010Prop30
280
     1
102
RTVSPost2010PropOp30
 70
     1
102
RTVSPost2010Prop31
280
     0
102
RTVSPost2010PropOp31
 70
     1
102
RTVSPost2010Prop32
280
     0
102
RTVSPost2010PropOp32
 70
     1
102
RTVSPost2010Prop33
280
     0
102
RTVSPost2010PropOp33
 70
     1
102
RTVSPost2010Prop34
280
     0
102
RTVSPost2010PropOp34
 70
     1
102
RTVSPost2010Prop35
280
     0
102
RTVSPost2010PropOp35
 70
     1
102
RTVSPost2010Prop36
280
     0
102
RTVSPost2010PropOp36
 70
     1
102
RTVSPost2010Prop37
 90
       50
102
RTVSPost2010PropOp37
 70
     1
102
RTVSPost2010Prop38
140
0.0
102
RTVSPost2010PropOp38
 70
     1
102
RTVSPost2010Prop39
140
1.0
102
RTVSPost2010PropOp39
 70
     1
102
RTVSPost2010Prop40
 90
        0
102
RTVSPost2010PropOp40
 70
     1
102
RTVSPost2010Prop41ColorIndex
 90
       18
102
RTVSPost2010Prop41ColorRGB
 90
        0
102
RTVSPost2010PropOp41
 70
     1
102
RTVSPost2010Prop42
 90
       50
102
RTVSPost2010PropOp42
 70
     1
102
RTVSPost2010Prop43
 90
        3
102
RTVSPost2010PropOp43
 70
     1
102
RTVSPost2010Prop44ColorIndex
 90
        5
102
RTVSPost2010Prop44ColorRGB
 90
      255
102
RTVSPost2010PropOp44
 70
     1
102
RTVSPost2010Prop45
280
     0
102
RTVSPost2010PropOp45
 70
     1
102
RTVSPost2010Prop46
 90
       50
102
RTVSPost2010PropOp46
 70
     1
102
RTVSPost2010Prop47
 90
       50
102
RTVSPost2010PropOp47
 70
     1
102
RTVSPost2010Prop48
 90
       50
102
RTVSPost2010PropOp48
 70
     1
102
RTVSPost2010Prop49
280
     0
102
RTVSPost2010PropOp49
 70
     1
102
RTVSPost2010Prop50
 90
       50
102
RTVSPost2010PropOp50
 70
     1
102
RTVSPost2010Prop51ColorIndex
 90
      256
102
RTVSPost2010Prop51ColorRGB
 90
-16777216
102
RTVSPost2010PropOp51
 70
     0
102
RTVSPost2010Prop52
140
1.0
102
RTVSPost2010PropOp52
 70
     0
102
RTVSPost2010Prop53
 90
        2
102
RTVSPost2010PropOp53
 70
     1
102
RTVSPost2010Prop54
  1
strokes_ogs.tif
102
RTVSPost2010PropOp54
 70
     1
102
RTVSPost2010Prop55
280
     0
102
RTVSPost2010PropOp55
 70
     1
102
RTVSPost2010Prop56
140
1.0
102
RTVSPost2010PropOp56
 70
     1
102
RTVSPost2010Prop57
140
1.0
102
RTVSPost2010PropOp57
 70
     1
102
RTVSPropertyOp0
 70
     1
102
RTVSPropertyOp1
 70
     1
102
RTVSPropertyOp2
 70
     1
102
RTVSPropertyOp3
 70
     1
102
RTVSPropertyOp4
 70
     1
102
RTVSPropertyOp5
 70
     1
102
RTVSPropertyOp6
 70
     1
102
RTVSPropertyOp7
 70
     1
102
RTVSPropertyOp8
 70
     1
102
RTVSPropertyOp9
 70
     1
102
RTVSPropertyOp10
 70
     1
102
RTVSPropertyOp11
 70
     1
102
RTVSPropertyOp12
 70
     1
102
RTVSPropertyOp13
 70
     1
102
RTVSPropertyOp14
 70
     1
102
RTVSPropertyOp15
 70
     1
102
RTVSPropertyOp16
 70
     1
102
RTVSPropertyOp17
 70
     1
102
RTVSPropertyOp18
 70
     1
102
RTVSPropertyOp19
 70
     1
102
RTVSPropertyOp20
 70
     1
102
RTVSPropertyOp21
 70
     1
102
RTVSPropertyOp22
 70
     1
102
RTVSPropertyOp23
 70
     1
102
RTVSPropertyOp24
 70
     1
102
RTVSPropertyOp25
 70
     1
102
RTVSPropertyOp26
 70
     1
102
RTVSPropertyOp27
 70
     1
102
RTVSPropertyOp28
 70
     1
102
RTVSPropertyOp29
 70
     1
102
RTVSPropertyOp30
 70
     1
102
RTVSPropertyOp31
 70
     1
102
RTVSPropertyOp32
 70
     1
102
RTVSPropertyOp33
 70
     1
102
RTVSPropertyOp34
 70
     1
102
RTVSPropertyOp35
 70
     1
102
RTVSPropertyOp36
 70
     1
102
RTVSPropertyOp37
 70
     1
102
RTVSPropertyOp38
 70
     1
102
RTVSPropertyOp39
 70
     1
102
RTVSPropertyOp40
 70
     1
102
RTVSPropertyOp41
 70
     1
102
RTVSPropertyOp42
 70
     1
102
RTVSPropertyOp43
 70
     1
102
RTVSPropertyOp44
 70
     1
102
RTVSPropertyOp45
 70
     1
102
RTVSPropertyOp46
 70
     1
102
RTVSPropertyOp47
 70
     1
102
RTVSPropertyOp48
 70
     1
102
RTVSPropertyOp49
 70
     1
102
RTVSPropertyOp50
 70
     1
102
RTVSPropertyOp51
 70
     0
102
RTVSPropertyOp52
 70
     0
102
RTVSPropertyOp53
 70
     1
102
RTVSPropertyOp54
 70
     1
102
RTVSPropertyOp55
 70
     1
102
RTVSPropertyOp56
 70
     1
102
RTVSPropertyOp57
 70
     1
102
RTVSPropertyOp58
 70
     1
102
RTVSPropertyOp59
 70
     1
102
RTVSPropertyOp60
 70
     1
102
RTVSPropertyOp61
 70
     1
102
RTVSPropertyOp62
 70
     1
  0
XRECORD
  5
473
102
{ACAD_REACTORS
330
472
102
}
330
472
100
AcDbXrecord
280
     1
102
RTVSPost2010Prop28
280
     0
102
RTVSPost2010PropOp28
 70
     1
102
RTVSPost2010Prop29
280
     1
102
RTVSPost2010PropOp29
 70
     1
102
RTVSPost2010Prop30
280
     1
102
RTVSPost2010PropOp30
 70
     1
102
RTVSPost2010Prop31
280
     0
102
RTVSPost2010PropOp31
 70
     1
102
RTVSPost2010Prop32
280
     0
102
RTVSPost2010PropOp32
 70
     1
102
RTVSPost2010Prop33
280
     0
102
RTVSPost2010PropOp33
 70
     1
102
RTVSPost2010Prop34
280
     0
102
RTVSPost2010PropOp34
 70
     1
102
RTVSPost2010Prop35
280
     0
102
RTVSPost2010PropOp35
 70
     1
102
RTVSPost2010Prop36
280
     0
102
RTVSPost2010PropOp36
 70
     1
102
RTVSPost2010Prop37
 90
       50
102
RTVSPost2010PropOp37
 70
     1
102
RTVSPost2010Prop38
140
0.0
102
RTVSPost2010PropOp38
 70
     1
102
RTVSPost2010Prop39
140
1.0
102
RTVSPost2010PropOp39
 70
     1
102
RTVSPost2010Prop40
 90
        0
102
RTVSPost2010PropOp40
 70
     1
102
RTVSPost2010Prop41ColorIndex
 90
       18
102
RTVSPost2010Prop41ColorRGB
 90
        0
102
RTVSPost2010PropOp41
 70
     1
102
RTVSPost2010Prop42
 90
       50
102
RTVSPost2010PropOp42
 70
     1
102
RTVSPost2010Prop43
 90
        3
102
RTVSPost2010PropOp43
 70
     1
102
RTVSPost2010Prop44ColorIndex
 90
        5
102
RTVSPost2010Prop44ColorRGB
 90
      255
102
RTVSPost2010PropOp44
 70
     1
102
RTVSPost2010Prop45
280
     0
102
RTVSPost2010PropOp45
 70
     1
102
RTVSPost2010Prop46
 90
       50
102
RTVSPost2010PropOp46
 70
     1
102
RTVSPost2010Prop47
 90
       50
102
RTVSPost2010PropOp47
 70
     1
102
RTVSPost2010Prop48
 90
       50
102
RTVSPost2010PropOp48
 70
     1
102
RTVSPost2010Prop49
280
     0
102
RTVSPost2010PropOp49
 70
     1
102
RTVSPost2010Prop50
 90
       50
102
RTVSPost2010PropOp50
 70
     1
102
RTVSPost2010Prop51ColorIndex
 90
      256
102
RTVSPost2010Prop51ColorRGB
 90
-16777216
102
RTVSPost2010PropOp51
 70
     0
102
RTVSPost2010Prop52
140
1.0
102
RTVSPost2010PropOp52
 70
     0
102
RTVSPost2010Prop53
 90
        2
102
RTVSPost2010PropOp53
 70
     1
102
RTVSPost2010Prop54
  1
strokes_ogs.tif
102
RTVSPost2010PropOp54
 70
     1
102
RTVSPost2010Prop55
280
     0
102
RTVSPost2010PropOp55
 70
     1
102
RTVSPost2010Prop56
140
1.0
102
RTVSPost2010PropOp56
 70
     1
102
RTVSPost2010Prop57
140
1.0
102
RTVSPost2010PropOp57
 70
     1
102
RTVSPropertyOp0
 70
     1
102
RTVSPropertyOp1
 70
     1
102
RTVSPropertyOp2
 70
     1
102
RTVSPropertyOp3
 70
     1
102
RTVSPropertyOp4
 70
     1
102
RTVSPropertyOp5
 70
     1
102
RTVSPropertyOp6
 70
     1
102
RTVSPropertyOp7
 70
     1
102
RTVSPropertyOp8
 70
     1
102
RTVSPropertyOp9
 70
     1
102
RTVSPropertyOp10
 70
     1
102
RTVSPropertyOp11
 70
     1
102
RTVSPropertyOp12
 70
     1
102
RTVSPropertyOp13
 70
     1
102
RTVSPropertyOp14
 70
     1
102
RTVSPropertyOp15
 70
     1
102
RTVSPropertyOp16
 70
     1
102
RTVSPropertyOp17
 70
     1
102
RTVSPropertyOp18
 70
     1
102
RTVSPropertyOp19
 70
     1
102
RTVSPropertyOp20
 70
     1
102
RTVSPropertyOp21
 70
     1
102
RTVSPropertyOp22
 70
     1
102
RTVSPropertyOp23
 70
     1
102
RTVSPropertyOp24
 70
     1
102
RTVSPropertyOp25
 70
     1
102
RTVSPropertyOp26
 70
     1
102
RTVSPropertyOp27
 70
     1
102
RTVSPropertyOp28
 70
     1
102
RTVSPropertyOp29
 70
     1
102
RTVSPropertyOp30
 70
     1
102
RTVSPropertyOp31
 70
     1
102
RTVSPropertyOp32
 70
     1
102
RTVSPropertyOp33
 70
     1
102
RTVSPropertyOp34
 70
     1
102
RTVSPropertyOp35
 70
     1
102
RTVSPropertyOp36
 70
     1
102
RTVSPropertyOp37
 70
     1
102
RTVSPropertyOp38
 70
     1
102
RTVSPropertyOp39
 70
     1
102
RTVSPropertyOp40
 70
     1
102
RTVSPropertyOp41
 70
     1
102
RTVSPropertyOp42
 70
     1
102
RTVSPropertyOp43
 70
     1
102
RTVSPropertyOp44
 70
     1
102
RTVSPropertyOp45
 70
     1
102
RTVSPropertyOp46
 70
     1
102
RTVSPropertyOp47
 70
     1
102
RTVSPropertyOp48
 70
     1
102
RTVSPropertyOp49
 70
     1
102
RTVSPropertyOp50
 70
     1
102
RTVSPropertyOp51
 70
     0
102
RTVSPropertyOp52
 70
     0
102
RTVSPropertyOp53
 70
     1
102
RTVSPropertyOp54
 70
     1
102
RTVSPropertyOp55
 70
     1
102
RTVSPropertyOp56
 70
     1
102
RTVSPropertyOp57
 70
     1
102
RTVSPropertyOp58
 70
     1
102
RTVSPropertyOp59
 70
     1
102
RTVSPropertyOp60
 70
     1
102
RTVSPropertyOp61
 70
     1
102
RTVSPropertyOp62
 70
     1
  0
XRECORD
  5
475
102
{ACAD_REACTORS
330
474
102
}
330
474
100
AcDbXrecord
280
     1
102
RTVSPost2010Prop28
280
     0
102
RTVSPost2010PropOp28
 70
     1
102
RTVSPost2010Prop29
280
     1
102
RTVSPost2010PropOp29
 70
     1
102
RTVSPost2010Prop30
280
     1
102
RTVSPost2010PropOp30
 70
     1
102
RTVSPost2010Prop31
280
     0
102
RTVSPost2010PropOp31
 70
     1
102
RTVSPost2010Prop32
280
     0
102
RTVSPost2010PropOp32
 70
     1
102
RTVSPost2010Prop33
280
     0
102
RTVSPost2010PropOp33
 70
     1
102
RTVSPost2010Prop34
280
     0
102
RTVSPost2010PropOp34
 70
     1
102
RTVSPost2010Prop35
280
     0
102
RTVSPost2010PropOp35
 70
     1
102
RTVSPost2010Prop36
280
     0
102
RTVSPost2010PropOp36
 70
     1
102
RTVSPost2010Prop37
 90
       50
102
RTVSPost2010PropOp37
 70
     1
102
RTVSPost2010Prop38
140
0.0
102
RTVSPost2010PropOp38
 70
     1
102
RTVSPost2010Prop39
140
1.0
102
RTVSPost2010PropOp39
 70
     1
102
RTVSPost2010Prop40
 90
        0
102
RTVSPost2010PropOp40
 70
     1
102
RTVSPost2010Prop41ColorIndex
 90
       18
102
RTVSPost2010Prop41ColorRGB
 90
        0
102
RTVSPost2010PropOp41
 70
     1
102
RTVSPost2010Prop42
 90
       50
102
RTVSPost2010PropOp42
 70
     1
102
RTVSPost2010Prop43
 90
        3
102
RTVSPost2010PropOp43
 70
     1
102
RTVSPost2010Prop44ColorIndex
 90
        5
102
RTVSPost2010Prop44ColorRGB
 90
      255
102
RTVSPost2010PropOp44
 70
     1
102
RTVSPost2010Prop45
280
     0
102
RTVSPost2010PropOp45
 70
     1
102
RTVSPost2010Prop46
 90
       50
102
RTVSPost2010PropOp46
 70
     1
102
RTVSPost2010Prop47
 90
       50
102
RTVSPost2010PropOp47
 70
     1
102
RTVSPost2010Prop48
 90
       50
102
RTVSPost2010PropOp48
 70
     1
102
RTVSPost2010Prop49
280
     0
102
RTVSPost2010PropOp49
 70
     1
102
RTVSPost2010Prop50
 90
       50
102
RTVSPost2010PropOp50
 70
     1
102
RTVSPost2010Prop51ColorIndex
 90
      256
102
RTVSPost2010Prop51ColorRGB
 90
-16777216
102
RTVSPost2010PropOp51
 70
     0
102
RTVSPost2010Prop52
140
1.0
102
RTVSPost2010PropOp52
 70
     0
102
RTVSPost2010Prop53
 90
        2
102
RTVSPost2010PropOp53
 70
     1
102
RTVSPost2010Prop54
  1
strokes_ogs.tif
102
RTVSPost2010PropOp54
 70
     1
102
RTVSPost2010Prop55
280
     0
102
RTVSPost2010PropOp55
 70
     1
102
RTVSPost2010Prop56
140
1.0
102
RTVSPost2010PropOp56
 70
     1
102
RTVSPost2010Prop57
140
1.0
102
RTVSPost2010PropOp57
 70
     1
102
RTVSPropertyOp0
 70
     1
102
RTVSPropertyOp1
 70
     1
102
RTVSPropertyOp2
 70
     1
102
RTVSPropertyOp3
 70
     1
102
RTVSPropertyOp4
 70
     1
102
RTVSPropertyOp5
 70
     1
102
RTVSPropertyOp6
 70
     1
102
RTVSPropertyOp7
 70
     1
102
RTVSPropertyOp8
 70
     1
102
RTVSPropertyOp9
 70
     1
102
RTVSPropertyOp10
 70
     1
102
RTVSPropertyOp11
 70
     1
102
RTVSPropertyOp12
 70
     1
102
RTVSPropertyOp13
 70
     1
102
RTVSPropertyOp14
 70
     1
102
RTVSPropertyOp15
 70
     1
102
RTVSPropertyOp16
 70
     1
102
RTVSPropertyOp17
 70
     1
102
RTVSPropertyOp18
 70
     1
102
RTVSPropertyOp19
 70
     1
102
RTVSPropertyOp20
 70
     1
102
RTVSPropertyOp21
 70
     1
102
RTVSPropertyOp22
 70
     1
102
RTVSPropertyOp23
 70
     1
102
RTVSPropertyOp24
 70
     1
102
RTVSPropertyOp25
 70
     1
102
RTVSPropertyOp26
 70
     1
102
RTVSPropertyOp27
 70
     1
102
RTVSPropertyOp28
 70
     1
102
RTVSPropertyOp29
 70
     1
102
RTVSPropertyOp30
 70
     1
102
RTVSPropertyOp31
 70
     1
102
RTVSPropertyOp32
 70
     1
102
RTVSPropertyOp33
 70
     1
102
RTVSPropertyOp34
 70
     1
102
RTVSPropertyOp35
 70
     1
102
RTVSPropertyOp36
 70
     1
102
RTVSPropertyOp37
 70
     1
102
RTVSPropertyOp38
 70
     1
102
RTVSPropertyOp39
 70
     1
102
RTVSPropertyOp40
 70
     1
102
RTVSPropertyOp41
 70
     1
102
RTVSPropertyOp42
 70
     1
102
RTVSPropertyOp43
 70
     1
102
RTVSPropertyOp44
 70
     1
102
RTVSPropertyOp45
 70
     1
102
RTVSPropertyOp46
 70
     1
102
RTVSPropertyOp47
 70
     1
102
RTVSPropertyOp48
 70
     1
102
RTVSPropertyOp49
 70
     1
102
RTVSPropertyOp50
 70
     1
102
RTVSPropertyOp51
 70
     0
102
RTVSPropertyOp52
 70
     0
102
RTVSPropertyOp53
 70
     1
102
RTVSPropertyOp54
 70
     1
102
RTVSPropertyOp55
 70
     1
102
RTVSPropertyOp56
 70
     1
102
RTVSPropertyOp57
 70
     1
102
RTVSPropertyOp58
 70
     1
102
RTVSPropertyOp59
 70
     1
102
RTVSPropertyOp60
 70
     1
102
RTVSPropertyOp61
 70
     1
102
RTVSPropertyOp62
 70
     1
  0
XRECORD
  5
477
102
{ACAD_REACTORS
330
476
102
}
330
476
100
AcDbXrecord
280
     1
102
RTVSPost2010Prop28
280
     0
102
RTVSPost2010PropOp28
 70
     1
102
RTVSPost2010Prop29
280
     1
102
RTVSPost2010PropOp29
 70
     1
102
RTVSPost2010Prop30
280
     1
102
RTVSPost2010PropOp30
 70
     1
102
RTVSPost2010Prop31
280
     0
102
RTVSPost2010PropOp31
 70
     1
102
RTVSPost2010Prop32
280
     0
102
RTVSPost2010PropOp32
 70
     1
102
RTVSPost2010Prop33
280
     0
102
RTVSPost2010PropOp33
 70
     1
102
RTVSPost2010Prop34
280
     0
102
RTVSPost2010PropOp34
 70
     1
102
RTVSPost2010Prop35
280
     0
102
RTVSPost2010PropOp35
 70
     1
102
RTVSPost2010Prop36
280
     0
102
RTVSPost2010PropOp36
 70
     1
102
RTVSPost2010Prop37
 90
       50
102
RTVSPost2010PropOp37
 70
     1
102
RTVSPost2010Prop38
140
0.0
102
RTVSPost2010PropOp38
 70
     1
102
RTVSPost2010Prop39
140
1.0
102
RTVSPost2010PropOp39
 70
     1
102
RTVSPost2010Prop40
 90
        0
102
RTVSPost2010PropOp40
 70
     1
102
RTVSPost2010Prop41ColorIndex
 90
       18
102
RTVSPost2010Prop41ColorRGB
 90
        0
102
RTVSPost2010PropOp41
 70
     1
102
RTVSPost2010Prop42
 90
       50
102
RTVSPost2010PropOp42
 70
     1
102
RTVSPost2010Prop43
 90
        3
102
RTVSPost2010PropOp43
 70
     1
102
RTVSPost2010Prop44ColorIndex
 90
        5
102
RTVSPost2010Prop44ColorRGB
 90
      255
102
RTVSPost2010PropOp44
 70
     1
102
RTVSPost2010Prop45
280
     0
102
RTVSPost2010PropOp45
 70
     1
102
RTVSPost2010Prop46
 90
       50
102
RTVSPost2010PropOp46
 70
     1
102
RTVSPost2010Prop47
 90
       50
102
RTVSPost2010PropOp47
 70
     1
102
RTVSPost2010Prop48
 90
       50
102
RTVSPost2010PropOp48
 70
     1
102
RTVSPost2010Prop49
280
     0
102
RTVSPost2010PropOp49
 70
     1
102
RTVSPost2010Prop50
 90
       50
102
RTVSPost2010PropOp50
 70
     1
102
RTVSPost2010Prop51ColorIndex
 90
      256
102
RTVSPost2010Prop51ColorRGB
 90
-16777216
102
RTVSPost2010PropOp51
 70
     0
102
RTVSPost2010Prop52
140
1.0
102
RTVSPost2010PropOp52
 70
     0
102
RTVSPost2010Prop53
 90
        2
102
RTVSPost2010PropOp53
 70
     1
102
RTVSPost2010Prop54
  1
strokes_ogs.tif
102
RTVSPost2010PropOp54
 70
     1
102
RTVSPost2010Prop55
280
     0
102
RTVSPost2010PropOp55
 70
     1
102
RTVSPost2010Prop56
140
1.0
102
RTVSPost2010PropOp56
 70
     1
102
RTVSPost2010Prop57
140
1.0
102
RTVSPost2010PropOp57
 70
     1
102
RTVSPropertyOp0
 70
     1
102
RTVSPropertyOp1
 70
     1
102
RTVSPropertyOp2
 70
     1
102
RTVSPropertyOp3
 70
     1
102
RTVSPropertyOp4
 70
     1
102
RTVSPropertyOp5
 70
     1
102
RTVSPropertyOp6
 70
     1
102
RTVSPropertyOp7
 70
     1
102
RTVSPropertyOp8
 70
     1
102
RTVSPropertyOp9
 70
     1
102
RTVSPropertyOp10
 70
     1
102
RTVSPropertyOp11
 70
     1
102
RTVSPropertyOp12
 70
     1
102
RTVSPropertyOp13
 70
     1
102
RTVSPropertyOp14
 70
     1
102
RTVSPropertyOp15
 70
     1
102
RTVSPropertyOp16
 70
     1
102
RTVSPropertyOp17
 70
     1
102
RTVSPropertyOp18
 70
     1
102
RTVSPropertyOp19
 70
     1
102
RTVSPropertyOp20
 70
     1
102
RTVSPropertyOp21
 70
     1
102
RTVSPropertyOp22
 70
     1
102
RTVSPropertyOp23
 70
     1
102
RTVSPropertyOp24
 70
     1
102
RTVSPropertyOp25
 70
     1
102
RTVSPropertyOp26
 70
     1
102
RTVSPropertyOp27
 70
     1
102
RTVSPropertyOp28
 70
     1
102
RTVSPropertyOp29
 70
     1
102
RTVSPropertyOp30
 70
     1
102
RTVSPropertyOp31
 70
     1
102
RTVSPropertyOp32
 70
     1
102
RTVSPropertyOp33
 70
     1
102
RTVSPropertyOp34
 70
     1
102
RTVSPropertyOp35
 70
     1
102
RTVSPropertyOp36
 70
     1
102
RTVSPropertyOp37
 70
     1
102
RTVSPropertyOp38
 70
     1
102
RTVSPropertyOp39
 70
     1
102
RTVSPropertyOp40
 70
     1
102
RTVSPropertyOp41
 70
     1
102
RTVSPropertyOp42
 70
     1
102
RTVSPropertyOp43
 70
     1
102
RTVSPropertyOp44
 70
     1
102
RTVSPropertyOp45
 70
     1
102
RTVSPropertyOp46
 70
     1
102
RTVSPropertyOp47
 70
     1
102
RTVSPropertyOp48
 70
     1
102
RTVSPropertyOp49
 70
     1
102
RTVSPropertyOp50
 70
     1
102
RTVSPropertyOp51
 70
     0
102
RTVSPropertyOp52
 70
     0
102
RTVSPropertyOp53
 70
     1
102
RTVSPropertyOp54
 70
     1
102
RTVSPropertyOp55
 70
     1
102
RTVSPropertyOp56
 70
     1
102
RTVSPropertyOp57
 70
     1
102
RTVSPropertyOp58
 70
     1
102
RTVSPropertyOp59
 70
     1
102
RTVSPropertyOp60
 70
     1
102
RTVSPropertyOp61
 70
     1
102
RTVSPropertyOp62
 70
     1
  0
XRECORD
  5
47F
102
{ACAD_REACTORS
330
47E
102
}
330
47E
100
AcDbXrecord
280
     1
102
RTVSPost2010Prop28
280
     0
102
RTVSPost2010PropOp28
 70
     1
102
RTVSPost2010Prop29
280
     1
102
RTVSPost2010PropOp29
 70
     1
102
RTVSPost2010Prop30
280
     1
102
RTVSPost2010PropOp30
 70
     1
102
RTVSPost2010Prop31
280
     0
102
RTVSPost2010PropOp31
 70
     1
102
RTVSPost2010Prop32
280
     0
102
RTVSPost2010PropOp32
 70
     1
102
RTVSPost2010Prop33
280
     0
102
RTVSPost2010PropOp33
 70
     1
102
RTVSPost2010Prop34
280
     0
102
RTVSPost2010PropOp34
 70
     1
102
RTVSPost2010Prop35
280
     0
102
RTVSPost2010PropOp35
 70
     1
102
RTVSPost2010Prop36
280
     0
102
RTVSPost2010PropOp36
 70
     1
102
RTVSPost2010Prop37
 90
       50
102
RTVSPost2010PropOp37
 70
     1
102
RTVSPost2010Prop38
140
0.0
102
RTVSPost2010PropOp38
 70
     1
102
RTVSPost2010Prop39
140
1.0
102
RTVSPost2010PropOp39
 70
     1
102
RTVSPost2010Prop40
 90
        0
102
RTVSPost2010PropOp40
 70
     1
102
RTVSPost2010Prop41ColorIndex
 90
       18
102
RTVSPost2010Prop41ColorRGB
 90
        0
102
RTVSPost2010PropOp41
 70
     1
102
RTVSPost2010Prop42
 90
       50
102
RTVSPost2010PropOp42
 70
     1
102
RTVSPost2010Prop43
 90
        3
102
RTVSPost2010PropOp43
 70
     1
102
RTVSPost2010Prop44ColorIndex
 90
        5
102
RTVSPost2010Prop44ColorRGB
 90
      255
102
RTVSPost2010PropOp44
 70
     1
102
RTVSPost2010Prop45
280
     0
102
RTVSPost2010PropOp45
 70
     1
102
RTVSPost2010Prop46
 90
       50
102
RTVSPost2010PropOp46
 70
     1
102
RTVSPost2010Prop47
 90
       50
102
RTVSPost2010PropOp47
 70
     1
102
RTVSPost2010Prop48
 90
       50
102
RTVSPost2010PropOp48
 70
     1
102
RTVSPost2010Prop49
280
     0
102
RTVSPost2010PropOp49
 70
     1
102
RTVSPost2010Prop50
 90
       50
102
RTVSPost2010PropOp50
 70
     1
102
RTVSPost2010Prop51ColorIndex
 90
      256
102
RTVSPost2010Prop51ColorRGB
 90
-16777216
102
RTVSPost2010PropOp51
 70
     0
102
RTVSPost2010Prop52
140
1.0
102
RTVSPost2010PropOp52
 70
     0
102
RTVSPost2010Prop53
 90
        2
102
RTVSPost2010PropOp53
 70
     1
102
RTVSPost2010Prop54
  1
strokes_ogs.tif
102
RTVSPost2010PropOp54
 70
     1
102
RTVSPost2010Prop55
280
     0
102
RTVSPost2010PropOp55
 70
     1
102
RTVSPost2010Prop56
140
1.0
102
RTVSPost2010PropOp56
 70
     1
102
RTVSPost2010Prop57
140
1.0
102
RTVSPost2010PropOp57
 70
     1
102
RTVSPropertyOp0
 70
     1
102
RTVSPropertyOp1
 70
     1
102
RTVSPropertyOp2
 70
     1
102
RTVSPropertyOp3
 70
     1
102
RTVSPropertyOp4
 70
     1
102
RTVSPropertyOp5
 70
     1
102
RTVSPropertyOp6
 70
     1
102
RTVSPropertyOp7
 70
     1
102
RTVSPropertyOp8
 70
     1
102
RTVSPropertyOp9
 70
     1
102
RTVSPropertyOp10
 70
     1
102
RTVSPropertyOp11
 70
     1
102
RTVSPropertyOp12
 70
     1
102
RTVSPropertyOp13
 70
     1
102
RTVSPropertyOp14
 70
     1
102
RTVSPropertyOp15
 70
     1
102
RTVSPropertyOp16
 70
     1
102
RTVSPropertyOp17
 70
     1
102
RTVSPropertyOp18
 70
     1
102
RTVSPropertyOp19
 70
     1
102
RTVSPropertyOp20
 70
     1
102
RTVSPropertyOp21
 70
     1
102
RTVSPropertyOp22
 70
     1
102
RTVSPropertyOp23
 70
     1
102
RTVSPropertyOp24
 70
     1
102
RTVSPropertyOp25
 70
     1
102
RTVSPropertyOp26
 70
     1
102
RTVSPropertyOp27
 70
     1
102
RTVSPropertyOp28
 70
     1
102
RTVSPropertyOp29
 70
     1
102
RTVSPropertyOp30
 70
     1
102
RTVSPropertyOp31
 70
     1
102
RTVSPropertyOp32
 70
     1
102
RTVSPropertyOp33
 70
     1
102
RTVSPropertyOp34
 70
     1
102
RTVSPropertyOp35
 70
     1
102
RTVSPropertyOp36
 70
     1
102
RTVSPropertyOp37
 70
     1
102
RTVSPropertyOp38
 70
     1
102
RTVSPropertyOp39
 70
     1
102
RTVSPropertyOp40
 70
     1
102
RTVSPropertyOp41
 70
     1
102
RTVSPropertyOp42
 70
     1
102
RTVSPropertyOp43
 70
     1
102
RTVSPropertyOp44
 70
     1
102
RTVSPropertyOp45
 70
     1
102
RTVSPropertyOp46
 70
     1
102
RTVSPropertyOp47
 70
     1
102
RTVSPropertyOp48
 70
     1
102
RTVSPropertyOp49
 70
     1
102
RTVSPropertyOp50
 70
     1
102
RTVSPropertyOp51
 70
     0
102
RTVSPropertyOp52
 70
     0
102
RTVSPropertyOp53
 70
     1
102
RTVSPropertyOp54
 70
     1
102
RTVSPropertyOp55
 70
     1
102
RTVSPropertyOp56
 70
     1
102
RTVSPropertyOp57
 70
     1
102
RTVSPropertyOp58
 70
     1
102
RTVSPropertyOp59
 70
     1
102
RTVSPropertyOp60
 70
     1
102
RTVSPropertyOp61
 70
     1
102
RTVSPropertyOp62
 70
     1
  0
XRECORD
  5
49B
102
{ACAD_REACTORS
330
49A
102
}
330
49A
100
AcDbXrecord
280
     1
102
RTVSPost2010Prop28
280
     0
102
RTVSPost2010PropOp28
 70
     1
102
RTVSPost2010Prop29
280
     1
102
RTVSPost2010PropOp29
 70
     1
102
RTVSPost2010Prop30
280
     1
102
RTVSPost2010PropOp30
 70
     1
102
RTVSPost2010Prop31
280
     0
102
RTVSPost2010PropOp31
 70
     1
102
RTVSPost2010Prop32
280
     0
102
RTVSPost2010PropOp32
 70
     1
102
RTVSPost2010Prop33
280
     0
102
RTVSPost2010PropOp33
 70
     1
102
RTVSPost2010Prop34
280
     0
102
RTVSPost2010PropOp34
 70
     1
102
RTVSPost2010Prop35
280
     0
102
RTVSPost2010PropOp35
 70
     1
102
RTVSPost2010Prop36
280
     0
102
RTVSPost2010PropOp36
 70
     1
102
RTVSPost2010Prop37
 90
       50
102
RTVSPost2010PropOp37
 70
     0
102
RTVSPost2010Prop38
140
0.0
102
RTVSPost2010PropOp38
 70
     0
102
RTVSPost2010Prop39
140
1.0
102
RTVSPost2010PropOp39
 70
     0
102
RTVSPost2010Prop40
 90
        0
102
RTVSPost2010PropOp40
 70
     0
102
RTVSPost2010Prop41ColorIndex
 90
       18
102
RTVSPost2010Prop41ColorRGB
 90
        0
102
RTVSPost2010PropOp41
 70
     0
102
RTVSPost2010Prop42
 90
       50
102
RTVSPost2010PropOp42
 70
     0
102
RTVSPost2010Prop43
 90
        3
102
RTVSPost2010PropOp43
 70
     0
102
RTVSPost2010Prop44ColorIndex
 90
        5
102
RTVSPost2010Prop44ColorRGB
 90
      255
102
RTVSPost2010PropOp44
 70
     0
102
RTVSPost2010Prop45
280
     0
102
RTVSPost2010PropOp45
 70
     1
102
RTVSPost2010Prop46
 90
       50
102
RTVSPost2010PropOp46
 70
     0
102
RTVSPost2010Prop47
 90
       50
102
RTVSPost2010PropOp47
 70
     0
102
RTVSPost2010Prop48
 90
       50
102
RTVSPost2010PropOp48
 70
     0
102
RTVSPost2010Prop49
280
     0
102
RTVSPost2010PropOp49
 70
     1
102
RTVSPost2010Prop50
 90
       50
102
RTVSPost2010PropOp50
 70
     0
102
RTVSPost2010Prop51ColorIndex
 90
      256
102
RTVSPost2010Prop51ColorRGB
 90
-16777216
102
RTVSPost2010PropOp51
 70
     0
102
RTVSPost2010Prop52
140
1.0
102
RTVSPost2010PropOp52
 70
     0
102
RTVSPost2010Prop53
 90
        2
102
RTVSPost2010PropOp53
 70
     0
102
RTVSPost2010Prop54
  1
strokes_ogs.tif
102
RTVSPost2010PropOp54
 70
     0
102
RTVSPost2010Prop55
280
     0
102
RTVSPost2010PropOp55
 70
     1
102
RTVSPost2010Prop56
140
1.0
102
RTVSPost2010PropOp56
 70
     0
102
RTVSPost2010Prop57
140
1.0
102
RTVSPost2010PropOp57
 70
     0
102
RTVSPropertyOp0
 70
     0
102
RTVSPropertyOp1
 70
     0
102
RTVSPropertyOp2
 70
     0
102
RTVSPropertyOp3
 70
     0
102
RTVSPropertyOp4
 70
     0
102
RTVSPropertyOp5
 70
     0
102
RTVSPropertyOp6
 70
     0
102
RTVSPropertyOp7
 70
     0
102
RTVSPropertyOp8
 70
     0
102
RTVSPropertyOp9
 70
     0
102
RTVSPropertyOp10
 70
     0
102
RTVSPropertyOp11
 70
     0
102
RTVSPropertyOp12
 70
     0
102
RTVSPropertyOp13
 70
     0
102
RTVSPropertyOp14
 70
     2
102
RTVSPropertyOp15
 70
     0
102
RTVSPropertyOp16
 70
     0
102
RTVSPropertyOp17
 70
     0
102
RTVSPropertyOp18
 70
     0
102
RTVSPropertyOp19
 70
     0
102
RTVSPropertyOp20
 70
     0
102
RTVSPropertyOp21
 70
     0
102
RTVSPropertyOp22
 70
     0
102
RTVSPropertyOp23
 70
     0
102
RTVSPropertyOp24
 70
     0
102
RTVSPropertyOp25
 70
     0
102
RTVSPropertyOp26
 70
     0
102
RTVSPropertyOp27
 70
     0
102
RTVSPropertyOp28
 70
     1
102
RTVSPropertyOp29
 70
     1
102
RTVSPropertyOp30
 70
     1
102
RTVSPropertyOp31
 70
     1
102
RTVSPropertyOp32
 70
     1
102
RTVSPropertyOp33
 70
     1
102
RTVSPropertyOp34
 70
     1
102
RTVSPropertyOp35
 70
     1
102
RTVSPropertyOp36
 70
     1
102
RTVSPropertyOp37
 70
     0
102
RTVSPropertyOp38
 70
     0
102
RTVSPropertyOp39
 70
     0
102
RTVSPropertyOp40
 70
     0
102
RTVSPropertyOp41
 70
     0
102
RTVSPropertyOp42
 70
     0
102
RTVSPropertyOp43
 70
     0
102
RTVSPropertyOp44
 70
     0
102
RTVSPropertyOp45
 70
     1
102
RTVSPropertyOp46
 70
     0
102
RTVSPropertyOp47
 70
     0
102
RTVSPropertyOp48
 70
     0
102
RTVSPropertyOp49
 70
     1
102
RTVSPropertyOp50
 70
     0
102
RTVSPropertyOp51
 70
     0
102
RTVSPropertyOp52
 70
     0
102
RTVSPropertyOp53
 70
     0
102
RTVSPropertyOp54
 70
     0
102
RTVSPropertyOp55
 70
     1
102
RTVSPropertyOp56
 70
     0
102
RTVSPropertyOp57
 70
     0
102
RTVSPropertyOp58
 70
     0
102
RTVSPropertyOp59
 70
     0
102
RTVSPropertyOp60
 70
     0
102
RTVSPropertyOp61
 70
     0
102
RTVSPropertyOp62
 70
     0
  0
XRECORD
  5
48B
102
{ACAD_REACTORS
330
48A
102
}
330
48A
100
AcDbXrecord
280
     1
102
RTVSPost2010Prop28
280
     0
102
RTVSPost2010PropOp28
 70
     1
102
RTVSPost2010Prop29
280
     1
102
RTVSPost2010PropOp29
 70
     1
102
RTVSPost2010Prop30
280
     1
102
RTVSPost2010PropOp30
 70
     1
102
RTVSPost2010Prop31
280
     0
102
RTVSPost2010PropOp31
 70
     1
102
RTVSPost2010Prop32
280
     0
102
RTVSPost2010PropOp32
 70
     1
102
RTVSPost2010Prop33
280
     0
102
RTVSPost2010PropOp33
 70
     1
102
RTVSPost2010Prop34
280
     0
102
RTVSPost2010PropOp34
 70
     1
102
RTVSPost2010Prop35
280
     0
102
RTVSPost2010PropOp35
 70
     1
102
RTVSPost2010Prop36
280
     0
102
RTVSPost2010PropOp36
 70
     1
102
RTVSPost2010Prop37
 90
       50
102
RTVSPost2010PropOp37
 70
     1
102
RTVSPost2010Prop38
140
0.0
102
RTVSPost2010PropOp38
 70
     1
102
RTVSPost2010Prop39
140
1.0
102
RTVSPost2010PropOp39
 70
     1
102
RTVSPost2010Prop40
 90
        0
102
RTVSPost2010PropOp40
 70
     1
102
RTVSPost2010Prop41ColorIndex
 90
       18
102
RTVSPost2010Prop41ColorRGB
 90
        0
102
RTVSPost2010PropOp41
 70
     1
102
RTVSPost2010Prop42
 90
       50
102
RTVSPost2010PropOp42
 70
     1
102
RTVSPost2010Prop43
 90
        3
102
RTVSPost2010PropOp43
 70
     1
102
RTVSPost2010Prop44ColorIndex
 90
        5
102
RTVSPost2010Prop44ColorRGB
 90
      255
102
RTVSPost2010PropOp44
 70
     1
102
RTVSPost2010Prop45
280
     0
102
RTVSPost2010PropOp45
 70
     1
102
RTVSPost2010Prop46
 90
       50
102
RTVSPost2010PropOp46
 70
     1
102
RTVSPost2010Prop47
 90
       50
102
RTVSPost2010PropOp47
 70
     1
102
RTVSPost2010Prop48
 90
       50
102
RTVSPost2010PropOp48
 70
     1
102
RTVSPost2010Prop49
280
     0
102
RTVSPost2010PropOp49
 70
     1
102
RTVSPost2010Prop50
 90
       50
102
RTVSPost2010PropOp50
 70
     1
102
RTVSPost2010Prop51ColorIndex
 90
      256
102
RTVSPost2010Prop51ColorRGB
 90
-16777216
102
RTVSPost2010PropOp51
 70
     0
102
RTVSPost2010Prop52
140
1.0
102
RTVSPost2010PropOp52
 70
     0
102
RTVSPost2010Prop53
 90
        2
102
RTVSPost2010PropOp53
 70
     1
102
RTVSPost2010Prop54
  1
strokes_ogs.tif
102
RTVSPost2010PropOp54
 70
     1
102
RTVSPost2010Prop55
280
     0
102
RTVSPost2010PropOp55
 70
     1
102
RTVSPost2010Prop56
140
1.0
102
RTVSPost2010PropOp56
 70
     1
102
RTVSPost2010Prop57
140
1.0
102
RTVSPost2010PropOp57
 70
     1
102
RTVSPropertyOp0
 70
     1
102
RTVSPropertyOp1
 70
     1
102
RTVSPropertyOp2
 70
     1
102
RTVSPropertyOp3
 70
     1
102
RTVSPropertyOp4
 70
     1
102
RTVSPropertyOp5
 70
     1
102
RTVSPropertyOp6
 70
     1
102
RTVSPropertyOp7
 70
     1
102
RTVSPropertyOp8
 70
     1
102
RTVSPropertyOp9
 70
     1
102
RTVSPropertyOp10
 70
     1
102
RTVSPropertyOp11
 70
     1
102
RTVSPropertyOp12
 70
     1
102
RTVSPropertyOp13
 70
     1
102
RTVSPropertyOp14
 70
     1
102
RTVSPropertyOp15
 70
     1
102
RTVSPropertyOp16
 70
     1
102
RTVSPropertyOp17
 70
     1
102
RTVSPropertyOp18
 70
     1
102
RTVSPropertyOp19
 70
     1
102
RTVSPropertyOp20
 70
     1
102
RTVSPropertyOp21
 70
     1
102
RTVSPropertyOp22
 70
     1
102
RTVSPropertyOp23
 70
     1
102
RTVSPropertyOp24
 70
     1
102
RTVSPropertyOp25
 70
     1
102
RTVSPropertyOp26
 70
     1
102
RTVSPropertyOp27
 70
     1
102
RTVSPropertyOp28
 70
     1
102
RTVSPropertyOp29
 70
     1
102
RTVSPropertyOp30
 70
     1
102
RTVSPropertyOp31
 70
     1
102
RTVSPropertyOp32
 70
     1
102
RTVSPropertyOp33
 70
     1
102
RTVSPropertyOp34
 70
     1
102
RTVSPropertyOp35
 70
     1
102
RTVSPropertyOp36
 70
     1
102
RTVSPropertyOp37
 70
     1
102
RTVSPropertyOp38
 70
     1
102
RTVSPropertyOp39
 70
     1
102
RTVSPropertyOp40
 70
     1
102
RTVSPropertyOp41
 70
     1
102
RTVSPropertyOp42
 70
     1
102
RTVSPropertyOp43
 70
     1
102
RTVSPropertyOp44
 70
     1
102
RTVSPropertyOp45
 70
     1
102
RTVSPropertyOp46
 70
     1
102
RTVSPropertyOp47
 70
     1
102
RTVSPropertyOp48
 70
     1
102
RTVSPropertyOp49
 70
     1
102
RTVSPropertyOp50
 70
     1
102
RTVSPropertyOp51
 70
     0
102
RTVSPropertyOp52
 70
     0
102
RTVSPropertyOp53
 70
     1
102
RTVSPropertyOp54
 70
     1
102
RTVSPropertyOp55
 70
     1
102
RTVSPropertyOp56
 70
     1
102
RTVSPropertyOp57
 70
     1
102
RTVSPropertyOp58
 70
     1
102
RTVSPropertyOp59
 70
     1
102
RTVSPropertyOp60
 70
     1
102
RTVSPropertyOp61
 70
     1
102
RTVSPropertyOp62
 70
     1
  0
XRECORD
  5
49D
102
{ACAD_REACTORS
330
49C
102
}
330
49C
100
AcDbXrecord
280
     1
102
RTVSPost2010Prop28
280
     0
102
RTVSPost2010PropOp28
 70
     1
102
RTVSPost2010Prop29
280
     1
102
RTVSPost2010PropOp29
 70
     1
102
RTVSPost2010Prop30
280
     1
102
RTVSPost2010PropOp30
 70
     1
102
RTVSPost2010Prop31
280
     0
102
RTVSPost2010PropOp31
 70
     1
102
RTVSPost2010Prop32
280
     0
102
RTVSPost2010PropOp32
 70
     1
102
RTVSPost2010Prop33
280
     0
102
RTVSPost2010PropOp33
 70
     1
102
RTVSPost2010Prop34
280
     0
102
RTVSPost2010PropOp34
 70
     1
102
RTVSPost2010Prop35
280
     0
102
RTVSPost2010PropOp35
 70
     1
102
RTVSPost2010Prop36
280
     0
102
RTVSPost2010PropOp36
 70
     1
102
RTVSPost2010Prop37
 90
       50
102
RTVSPost2010PropOp37
 70
     0
102
RTVSPost2010Prop38
140
0.0
102
RTVSPost2010PropOp38
 70
     0
102
RTVSPost2010Prop39
140
1.0
102
RTVSPost2010PropOp39
 70
     0
102
RTVSPost2010Prop40
 90
        0
102
RTVSPost2010PropOp40
 70
     0
102
RTVSPost2010Prop41ColorIndex
 90
       18
102
RTVSPost2010Prop41ColorRGB
 90
        0
102
RTVSPost2010PropOp41
 70
     0
102
RTVSPost2010Prop42
 90
       50
102
RTVSPost2010PropOp42
 70
     0
102
RTVSPost2010Prop43
 90
        3
102
RTVSPost2010PropOp43
 70
     0
102
RTVSPost2010Prop44ColorIndex
 90
        5
102
RTVSPost2010Prop44ColorRGB
 90
      255
102
RTVSPost2010PropOp44
 70
     0
102
RTVSPost2010Prop45
280
     0
102
RTVSPost2010PropOp45
 70
     1
102
RTVSPost2010Prop46
 90
       50
102
RTVSPost2010PropOp46
 70
     0
102
RTVSPost2010Prop47
 90
       50
102
RTVSPost2010PropOp47
 70
     0
102
RTVSPost2010Prop48
 90
       50
102
RTVSPost2010PropOp48
 70
     0
102
RTVSPost2010Prop49
280
     0
102
RTVSPost2010PropOp49
 70
     1
102
RTVSPost2010Prop50
 90
       50
102
RTVSPost2010PropOp50
 70
     0
102
RTVSPost2010Prop51ColorIndex
 90
      256
102
RTVSPost2010Prop51ColorRGB
 90
-16777216
102
RTVSPost2010PropOp51
 70
     0
102
RTVSPost2010Prop52
140
1.0
102
RTVSPost2010PropOp52
 70
     0
102
RTVSPost2010Prop53
 90
        2
102
RTVSPost2010PropOp53
 70
     0
102
RTVSPost2010Prop54
  1
strokes_ogs.tif
102
RTVSPost2010PropOp54
 70
     0
102
RTVSPost2010Prop55
280
     0
102
RTVSPost2010PropOp55
 70
     1
102
RTVSPost2010Prop56
140
1.0
102
RTVSPost2010PropOp56
 70
     0
102
RTVSPost2010Prop57
140
1.0
102
RTVSPost2010PropOp57
 70
     0
102
RTVSPropertyOp0
 70
     0
102
RTVSPropertyOp1
 70
     0
102
RTVSPropertyOp2
 70
     0
102
RTVSPropertyOp3
 70
     0
102
RTVSPropertyOp4
 70
     0
102
RTVSPropertyOp5
 70
     0
102
RTVSPropertyOp6
 70
     0
102
RTVSPropertyOp7
 70
     0
102
RTVSPropertyOp8
 70
     0
102
RTVSPropertyOp9
 70
     0
102
RTVSPropertyOp10
 70
     0
102
RTVSPropertyOp11
 70
     0
102
RTVSPropertyOp12
 70
     0
102
RTVSPropertyOp13
 70
     0
102
RTVSPropertyOp14
 70
     2
102
RTVSPropertyOp15
 70
     0
102
RTVSPropertyOp16
 70
     0
102
RTVSPropertyOp17
 70
     0
102
RTVSPropertyOp18
 70
     0
102
RTVSPropertyOp19
 70
     0
102
RTVSPropertyOp20
 70
     0
102
RTVSPropertyOp21
 70
     0
102
RTVSPropertyOp22
 70
     0
102
RTVSPropertyOp23
 70
     0
102
RTVSPropertyOp24
 70
     0
102
RTVSPropertyOp25
 70
     0
102
RTVSPropertyOp26
 70
     0
102
RTVSPropertyOp27
 70
     0
102
RTVSPropertyOp28
 70
     1
102
RTVSPropertyOp29
 70
     1
102
RTVSPropertyOp30
 70
     1
102
RTVSPropertyOp31
 70
     1
102
RTVSPropertyOp32
 70
     1
102
RTVSPropertyOp33
 70
     1
102
RTVSPropertyOp34
 70
     1
102
RTVSPropertyOp35
 70
     1
102
RTVSPropertyOp36
 70
     1
102
RTVSPropertyOp37
 70
     0
102
RTVSPropertyOp38
 70
     0
102
RTVSPropertyOp39
 70
     0
102
RTVSPropertyOp40
 70
     0
102
RTVSPropertyOp41
 70
     0
102
RTVSPropertyOp42
 70
     0
102
RTVSPropertyOp43
 70
     0
102
RTVSPropertyOp44
 70
     0
102
RTVSPropertyOp45
 70
     1
102
RTVSPropertyOp46
 70
     0
102
RTVSPropertyOp47
 70
     0
102
RTVSPropertyOp48
 70
     0
102
RTVSPropertyOp49
 70
     1
102
RTVSPropertyOp50
 70
     0
102
RTVSPropertyOp51
 70
     0
102
RTVSPropertyOp52
 70
     0
102
RTVSPropertyOp53
 70
     0
102
RTVSPropertyOp54
 70
     0
102
RTVSPropertyOp55
 70
     1
102
RTVSPropertyOp56
 70
     0
102
RTVSPropertyOp57
 70
     0
102
RTVSPropertyOp58
 70
     0
102
RTVSPropertyOp59
 70
     0
102
RTVSPropertyOp60
 70
     0
102
RTVSPropertyOp61
 70
     0
102
RTVSPropertyOp62
 70
     0
  0
XRECORD
  5
483
102
{ACAD_REACTORS
330
482
102
}
330
482
100
AcDbXrecord
280
     1
102
RTVSPost2010Prop28
280
     0
102
RTVSPost2010PropOp28
 70
     1
102
RTVSPost2010Prop29
280
     1
102
RTVSPost2010PropOp29
 70
     1
102
RTVSPost2010Prop30
280
     1
102
RTVSPost2010PropOp30
 70
     1
102
RTVSPost2010Prop31
280
     0
102
RTVSPost2010PropOp31
 70
     1
102
RTVSPost2010Prop32
280
     0
102
RTVSPost2010PropOp32
 70
     1
102
RTVSPost2010Prop33
280
     0
102
RTVSPost2010PropOp33
 70
     1
102
RTVSPost2010Prop34
280
     0
102
RTVSPost2010PropOp34
 70
     1
102
RTVSPost2010Prop35
280
     0
102
RTVSPost2010PropOp35
 70
     1
102
RTVSPost2010Prop36
280
     0
102
RTVSPost2010PropOp36
 70
     1
102
RTVSPost2010Prop37
 90
       50
102
RTVSPost2010PropOp37
 70
     1
102
RTVSPost2010Prop38
140
0.0
102
RTVSPost2010PropOp38
 70
     1
102
RTVSPost2010Prop39
140
1.0
102
RTVSPost2010PropOp39
 70
     1
102
RTVSPost2010Prop40
 90
        0
102
RTVSPost2010PropOp40
 70
     1
102
RTVSPost2010Prop41ColorIndex
 90
       18
102
RTVSPost2010Prop41ColorRGB
 90
        0
102
RTVSPost2010PropOp41
 70
     1
102
RTVSPost2010Prop42
 90
       50
102
RTVSPost2010PropOp42
 70
     1
102
RTVSPost2010Prop43
 90
        3
102
RTVSPost2010PropOp43
 70
     1
102
RTVSPost2010Prop44ColorIndex
 90
        5
102
RTVSPost2010Prop44ColorRGB
 90
      255
102
RTVSPost2010PropOp44
 70
     1
102
RTVSPost2010Prop45
280
     0
102
RTVSPost2010PropOp45
 70
     1
102
RTVSPost2010Prop46
 90
       50
102
RTVSPost2010PropOp46
 70
     1
102
RTVSPost2010Prop47
 90
       50
102
RTVSPost2010PropOp47
 70
     1
102
RTVSPost2010Prop48
 90
       50
102
RTVSPost2010PropOp48
 70
     1
102
RTVSPost2010Prop49
280
     0
102
RTVSPost2010PropOp49
 70
     1
102
RTVSPost2010Prop50
 90
       50
102
RTVSPost2010PropOp50
 70
     1
102
RTVSPost2010Prop51ColorIndex
 90
      256
102
RTVSPost2010Prop51ColorRGB
 90
-16777216
102
RTVSPost2010PropOp51
 70
     0
102
RTVSPost2010Prop52
140
1.0
102
RTVSPost2010PropOp52
 70
     0
102
RTVSPost2010Prop53
 90
        2
102
RTVSPost2010PropOp53
 70
     1
102
RTVSPost2010Prop54
  1
strokes_ogs.tif
102
RTVSPost2010PropOp54
 70
     1
102
RTVSPost2010Prop55
280
     0
102
RTVSPost2010PropOp55
 70
     1
102
RTVSPost2010Prop56
140
1.0
102
RTVSPost2010PropOp56
 70
     1
102
RTVSPost2010Prop57
140
1.0
102
RTVSPost2010PropOp57
 70
     1
102
RTVSPropertyOp0
 70
     1
102
RTVSPropertyOp1
 70
     1
102
RTVSPropertyOp2
 70
     1
102
RTVSPropertyOp3
 70
     1
102
RTVSPropertyOp4
 70
     1
102
RTVSPropertyOp5
 70
     1
102
RTVSPropertyOp6
 70
     1
102
RTVSPropertyOp7
 70
     1
102
RTVSPropertyOp8
 70
     1
102
RTVSPropertyOp9
 70
     1
102
RTVSPropertyOp10
 70
     1
102
RTVSPropertyOp11
 70
     1
102
RTVSPropertyOp12
 70
     1
102
RTVSPropertyOp13
 70
     1
102
RTVSPropertyOp14
 70
     1
102
RTVSPropertyOp15
 70
     1
102
RTVSPropertyOp16
 70
     1
102
RTVSPropertyOp17
 70
     1
102
RTVSPropertyOp18
 70
     1
102
RTVSPropertyOp19
 70
     1
102
RTVSPropertyOp20
 70
     1
102
RTVSPropertyOp21
 70
     1
102
RTVSPropertyOp22
 70
     1
102
RTVSPropertyOp23
 70
     1
102
RTVSPropertyOp24
 70
     1
102
RTVSPropertyOp25
 70
     1
102
RTVSPropertyOp26
 70
     1
102
RTVSPropertyOp27
 70
     1
102
RTVSPropertyOp28
 70
     1
102
RTVSPropertyOp29
 70
     1
102
RTVSPropertyOp30
 70
     1
102
RTVSPropertyOp31
 70
     1
102
RTVSPropertyOp32
 70
     1
102
RTVSPropertyOp33
 70
     1
102
RTVSPropertyOp34
 70
     1
102
RTVSPropertyOp35
 70
     1
102
RTVSPropertyOp36
 70
     1
102
RTVSPropertyOp37
 70
     1
102
RTVSPropertyOp38
 70
     1
102
RTVSPropertyOp39
 70
     1
102
RTVSPropertyOp40
 70
     1
102
RTVSPropertyOp41
 70
     1
102
RTVSPropertyOp42
 70
     1
102
RTVSPropertyOp43
 70
     1
102
RTVSPropertyOp44
 70
     1
102
RTVSPropertyOp45
 70
     1
102
RTVSPropertyOp46
 70
     1
102
RTVSPropertyOp47
 70
     1
102
RTVSPropertyOp48
 70
     1
102
RTVSPropertyOp49
 70
     1
102
RTVSPropertyOp50
 70
     1
102
RTVSPropertyOp51
 70
     0
102
RTVSPropertyOp52
 70
     0
102
RTVSPropertyOp53
 70
     1
102
RTVSPropertyOp54
 70
     1
102
RTVSPropertyOp55
 70
     1
102
RTVSPropertyOp56
 70
     1
102
RTVSPropertyOp57
 70
     1
102
RTVSPropertyOp58
 70
     1
102
RTVSPropertyOp59
 70
     1
102
RTVSPropertyOp60
 70
     1
102
RTVSPropertyOp61
 70
     1
102
RTVSPropertyOp62
 70
     1
  0
XRECORD
  5
499
102
{ACAD_REACTORS
330
498
102
}
330
498
100
AcDbXrecord
280
     1
102
RTVSPost2010Prop28
280
     0
102
RTVSPost2010PropOp28
 70
     1
102
RTVSPost2010Prop29
280
     1
102
RTVSPost2010PropOp29
 70
     1
102
RTVSPost2010Prop30
280
     1
102
RTVSPost2010PropOp30
 70
     1
102
RTVSPost2010Prop31
280
     0
102
RTVSPost2010PropOp31
 70
     1
102
RTVSPost2010Prop32
280
     0
102
RTVSPost2010PropOp32
 70
     1
102
RTVSPost2010Prop33
280
     0
102
RTVSPost2010PropOp33
 70
     1
102
RTVSPost2010Prop34
280
     0
102
RTVSPost2010PropOp34
 70
     1
102
RTVSPost2010Prop35
280
     0
102
RTVSPost2010PropOp35
 70
     1
102
RTVSPost2010Prop36
280
     0
102
RTVSPost2010PropOp36
 70
     1
102
RTVSPost2010Prop37
 90
       50
102
RTVSPost2010PropOp37
 70
     1
102
RTVSPost2010Prop38
140
0.0
102
RTVSPost2010PropOp38
 70
     1
102
RTVSPost2010Prop39
140
1.0
102
RTVSPost2010PropOp39
 70
     1
102
RTVSPost2010Prop40
 90
        0
102
RTVSPost2010PropOp40
 70
     1
102
RTVSPost2010Prop41ColorIndex
 90
       18
102
RTVSPost2010Prop41ColorRGB
 90
        0
102
RTVSPost2010PropOp41
 70
     1
102
RTVSPost2010Prop42
 90
       50
102
RTVSPost2010PropOp42
 70
     1
102
RTVSPost2010Prop43
 90
        3
102
RTVSPost2010PropOp43
 70
     1
102
RTVSPost2010Prop44ColorIndex
 90
        5
102
RTVSPost2010Prop44ColorRGB
 90
      255
102
RTVSPost2010PropOp44
 70
     1
102
RTVSPost2010Prop45
280
     0
102
RTVSPost2010PropOp45
 70
     1
102
RTVSPost2010Prop46
 90
       50
102
RTVSPost2010PropOp46
 70
     1
102
RTVSPost2010Prop47
 90
       50
102
RTVSPost2010PropOp47
 70
     1
102
RTVSPost2010Prop48
 90
       50
102
RTVSPost2010PropOp48
 70
     1
102
RTVSPost2010Prop49
280
     0
102
RTVSPost2010PropOp49
 70
     1
102
RTVSPost2010Prop50
 90
       50
102
RTVSPost2010PropOp50
 70
     1
102
RTVSPost2010Prop51ColorIndex
 90
      256
102
RTVSPost2010Prop51ColorRGB
 90
-16777216
102
RTVSPost2010PropOp51
 70
     0
102
RTVSPost2010Prop52
140
1.0
102
RTVSPost2010PropOp52
 70
     0
102
RTVSPost2010Prop53
 90
        2
102
RTVSPost2010PropOp53
 70
     1
102
RTVSPost2010Prop54
  1
strokes_ogs.tif
102
RTVSPost2010PropOp54
 70
     1
102
RTVSPost2010Prop55
280
     0
102
RTVSPost2010PropOp55
 70
     1
102
RTVSPost2010Prop56
140
1.0
102
RTVSPost2010PropOp56
 70
     1
102
RTVSPost2010Prop57
140
1.0
102
RTVSPost2010PropOp57
 70
     1
102
RTVSPropertyOp0
 70
     1
102
RTVSPropertyOp1
 70
     1
102
RTVSPropertyOp2
 70
     1
102
RTVSPropertyOp3
 70
     1
102
RTVSPropertyOp4
 70
     1
102
RTVSPropertyOp5
 70
     1
102
RTVSPropertyOp6
 70
     1
102
RTVSPropertyOp7
 70
     1
102
RTVSPropertyOp8
 70
     1
102
RTVSPropertyOp9
 70
     1
102
RTVSPropertyOp10
 70
     1
102
RTVSPropertyOp11
 70
     1
102
RTVSPropertyOp12
 70
     1
102
RTVSPropertyOp13
 70
     1
102
RTVSPropertyOp14
 70
     1
102
RTVSPropertyOp15
 70
     1
102
RTVSPropertyOp16
 70
     1
102
RTVSPropertyOp17
 70
     1
102
RTVSPropertyOp18
 70
     1
102
RTVSPropertyOp19
 70
     1
102
RTVSPropertyOp20
 70
     1
102
RTVSPropertyOp21
 70
     1
102
RTVSPropertyOp22
 70
     1
102
RTVSPropertyOp23
 70
     1
102
RTVSPropertyOp24
 70
     1
102
RTVSPropertyOp25
 70
     1
102
RTVSPropertyOp26
 70
     1
102
RTVSPropertyOp27
 70
     1
102
RTVSPropertyOp28
 70
     1
102
RTVSPropertyOp29
 70
     1
102
RTVSPropertyOp30
 70
     1
102
RTVSPropertyOp31
 70
     1
102
RTVSPropertyOp32
 70
     1
102
RTVSPropertyOp33
 70
     1
102
RTVSPropertyOp34
 70
     1
102
RTVSPropertyOp35
 70
     1
102
RTVSPropertyOp36
 70
     1
102
RTVSPropertyOp37
 70
     1
102
RTVSPropertyOp38
 70
     1
102
RTVSPropertyOp39
 70
     1
102
RTVSPropertyOp40
 70
     1
102
RTVSPropertyOp41
 70
     1
102
RTVSPropertyOp42
 70
     1
102
RTVSPropertyOp43
 70
     1
102
RTVSPropertyOp44
 70
     1
102
RTVSPropertyOp45
 70
     1
102
RTVSPropertyOp46
 70
     1
102
RTVSPropertyOp47
 70
     1
102
RTVSPropertyOp48
 70
     1
102
RTVSPropertyOp49
 70
     1
102
RTVSPropertyOp50
 70
     1
102
RTVSPropertyOp51
 70
     0
102
RTVSPropertyOp52
 70
     0
102
RTVSPropertyOp53
 70
     1
102
RTVSPropertyOp54
 70
     1
102
RTVSPropertyOp55
 70
     1
102
RTVSPropertyOp56
 70
     1
102
RTVSPropertyOp57
 70
     1
102
RTVSPropertyOp58
 70
     1
102
RTVSPropertyOp59
 70
     1
102
RTVSPropertyOp60
 70
     1
102
RTVSPropertyOp61
 70
     1
102
RTVSPropertyOp62
 70
     1
  0
XRECORD
  5
497
102
{ACAD_REACTORS
330
496
102
}
330
496
100
AcDbXrecord
280
     1
102
RTVSPost2010Prop28
280
     0
102
RTVSPost2010PropOp28
 70
     1
102
RTVSPost2010Prop29
280
     1
102
RTVSPost2010PropOp29
 70
     1
102
RTVSPost2010Prop30
280
     1
102
RTVSPost2010PropOp30
 70
     1
102
RTVSPost2010Prop31
280
     0
102
RTVSPost2010PropOp31
 70
     1
102
RTVSPost2010Prop32
280
     0
102
RTVSPost2010PropOp32
 70
     1
102
RTVSPost2010Prop33
280
     0
102
RTVSPost2010PropOp33
 70
     1
102
RTVSPost2010Prop34
280
     0
102
RTVSPost2010PropOp34
 70
     1
102
RTVSPost2010Prop35
280
     0
102
RTVSPost2010PropOp35
 70
     1
102
RTVSPost2010Prop36
280
     0
102
RTVSPost2010PropOp36
 70
     1
102
RTVSPost2010Prop37
 90
       50
102
RTVSPost2010PropOp37
 70
     1
102
RTVSPost2010Prop38
140
0.0
102
RTVSPost2010PropOp38
 70
     1
102
RTVSPost2010Prop39
140
1.0
102
RTVSPost2010PropOp39
 70
     1
102
RTVSPost2010Prop40
 90
        0
102
RTVSPost2010PropOp40
 70
     1
102
RTVSPost2010Prop41ColorIndex
 90
       18
102
RTVSPost2010Prop41ColorRGB
 90
        0
102
RTVSPost2010PropOp41
 70
     1
102
RTVSPost2010Prop42
 90
       50
102
RTVSPost2010PropOp42
 70
     1
102
RTVSPost2010Prop43
 90
        3
102
RTVSPost2010PropOp43
 70
     1
102
RTVSPost2010Prop44ColorIndex
 90
        5
102
RTVSPost2010Prop44ColorRGB
 90
      255
102
RTVSPost2010PropOp44
 70
     1
102
RTVSPost2010Prop45
280
     0
102
RTVSPost2010PropOp45
 70
     1
102
RTVSPost2010Prop46
 90
       50
102
RTVSPost2010PropOp46
 70
     1
102
RTVSPost2010Prop47
 90
       50
102
RTVSPost2010PropOp47
 70
     1
102
RTVSPost2010Prop48
 90
       50
102
RTVSPost2010PropOp48
 70
     1
102
RTVSPost2010Prop49
280
     0
102
RTVSPost2010PropOp49
 70
     1
102
RTVSPost2010Prop50
 90
       50
102
RTVSPost2010PropOp50
 70
     1
102
RTVSPost2010Prop51ColorIndex
 90
      256
102
RTVSPost2010Prop51ColorRGB
 90
-16777216
102
RTVSPost2010PropOp51
 70
     0
102
RTVSPost2010Prop52
140
1.0
102
RTVSPost2010PropOp52
 70
     0
102
RTVSPost2010Prop53
 90
        2
102
RTVSPost2010PropOp53
 70
     1
102
RTVSPost2010Prop54
  1
strokes_ogs.tif
102
RTVSPost2010PropOp54
 70
     1
102
RTVSPost2010Prop55
280
     0
102
RTVSPost2010PropOp55
 70
     1
102
RTVSPost2010Prop56
140
1.0
102
RTVSPost2010PropOp56
 70
     1
102
RTVSPost2010Prop57
140
1.0
102
RTVSPost2010PropOp57
 70
     1
102
RTVSPropertyOp0
 70
     1
102
RTVSPropertyOp1
 70
     1
102
RTVSPropertyOp2
 70
     1
102
RTVSPropertyOp3
 70
     1
102
RTVSPropertyOp4
 70
     1
102
RTVSPropertyOp5
 70
     1
102
RTVSPropertyOp6
 70
     1
102
RTVSPropertyOp7
 70
     1
102
RTVSPropertyOp8
 70
     1
102
RTVSPropertyOp9
 70
     1
102
RTVSPropertyOp10
 70
     1
102
RTVSPropertyOp11
 70
     1
102
RTVSPropertyOp12
 70
     1
102
RTVSPropertyOp13
 70
     1
102
RTVSPropertyOp14
 70
     1
102
RTVSPropertyOp15
 70
     1
102
RTVSPropertyOp16
 70
     1
102
RTVSPropertyOp17
 70
     1
102
RTVSPropertyOp18
 70
     1
102
RTVSPropertyOp19
 70
     1
102
RTVSPropertyOp20
 70
     1
102
RTVSPropertyOp21
 70
     1
102
RTVSPropertyOp22
 70
     1
102
RTVSPropertyOp23
 70
     1
102
RTVSPropertyOp24
 70
     1
102
RTVSPropertyOp25
 70
     1
102
RTVSPropertyOp26
 70
     1
102
RTVSPropertyOp27
 70
     1
102
RTVSPropertyOp28
 70
     1
102
RTVSPropertyOp29
 70
     1
102
RTVSPropertyOp30
 70
     1
102
RTVSPropertyOp31
 70
     1
102
RTVSPropertyOp32
 70
     1
102
RTVSPropertyOp33
 70
     1
102
RTVSPropertyOp34
 70
     1
102
RTVSPropertyOp35
 70
     1
102
RTVSPropertyOp36
 70
     1
102
RTVSPropertyOp37
 70
     1
102
RTVSPropertyOp38
 70
     1
102
RTVSPropertyOp39
 70
     1
102
RTVSPropertyOp40
 70
     1
102
RTVSPropertyOp41
 70
     1
102
RTVSPropertyOp42
 70
     1
102
RTVSPropertyOp43
 70
     1
102
RTVSPropertyOp44
 70
     1
102
RTVSPropertyOp45
 70
     1
102
RTVSPropertyOp46
 70
     1
102
RTVSPropertyOp47
 70
     1
102
RTVSPropertyOp48
 70
     1
102
RTVSPropertyOp49
 70
     1
102
RTVSPropertyOp50
 70
     1
102
RTVSPropertyOp51
 70
     0
102
RTVSPropertyOp52
 70
     0
102
RTVSPropertyOp53
 70
     1
102
RTVSPropertyOp54
 70
     1
102
RTVSPropertyOp55
 70
     1
102
RTVSPropertyOp56
 70
     1
102
RTVSPropertyOp57
 70
     1
102
RTVSPropertyOp58
 70
     1
102
RTVSPropertyOp59
 70
     1
102
RTVSPropertyOp60
 70
     1
102
RTVSPropertyOp61
 70
     1
102
RTVSPropertyOp62
 70
     1
  0
XRECORD
  5
491
102
{ACAD_REACTORS
330
490
102
}
330
490
100
AcDbXrecord
280
     1
102
RTVSPost2010Prop28
280
     0
102
RTVSPost2010PropOp28
 70
     1
102
RTVSPost2010Prop29
280
     1
102
RTVSPost2010PropOp29
 70
     1
102
RTVSPost2010Prop30
280
     1
102
RTVSPost2010PropOp30
 70
     1
102
RTVSPost2010Prop31
280
     0
102
RTVSPost2010PropOp31
 70
     1
102
RTVSPost2010Prop32
280
     0
102
RTVSPost2010PropOp32
 70
     1
102
RTVSPost2010Prop33
280
     0
102
RTVSPost2010PropOp33
 70
     1
102
RTVSPost2010Prop34
280
     0
102
RTVSPost2010PropOp34
 70
     1
102
RTVSPost2010Prop35
280
     0
102
RTVSPost2010PropOp35
 70
     1
102
RTVSPost2010Prop36
280
     0
102
RTVSPost2010PropOp36
 70
     1
102
RTVSPost2010Prop37
 90
       50
102
RTVSPost2010PropOp37
 70
     1
102
RTVSPost2010Prop38
140
0.0
102
RTVSPost2010PropOp38
 70
     1
102
RTVSPost2010Prop39
140
1.0
102
RTVSPost2010PropOp39
 70
     1
102
RTVSPost2010Prop40
 90
        0
102
RTVSPost2010PropOp40
 70
     1
102
RTVSPost2010Prop41ColorIndex
 90
       18
102
RTVSPost2010Prop41ColorRGB
 90
        0
102
RTVSPost2010PropOp41
 70
     1
102
RTVSPost2010Prop42
 90
       50
102
RTVSPost2010PropOp42
 70
     1
102
RTVSPost2010Prop43
 90
        3
102
RTVSPost2010PropOp43
 70
     1
102
RTVSPost2010Prop44ColorIndex
 90
        5
102
RTVSPost2010Prop44ColorRGB
 90
      255
102
RTVSPost2010PropOp44
 70
     1
102
RTVSPost2010Prop45
280
     0
102
RTVSPost2010PropOp45
 70
     1
102
RTVSPost2010Prop46
 90
       50
102
RTVSPost2010PropOp46
 70
     1
102
RTVSPost2010Prop47
 90
       50
102
RTVSPost2010PropOp47
 70
     1
102
RTVSPost2010Prop48
 90
       50
102
RTVSPost2010PropOp48
 70
     1
102
RTVSPost2010Prop49
280
     0
102
RTVSPost2010PropOp49
 70
     1
102
RTVSPost2010Prop50
 90
       50
102
RTVSPost2010PropOp50
 70
     1
102
RTVSPost2010Prop51ColorIndex
 90
      256
102
RTVSPost2010Prop51ColorRGB
 90
-16777216
102
RTVSPost2010PropOp51
 70
     0
102
RTVSPost2010Prop52
140
1.0
102
RTVSPost2010PropOp52
 70
     0
102
RTVSPost2010Prop53
 90
        2
102
RTVSPost2010PropOp53
 70
     1
102
RTVSPost2010Prop54
  1
strokes_ogs.tif
102
RTVSPost2010PropOp54
 70
     1
102
RTVSPost2010Prop55
280
     0
102
RTVSPost2010PropOp55
 70
     1
102
RTVSPost2010Prop56
140
1.0
102
RTVSPost2010PropOp56
 70
     1
102
RTVSPost2010Prop57
140
1.0
102
RTVSPost2010PropOp57
 70
     1
102
RTVSPropertyOp0
 70
     1
102
RTVSPropertyOp1
 70
     1
102
RTVSPropertyOp2
 70
     1
102
RTVSPropertyOp3
 70
     1
102
RTVSPropertyOp4
 70
     1
102
RTVSPropertyOp5
 70
     1
102
RTVSPropertyOp6
 70
     1
102
RTVSPropertyOp7
 70
     1
102
RTVSPropertyOp8
 70
     1
102
RTVSPropertyOp9
 70
     1
102
RTVSPropertyOp10
 70
     1
102
RTVSPropertyOp11
 70
     1
102
RTVSPropertyOp12
 70
     1
102
RTVSPropertyOp13
 70
     1
102
RTVSPropertyOp14
 70
     1
102
RTVSPropertyOp15
 70
     1
102
RTVSPropertyOp16
 70
     1
102
RTVSPropertyOp17
 70
     1
102
RTVSPropertyOp18
 70
     1
102
RTVSPropertyOp19
 70
     1
102
RTVSPropertyOp20
 70
     1
102
RTVSPropertyOp21
 70
     1
102
RTVSPropertyOp22
 70
     1
102
RTVSPropertyOp23
 70
     1
102
RTVSPropertyOp24
 70
     1
102
RTVSPropertyOp25
 70
     1
102
RTVSPropertyOp26
 70
     1
102
RTVSPropertyOp27
 70
     1
102
RTVSPropertyOp28
 70
     1
102
RTVSPropertyOp29
 70
     1
102
RTVSPropertyOp30
 70
     1
102
RTVSPropertyOp31
 70
     1
102
RTVSPropertyOp32
 70
     1
102
RTVSPropertyOp33
 70
     1
102
RTVSPropertyOp34
 70
     1
102
RTVSPropertyOp35
 70
     1
102
RTVSPropertyOp36
 70
     1
102
RTVSPropertyOp37
 70
     1
102
RTVSPropertyOp38
 70
     1
102
RTVSPropertyOp39
 70
     1
102
RTVSPropertyOp40
 70
     1
102
RTVSPropertyOp41
 70
     1
102
RTVSPropertyOp42
 70
     1
102
RTVSPropertyOp43
 70
     1
102
RTVSPropertyOp44
 70
     1
102
RTVSPropertyOp45
 70
     1
102
RTVSPropertyOp46
 70
     1
102
RTVSPropertyOp47
 70
     1
102
RTVSPropertyOp48
 70
     1
102
RTVSPropertyOp49
 70
     1
102
RTVSPropertyOp50
 70
     1
102
RTVSPropertyOp51
 70
     0
102
RTVSPropertyOp52
 70
     0
102
RTVSPropertyOp53
 70
     1
102
RTVSPropertyOp54
 70
     1
102
RTVSPropertyOp55
 70
     1
102
RTVSPropertyOp56
 70
     1
102
RTVSPropertyOp57
 70
     1
102
RTVSPropertyOp58
 70
     1
102
RTVSPropertyOp59
 70
     1
102
RTVSPropertyOp60
 70
     1
102
RTVSPropertyOp61
 70
     1
102
RTVSPropertyOp62
 70
     1
  0
XRECORD
  5
493
102
{ACAD_REACTORS
330
492
102
}
330
492
100
AcDbXrecord
280
     1
102
RTVSPost2010Prop28
280
     0
102
RTVSPost2010PropOp28
 70
     1
102
RTVSPost2010Prop29
280
     1
102
RTVSPost2010PropOp29
 70
     1
102
RTVSPost2010Prop30
280
     1
102
RTVSPost2010PropOp30
 70
     1
102
RTVSPost2010Prop31
280
     0
102
RTVSPost2010PropOp31
 70
     1
102
RTVSPost2010Prop32
280
     0
102
RTVSPost2010PropOp32
 70
     1
102
RTVSPost2010Prop33
280
     0
102
RTVSPost2010PropOp33
 70
     1
102
RTVSPost2010Prop34
280
     0
102
RTVSPost2010PropOp34
 70
     1
102
RTVSPost2010Prop35
280
     0
102
RTVSPost2010PropOp35
 70
     1
102
RTVSPost2010Prop36
280
     0
102
RTVSPost2010PropOp36
 70
     1
102
RTVSPost2010Prop37
 90
       50
102
RTVSPost2010PropOp37
 70
     1
102
RTVSPost2010Prop38
140
0.0
102
RTVSPost2010PropOp38
 70
     1
102
RTVSPost2010Prop39
140
1.0
102
RTVSPost2010PropOp39
 70
     1
102
RTVSPost2010Prop40
 90
        0
102
RTVSPost2010PropOp40
 70
     1
102
RTVSPost2010Prop41ColorIndex
 90
       18
102
RTVSPost2010Prop41ColorRGB
 90
        0
102
RTVSPost2010PropOp41
 70
     1
102
RTVSPost2010Prop42
 90
       50
102
RTVSPost2010PropOp42
 70
     1
102
RTVSPost2010Prop43
 90
        3
102
RTVSPost2010PropOp43
 70
     1
102
RTVSPost2010Prop44ColorIndex
 90
        5
102
RTVSPost2010Prop44ColorRGB
 90
      255
102
RTVSPost2010PropOp44
 70
     1
102
RTVSPost2010Prop45
280
     0
102
RTVSPost2010PropOp45
 70
     1
102
RTVSPost2010Prop46
 90
       50
102
RTVSPost2010PropOp46
 70
     1
102
RTVSPost2010Prop47
 90
       50
102
RTVSPost2010PropOp47
 70
     1
102
RTVSPost2010Prop48
 90
       50
102
RTVSPost2010PropOp48
 70
     1
102
RTVSPost2010Prop49
280
     0
102
RTVSPost2010PropOp49
 70
     1
102
RTVSPost2010Prop50
 90
       50
102
RTVSPost2010PropOp50
 70
     1
102
RTVSPost2010Prop51ColorIndex
 90
      256
102
RTVSPost2010Prop51ColorRGB
 90
-16777216
102
RTVSPost2010PropOp51
 70
     0
102
RTVSPost2010Prop52
140
1.0
102
RTVSPost2010PropOp52
 70
     0
102
RTVSPost2010Prop53
 90
        2
102
RTVSPost2010PropOp53
 70
     1
102
RTVSPost2010Prop54
  1
strokes_ogs.tif
102
RTVSPost2010PropOp54
 70
     1
102
RTVSPost2010Prop55
280
     0
102
RTVSPost2010PropOp55
 70
     1
102
RTVSPost2010Prop56
140
1.0
102
RTVSPost2010PropOp56
 70
     1
102
RTVSPost2010Prop57
140
1.0
102
RTVSPost2010PropOp57
 70
     1
102
RTVSPropertyOp0
 70
     1
102
RTVSPropertyOp1
 70
     1
102
RTVSPropertyOp2
 70
     1
102
RTVSPropertyOp3
 70
     1
102
RTVSPropertyOp4
 70
     1
102
RTVSPropertyOp5
 70
     1
102
RTVSPropertyOp6
 70
     1
102
RTVSPropertyOp7
 70
     1
102
RTVSPropertyOp8
 70
     1
102
RTVSPropertyOp9
 70
     1
102
RTVSPropertyOp10
 70
     1
102
RTVSPropertyOp11
 70
     1
102
RTVSPropertyOp12
 70
     1
102
RTVSPropertyOp13
 70
     1
102
RTVSPropertyOp14
 70
     1
102
RTVSPropertyOp15
 70
     1
102
RTVSPropertyOp16
 70
     1
102
RTVSPropertyOp17
 70
     1
102
RTVSPropertyOp18
 70
     1
102
RTVSPropertyOp19
 70
     1
102
RTVSPropertyOp20
 70
     1
102
RTVSPropertyOp21
 70
     1
102
RTVSPropertyOp22
 70
     1
102
RTVSPropertyOp23
 70
     1
102
RTVSPropertyOp24
 70
     1
102
RTVSPropertyOp25
 70
     1
102
RTVSPropertyOp26
 70
     1
102
RTVSPropertyOp27
 70
     1
102
RTVSPropertyOp28
 70
     1
102
RTVSPropertyOp29
 70
     1
102
RTVSPropertyOp30
 70
     1
102
RTVSPropertyOp31
 70
     1
102
RTVSPropertyOp32
 70
     1
102
RTVSPropertyOp33
 70
     1
102
RTVSPropertyOp34
 70
     1
102
RTVSPropertyOp35
 70
     1
102
RTVSPropertyOp36
 70
     1
102
RTVSPropertyOp37
 70
     1
102
RTVSPropertyOp38
 70
     1
102
RTVSPropertyOp39
 70
     1
102
RTVSPropertyOp40
 70
     1
102
RTVSPropertyOp41
 70
     1
102
RTVSPropertyOp42
 70
     1
102
RTVSPropertyOp43
 70
     1
102
RTVSPropertyOp44
 70
     1
102
RTVSPropertyOp45
 70
     1
102
RTVSPropertyOp46
 70
     1
102
RTVSPropertyOp47
 70
     1
102
RTVSPropertyOp48
 70
     1
102
RTVSPropertyOp49
 70
     1
102
RTVSPropertyOp50
 70
     1
102
RTVSPropertyOp51
 70
     0
102
RTVSPropertyOp52
 70
     0
102
RTVSPropertyOp53
 70
     1
102
RTVSPropertyOp54
 70
     1
102
RTVSPropertyOp55
 70
     1
102
RTVSPropertyOp56
 70
     1
102
RTVSPropertyOp57
 70
     1
102
RTVSPropertyOp58
 70
     1
102
RTVSPropertyOp59
 70
     1
102
RTVSPropertyOp60
 70
     1
102
RTVSPropertyOp61
 70
     1
102
RTVSPropertyOp62
 70
     1
  0
XRECORD
  5
489
102
{ACAD_REACTORS
330
488
102
}
330
488
100
AcDbXrecord
280
     1
102
RTVSPost2010Prop28
280
     0
102
RTVSPost2010PropOp28
 70
     1
102
RTVSPost2010Prop29
280
     1
102
RTVSPost2010PropOp29
 70
     1
102
RTVSPost2010Prop30
280
     1
102
RTVSPost2010PropOp30
 70
     1
102
RTVSPost2010Prop31
280
     0
102
RTVSPost2010PropOp31
 70
     1
102
RTVSPost2010Prop32
280
     0
102
RTVSPost2010PropOp32
 70
     1
102
RTVSPost2010Prop33
280
     0
102
RTVSPost2010PropOp33
 70
     1
102
RTVSPost2010Prop34
280
     0
102
RTVSPost2010PropOp34
 70
     1
102
RTVSPost2010Prop35
280
     0
102
RTVSPost2010PropOp35
 70
     1
102
RTVSPost2010Prop36
280
     0
102
RTVSPost2010PropOp36
 70
     1
102
RTVSPost2010Prop37
 90
       50
102
RTVSPost2010PropOp37
 70
     1
102
RTVSPost2010Prop38
140
0.0
102
RTVSPost2010PropOp38
 70
     1
102
RTVSPost2010Prop39
140
1.0
102
RTVSPost2010PropOp39
 70
     1
102
RTVSPost2010Prop40
 90
        0
102
RTVSPost2010PropOp40
 70
     1
102
RTVSPost2010Prop41ColorIndex
 90
       18
102
RTVSPost2010Prop41ColorRGB
 90
        0
102
RTVSPost2010PropOp41
 70
     1
102
RTVSPost2010Prop42
 90
       50
102
RTVSPost2010PropOp42
 70
     1
102
RTVSPost2010Prop43
 90
        3
102
RTVSPost2010PropOp43
 70
     1
102
RTVSPost2010Prop44ColorIndex
 90
        5
102
RTVSPost2010Prop44ColorRGB
 90
      255
102
RTVSPost2010PropOp44
 70
     1
102
RTVSPost2010Prop45
280
     0
102
RTVSPost2010PropOp45
 70
     1
102
RTVSPost2010Prop46
 90
       50
102
RTVSPost2010PropOp46
 70
     1
102
RTVSPost2010Prop47
 90
       50
102
RTVSPost2010PropOp47
 70
     1
102
RTVSPost2010Prop48
 90
       50
102
RTVSPost2010PropOp48
 70
     1
102
RTVSPost2010Prop49
280
     0
102
RTVSPost2010PropOp49
 70
     1
102
RTVSPost2010Prop50
 90
       50
102
RTVSPost2010PropOp50
 70
     1
102
RTVSPost2010Prop51ColorIndex
 90
      256
102
RTVSPost2010Prop51ColorRGB
 90
-16777216
102
RTVSPost2010PropOp51
 70
     0
102
RTVSPost2010Prop52
140
1.0
102
RTVSPost2010PropOp52
 70
     0
102
RTVSPost2010Prop53
 90
        2
102
RTVSPost2010PropOp53
 70
     1
102
RTVSPost2010Prop54
  1
strokes_ogs.tif
102
RTVSPost2010PropOp54
 70
     1
102
RTVSPost2010Prop55
280
     0
102
RTVSPost2010PropOp55
 70
     1
102
RTVSPost2010Prop56
140
1.0
102
RTVSPost2010PropOp56
 70
     1
102
RTVSPost2010Prop57
140
1.0
102
RTVSPost2010PropOp57
 70
     1
102
RTVSPropertyOp0
 70
     1
102
RTVSPropertyOp1
 70
     1
102
RTVSPropertyOp2
 70
     1
102
RTVSPropertyOp3
 70
     1
102
RTVSPropertyOp4
 70
     1
102
RTVSPropertyOp5
 70
     1
102
RTVSPropertyOp6
 70
     1
102
RTVSPropertyOp7
 70
     1
102
RTVSPropertyOp8
 70
     1
102
RTVSPropertyOp9
 70
     1
102
RTVSPropertyOp10
 70
     1
102
RTVSPropertyOp11
 70
     1
102
RTVSPropertyOp12
 70
     1
102
RTVSPropertyOp13
 70
     1
102
RTVSPropertyOp14
 70
     1
102
RTVSPropertyOp15
 70
     1
102
RTVSPropertyOp16
 70
     1
102
RTVSPropertyOp17
 70
     1
102
RTVSPropertyOp18
 70
     1
102
RTVSPropertyOp19
 70
     1
102
RTVSPropertyOp20
 70
     1
102
RTVSPropertyOp21
 70
     1
102
RTVSPropertyOp22
 70
     1
102
RTVSPropertyOp23
 70
     1
102
RTVSPropertyOp24
 70
     1
102
RTVSPropertyOp25
 70
     1
102
RTVSPropertyOp26
 70
     1
102
RTVSPropertyOp27
 70
     1
102
RTVSPropertyOp28
 70
     1
102
RTVSPropertyOp29
 70
     1
102
RTVSPropertyOp30
 70
     1
102
RTVSPropertyOp31
 70
     1
102
RTVSPropertyOp32
 70
     1
102
RTVSPropertyOp33
 70
     1
102
RTVSPropertyOp34
 70
     1
102
RTVSPropertyOp35
 70
     1
102
RTVSPropertyOp36
 70
     1
102
RTVSPropertyOp37
 70
     1
102
RTVSPropertyOp38
 70
     1
102
RTVSPropertyOp39
 70
     1
102
RTVSPropertyOp40
 70
     1
102
RTVSPropertyOp41
 70
     1
102
RTVSPropertyOp42
 70
     1
102
RTVSPropertyOp43
 70
     1
102
RTVSPropertyOp44
 70
     1
102
RTVSPropertyOp45
 70
     1
102
RTVSPropertyOp46
 70
     1
102
RTVSPropertyOp47
 70
     1
102
RTVSPropertyOp48
 70
     1
102
RTVSPropertyOp49
 70
     1
102
RTVSPropertyOp50
 70
     1
102
RTVSPropertyOp51
 70
     0
102
RTVSPropertyOp52
 70
     0
102
RTVSPropertyOp53
 70
     1
102
RTVSPropertyOp54
 70
     1
102
RTVSPropertyOp55
 70
     1
102
RTVSPropertyOp56
 70
     1
102
RTVSPropertyOp57
 70
     1
102
RTVSPropertyOp58
 70
     1
102
RTVSPropertyOp59
 70
     1
102
RTVSPropertyOp60
 70
     1
102
RTVSPropertyOp61
 70
     1
102
RTVSPropertyOp62
 70
     1
  0
XRECORD
  5
47D
102
{ACAD_REACTORS
330
47C
102
}
330
47C
100
AcDbXrecord
280
     1
102
RTVSPost2010Prop28
280
     0
102
RTVSPost2010PropOp28
 70
     1
102
RTVSPost2010Prop29
280
     1
102
RTVSPost2010PropOp29
 70
     1
102
RTVSPost2010Prop30
280
     1
102
RTVSPost2010PropOp30
 70
     1
102
RTVSPost2010Prop31
280
     0
102
RTVSPost2010PropOp31
 70
     1
102
RTVSPost2010Prop32
280
     0
102
RTVSPost2010PropOp32
 70
     1
102
RTVSPost2010Prop33
280
     0
102
RTVSPost2010PropOp33
 70
     1
102
RTVSPost2010Prop34
280
     0
102
RTVSPost2010PropOp34
 70
     1
102
RTVSPost2010Prop35
280
     0
102
RTVSPost2010PropOp35
 70
     1
102
RTVSPost2010Prop36
280
     0
102
RTVSPost2010PropOp36
 70
     1
102
RTVSPost2010Prop37
 90
       50
102
RTVSPost2010PropOp37
 70
     1
102
RTVSPost2010Prop38
140
0.0
102
RTVSPost2010PropOp38
 70
     1
102
RTVSPost2010Prop39
140
1.0
102
RTVSPost2010PropOp39
 70
     1
102
RTVSPost2010Prop40
 90
        0
102
RTVSPost2010PropOp40
 70
     1
102
RTVSPost2010Prop41ColorIndex
 90
       18
102
RTVSPost2010Prop41ColorRGB
 90
        0
102
RTVSPost2010PropOp41
 70
     1
102
RTVSPost2010Prop42
 90
       50
102
RTVSPost2010PropOp42
 70
     1
102
RTVSPost2010Prop43
 90
        3
102
RTVSPost2010PropOp43
 70
     1
102
RTVSPost2010Prop44ColorIndex
 90
        5
102
RTVSPost2010Prop44ColorRGB
 90
      255
102
RTVSPost2010PropOp44
 70
     1
102
RTVSPost2010Prop45
280
     0
102
RTVSPost2010PropOp45
 70
     1
102
RTVSPost2010Prop46
 90
       50
102
RTVSPost2010PropOp46
 70
     1
102
RTVSPost2010Prop47
 90
       50
102
RTVSPost2010PropOp47
 70
     1
102
RTVSPost2010Prop48
 90
       50
102
RTVSPost2010PropOp48
 70
     1
102
RTVSPost2010Prop49
280
     0
102
RTVSPost2010PropOp49
 70
     1
102
RTVSPost2010Prop50
 90
       50
102
RTVSPost2010PropOp50
 70
     1
102
RTVSPost2010Prop51ColorIndex
 90
      256
102
RTVSPost2010Prop51ColorRGB
 90
-16777216
102
RTVSPost2010PropOp51
 70
     0
102
RTVSPost2010Prop52
140
1.0
102
RTVSPost2010PropOp52
 70
     0
102
RTVSPost2010Prop53
 90
        2
102
RTVSPost2010PropOp53
 70
     1
102
RTVSPost2010Prop54
  1
strokes_ogs.tif
102
RTVSPost2010PropOp54
 70
     1
102
RTVSPost2010Prop55
280
     0
102
RTVSPost2010PropOp55
 70
     1
102
RTVSPost2010Prop56
140
1.0
102
RTVSPost2010PropOp56
 70
     1
102
RTVSPost2010Prop57
140
1.0
102
RTVSPost2010PropOp57
 70
     1
102
RTVSPropertyOp0
 70
     1
102
RTVSPropertyOp1
 70
     1
102
RTVSPropertyOp2
 70
     1
102
RTVSPropertyOp3
 70
     1
102
RTVSPropertyOp4
 70
     1
102
RTVSPropertyOp5
 70
     1
102
RTVSPropertyOp6
 70
     1
102
RTVSPropertyOp7
 70
     1
102
RTVSPropertyOp8
 70
     1
102
RTVSPropertyOp9
 70
     1
102
RTVSPropertyOp10
 70
     1
102
RTVSPropertyOp11
 70
     1
102
RTVSPropertyOp12
 70
     1
102
RTVSPropertyOp13
 70
     1
102
RTVSPropertyOp14
 70
     1
102
RTVSPropertyOp15
 70
     1
102
RTVSPropertyOp16
 70
     1
102
RTVSPropertyOp17
 70
     1
102
RTVSPropertyOp18
 70
     1
102
RTVSPropertyOp19
 70
     1
102
RTVSPropertyOp20
 70
     1
102
RTVSPropertyOp21
 70
     1
102
RTVSPropertyOp22
 70
     1
102
RTVSPropertyOp23
 70
     1
102
RTVSPropertyOp24
 70
     1
102
RTVSPropertyOp25
 70
     1
102
RTVSPropertyOp26
 70
     1
102
RTVSPropertyOp27
 70
     1
102
RTVSPropertyOp28
 70
     1
102
RTVSPropertyOp29
 70
     1
102
RTVSPropertyOp30
 70
     1
102
RTVSPropertyOp31
 70
     1
102
RTVSPropertyOp32
 70
     1
102
RTVSPropertyOp33
 70
     1
102
RTVSPropertyOp34
 70
     1
102
RTVSPropertyOp35
 70
     1
102
RTVSPropertyOp36
 70
     1
102
RTVSPropertyOp37
 70
     1
102
RTVSPropertyOp38
 70
     1
102
RTVSPropertyOp39
 70
     1
102
RTVSPropertyOp40
 70
     1
102
RTVSPropertyOp41
 70
     1
102
RTVSPropertyOp42
 70
     1
102
RTVSPropertyOp43
 70
     1
102
RTVSPropertyOp44
 70
     1
102
RTVSPropertyOp45
 70
     1
102
RTVSPropertyOp46
 70
     1
102
RTVSPropertyOp47
 70
     1
102
RTVSPropertyOp48
 70
     1
102
RTVSPropertyOp49
 70
     1
102
RTVSPropertyOp50
 70
     1
102
RTVSPropertyOp51
 70
     0
102
RTVSPropertyOp52
 70
     0
102
RTVSPropertyOp53
 70
     1
102
RTVSPropertyOp54
 70
     1
102
RTVSPropertyOp55
 70
     1
102
RTVSPropertyOp56
 70
     1
102
RTVSPropertyOp57
 70
     1
102
RTVSPropertyOp58
 70
     1
102
RTVSPropertyOp59
 70
     1
102
RTVSPropertyOp60
 70
     1
102
RTVSPropertyOp61
 70
     1
102
RTVSPropertyOp62
 70
     1
  0
XRECORD
  5
495
102
{ACAD_REACTORS
330
494
102
}
330
494
100
AcDbXrecord
280
     1
102
RTVSPost2010Prop28
280
     0
102
RTVSPost2010PropOp28
 70
     1
102
RTVSPost2010Prop29
280
     1
102
RTVSPost2010PropOp29
 70
     1
102
RTVSPost2010Prop30
280
     1
102
RTVSPost2010PropOp30
 70
     1
102
RTVSPost2010Prop31
280
     0
102
RTVSPost2010PropOp31
 70
     1
102
RTVSPost2010Prop32
280
     0
102
RTVSPost2010PropOp32
 70
     1
102
RTVSPost2010Prop33
280
     0
102
RTVSPost2010PropOp33
 70
     1
102
RTVSPost2010Prop34
280
     0
102
RTVSPost2010PropOp34
 70
     1
102
RTVSPost2010Prop35
280
     0
102
RTVSPost2010PropOp35
 70
     1
102
RTVSPost2010Prop36
280
     0
102
RTVSPost2010PropOp36
 70
     1
102
RTVSPost2010Prop37
 90
       50
102
RTVSPost2010PropOp37
 70
     1
102
RTVSPost2010Prop38
140
0.0
102
RTVSPost2010PropOp38
 70
     1
102
RTVSPost2010Prop39
140
1.0
102
RTVSPost2010PropOp39
 70
     1
102
RTVSPost2010Prop40
 90
        0
102
RTVSPost2010PropOp40
 70
     1
102
RTVSPost2010Prop41ColorIndex
 90
       18
102
RTVSPost2010Prop41ColorRGB
 90
        0
102
RTVSPost2010PropOp41
 70
     1
102
RTVSPost2010Prop42
 90
       50
102
RTVSPost2010PropOp42
 70
     1
102
RTVSPost2010Prop43
 90
        3
102
RTVSPost2010PropOp43
 70
     1
102
RTVSPost2010Prop44ColorIndex
 90
        5
102
RTVSPost2010Prop44ColorRGB
 90
      255
102
RTVSPost2010PropOp44
 70
     1
102
RTVSPost2010Prop45
280
     0
102
RTVSPost2010PropOp45
 70
     1
102
RTVSPost2010Prop46
 90
       50
102
RTVSPost2010PropOp46
 70
     1
102
RTVSPost2010Prop47
 90
       50
102
RTVSPost2010PropOp47
 70
     1
102
RTVSPost2010Prop48
 90
       50
102
RTVSPost2010PropOp48
 70
     1
102
RTVSPost2010Prop49
280
     0
102
RTVSPost2010PropOp49
 70
     1
102
RTVSPost2010Prop50
 90
       50
102
RTVSPost2010PropOp50
 70
     1
102
RTVSPost2010Prop51ColorIndex
 90
      256
102
RTVSPost2010Prop51ColorRGB
 90
-16777216
102
RTVSPost2010PropOp51
 70
     0
102
RTVSPost2010Prop52
140
1.0
102
RTVSPost2010PropOp52
 70
     0
102
RTVSPost2010Prop53
 90
        2
102
RTVSPost2010PropOp53
 70
     1
102
RTVSPost2010Prop54
  1
strokes_ogs.tif
102
RTVSPost2010PropOp54
 70
     1
102
RTVSPost2010Prop55
280
     0
102
RTVSPost2010PropOp55
 70
     1
102
RTVSPost2010Prop56
140
1.0
102
RTVSPost2010PropOp56
 70
     1
102
RTVSPost2010Prop57
140
1.0
102
RTVSPost2010PropOp57
 70
     1
102
RTVSPropertyOp0
 70
     1
102
RTVSPropertyOp1
 70
     1
102
RTVSPropertyOp2
 70
     1
102
RTVSPropertyOp3
 70
     1
102
RTVSPropertyOp4
 70
     1
102
RTVSPropertyOp5
 70
     1
102
RTVSPropertyOp6
 70
     1
102
RTVSPropertyOp7
 70
     1
102
RTVSPropertyOp8
 70
     1
102
RTVSPropertyOp9
 70
     1
102
RTVSPropertyOp10
 70
     1
102
RTVSPropertyOp11
 70
     1
102
RTVSPropertyOp12
 70
     1
102
RTVSPropertyOp13
 70
     1
102
RTVSPropertyOp14
 70
     1
102
RTVSPropertyOp15
 70
     1
102
RTVSPropertyOp16
 70
     1
102
RTVSPropertyOp17
 70
     1
102
RTVSPropertyOp18
 70
     1
102
RTVSPropertyOp19
 70
     1
102
RTVSPropertyOp20
 70
     1
102
RTVSPropertyOp21
 70
     1
102
RTVSPropertyOp22
 70
     1
102
RTVSPropertyOp23
 70
     1
102
RTVSPropertyOp24
 70
     1
102
RTVSPropertyOp25
 70
     1
102
RTVSPropertyOp26
 70
     1
102
RTVSPropertyOp27
 70
     1
102
RTVSPropertyOp28
 70
     1
102
RTVSPropertyOp29
 70
     1
102
RTVSPropertyOp30
 70
     1
102
RTVSPropertyOp31
 70
     1
102
RTVSPropertyOp32
 70
     1
102
RTVSPropertyOp33
 70
     1
102
RTVSPropertyOp34
 70
     1
102
RTVSPropertyOp35
 70
     1
102
RTVSPropertyOp36
 70
     1
102
RTVSPropertyOp37
 70
     1
102
RTVSPropertyOp38
 70
     1
102
RTVSPropertyOp39
 70
     1
102
RTVSPropertyOp40
 70
     1
102
RTVSPropertyOp41
 70
     1
102
RTVSPropertyOp42
 70
     1
102
RTVSPropertyOp43
 70
     1
102
RTVSPropertyOp44
 70
     1
102
RTVSPropertyOp45
 70
     1
102
RTVSPropertyOp46
 70
     1
102
RTVSPropertyOp47
 70
     1
102
RTVSPropertyOp48
 70
     1
102
RTVSPropertyOp49
 70
     1
102
RTVSPropertyOp50
 70
     1
102
RTVSPropertyOp51
 70
     0
102
RTVSPropertyOp52
 70
     0
102
RTVSPropertyOp53
 70
     1
102
RTVSPropertyOp54
 70
     1
102
RTVSPropertyOp55
 70
     1
102
RTVSPropertyOp56
 70
     1
102
RTVSPropertyOp57
 70
     1
102
RTVSPropertyOp58
 70
     1
102
RTVSPropertyOp59
 70
     1
102
RTVSPropertyOp60
 70
     1
102
RTVSPropertyOp61
 70
     1
102
RTVSPropertyOp62
 70
     1
  0
ENDSEC
  0
EOF
