  0
SECTION
  2
HEADER
  9
$ACADVER
  1
AC1015
  9
$ACADMAINTVER
 70
    20
  9
$DWGCODEPAGE
  3
ANSI_932
  9
$INSBASE
 10
0.0
 20
0.0
 30
0.0
  9
$EXTMIN
 10
-0.1281640493871237
 20
-0.0906302920675444
 30
-0.0015258207003583
  9
$EXTMAX
 10
4200.128183607161
 20
2970.090644122207
 30
0.0000000349246037
  9
$LIMMIN
 10
0.0
 20
0.0
  9
$LIMMAX
 10
12.0
 20
9.0
  9
$ORTHOMODE
 70
     0
  9
$REGENMODE
 70
     1
  9
$FILLMODE
 70
     1
  9
$QTEXTMODE
 70
     0
  9
$MIRRTEXT
 70
     0
  9
$LTSCALE
 40
10.0
  9
$ATTMODE
 70
     1
  9
$TEXTSIZE
 40
0.0
  9
$TRACEWID
 40
0.05
  9
$TEXTSTYLE
  7
STANDARD
  9
$CLAYER
  8
0
  9
$CELTYPE
  6
CONTINUOUS
  9
$CECOLOR
 62
   256
  9
$CELTSCALE
 40
1.0
  9
$DISPSILH
 70
     0
  9
$DIMSCALE
 40
1.0
  9
$DIMASZ
 40
0.18
  9
$DIMEXO
 40
0.0625
  9
$DIMDLI
 40
0.38
  9
$DIMRND
 40
0.0
  9
$DIMDLE
 40
0.0
  9
$DIMEXE
 40
0.18
  9
$DIMTP
 40
0.0
  9
$DIMTM
 40
0.0
  9
$DIMTXT
 40
0.18
  9
$DIMCEN
 40
0.09
  9
$DIMTSZ
 40
0.0
  9
$DIMTOL
 70
     0
  9
$DIMLIM
 70
     0
  9
$DIMTIH
 70
     1
  9
$DIMTOH
 70
     1
  9
$DIMSE1
 70
     0
  9
$DIMSE2
 70
     0
  9
$DIMTAD
 70
     0
  9
$DIMZIN
 70
     0
  9
$DIMBLK
  1

  9
$DIMASO
 70
     1
  9
$DIMSHO
 70
     1
  9
$DIMPOST
  1

  9
$DIMAPOST
  1

  9
$DIMALT
 70
     0
  9
$DIMALTD
 70
     2
  9
$DIMALTF
 40
25.4
  9
$DIMLFAC
 40
1.0
  9
$DIMTOFL
 70
     0
  9
$DIMTVP
 40
0.0
  9
$DIMTIX
 70
     0
  9
$DIMSOXD
 70
     0
  9
$DIMSAH
 70
     0
  9
$DIMBLK1
  1

  9
$DIMBLK2
  1

  9
$DIMSTYLE
  2
Standard
  9
$DIMCLRD
 70
     0
  9
$DIMCLRE
 70
     0
  9
$DIMCLRT
 70
     0
  9
$DIMTFAC
 40
1.0
  9
$DIMGAP
 40
0.09
  9
$DIMJUST
 70
     0
  9
$DIMSD1
 70
     0
  9
$DIMSD2
 70
     0
  9
$DIMTOLJ
 70
     1
  9
$DIMTZIN
 70
     0
  9
$DIMALTZ
 70
     0
  9
$DIMALTTZ
 70
     0
  9
$DIMUPT
 70
     0
  9
$DIMDEC
 70
     4
  9
$DIMTDEC
 70
     4
  9
$DIMALTU
 70
     2
  9
$DIMALTTD
 70
     2
  9
$DIMTXSTY
  7
STANDARD
  9
$DIMAUNIT
 70
     0
  9
$DIMADEC
 70
     0
  9
$DIMALTRND
 40
0.0
  9
$DIMAZIN
 70
     0
  9
$DIMDSEP
 70
    46
  9
$DIMATFIT
 70
     3
  9
$DIMFRAC
 70
     0
  9
$DIMLDRBLK
  1

  9
$DIMLUNIT
 70
     2
  9
$DIMLWD
 70
    -2
  9
$DIMLWE
 70
    -2
  9
$DIMTMOVE
 70
     0
  9
$LUNITS
 70
     2
  9
$LUPREC
 70
     4
  9
$SKETCHINC
 40
0.1
  9
$FILLETRAD
 40
0.0
  9
$AUNITS
 70
     0
  9
$AUPREC
 70
     0
  9
$MENU
  1
.
  9
$ELEVATION
 40
0.0
  9
$PELEVATION
 40
0.0
  9
$THICKNESS
 40
0.0
  9
$LIMCHECK
 70
     0
  9
$CHAMFERA
 40
0.0
  9
$CHAMFERB
 40
0.0
  9
$CHAMFERC
 40
0.0
  9
$CHAMFERD
 40
0.0
  9
$SKPOLY
 70
     0
  9
$TDCREATE
 40
2457316.678891655
  9
$TDUCREATE
 40
2457316.303891655
  9
$TDUPDATE
 40
2457316.679267026
  9
$TDUUPDATE
 40
2457316.304267026
  9
$TDINDWG
 40
0.0003759259
  9
$TDUSRTIMER
 40
0.0003759259
  9
$USRTIMER
 70
     1
  9
$ANGBASE
 50
0.0
  9
$ANGDIR
 70
     0
  9
$PDMODE
 70
     0
  9
$PDSIZE
 40
5.0
  9
$PLINEWID
 40
0.0
  9
$SPLFRAME
 70
     0
  9
$SPLINETYPE
 70
     6
  9
$SPLINESEGS
 70
     8
  9
$HANDSEED
  5
5FA
  9
$SURFTAB1
 70
     6
  9
$SURFTAB2
 70
     6
  9
$SURFTYPE
 70
     6
  9
$SURFU
 70
     6
  9
$SURFV
 70
     6
  9
$UCSBASE
  2

  9
$UCSNAME
  2

  9
$UCSORG
 10
0.0
 20
0.0
 30
0.0
  9
$UCSXDIR
 10
1.0
 20
0.0
 30
0.0
  9
$UCSYDIR
 10
0.0
 20
1.0
 30
0.0
  9
$UCSORTHOREF
  2

  9
$UCSORTHOVIEW
 70
     0
  9
$UCSORGTOP
 10
0.0
 20
0.0
 30
0.0
  9
$UCSORGBOTTOM
 10
0.0
 20
0.0
 30
0.0
  9
$UCSORGLEFT
 10
0.0
 20
0.0
 30
0.0
  9
$UCSORGRIGHT
 10
0.0
 20
0.0
 30
0.0
  9
$UCSORGFRONT
 10
0.0
 20
0.0
 30
0.0
  9
$UCSORGBACK
 10
0.0
 20
0.0
 30
0.0
  9
$PUCSBASE
  2

  9
$PUCSNAME
  2

  9
$PUCSORG
 10
0.0
 20
0.0
 30
0.0
  9
$PUCSXDIR
 10
1.0
 20
0.0
 30
0.0
  9
$PUCSYDIR
 10
0.0
 20
1.0
 30
0.0
  9
$PUCSORTHOREF
  2

  9
$PUCSORTHOVIEW
 70
     0
  9
$PUCSORGTOP
 10
0.0
 20
0.0
 30
0.0
  9
$PUCSORGBOTTOM
 10
0.0
 20
0.0
 30
0.0
  9
$PUCSORGLEFT
 10
0.0
 20
0.0
 30
0.0
  9
$PUCSORGRIGHT
 10
0.0
 20
0.0
 30
0.0
  9
$PUCSORGFRONT
 10
0.0
 20
0.0
 30
0.0
  9
$PUCSORGBACK
 10
0.0
 20
0.0
 30
0.0
  9
$USERI1
 70
     0
  9
$USERI2
 70
     0
  9
$USERI3
 70
     0
  9
$USERI4
 70
     0
  9
$USERI5
 70
     0
  9
$USERR1
 40
0.0
  9
$USERR2
 40
0.0
  9
$USERR3
 40
0.0
  9
$USERR4
 40
0.0
  9
$USERR5
 40
0.0
  9
$WORLDVIEW
 70
     1
  9
$SHADEDGE
 70
     3
  9
$SHADEDIF
 70
    70
  9
$TILEMODE
 70
     1
  9
$MAXACTVP
 70
    64
  9
$PINSBASE
 10
0.0
 20
0.0
 30
0.0
  9
$PLIMCHECK
 70
     0
  9
$PEXTMIN
 10
1.000000000000000E+20
 20
1.000000000000000E+20
 30
1.000000000000000E+20
  9
$PEXTMAX
 10
-1.000000000000000E+20
 20
-1.000000000000000E+20
 30
-1.000000000000000E+20
  9
$PLIMMIN
 10
0.0
 20
0.0
  9
$PLIMMAX
 10
12.0
 20
9.0
  9
$UNITMODE
 70
     0
  9
$VISRETAIN
 70
     1
  9
$PLINEGEN
 70
     0
  9
$PSLTSCALE
 70
     1
  9
$TREEDEPTH
 70
  3020
  9
$CMLSTYLE
  2
Standard
  9
$CMLJUST
 70
     0
  9
$CMLSCALE
 40
1.0
  9
$PROXYGRAPHICS
 70
     1
  9
$MEASUREMENT
 70
     0
  9
$CELWEIGHT
370
    -1
  9
$ENDCAPS
280
     0
  9
$JOINSTYLE
280
     0
  9
$LWDISPLAY
290
     0
  9
$INSUNITS
 70
     0
  9
$HYPERLINKBASE
  1

  9
$STYLESHEET
  1

  9
$XEDIT
290
     1
  9
$CEPSNTYPE
380
     0
  9
$PSTYLEMODE
290
     1
  9
$FINGERPRINTGUID
  2
{8AB8D337-0CD8-44C3-8DD6-E2312DD12905}
  9
$VERSIONGUID
  2
{E9522659-7081-4FFE-80B5-83B3609A625B}
  9
$EXTNAMES
290
     1
  9
$PSVPSCALE
 40
0.0
  9
$OLESTARTUP
290
     0
  0
ENDSEC
  0
SECTION
  2
CLASSES
  0
CLASS
  1
ACDBDICTIONARYWDFLT
  2
AcDbDictionaryWithDefault
  3
ObjectDBX Classes
 90
        0
280
     0
281
     0
  0
CLASS
  1
MATERIAL
  2
AcDbMaterial
  3
ObjectDBX Classes
 90
     1024
280
     0
281
     0
  0
CLASS
  1
VISUALSTYLE
  2
AcDbVisualStyle
  3
ObjectDBX Classes
 90
     4095
280
     0
281
     0
  0
CLASS
  1
TABLESTYLE
  2
AcDbTableStyle
  3
ObjectDBX Classes
 90
     4095
280
     0
281
     0
  0
CLASS
  1
DICTIONARYVAR
  2
AcDbDictionaryVar
  3
ObjectDBX Classes
 90
        0
280
     0
281
     0
  0
CLASS
  1
ACDBPLACEHOLDER
  2
AcDbPlaceHolder
  3
ObjectDBX Classes
 90
        0
280
     0
281
     0
  0
CLASS
  1
LAYOUT
  2
AcDbLayout
  3
ObjectDBX Classes
 90
        0
280
     0
281
     0
  0
ENDSEC
  0
SECTION
  2
TABLES
  0
TABLE
  2
VPORT
  5
8
330
0
100
AcDbSymbolTable
 70
     1
  0
VPORT
  5
50
330
8
100
AcDbSymbolTableRecord
100
AcDbViewportTableRecord
  2
*Active
 70
     0
 10
0.0
 20
0.0
 11
1.0
 21
1.0
 12
2100.000009778887
 22
1485.000006915069
 13
0.0
 23
0.0
 14
1.0
 24
1.0
 15
0.0
 25
0.0
 16
0.0
 26
0.0
 36
1.0
 17
0.0
 27
0.0
 37
0.0
 40
2992.970389051724
 41
1.544174135723431
 42
50.0
 43
0.0
 44
0.0
 50
0.0
 51
0.0
 71
     0
 72
   100
 73
     1
 74
     1
 75
     0
 76
     0
 77
     0
 78
     0
281
     0
 65
     1
110
0.0
120
0.0
130
0.0
111
1.0
121
0.0
131
0.0
112
0.0
122
1.0
132
0.0
 79
     0
146
0.0
  0
ENDTAB
  0
TABLE
  2
LTYPE
  5
5
330
0
100
AcDbSymbolTable
 70
     9
  0
LTYPE
  5
28
330
5
100
AcDbSymbolTableRecord
100
AcDbLinetypeTableRecord
  2
ByBlock
 70
     0
  3

 72
    65
 73
     0
 40
0.0
  0
LTYPE
  5
29
330
5
100
AcDbSymbolTableRecord
100
AcDbLinetypeTableRecord
  2
ByLayer
 70
     0
  3

 72
    65
 73
     0
 40
0.0
  0
LTYPE
  5
2A
330
5
100
AcDbSymbolTableRecord
100
AcDbLinetypeTableRecord
  2
CONTINUOUS
 70
     0
  3
SolidLine
 72
    65
 73
     0
 40
0.0
  0
LTYPE
  5
3A
330
5
100
AcDbSymbolTableRecord
100
AcDbLinetypeTableRecord
  2
DOT
 70
     0
  3
--  --  --  --  --  --  --  --     
 72
    65
 73
     2
 40
3.0
 49
1.0
 74
     0
 49
-2.0
 74
     0
  0
LTYPE
  5
3B
330
5
100
AcDbSymbolTableRecord
100
AcDbLinetypeTableRecord
  2
DASHED
 70
     0
  3
----    ----    ----    ----    
 72
    65
 73
     2
 40
5.0
 49
2.0
 74
     0
 49
-3.0
 74
     0
  0
LTYPE
  5
3C
330
5
100
AcDbSymbolTableRecord
100
AcDbLinetypeTableRecord
  2
DASHED2
 70
     0
  3
------  ------  ------  ------ 
 72
    65
 73
     2
 40
10.0
 49
4.0
 74
     0
 49
-6.0
 74
     0
  0
LTYPE
  5
3D
330
5
100
AcDbSymbolTableRecord
100
AcDbLinetypeTableRecord
  2
CENTER
 70
     0
  3
----- - ----- - ----- - ----- - 
 72
    65
 73
     4
 40
10.0
 49
6.0
 74
     0
 49
-3.0
 74
     0
 49
1.0
 74
     0
 49
-3.0
 74
     0
  0
LTYPE
  5
3E
330
5
100
AcDbSymbolTableRecord
100
AcDbLinetypeTableRecord
  2
CENTER2
 70
     0
  3
----------  --  ----------  -- 
 72
    65
 73
     4
 40
17.0
 49
12.0
 74
     0
 49
-5.0
 74
     0
 49
2.0
 74
     0
 49
-5.0
 74
     0
  0
LTYPE
  5
3F
330
5
100
AcDbSymbolTableRecord
100
AcDbLinetypeTableRecord
  2
PHANTOM
 70
     0
  3
--- - - --- - - --- - - --- - -
 72
    65
 73
     6
 40
13.0
 49
5.0
 74
     0
 49
-3.0
 74
     0
 49
1.0
 74
     0
 49
-3.0
 74
     0
 49
1.0
 74
     0
 49
-3.0
 74
     0
  0
LTYPE
  5
40
330
5
100
AcDbSymbolTableRecord
100
AcDbLinetypeTableRecord
  2
PHANTOM2
 70
     0
  3
--------  -  -  --------  -  -
 72
    65
 73
     6
 40
20.0
 49
6.0
 74
     0
 49
-5.0
 74
     0
 49
2.0
 74
     0
 49
-5.0
 74
     0
 49
2.0
 74
     0
 49
-5.0
 74
     0
  0
LTYPE
  5
41
330
5
100
AcDbSymbolTableRecord
100
AcDbLinetypeTableRecord
  2
HIDDEN
 70
     0
  3
-   -   -   -   -   -   -   -   
 72
    65
 73
     2
 40
3.0
 49
0.5
 74
     0
 49
-2.5
 74
     0
  0
ENDTAB
  0
TABLE
  2
LAYER
  5
2
330
0
100
AcDbSymbolTable
 70
     8
  0
LAYER
  5
25
330
2
100
AcDbSymbolTableRecord
100
AcDbLayerTableRecord
  2
0
 70
     0
 62
     7
  6
CONTINUOUS
370
    -3
390
F
  0
LAYER
  5
46
330
2
100
AcDbSymbolTableRecord
100
AcDbLayerTableRecord
  2
2-0
 70
     0
 62
     7
  6
CONTINUOUS
370
    -3
390
F
  0
LAYER
  5
47
330
2
100
AcDbSymbolTableRecord
100
AcDbLayerTableRecord
  2
4-0
 70
     0
 62
    -7
  6
CONTINUOUS
370
    -3
390
F
  0
LAYER
  5
48
330
2
100
AcDbSymbolTableRecord
100
AcDbLayerTableRecord
  2
5-0
 70
     0
 62
    -7
  6
CONTINUOUS
370
    -3
390
F
  0
LAYER
  5
49
330
2
100
AcDbSymbolTableRecord
100
AcDbLayerTableRecord
  2
6-0
 70
     0
 62
     7
  6
CONTINUOUS
370
    -3
390
F
  0
LAYER
  5
4A
330
2
100
AcDbSymbolTableRecord
100
AcDbLayerTableRecord
  2
8-0
 70
     0
 62
     7
  6
CONTINUOUS
370
    -3
390
F
  0
LAYER
  5
4B
330
2
100
AcDbSymbolTableRecord
100
AcDbLayerTableRecord
  2
C-0
 70
     0
 62
     5
  6
CONTINUOUS
370
    -3
390
F
  0
LAYER
  5
51
330
2
100
AcDbSymbolTableRecord
100
AcDbLayerTableRecord
  2
1-0
 70
     0
 62
     7
  6
CONTINUOUS
370
    -3
390
F
  0
ENDTAB
  0
TABLE
  2
STYLE
  5
3
330
0
100
AcDbSymbolTable
 70
     5
  0
STYLE
  5
26
330
3
100
AcDbSymbolTableRecord
100
AcDbTextStyleTableRecord
  2
STANDARD
 70
     0
 40
0.0
 41
1.0
 50
0.0
 71
     0
 42
0.0
  3
txt.shx
  4
extfont.shx
  0
STYLE
  5
42
330
3
100
AcDbSymbolTableRecord
100
AcDbTextStyleTableRecord
  2
TATEGAKI
 70
     4
 40
0.0
 41
1.0
 50
0.0
 71
     0
 42
0.0
  3
txt.shx
  4
extfont.shx
  0
STYLE
  5
43
330
3
100
AcDbSymbolTableRecord
100
AcDbTextStyleTableRecord
  2
DIM
 70
     0
 40
0.0
 41
0.75
 50
0.0
 71
     0
 42
0.0
  3
txt.shx
  4
extfont.shx
  0
STYLE
  5
44
330
3
100
AcDbSymbolTableRecord
100
AcDbTextStyleTableRecord
  2
_GOTHIC__
 70
     0
 40
0.0
 41
1.0
 50
0.0
 71
     0
 42
0.0
  3
MS Gothic
  4

  0
STYLE
  5
45
330
3
100
AcDbSymbolTableRecord
100
AcDbTextStyleTableRecord
  2
_TATEGOTHIC_
 70
     4
 40
0.0
 41
1.0
 50
0.0
 71
     0
 42
0.0
  3
@MS Gothic
  4

  0
ENDTAB
  0
TABLE
  2
VIEW
  5
6
330
0
100
AcDbSymbolTable
 70
     0
  0
ENDTAB
  0
TABLE
  2
UCS
  5
7
330
0
100
AcDbSymbolTable
 70
     0
  0
ENDTAB
  0
TABLE
  2
APPID
  5
9
330
0
100
AcDbSymbolTable
 70
     1
  0
APPID
  5
27
330
9
100
AcDbSymbolTableRecord
100
AcDbRegAppTableRecord
  2
ACAD
 70
     0
  0
ENDTAB
  0
TABLE
  2
DIMSTYLE
  5
A
330
0
100
AcDbSymbolTable
 70
     1
100
AcDbDimStyleTable
 71
     0
  0
DIMSTYLE
105
5E6
330
A
100
AcDbSymbolTableRecord
100
AcDbDimStyleTableRecord
  2
Standard
 70
     0
340
26
  0
ENDTAB
  0
TABLE
  2
BLOCK_RECORD
  5
1
330
0
100
AcDbSymbolTable
 70
     0
  0
BLOCK_RECORD
  5
36
330
1
100
AcDbSymbolTableRecord
100
AcDbBlockTableRecord
  2
*Model_Space
340
39
  0
BLOCK_RECORD
  5
32
330
1
100
AcDbSymbolTableRecord
100
AcDbBlockTableRecord
  2
*Paper_Space
340
35
  0
ENDTAB
  0
ENDSEC
  0
SECTION
  2
BLOCKS
  0
BLOCK
  5
37
330
36
100
AcDbEntity
  8
0
100
AcDbBlockBegin
  2
*Model_Space
 70
     0
 10
0.0
 20
0.0
 30
0.0
  3
*Model_Space
  1

  0
ENDBLK
  5
38
330
36
100
AcDbEntity
  8
0
100
AcDbBlockEnd
  0
BLOCK
  5
33
330
32
100
AcDbEntity
 67
     1
  8
0
100
AcDbBlockBegin
  2
*Paper_Space
 70
     0
 10
0.0
 20
0.0
 30
0.0
  3
*Paper_Space
  1

  0
ENDBLK
  5
34
330
32
100
AcDbEntity
 67
     1
  8
0
100
AcDbBlockEnd
  0
ENDSEC
  0
SECTION
  2
ENTITIES
  0
LINE
  5
52
330
36
100
AcDbEntity
  8
1-0
  6
Continuous
 62
     7
100
AcDbLine
 10
0.064071267201
 20
0.04530753895
 30
0.0
 11
4200.064071267201
 21
0.04530753895
 31
0.0
  0
LINE
  5
53
330
36
100
AcDbEntity
  8
1-0
  6
Continuous
 62
     7
100
AcDbLine
 10
4200.064071267201
 20
0.04530753895
 30
0.0
 11
4200.064071267201
 21
2970.04530753895
 31
0.0
  0
LINE
  5
54
330
36
100
AcDbEntity
  8
1-0
  6
Continuous
 62
     7
100
AcDbLine
 10
4200.064071267201
 20
2970.04530753895
 30
0.0
 11
0.064071267201
 21
2970.04530753895
 31
0.0
  0
LINE
  5
55
330
36
100
AcDbEntity
  8
1-0
  6
Continuous
 62
     7
100
AcDbLine
 10
0.064071267201
 20
2970.04530753895
 30
0.0
 11
0.064071267201
 21
0.04530753895
 31
0.0
  0
LINE
  5
56
330
36
100
AcDbEntity
  8
8-0
  6
Continuous
 62
     0
100
AcDbLine
 10
100.064071338451
 20
100.045307746475
 30
0.0
 11
4100.064071338451
 21
100.045307746475
 31
0.0
  0
LINE
  5
57
330
36
100
AcDbEntity
  8
8-0
  6
Continuous
 62
     0
100
AcDbLine
 10
2500.064071338451
 20
300.045307746475
 30
0.0
 11
4100.064071338451
 21
300.045307746475
 31
0.0
  0
LINE
  5
58
330
36
100
AcDbEntity
  8
6-0
  6
Continuous
 62
     0
100
AcDbLine
 10
2500.064071338451
 20
240.045307746475
 30
0.0
 11
3150.064071338451
 21
240.045307746475
 31
0.0
  0
LINE
  5
59
330
36
100
AcDbEntity
  8
8-0
  6
Continuous
 62
     0
100
AcDbLine
 10
4100.064071338451
 20
100.045307746475
 30
0.0
 11
4100.064071338451
 21
2870.045307746476
 31
0.0
  0
LINE
  5
5A
330
36
100
AcDbEntity
  8
8-0
  6
Continuous
 62
     0
100
AcDbLine
 10
4100.064071338451
 20
2870.045307746476
 30
0.0
 11
100.064071338451
 21
2870.045307746476
 31
0.0
  0
LINE
  5
5B
330
36
100
AcDbEntity
  8
8-0
  6
Continuous
 62
     0
100
AcDbLine
 10
100.064071338451
 20
2870.045307746476
 30
0.0
 11
100.064071338451
 21
100.045307746475
 31
0.0
  0
LINE
  5
5C
330
36
100
AcDbEntity
  8
6-0
  6
Continuous
 62
     0
100
AcDbLine
 10
3150.064071338451
 20
100.045307746475
 30
0.0
 11
3150.064071338451
 21
300.045307746475
 31
0.0
  0
LINE
  5
5D
330
36
100
AcDbEntity
  8
8-0
  6
Continuous
 62
     0
100
AcDbLine
 10
2500.064071338451
 20
100.045307746475
 30
0.0
 11
2500.064071338451
 21
300.045307746475
 31
0.0
  0
TEXT
  5
5E
330
36
100
AcDbEntity
  8
C-0
 62
     0
100
AcDbText
 10
2788.498000000001
 20
252.576
 30
0.0
 40
31.104
  1
品番
100
AcDbText
  0
TEXT
  5
5F
330
36
100
AcDbEntity
  8
C-0
 62
     0
100
AcDbText
 10
2568.391
 20
145.128
 30
0.0
 40
41.472
  1
ガス台用バックガード
100
AcDbText
  0
TEXT
  5
60
330
36
100
AcDbEntity
  8
C-0
 62
     0
100
AcDbText
 10
3353.624000000001
 20
192.365
 30
0.0
 40
62.208
  1
アイオ産業株式会社
100
AcDbText
  0
TEXT
  5
61
330
36
100
AcDbEntity
  8
C-0
 62
     0
100
AcDbText
 10
3428.005000000001
 20
124.558
 30
0.0
 40
31.104
  1
アイオシステムキッチン事業部
100
AcDbText
  0
LINE
  5
62
330
36
100
AcDbEntity
  8
2-0
  6
Continuous
 62
     0
100
AcDbLine
 10
3303.994692685265
 20
159.389324046548
 30
0.0
 11
3306.609455982415
 21
162.695779743234
 31
0.0
  0
LINE
  5
63
330
36
100
AcDbEntity
  8
2-0
  6
Continuous
 62
     0
100
AcDbLine
 10
3306.609455982415
 20
162.695779743234
 30
0.0
 11
3308.998143711913
 21
166.169078939274
 31
0.0
  0
LINE
  5
64
330
36
100
AcDbEntity
  8
2-0
  6
Continuous
 62
     0
100
AcDbLine
 10
3308.998143711913
 20
166.169078939274
 30
0.0
 11
3311.150143415265
 21
169.793790465871
 31
0.0
  0
LINE
  5
65
330
36
100
AcDbEntity
  8
2-0
  6
Continuous
 62
     0
100
AcDbLine
 10
3311.150143415265
 20
169.793790465871
 30
0.0
 11
3313.055894191204
 21
173.553810459738
 31
0.0
  0
LINE
  5
66
330
36
100
AcDbEntity
  8
2-0
  6
Continuous
 62
     0
100
AcDbLine
 10
3313.055894191204
 20
173.553810459738
 30
0.0
 11
3314.706929172856
 21
177.432433909318
 31
0.0
  0
LINE
  5
67
330
36
100
AcDbEntity
  8
2-0
  6
Continuous
 62
     0
100
AcDbLine
 10
3314.706929172856
 20
177.432433909318
 30
0.0
 11
3316.09591314432
 21
181.412428871787
 31
0.0
  0
LINE
  5
68
330
36
100
AcDbEntity
  8
2-0
  6
Continuous
 62
     0
100
AcDbLine
 10
3316.09591314432
 20
181.412428871787
 30
0.0
 11
3317.216675129555
 21
185.476113031109
 31
0.0
  0
LINE
  5
69
330
36
100
AcDbEntity
  8
2-0
  6
Continuous
 62
     0
100
AcDbLine
 10
3317.216675129555
 20
185.476113031109
 30
0.0
 11
3318.064235808785
 21
189.605432256997
 31
0.0
  0
LINE
  5
6A
330
36
100
AcDbEntity
  8
2-0
  6
Continuous
 62
     0
100
AcDbLine
 10
3318.064235808785
 20
189.605432256997
 30
0.0
 11
3318.634829640612
 21
193.782040815786
 31
0.0
  0
LINE
  5
6B
330
36
100
AcDbEntity
  8
2-0
  6
Continuous
 62
     0
100
AcDbLine
 10
3318.634829640612
 20
193.782040815786
 30
0.0
 11
3318.925921591561
 21
197.987382876827
 31
0.0
  0
LINE
  5
6C
330
36
100
AcDbEntity
  8
2-0
  6
Continuous
 62
     0
100
AcDbLine
 10
3318.925921591561
 20
197.987382876827
 30
0.0
 11
3318.936218398721
 21
202.202774952309
 31
0.0
  0
LINE
  5
6D
330
36
100
AcDbEntity
  8
2-0
  6
Continuous
 62
     0
100
AcDbLine
 10
3318.936218398721
 20
202.202774952309
 30
0.0
 11
3318.66567431545
 21
206.409488904228
 31
0.0
  0
LINE
  5
6E
330
36
100
AcDbEntity
  8
2-0
  6
Continuous
 62
     0
100
AcDbLine
 10
3318.66567431545
 20
206.409488904228
 30
0.0
 11
3318.115491314622
 21
210.588835149739
 31
0.0
  0
LINE
  5
6F
330
36
100
AcDbEntity
  8
2-0
  6
Continuous
 62
     0
100
AcDbLine
 10
3318.115491314622
 20
210.588835149739
 30
0.0
 11
3317.288113748502
 21
214.722245695203
 31
0.0
  0
LINE
  5
70
330
36
100
AcDbEntity
  8
2-0
  6
Continuous
 62
     0
100
AcDbLine
 10
3317.288113748502
 20
214.722245695203
 30
0.0
 11
3316.187217488981
 21
218.791356630044
 31
0.0
  0
LINE
  5
71
330
36
100
AcDbEntity
  8
2-0
  6
Continuous
 62
     0
100
AcDbLine
 10
3316.187217488981
 20
218.791356630044
 30
0.0
 11
3314.817693596417
 21
222.778089713907
 31
0.0
  0
LINE
  5
72
330
36
100
AcDbEntity
  8
2-0
  6
Continuous
 62
     0
100
AcDbLine
 10
3314.817693596417
 20
222.778089713907
 30
0.0
 11
3313.185626589638
 21
226.664732694636
 31
0.0
  0
LINE
  5
73
330
36
100
AcDbEntity
  8
2-0
  6
Continuous
 62
     0
100
AcDbLine
 10
3313.185626589638
 20
226.664732694636
 30
0.0
 11
3311.298267413655
 21
230.434018000248
 31
0.0
  0
LINE
  5
74
330
36
100
AcDbEntity
  8
2-0
  6
Continuous
 62
     0
100
AcDbLine
 10
3311.298267413655
 20
230.434018000248
 30
0.0
 11
3309.164001225168
 21
234.069199455272
 31
0.0
  0
LINE
  5
75
330
36
100
AcDbEntity
  8
2-0
  6
Continuous
 62
     0
100
AcDbLine
 10
3309.164001225168
 20
234.069199455272
 30
0.0
 11
3306.792310139007
 21
237.554126680637
 31
0.0
  0
LINE
  5
76
330
36
100
AcDbEntity
  8
2-0
  6
Continuous
 62
     0
100
AcDbLine
 10
3306.792310139007
 20
237.554126680637
 30
0.0
 11
3304.193731101003
 21
240.873316846554
 31
0.0
  0
LINE
  5
77
330
36
100
AcDbEntity
  8
2-0
  6
Continuous
 62
     0
100
AcDbLine
 10
3304.193731101003
 20
240.873316846554
 30
0.0
 11
3301.379809074461
 21
244.012023459606
 31
0.0
  0
LINE
  5
78
330
36
100
AcDbEntity
  8
2-0
  6
Continuous
 62
     0
100
AcDbLine
 10
3301.379809074461
 20
244.012023459606
 30
0.0
 11
3298.363045748217
 21
246.956301878455
 31
0.0
  0
LINE
  5
79
330
36
100
AcDbEntity
  8
2-0
  6
Continuous
 62
     0
100
AcDbLine
 10
3298.363045748217
 20
246.956301878455
 30
0.0
 11
3295.156843994145
 21
249.69307126707
 31
0.0
  0
LINE
  5
7A
330
36
100
AcDbEntity
  8
2-0
  6
Continuous
 62
     0
100
AcDbLine
 10
3295.156843994145
 20
249.69307126707
 30
0.0
 11
3291.775448320904
 21
252.21017271025
 31
0.0
  0
LINE
  5
7B
330
36
100
AcDbEntity
  8
2-0
  6
Continuous
 62
     0
100
AcDbLine
 10
3291.775448320904
 20
252.21017271025
 30
0.0
 11
3288.233881588448
 21
254.496423233231
 31
0.0
  0
LINE
  5
7C
330
36
100
AcDbEntity
  8
2-0
  6
Continuous
 62
     0
100
AcDbLine
 10
3288.233881588448
 20
254.496423233231
 30
0.0
 11
3284.54787826449
 21
256.541665485397
 31
0.0
  0
LINE
  5
7D
330
36
100
AcDbEntity
  8
2-0
  6
Continuous
 62
     0
100
AcDbLine
 10
3284.54787826449
 20
256.541665485397
 30
0.0
 11
3280.733814519429
 21
258.336812867337
 31
0.0
  0
LINE
  5
7E
330
36
100
AcDbEntity
  8
2-0
  6
Continuous
 62
     0
100
AcDbLine
 10
3280.733814519429
 20
258.336812867337
 30
0.0
 11
3276.808635470323
 21
259.87388990078
 31
0.0
  0
LINE
  5
7F
330
36
100
AcDbEntity
  8
2-0
  6
Continuous
 62
     0
100
AcDbLine
 10
3276.808635470323
 20
259.87388990078
 30
0.0
 11
3272.789779897149
 21
261.146067662037
 31
0.0
  0
LINE
  5
80
330
36
100
AcDbEntity
  8
2-0
  6
Continuous
 62
     0
100
AcDbLine
 10
3272.789779897149
 20
261.146067662037
 30
0.0
 11
3268.695102765811
 21
262.147694121535
 31
0.0
  0
LINE
  5
81
330
36
100
AcDbEntity
  8
2-0
  6
Continuous
 62
     0
100
AcDbLine
 10
3268.695102765811
 20
262.147694121535
 30
0.0
 11
3264.542795902126
 21
262.8743192546441
 31
0.0
  0
LINE
  5
82
330
36
100
AcDbEntity
  8
2-0
  6
Continuous
 62
     0
100
AcDbLine
 10
3264.542795902126
 20
262.8743192546441
 30
0.0
 11
3260.351307169204
 21
263.322714812241
 31
0.0
  0
LINE
  5
83
330
36
100
AcDbEntity
  8
2-0
  6
Continuous
 62
     0
100
AcDbLine
 10
3260.351307169204
 20
263.322714812241
 30
0.0
 11
3256.139258507313
 21
263.490888663171
 31
0.0
  0
LINE
  5
84
330
36
100
AcDbEntity
  8
2-0
  6
Continuous
 62
     0
100
AcDbLine
 10
3256.139258507313
 20
263.490888663171
 30
0.0
 11
3251.925363200341
 21
263.378093644887
 31
0.0
  0
LINE
  5
85
330
36
100
AcDbEntity
  8
2-0
  6
Continuous
 62
     0
100
AcDbLine
 10
3251.925363200341
 20
263.378093644887
 30
0.0
 11
3247.728342736448
 21
262.984830882935
 31
0.0
  0
LINE
  5
86
330
36
100
AcDbEntity
  8
2-0
  6
Continuous
 62
     0
100
AcDbLine
 10
3247.728342736448
 20
262.984830882935
 30
0.0
 11
3243.566843632265
 21
262.312847564565
 31
0.0
  0
LINE
  5
87
330
36
100
AcDbEntity
  8
2-0
  6
Continuous
 62
     0
100
AcDbLine
 10
3243.566843632265
 20
262.312847564565
 30
0.0
 11
3239.459354590179
 21
261.365129176321
 31
0.0
  0
LINE
  5
88
330
36
100
AcDbEntity
  8
2-0
  6
Continuous
 62
     0
100
AcDbLine
 10
3239.459354590179
 20
261.365129176321
 30
0.0
 11
3235.424124356745
 21
260.145886240128
 31
0.0
  0
LINE
  5
89
330
36
100
AcDbEntity
  8
2-0
  6
Continuous
 62
     0
100
AcDbLine
 10
3235.424124356745
 20
260.145886240128
 30
0.0
 11
3231.479080647186
 21
258.660535606795
 31
0.0
  0
LINE
  5
8A
330
36
100
AcDbEntity
  8
2-0
  6
Continuous
 62
     0
100
AcDbLine
 10
3231.479080647186
 20
258.660535606795
 30
0.0
 11
3227.641750496163
 21
256.915676390032
 31
0.0
  0
LINE
  5
8B
330
36
100
AcDbEntity
  8
2-0
  6
Continuous
 62
     0
100
AcDbLine
 10
3227.641750496163
 20
256.915676390032
 30
0.0
 11
3223.92918238869
 21
254.919060647921
 31
0.0
  0
LINE
  5
8C
330
36
100
AcDbEntity
  8
2-0
  6
Continuous
 62
     0
100
AcDbLine
 10
3223.92918238869
 20
254.919060647921
 30
0.0
 11
3220.357870517149
 21
252.67955894208
 31
0.0
  0
LINE
  5
8D
330
36
100
AcDbEntity
  8
2-0
  6
Continuous
 62
     0
100
AcDbLine
 10
3220.357870517149
 20
252.67955894208
 30
0.0
 11
3216.943681500914
 21
250.207120927549
 31
0.0
  0
LINE
  5
8E
330
36
100
AcDbEntity
  8
2-0
  6
Continuous
 62
     0
100
AcDbLine
 10
3216.943681500914
 20
250.207120927549
 30
0.0
 11
3213.701783894161
 21
247.512731148471
 31
0.0
  0
LINE
  5
8F
330
36
100
AcDbEntity
  8
2-0
  6
Continuous
 62
     0
100
AcDbLine
 10
3213.701783894161
 20
247.512731148471
 30
0.0
 11
3210.64658079503
 21
244.608360235979
 31
0.0
  0
LINE
  5
90
330
36
100
AcDbEntity
  8
2-0
  6
Continuous
 62
     0
100
AcDbLine
 10
3210.64658079503
 20
244.608360235979
 30
0.0
 11
3207.791645855565
 21
241.50691172509
 31
0.0
  0
LINE
  5
91
330
36
100
AcDbEntity
  8
2-0
  6
Continuous
 62
     0
100
AcDbLine
 10
3207.791645855565
 20
241.50691172509
 30
0.0
 11
3205.149662976714
 21
238.222164726899
 31
0.0
  0
LINE
  5
92
330
36
100
AcDbEntity
  8
2-0
  6
Continuous
 62
     0
100
AcDbLine
 10
3205.149662976714
 20
238.222164726899
 30
0.0
 11
3202.732369956303
 21
234.768712710764
 31
0.0
  0
LINE
  5
93
330
36
100
AcDbEntity
  8
2-0
  6
Continuous
 62
     0
100
AcDbLine
 10
3202.732369956303
 20
234.768712710764
 30
0.0
 11
3200.550506340376
 21
231.16189866846
 31
0.0
  0
LINE
  5
94
330
36
100
AcDbEntity
  8
2-0
  6
Continuous
 62
     0
100
AcDbLine
 10
3200.550506340376
 20
231.16189866846
 30
0.0
 11
3198.613765709546
 21
227.417746948355
 31
0.0
  0
LINE
  5
95
330
36
100
AcDbEntity
  8
2-0
  6
Continuous
 62
     0
100
AcDbLine
 10
3198.613765709546
 20
227.417746948355
 30
0.0
 11
3196.930752612372
 21
223.552892062462
 31
0.0
  0
LINE
  5
96
330
36
100
AcDbEntity
  8
2-0
  6
Continuous
 62
     0
100
AcDbLine
 10
3196.930752612372
 20
223.552892062462
 30
0.0
 11
3195.508944337082
 21
219.584504782649
 31
0.0
  0
LINE
  5
97
330
36
100
AcDbEntity
  8
2-0
  6
Continuous
 62
     0
100
AcDbLine
 10
3195.508944337082
 20
219.584504782649
 30
0.0
 11
3194.354657691487
 21
215.530215854357
 31
0.0
  0
LINE
  5
98
330
36
100
AcDbEntity
  8
2-0
  6
Continuous
 62
     0
100
AcDbLine
 10
3194.354657691487
 20
215.530215854357
 30
0.0
 11
3193.473020938678
 21
211.408037666752
 31
0.0
  0
LINE
  5
99
330
36
100
AcDbEntity
  8
2-0
  6
Continuous
 62
     0
100
AcDbLine
 10
3193.473020938678
 20
211.408037666752
 30
0.0
 11
3192.867951013183
 21
207.236284227306
 31
0.0
  0
LINE
  5
9A
330
36
100
AcDbEntity
  8
2-0
  6
Continuous
 62
     0
100
AcDbLine
 10
3192.867951013183
 20
207.236284227306
 30
0.0
 11
3192.542136118821
 21
203.03348979635
 31
0.0
  0
LINE
  5
9B
330
36
100
AcDbEntity
  8
2-0
  6
Continuous
 62
     0
100
AcDbLine
 10
3192.542136118821
 20
203.03348979635
 30
0.0
 11
3192.497023785547
 21
198.818326543087
 31
0.0
  0
LINE
  5
9C
330
36
100
AcDbEntity
  8
2-0
  6
Continuous
 62
     0
100
AcDbLine
 10
3192.497023785547
 20
198.818326543087
 30
0.0
 11
3192.732814438369
 21
194.60952158891
 31
0.0
  0
LINE
  5
9D
330
36
100
AcDbEntity
  8
2-0
  6
Continuous
 62
     0
100
AcDbLine
 10
3192.732814438369
 20
194.60952158891
 30
0.0
 11
3193.24846050691
 21
190.425773806566
 31
0.0
  0
LINE
  5
9E
330
36
100
AcDbEntity
  8
2-0
  6
Continuous
 62
     0
100
AcDbLine
 10
3193.24846050691
 20
190.425773806566
 30
0.0
 11
3194.041671079536
 21
186.285670744836
 31
0.0
  0
LINE
  5
9F
330
36
100
AcDbEntity
  8
2-0
  6
Continuous
 62
     0
100
AcDbLine
 10
3194.041671079536
 20
186.285670744836
 30
0.0
 11
3195.108922081429
 21
182.207606047798
 31
0.0
  0
LINE
  5
A0
330
36
100
AcDbEntity
  8
2-0
  6
Continuous
 62
     0
100
AcDbLine
 10
3195.108922081429
 20
182.207606047798
 30
0.0
 11
3196.445471931335
 21
178.209697735569
 31
0.0
  0
LINE
  5
A1
330
36
100
AcDbEntity
  8
2-0
  6
Continuous
 62
     0
100
AcDbLine
 10
3196.445471931335
 20
178.209697735569
 30
0.0
 11
3198.045382607452
 21
174.309707709593
 31
0.0
  0
LINE
  5
A2
330
36
100
AcDbEntity
  8
2-0
  6
Continuous
 62
     0
100
AcDbLine
 10
3198.045382607452
 20
174.309707709593
 30
0.0
 11
3199.901546028874
 21
170.524962840089
 31
0.0
  0
LINE
  5
A3
330
36
100
AcDbEntity
  8
2-0
  6
Continuous
 62
     0
100
AcDbLine
 10
3199.901546028874
 20
170.524962840089
 30
0.0
 11
3202.005715635356
 21
166.872277986254
 31
0.0
  0
LINE
  5
A4
330
36
100
AcDbEntity
  8
2-0
  6
Continuous
 62
     0
100
AcDbLine
 10
3202.005715635356
 20
166.872277986254
 30
0.0
 11
3204.348543025119
 21
163.367881291237
 31
0.0
  0
LINE
  5
A5
330
36
100
AcDbEntity
  8
2-0
  6
Continuous
 62
     0
100
AcDbLine
 10
3204.348543025119
 20
163.367881291237
 30
0.0
 11
3206.919619487921
 21
160.02734208376
 31
0.0
  0
LINE
  5
A6
330
36
100
AcDbEntity
  8
2-0
  6
Continuous
 62
     0
100
AcDbLine
 10
3206.919619487921
 20
160.02734208376
 30
0.0
 11
3207.452526200108
 21
159.389324046548
 31
0.0
  0
LINE
  5
A7
330
36
100
AcDbEntity
  8
2-0
  6
Continuous
 62
     0
100
AcDbLine
 10
3327.306656611554
 20
200.249473813233
 30
0.0
 11
3327.147642080762
 21
205.018142777995
 31
0.0
  0
LINE
  5
A8
330
36
100
AcDbEntity
  8
2-0
  6
Continuous
 62
     0
100
AcDbLine
 10
3327.147642080762
 20
205.018142777995
 30
0.0
 11
3326.671304957918
 21
209.765625506968
 31
0.0
  0
LINE
  5
A9
330
36
100
AcDbEntity
  8
2-0
  6
Continuous
 62
     0
100
AcDbLine
 10
3326.671304957918
 20
209.765625506968
 30
0.0
 11
3325.879761512928
 21
214.47082989054
 31
0.0
  0
LINE
  5
AA
330
36
100
AcDbEntity
  8
2-0
  6
Continuous
 62
     0
100
AcDbLine
 10
3325.879761512928
 20
214.47082989054
 30
0.0
 11
3324.776528413893
 21
219.112851653274
 31
0.0
  0
LINE
  5
AB
330
36
100
AcDbEntity
  8
2-0
  6
Continuous
 62
     0
100
AcDbLine
 10
3324.776528413893
 20
219.112851653274
 30
0.0
 11
3323.366507103283
 21
223.671067227391
 31
0.0
  0
LINE
  5
AC
330
36
100
AcDbEntity
  8
2-0
  6
Continuous
 62
     0
100
AcDbLine
 10
3323.366507103283
 20
223.671067227391
 30
0.0
 11
3321.655962021799
 21
228.12522537913
 31
0.0
  0
LINE
  5
AD
330
36
100
AcDbEntity
  8
2-0
  6
Continuous
 62
     0
100
AcDbLine
 10
3321.655962021799
 20
228.12522537913
 30
0.0
 11
3319.652492776729
 21
232.455537180901
 31
0.0
  0
LINE
  5
AE
330
36
100
AcDbEntity
  8
2-0
  6
Continuous
 62
     0
100
AcDbLine
 10
3319.652492776729
 20
232.455537180901
 30
0.0
 11
3317.365000378428
 21
236.642763929503
 31
0.0
  0
LINE
  5
AF
330
36
100
AcDbEntity
  8
2-0
  6
Continuous
 62
     0
100
AcDbLine
 10
3317.365000378428
 20
236.642763929503
 30
0.0
 11
3314.803647694912
 21
240.668302619808
 31
0.0
  0
LINE
  5
B0
330
36
100
AcDbEntity
  8
2-0
  6
Continuous
 62
     0
100
AcDbLine
 10
3314.803647694912
 20
240.668302619808
 30
0.0
 11
3311.979814300296
 21
244.514268594169
 31
0.0
  0
LINE
  5
B1
330
36
100
AcDbEntity
  8
2-0
  6
Continuous
 62
     0
100
AcDbLine
 10
3311.979814300296
 20
244.514268594169
 30
0.0
 11
3308.906045917621
 21
248.163575000347
 31
0.0
  0
LINE
  5
B2
330
36
100
AcDbEntity
  8
2-0
  6
Continuous
 62
     0
100
AcDbLine
 10
3308.906045917621
 20
248.163575000347
 30
0.0
 11
3305.595998680751
 21
251.600008704958
 31
0.0
  0
LINE
  5
B3
330
36
100
AcDbEntity
  8
2-0
  6
Continuous
 62
     0
100
AcDbLine
 10
3305.595998680751
 20
251.600008704958
 30
0.0
 11
3302.064378462907
 21
254.808302325158
 31
0.0
  0
LINE
  5
B4
330
36
100
AcDbEntity
  8
2-0
  6
Continuous
 62
     0
100
AcDbLine
 10
3302.064378462907
 20
254.808302325158
 30
0.0
 11
3298.326875541442
 21
257.774202058551
 31
0.0
  0
LINE
  5
B5
330
36
100
AcDbEntity
  8
2-0
  6
Continuous
 62
     0
100
AcDbLine
 10
3298.326875541442
 20
257.774202058551
 30
0.0
 11
3294.400094889093
 21
260.484531009959
 31
0.0
  0
LINE
  5
B6
330
36
100
AcDbEntity
  8
2-0
  6
Continuous
 62
     0
100
AcDbLine
 10
3294.400094889093
 20
260.484531009959
 30
0.0
 11
3290.301482401437
 21
262.927247733717
 31
0.0
  0
LINE
  5
B7
330
36
100
AcDbEntity
  8
2-0
  6
Continuous
 62
     0
100
AcDbLine
 10
3290.301482401437
 20
262.927247733717
 30
0.0
 11
3286.049247388286
 21
265.091499731391
 31
0.0
  0
LINE
  5
B8
330
36
100
AcDbEntity
  8
2-0
  6
Continuous
 62
     0
100
AcDbLine
 10
3286.049247388286
 20
265.091499731391
 30
0.0
 11
3281.662281673395
 21
266.967671667241
 31
0.0
  0
LINE
  5
B9
330
36
100
AcDbEntity
  8
2-0
  6
Continuous
 62
     0
100
AcDbLine
 10
3281.662281673395
 20
266.967671667241
 30
0.0
 11
3277.160075661889
 21
268.547428087219
 31
0.0
  0
LINE
  5
BA
330
36
100
AcDbEntity
  8
2-0
  6
Continuous
 62
     0
100
AcDbLine
 10
3277.160075661889
 20
268.547428087219
 30
0.0
 11
3272.562631748324
 21
269.82375045172
 31
0.0
  0
LINE
  5
BB
330
36
100
AcDbEntity
  8
2-0
  6
Continuous
 62
     0
100
AcDbLine
 10
3272.562631748324
 20
269.82375045172
 30
0.0
 11
3267.890375450072
 21
270.790968317531
 31
0.0
  0
LINE
  5
BC
330
36
100
AcDbEntity
  8
2-0
  6
Continuous
 62
     0
100
AcDbLine
 10
3267.890375450072
 20
270.790968317531
 30
0.0
 11
3263.164064660863
 21
271.444784530476
 31
0.0
  0
LINE
  5
BD
330
36
100
AcDbEntity
  8
2-0
  6
Continuous
 62
     0
100
AcDbLine
 10
3263.164064660863
 20
271.444784530476
 30
0.0
 11
3258.404697427643
 21
271.782294316798
 31
0.0
  0
LINE
  5
BE
330
36
100
AcDbEntity
  8
2-0
  6
Continuous
 62
     0
100
AcDbLine
 10
3258.404697427643
 20
271.782294316798
 30
0.0
 11
3253.633418660484
 21
271.801998188494
 31
0.0
  0
LINE
  5
BF
330
36
100
AcDbEntity
  8
2-0
  6
Continuous
 62
     0
100
AcDbLine
 10
3253.633418660484
 20
271.801998188494
 30
0.0
 11
3248.871426190002
 21
271.50380860523
 31
0.0
  0
LINE
  5
C0
330
36
100
AcDbEntity
  8
2-0
  6
Continuous
 62
     0
100
AcDbLine
 10
3248.871426190002
 20
271.50380860523
 30
0.0
 11
3244.139876589665
 21
270.889050363268
 31
0.0
  0
LINE
  5
C1
330
36
100
AcDbEntity
  8
2-0
  6
Continuous
 62
     0
100
AcDbLine
 10
3244.139876589665
 20
270.889050363268
 30
0.0
 11
3239.459791181405
 21
269.960454709664
 31
0.0
  0
LINE
  5
C2
330
36
100
AcDbEntity
  8
2-0
  6
Continuous
 62
     0
100
AcDbLine
 10
3239.459791181405
 20
269.960454709664
 30
0.0
 11
3234.85196264211
 21
268.722147207884
 31
0.0
  0
LINE
  5
C3
330
36
100
AcDbEntity
  8
2-0
  6
Continuous
 62
     0
100
AcDbLine
 10
3234.85196264211
 20
268.722147207884
 30
0.0
 11
3230.336862625954
 21
267.179629408762
 31
0.0
  0
LINE
  5
C4
330
36
100
AcDbEntity
  8
2-0
  6
Continuous
 62
     0
100
AcDbLine
 10
3230.336862625954
 20
267.179629408762
 30
0.0
 11
3225.934550812956
 21
265.339754408213
 31
0.0
  0
LINE
  5
C5
330
36
100
AcDbEntity
  8
2-0
  6
Continuous
 62
     0
100
AcDbLine
 10
3225.934550812956
 20
265.339754408213
 30
0.0
 11
3221.664585787868
 21
263.210696400309
 31
0.0
  0
LINE
  5
C6
330
36
100
AcDbEntity
  8
2-0
  6
Continuous
 62
     0
100
AcDbLine
 10
3221.664585787868
 20
263.210696400309
 30
0.0
 11
3217.545938145313
 21
260.801914360983
 31
0.0
  0
LINE
  5
C7
330
36
100
AcDbEntity
  8
2-0
  6
Continuous
 62
     0
100
AcDbLine
 10
3217.545938145313
 20
260.801914360983
 30
0.0
 11
3213.596906207265
 21
258.124110023699
 31
0.0
  0
LINE
  5
C8
330
36
100
AcDbEntity
  8
2-0
  6
Continuous
 62
     0
100
AcDbLine
 10
3213.596906207265
 20
258.124110023699
 30
0.0
 11
3209.835034727279
 21
255.189180333815
 31
0.0
  0
LINE
  5
C9
330
36
100
AcDbEntity
  8
2-0
  6
Continuous
 62
     0
100
AcDbLine
 10
3209.835034727279
 20
255.189180333815
 30
0.0
 11
3206.277036942692
 21
252.01016459284
 31
0.0
  0
LINE
  5
CA
330
36
100
AcDbEntity
  8
2-0
  6
Continuous
 62
     0
100
AcDbLine
 10
3206.277036942692
 20
252.01016459284
 30
0.0
 11
3202.93872032107
 21
248.60118652745
 31
0.0
  0
LINE
  5
CB
330
36
100
AcDbEntity
  8
2-0
  6
Continuous
 62
     0
100
AcDbLine
 10
3202.93872032107
 20
248.60118652745
 30
0.0
 11
3199.834916330821
 21
244.977391540615
 31
0.0
  0
LINE
  5
CC
330
36
100
AcDbEntity
  8
2-0
  6
Continuous
 62
     0
100
AcDbLine
 10
3199.834916330821
 20
244.977391540615
 30
0.0
 11
3196.979414547961
 21
241.154879423619
 31
0.0
  0
LINE
  5
CD
330
36
100
AcDbEntity
  8
2-0
  6
Continuous
 62
     0
100
AcDbLine
 10
3196.979414547961
 20
241.154879423619
 30
0.0
 11
3194.384901391805
 21
237.150632827938
 31
0.0
  0
LINE
  5
CE
330
36
100
AcDbEntity
  8
2-0
  6
Continuous
 62
     0
100
AcDbLine
 10
3194.384901391805
 20
237.150632827938
 30
0.0
 11
3192.062903761764
 21
232.98244181473
 31
0.0
  0
LINE
  5
CF
330
36
100
AcDbEntity
  8
2-0
  6
Continuous
 62
     0
100
AcDbLine
 10
3192.062903761764
 20
232.98244181473
 30
0.0
 11
3190.023737825657
 21
228.668824817185
 31
0.0
  0
LINE
  5
D0
330
36
100
AcDbEntity
  8
2-0
  6
Continuous
 62
     0
100
AcDbLine
 10
3190.023737825657
 20
228.668824817185
 30
0.0
 11
3188.27646318704
 21
224.22894636685
 31
0.0
  0
LINE
  5
D1
330
36
100
AcDbEntity
  8
2-0
  6
Continuous
 62
     0
100
AcDbLine
 10
3188.27646318704
 20
224.22894636685
 30
0.0
 11
3186.828842635232
 21
219.682531949479
 31
0.0
  0
LINE
  5
D2
330
36
100
AcDbEntity
  8
2-0
  6
Continuous
 62
     0
100
AcDbLine
 10
3186.828842635232
 20
219.682531949479
 30
0.0
 11
3185.687307656788
 21
215.049780368671
 31
0.0
  0
LINE
  5
D3
330
36
100
AcDbEntity
  8
2-0
  6
Continuous
 62
     0
100
AcDbLine
 10
3185.687307656788
 20
215.049780368671
 30
0.0
 11
3184.856929861711
 21
210.351274006651
 31
0.0
  0
LINE
  5
D4
330
36
100
AcDbEntity
  8
2-0
  6
Continuous
 62
     0
100
AcDbLine
 10
3184.856929861711
 20
210.351274006651
 30
0.0
 11
3184.341398451304
 21
205.607887380897
 31
0.0
  0
LINE
  5
D5
330
36
100
AcDbEntity
  8
2-0
  6
Continuous
 62
     0
100
AcDbLine
 10
3184.341398451304
 20
205.607887380897
 30
0.0
 11
3184.143003827793
 21
200.840694402859
 31
0.0
  0
LINE
  5
D6
330
36
100
AcDbEntity
  8
2-0
  6
Continuous
 62
     0
100
AcDbLine
 10
3184.143003827793
 20
200.840694402859
 30
0.0
 11
3184.262627418535
 21
196.070874750815
 31
0.0
  0
LINE
  5
D7
330
36
100
AcDbEntity
  8
2-0
  6
Continuous
 62
     0
100
AcDbLine
 10
3184.262627418535
 20
196.070874750815
 30
0.0
 11
3184.69973776001
 21
191.319619772825
 31
0.0
  0
LINE
  5
D8
330
36
100
AcDbEntity
  8
2-0
  6
Continuous
 62
     0
100
AcDbLine
 10
3184.69973776001
 20
191.319619772825
 30
0.0
 11
3185.452392859001
 21
186.608038337844
 31
0.0
  0
LINE
  5
D9
330
36
100
AcDbEntity
  8
2-0
  6
Continuous
 62
     0
100
AcDbLine
 10
3185.452392859001
 20
186.608038337844
 30
0.0
 11
3186.517248820494
 21
181.957063053265
 31
0.0
  0
LINE
  5
DA
330
36
100
AcDbEntity
  8
2-0
  6
Continuous
 62
     0
100
AcDbLine
 10
3186.517248820494
 20
181.957063053265
 30
0.0
 11
3187.889574703915
 21
177.387357265559
 31
0.0
  0
LINE
  5
DB
330
36
100
AcDbEntity
  8
2-0
  6
Continuous
 62
     0
100
AcDbLine
 10
3187.889574703915
 20
177.387357265559
 30
0.0
 11
3189.563273541754
 21
172.9192232571939
 31
0.0
  0
LINE
  5
DC
330
36
100
AcDbEntity
  8
2-0
  6
Continuous
 62
     0
100
AcDbLine
 10
3189.563273541754
 20
172.9192232571939
 30
0.0
 11
3191.530909427159
 21
168.572512047675
 31
0.0
  0
LINE
  5
DD
330
36
100
AcDbEntity
  8
2-0
  6
Continuous
 62
     0
100
AcDbLine
 10
3191.530909427159
 20
168.572512047675
 30
0.0
 11
3193.783740550181
 21
164.3665351994689
 31
0.0
  0
LINE
  5
DE
330
36
100
AcDbEntity
  8
2-0
  6
Continuous
 62
     0
100
AcDbLine
 10
3193.783740550181
 20
164.3665351994689
 30
0.0
 11
3196.311758035863
 21
160.31997902062
 31
0.0
  0
LINE
  5
DF
330
36
100
AcDbEntity
  8
2-0
  6
Continuous
 62
     0
100
AcDbLine
 10
3196.311758035863
 20
160.31997902062
 30
0.0
 11
3199.103730411665
 21
156.450821545244
 31
0.0
  0
LINE
  5
E0
330
36
100
AcDbEntity
  8
2-0
  6
Continuous
 62
     0
100
AcDbLine
 10
3199.103730411665
 20
156.450821545244
 30
0.0
 11
3202.147253506631
 21
152.776252660748
 31
0.0
  0
LINE
  5
E1
330
36
100
AcDbEntity
  8
2-0
  6
Continuous
 62
     0
100
AcDbLine
 10
3202.147253506631
 20
152.776252660748
 30
0.0
 11
3205.428805560623
 21
149.31259773662
 31
0.0
  0
LINE
  5
E2
330
36
100
AcDbEntity
  8
2-0
  6
Continuous
 62
     0
100
AcDbLine
 10
3205.428805560623
 20
149.31259773662
 30
0.0
 11
3208.933807298777
 21
146.075245094098
 31
0.0
  0
LINE
  5
E3
330
36
100
AcDbEntity
  8
2-0
  6
Continuous
 62
     0
100
AcDbLine
 10
3208.933807298777
 20
146.075245094098
 30
0.0
 11
3212.646686704284
 21
143.078577638965
 31
0.0
  0
LINE
  5
E4
330
36
100
AcDbEntity
  8
2-0
  6
Continuous
 62
     0
100
AcDbLine
 10
3212.646686704284
 20
143.078577638965
 30
0.0
 11
3216.55094820173
 21
140.335908961187
 31
0.0
  0
LINE
  5
E5
330
36
100
AcDbEntity
  8
2-0
  6
Continuous
 62
     0
100
AcDbLine
 10
3216.55094820173
 20
140.335908961187
 30
0.0
 11
3220.629245943607
 21
137.85942418532
 31
0.0
  0
LINE
  5
E6
330
36
100
AcDbEntity
  8
2-0
  6
Continuous
 62
     0
100
AcDbLine
 10
3220.629245943607
 20
137.85942418532
 30
0.0
 11
3224.863460874427
 21
135.660125834454
 31
0.0
  0
LINE
  5
E7
330
36
100
AcDbEntity
  8
2-0
  6
Continuous
 62
     0
100
AcDbLine
 10
3224.863460874427
 20
135.660125834454
 30
0.0
 11
3229.234781230032
 21
133.747784948218
 31
0.0
  0
LINE
  5
E8
330
36
100
AcDbEntity
  8
2-0
  6
Continuous
 62
     0
100
AcDbLine
 10
3229.234781230032
 20
133.747784948218
 30
0.0
 11
3233.723786114477
 21
132.1308976720199
 31
0.0
  0
LINE
  5
E9
330
36
100
AcDbEntity
  8
2-0
  6
Continuous
 62
     0
100
AcDbLine
 10
3233.723786114477
 20
132.1308976720199
 30
0.0
 11
3238.310531783156
 21
130.816647510383
 31
0.0
  0
LINE
  5
EA
330
36
100
AcDbEntity
  8
2-0
  6
Continuous
 62
     0
100
AcDbLine
 10
3238.310531783156
 20
130.816647510383
 30
0.0
 11
3242.974640248842
 21
129.810873412083
 31
0.0
  0
LINE
  5
EB
330
36
100
AcDbEntity
  8
2-0
  6
Continuous
 62
     0
100
AcDbLine
 10
3242.974640248842
 20
129.810873412083
 30
0.0
 11
3247.695389816986
 21
129.118043828872
 31
0.0
  0
LINE
  5
EC
330
36
100
AcDbEntity
  8
2-0
  6
Continuous
 62
     0
100
AcDbLine
 10
3247.695389816986
 20
129.118043828872
 30
0.0
 11
3252.451807148026
 21
128.741236863053
 31
0.0
  0
LINE
  5
ED
330
36
100
AcDbEntity
  8
2-0
  6
Continuous
 62
     0
100
AcDbLine
 10
3252.451807148026
 20
128.741236863053
 30
0.0
 11
3257.222760437712
 21
128.682126592083
 31
0.0
  0
LINE
  5
EE
330
36
100
AcDbEntity
  8
2-0
  6
Continuous
 62
     0
100
AcDbLine
 10
3257.222760437712
 20
128.682126592083
 30
0.0
 11
3261.98705330146
 21
128.940975630993
 31
0.0
  0
LINE
  5
EF
330
36
100
AcDbEntity
  8
2-0
  6
Continuous
 62
     0
100
AcDbLine
 10
3261.98705330146
 20
128.940975630993
 30
0.0
 11
3266.723518945615
 21
129.5166339656349
 31
0.0
  0
LINE
  5
F0
330
36
100
AcDbEntity
  8
2-0
  6
Continuous
 62
     0
100
AcDbLine
 10
3266.723518945615
 20
129.5166339656349
 30
0.0
 11
3271.411114207256
 21
130.406544061968
 31
0.0
  0
LINE
  5
F1
330
36
100
AcDbEntity
  8
2-0
  6
Continuous
 62
     0
100
AcDbLine
 10
3271.411114207256
 20
130.406544061968
 30
0.0
 11
3276.029013044725
 21
131.606752228662
 31
0.0
  0
LINE
  5
F2
330
36
100
AcDbEntity
  8
2-0
  6
Continuous
 62
     0
100
AcDbLine
 10
3276.029013044725
 20
131.606752228662
 30
0.0
 11
3280.556699063544
 21
133.111926182558
 31
0.0
  0
LINE
  5
F3
330
36
100
AcDbEntity
  8
2-0
  6
Continuous
 62
     0
100
AcDbLine
 10
3280.556699063544
 20
133.111926182558
 30
0.0
 11
3284.974056666619
 21
134.915378738925
 31
0.0
  0
LINE
  5
F4
330
36
100
AcDbEntity
  8
2-0
  6
Continuous
 62
     0
100
AcDbLine
 10
3284.974056666619
 20
134.915378738925
 30
0.0
 11
3289.261460423782
 21
137.009097521273
 31
0.0
  0
LINE
  5
F5
330
36
100
AcDbEntity
  8
2-0
  6
Continuous
 62
     0
100
AcDbLine
 10
3289.261460423782
 20
137.009097521273
 30
0.0
 11
3293.399862263636
 21
139.383780558733
 31
0.0
  0
LINE
  5
F6
330
36
100
AcDbEntity
  8
2-0
  6
Continuous
 62
     0
100
AcDbLine
 10
3293.399862263636
 20
139.383780558733
 30
0.0
 11
3297.370876100287
 21
142.028877612835
 31
0.0
  0
LINE
  5
F7
330
36
100
AcDbEntity
  8
2-0
  6
Continuous
 62
     0
100
AcDbLine
 10
3297.370876100287
 20
142.028877612835
 30
0.0
 11
3301.156859519032
 21
144.932637050097
 31
0.0
  0
LINE
  5
F8
330
36
100
AcDbEntity
  8
2-0
  6
Continuous
 62
     0
100
AcDbLine
 10
3301.156859519032
 20
144.932637050097
 30
0.0
 11
3304.740992158046
 21
148.082158052162
 31
0.0
  0
LINE
  5
F9
330
36
100
AcDbEntity
  8
2-0
  6
Continuous
 62
     0
100
AcDbLine
 10
3304.740992158046
 20
148.082158052162
 30
0.0
 11
3308.107350437867
 21
151.46344793154
 31
0.0
  0
LINE
  5
FA
330
36
100
AcDbEntity
  8
2-0
  6
Continuous
 62
     0
100
AcDbLine
 10
3308.107350437867
 20
151.46344793154
 30
0.0
 11
3311.24097830665
 21
155.061484298294
 31
0.0
  0
LINE
  5
FB
330
36
100
AcDbEntity
  8
2-0
  6
Continuous
 62
     0
100
AcDbLine
 10
3311.24097830665
 20
155.061484298294
 30
0.0
 11
3314.127953686892
 21
158.860281801501
 31
0.0
  0
LINE
  5
FC
330
36
100
AcDbEntity
  8
2-0
  6
Continuous
 62
     0
100
AcDbLine
 10
3314.127953686892
 20
158.860281801501
 30
0.0
 11
3316.755450328424
 21
162.84296314894
 31
0.0
  0
LINE
  5
FD
330
36
100
AcDbEntity
  8
2-0
  6
Continuous
 62
     0
100
AcDbLine
 10
3316.755450328424
 20
162.84296314894
 30
0.0
 11
3319.111794792849
 21
166.991834089505
 31
0.0
  0
LINE
  5
FE
330
36
100
AcDbEntity
  8
2-0
  6
Continuous
 62
     0
100
AcDbLine
 10
3319.111794792849
 20
166.991834089505
 30
0.0
 11
3321.186518316287
 21
171.288462025199
 31
0.0
  0
LINE
  5
FF
330
36
100
AcDbEntity
  8
2-0
  6
Continuous
 62
     0
100
AcDbLine
 10
3321.186518316287
 20
171.288462025199
 30
0.0
 11
3322.970403319977
 21
175.713757903455
 31
0.0
  0
LINE
  5
100
330
36
100
AcDbEntity
  8
2-0
  6
Continuous
 62
     0
100
AcDbLine
 10
3322.970403319977
 20
175.713757903455
 30
0.0
 11
3324.455524362124
 21
180.24806102595
 31
0.0
  0
LINE
  5
101
330
36
100
AcDbEntity
  8
2-0
  6
Continuous
 62
     0
100
AcDbLine
 10
3324.455524362124
 20
180.24806102595
 30
0.0
 11
3325.635283349047
 21
184.871226397129
 31
0.0
  0
LINE
  5
102
330
36
100
AcDbEntity
  8
2-0
  6
Continuous
 62
     0
100
AcDbLine
 10
3325.635283349047
 20
184.871226397129
 30
0.0
 11
3326.504438849172
 21
189.562714224364
 31
0.0
  0
LINE
  5
103
330
36
100
AcDbEntity
  8
2-0
  6
Continuous
 62
     0
100
AcDbLine
 10
3326.504438849172
 20
189.562714224364
 30
0.0
 11
3327.059129379662
 21
194.301681172116
 31
0.0
  0
LINE
  5
104
330
36
100
AcDbEntity
  8
2-0
  6
Continuous
 62
     0
100
AcDbLine
 10
3327.059129379662
 20
194.301681172116
 30
0.0
 11
3327.296890562205
 21
199.067072964673
 31
0.0
  0
LINE
  5
105
330
36
100
AcDbEntity
  8
2-0
  6
Continuous
 62
     0
100
AcDbLine
 10
3327.296890562205
 20
199.067072964673
 30
0.0
 11
3327.306656611554
 21
200.249473813233
 31
0.0
  0
LINE
  5
106
330
36
100
AcDbEntity
  8
2-0
  6
Continuous
 62
     0
100
AcDbLine
 10
3327.723669932744
 20
200.249473813233
 30
0.0
 11
3327.563729048852
 21
205.0459230774
 31
0.0
  0
LINE
  5
107
330
36
100
AcDbEntity
  8
2-0
  6
Continuous
 62
     0
100
AcDbLine
 10
3327.563729048852
 20
205.0459230774
 30
0.0
 11
3327.084616982312
 21
209.821062683502
 31
0.0
  0
LINE
  5
108
330
36
100
AcDbEntity
  8
2-0
  6
Continuous
 62
     0
100
AcDbLine
 10
3327.084616982312
 20
209.821062683502
 30
0.0
 11
3326.288462331539
 21
214.553677647994
 31
0.0
  0
LINE
  5
109
330
36
100
AcDbEntity
  8
2-0
  6
Continuous
 62
     0
100
AcDbLine
 10
3326.288462331539
 20
214.553677647994
 30
0.0
 11
3325.178802251302
 21
219.222741915746
 31
0.0
  0
LINE
  5
10A
330
36
100
AcDbEntity
  8
2-0
  6
Continuous
 62
     0
100
AcDbLine
 10
3325.178802251302
 20
219.222741915746
 30
0.0
 11
3323.760566737848
 21
223.807511774577
 31
0.0
  0
LINE
  5
10B
330
36
100
AcDbEntity
  8
2-0
  6
Continuous
 62
     0
100
AcDbLine
 10
3323.760566737848
 20
223.807511774577
 30
0.0
 11
3322.040056725927
 21
228.287618015388
 31
0.0
  0
LINE
  5
10C
330
36
100
AcDbEntity
  8
2-0
  6
Continuous
 62
     0
100
AcDbLine
 10
3322.040056725927
 20
228.287618015388
 30
0.0
 11
3320.024916095008
 21
232.643156428454
 31
0.0
  0
LINE
  5
10D
330
36
100
AcDbEntity
  8
2-0
  6
Continuous
 62
     0
100
AcDbLine
 10
3320.024916095008
 20
232.643156428454
 30
0.0
 11
3317.72409770906
 21
236.854776233821
 31
0.0
  0
LINE
  5
10E
330
36
100
AcDbEntity
  8
2-0
  6
Continuous
 62
     0
100
AcDbLine
 10
3317.72409770906
 20
236.854776233821
 30
0.0
 11
3315.147823640782
 21
240.903766052923
 31
0.0
  0
LINE
  5
10F
330
36
100
AcDbEntity
  8
2-0
  6
Continuous
 62
     0
100
AcDbLine
 10
3315.147823640782
 20
240.903766052923
 30
0.0
 11
3312.307539756993
 21
244.772137039471
 31
0.0
  0
LINE
  5
110
330
36
100
AcDbEntity
  8
2-0
  6
Continuous
 62
     0
100
AcDbLine
 10
3312.307539756993
 20
244.772137039471
 30
0.0
 11
3309.215864866947
 21
248.442702800268
 31
0.0
  0
LINE
  5
111
330
36
100
AcDbEntity
  8
2-0
  6
Continuous
 62
     0
100
AcDbLine
 10
3309.215864866947
 20
248.442702800268
 30
0.0
 11
3305.886534659511
 21
251.8991557509
 31
0.0
  0
LINE
  5
112
330
36
100
AcDbEntity
  8
2-0
  6
Continuous
 62
     0
100
AcDbLine
 10
3305.886534659511
 20
251.8991557509
 30
0.0
 11
3302.334340678263
 21
255.126139567045
 31
0.0
  0
LINE
  5
113
330
36
100
AcDbEntity
  8
2-0
  6
Continuous
 62
     0
100
AcDbLine
 10
3302.334340678263
 20
255.126139567045
 30
0.0
 11
3298.575064605641
 21
258.10931740953
 31
0.0
  0
LINE
  5
114
330
36
100
AcDbEntity
  8
2-0
  6
Continuous
 62
     0
100
AcDbLine
 10
3298.575064605641
 20
258.10931740953
 30
0.0
 11
3294.62540814811
 21
260.835435620018
 31
0.0
  0
LINE
  5
115
330
36
100
AcDbEntity
  8
2-0
  6
Continuous
 62
     0
100
AcDbLine
 10
3294.62540814811
 20
260.835435620018
 30
0.0
 11
3290.502918833839
 21
263.292382604348
 31
0.0
  0
LINE
  5
116
330
36
100
AcDbEntity
  8
2-0
  6
Continuous
 62
     0
100
AcDbLine
 10
3290.502918833839
 20
263.292382604348
 30
0.0
 11
3286.225912052576
 21
265.469242641902
 31
0.0
  0
LINE
  5
117
330
36
100
AcDbEntity
  8
2-0
  6
Continuous
 62
     0
100
AcDbLine
 10
3286.225912052576
 20
265.469242641902
 30
0.0
 11
3281.813389684048
 21
267.356344381959
 31
0.0
  0
LINE
  5
118
330
36
100
AcDbEntity
  8
2-0
  6
Continuous
 62
     0
100
AcDbLine
 10
3281.813389684048
 20
267.356344381959
 30
0.0
 11
3277.284955676448
 21
268.945303811552
 31
0.0
  0
LINE
  5
119
330
36
100
AcDbEntity
  8
2-0
  6
Continuous
 62
     0
100
AcDbLine
 10
3277.284955676448
 20
268.945303811552
 30
0.0
 11
3272.660728950035
 21
270.229061503958
 31
0.0
  0
LINE
  5
11A
330
36
100
AcDbEntity
  8
2-0
  6
Continuous
 62
     0
100
AcDbLine
 10
3272.660728950035
 20
270.229061503958
 30
0.0
 11
3267.961254012826
 21
271.2019139823
 31
0.0
  0
LINE
  5
11B
330
36
100
AcDbEntity
  8
2-0
  6
Continuous
 62
     0
100
AcDbLine
 10
3267.961254012826
 20
271.2019139823
 30
0.0
 11
3263.20740968548
 21
271.859539058951
 31
0.0
  0
LINE
  5
11C
330
36
100
AcDbEntity
  8
2-0
  6
Continuous
 62
     0
100
AcDbLine
 10
3263.20740968548
 20
271.859539058951
 30
0.0
 11
3258.420316340909
 21
272.199015038143
 31
0.0
  0
LINE
  5
11D
330
36
100
AcDbEntity
  8
2-0
  6
Continuous
 62
     0
100
AcDbLine
 10
3258.420316340909
 20
272.199015038143
 30
0.0
 11
3253.621242070713
 21
272.218833696473
 31
0.0
  0
LINE
  5
11E
330
36
100
AcDbEntity
  8
2-0
  6
Continuous
 62
     0
100
AcDbLine
 10
3253.621242070713
 20
272.218833696473
 30
0.0
 11
3248.831508195328
 21
271.918906983631
 31
0.0
  0
LINE
  5
11F
330
36
100
AcDbEntity
  8
2-0
  6
Continuous
 62
     0
100
AcDbLine
 10
3248.831508195328
 20
271.918906983631
 30
0.0
 11
3244.072394537701
 21
271.300567413599
 31
0.0
  0
LINE
  5
120
330
36
100
AcDbEntity
  8
2-0
  6
Continuous
 62
     0
100
AcDbLine
 10
3244.072394537701
 20
271.300567413599
 30
0.0
 11
3239.365044881316
 21
270.366562144549
 31
0.0
  0
LINE
  5
121
330
36
100
AcDbEntity
  8
2-0
  6
Continuous
 62
     0
100
AcDbLine
 10
3239.365044881316
 20
270.366562144549
 30
0.0
 11
3234.730373032626
 21
269.121040773783
 31
0.0
  0
LINE
  5
122
330
36
100
AcDbEntity
  8
2-0
  6
Continuous
 62
     0
100
AcDbLine
 10
3234.730373032626
 20
269.121040773783
 30
0.0
 11
3230.188969905219
 21
267.569536901899
 31
0.0
  0
LINE
  5
123
330
36
100
AcDbEntity
  8
2-0
  6
Continuous
 62
     0
100
AcDbLine
 10
3230.188969905219
 20
267.569536901899
 30
0.0
 11
3225.761012038545
 21
265.718943548123
 31
0.0
  0
LINE
  5
124
330
36
100
AcDbEntity
  8
2-0
  6
Continuous
 62
     0
100
AcDbLine
 10
3225.761012038545
 20
265.718943548123
 30
0.0
 11
3221.466171957604
 21
263.577482526014
 31
0.0
  0
LINE
  5
125
330
36
100
AcDbEntity
  8
2-0
  6
Continuous
 62
     0
100
AcDbLine
 10
3221.466171957604
 20
263.577482526014
 30
0.0
 11
3217.323530771882
 21
261.154667915597
 31
0.0
  0
LINE
  5
126
330
36
100
AcDbEntity
  8
2-0
  6
Continuous
 62
     0
100
AcDbLine
 10
3217.323530771882
 20
261.154667915597
 30
0.0
 11
3213.351493401834
 21
258.461263794227
 31
0.0
  0
LINE
  5
127
330
36
100
AcDbEntity
  8
2-0
  6
Continuous
 62
     0
100
AcDbLine
 10
3213.351493401834
 20
258.461263794227
 30
0.0
 11
3209.567706809516
 21
255.509236413955
 31
0.0
  0
LINE
  5
128
330
36
100
AcDbEntity
  8
2-0
  6
Continuous
 62
     0
100
AcDbLine
 10
3209.567706809516
 20
255.509236413955
 30
0.0
 11
3205.988981596693
 21
252.311701037889
 31
0.0
  0
LINE
  5
129
330
36
100
AcDbEntity
  8
2-0
  6
Continuous
 62
     0
100
AcDbLine
 10
3205.988981596693
 20
252.311701037889
 30
0.0
 11
3202.631217318728
 21
248.882863671713
 31
0.0
  0
LINE
  5
12A
330
36
100
AcDbEntity
  8
2-0
  6
Continuous
 62
     0
100
AcDbLine
 10
3202.631217318728
 20
248.882863671713
 30
0.0
 11
3199.50933184604
 21
245.23795794927
 31
0.0
  0
LINE
  5
12B
330
36
100
AcDbEntity
  8
2-0
  6
Continuous
 62
     0
100
AcDbLine
 10
3199.50933184604
 20
245.23795794927
 30
0.0
 11
3196.637195087033
 21
241.393177452592
 31
0.0
  0
LINE
  5
12C
330
36
100
AcDbEntity
  8
2-0
  6
Continuous
 62
     0
100
AcDbLine
 10
3196.637195087033
 20
241.393177452592
 30
0.0
 11
3194.027567366871
 21
237.365603767079
 31
0.0
  0
LINE
  5
12D
330
36
100
AcDbEntity
  8
2-0
  6
Continuous
 62
     0
100
AcDbLine
 10
3194.027567366871
 20
237.365603767079
 30
0.0
 11
3191.692042735931
 21
233.173130591452
 31
0.0
  0
LINE
  5
12E
330
36
100
AcDbEntity
  8
2-0
  6
Continuous
 62
     0
100
AcDbLine
 10
3191.692042735931
 20
233.173130591452
 30
0.0
 11
3189.640997459768
 21
228.834384239659
 31
0.0
  0
LINE
  5
12F
330
36
100
AcDbEntity
  8
2-0
  6
Continuous
 62
     0
100
AcDbLine
 10
3189.640997459768
 20
228.834384239659
 30
0.0
 11
3187.883543919458
 21
224.368640887906
 31
0.0
  0
LINE
  5
130
330
36
100
AcDbEntity
  8
2-0
  6
Continuous
 62
     0
100
AcDbLine
 10
3187.883543919458
 20
224.368640887906
 30
0.0
 11
3186.427490127127
 21
219.795740934494
 31
0.0
  0
LINE
  5
131
330
36
100
AcDbEntity
  8
2-0
  6
Continuous
 62
     0
100
AcDbLine
 10
3186.427490127127
 20
219.795740934494
 30
0.0
 11
3185.279305036521
 21
215.136000852925
 31
0.0
  0
LINE
  5
132
330
36
100
AcDbEntity
  8
2-0
  6
Continuous
 62
     0
100
AcDbLine
 10
3185.279305036521
 20
215.136000852925
 30
0.0
 11
3184.444089802751
 21
210.410122929898
 31
0.0
  0
LINE
  5
133
330
36
100
AcDbEntity
  8
2-0
  6
Continuous
 62
     0
100
AcDbLine
 10
3184.444089802751
 20
210.410122929898
 30
0.0
 11
3183.925555118884
 21
205.639103289224
 31
0.0
  0
LINE
  5
134
330
36
100
AcDbEntity
  8
2-0
  6
Continuous
 62
     0
100
AcDbLine
 10
3183.925555118884
 20
205.639103289224
 30
0.0
 11
3183.72600473009
 21
200.844138610271
 31
0.0
  0
LINE
  5
135
330
36
100
AcDbEntity
  8
2-0
  6
Continuous
 62
     0
100
AcDbLine
 10
3183.72600473009
 20
200.844138610271
 30
0.0
 11
3183.846325198556
 21
196.046531955392
 31
0.0
  0
LINE
  5
136
330
36
100
AcDbEntity
  8
2-0
  6
Continuous
 62
     0
100
AcDbLine
 10
3183.846325198556
 20
196.046531955392
 30
0.0
 11
3184.28598196467
 21
191.267598124705
 31
0.0
  0
LINE
  5
137
330
36
100
AcDbEntity
  8
2-0
  6
Continuous
 62
     0
100
AcDbLine
 10
3184.28598196467
 20
191.267598124705
 30
0.0
 11
3185.043021721971
 21
186.528568958733
 31
0.0
  0
LINE
  5
138
330
36
100
AcDbEntity
  8
2-0
  6
Continuous
 62
     0
100
AcDbLine
 10
3185.043021721971
 20
186.528568958733
 30
0.0
 11
3186.114081095286
 21
181.850499009608
 31
0.0
  0
LINE
  5
139
330
36
100
AcDbEntity
  8
2-0
  6
Continuous
 62
     0
100
AcDbLine
 10
3186.114081095286
 20
181.850499009608
 30
0.0
 11
3187.494401583534
 21
177.2541719999409
 31
0.0
  0
LINE
  5
13A
330
36
100
AcDbEntity
  8
2-0
  6
Continuous
 62
     0
100
AcDbLine
 10
3187.494401583534
 20
177.2541719999409
 30
0.0
 11
3189.177850700783
 21
172.760008484924
 31
0.0
  0
LINE
  5
13B
330
36
100
AcDbEntity
  8
2-0
  6
Continuous
 62
     0
100
AcDbLine
 10
3189.177850700783
 20
172.760008484924
 30
0.0
 11
3191.156949221659
 21
168.387975127922
 31
0.0
  0
LINE
  5
13C
330
36
100
AcDbEntity
  8
2-0
  6
Continuous
 62
     0
100
AcDbLine
 10
3191.156949221659
 20
168.387975127922
 30
0.0
 11
3193.422904410026
 21
164.157495992601
 31
0.0
  0
LINE
  5
13D
330
36
100
AcDbEntity
  8
2-0
  6
Continuous
 62
     0
100
AcDbLine
 10
3193.422904410026
 20
164.157495992601
 30
0.0
 11
3195.965649083351
 21
160.087366245731
 31
0.0
  0
LINE
  5
13E
330
36
100
AcDbEntity
  8
2-0
  6
Continuous
 62
     0
100
AcDbLine
 10
3195.965649083351
 20
160.087366245731
 30
0.0
 11
3198.773886339165
 21
156.195668654046
 31
0.0
  0
LINE
  5
13F
330
36
100
AcDbEntity
  8
2-0
  6
Continuous
 62
     0
100
AcDbLine
 10
3198.773886339165
 20
156.195668654046
 30
0.0
 11
3201.835139744926
 21
152.499693246147
 31
0.0
  0
LINE
  5
140
330
36
100
AcDbEntity
  8
2-0
  6
Continuous
 62
     0
100
AcDbLine
 10
3201.835139744926
 20
152.499693246147
 30
0.0
 11
3205.135808768297
 21
149.015860496395
 31
0.0
  0
LINE
  5
141
330
36
100
AcDbEntity
  8
2-0
  6
Continuous
 62
     0
100
AcDbLine
 10
3205.135808768297
 20
149.015860496395
 30
0.0
 11
3208.661229201565
 21
145.759648372045
 31
0.0
  0
LINE
  5
142
330
36
100
AcDbEntity
  8
2-0
  6
Continuous
 62
     0
100
AcDbLine
 10
3208.661229201565
 20
145.759648372045
 30
0.0
 11
3212.395738311777
 21
142.745523567757
 31
0.0
  0
LINE
  5
143
330
36
100
AcDbEntity
  8
2-0
  6
Continuous
 62
     0
100
AcDbLine
 10
3212.395738311777
 20
142.745523567757
 30
0.0
 11
3216.322744427093
 21
139.986877232985
 31
0.0
  0
LINE
  5
144
330
36
100
AcDbEntity
  8
2-0
  6
Continuous
 62
     0
100
AcDbLine
 10
3216.322744427093
 20
139.986877232985
 30
0.0
 11
3220.42480065025
 21
137.495965477797
 31
0.0
  0
LINE
  5
145
330
36
100
AcDbEntity
  8
2-0
  6
Continuous
 62
     0
100
AcDbLine
 10
3220.42480065025
 20
137.495965477797
 30
0.0
 11
3224.683682371613
 21
135.283854921446
 31
0.0
  0
LINE
  5
146
330
36
100
AcDbEntity
  8
2-0
  6
Continuous
 62
     0
100
AcDbLine
 10
3224.683682371613
 20
135.283854921446
 30
0.0
 11
3229.080468237441
 21
133.360373525609
 31
0.0
  0
LINE
  5
147
330
36
100
AcDbEntity
  8
2-0
  6
Continuous
 62
     0
100
AcDbLine
 10
3229.080468237441
 20
133.360373525609
 30
0.0
 11
3233.595624213658
 21
131.734066930736
 31
0.0
  0
LINE
  5
148
330
36
100
AcDbEntity
  8
2-0
  6
Continuous
 62
     0
100
AcDbLine
 10
3233.595624213658
 20
131.734066930736
 30
0.0
 11
3238.20909037162
 21
130.412160489485
 31
0.0
  0
LINE
  5
149
330
36
100
AcDbEntity
  8
2-0
  6
Continuous
 62
     0
100
AcDbLine
 10
3238.20909037162
 20
130.412160489485
 30
0.0
 11
3242.90037001035
 21
129.400527165939
 31
0.0
  0
LINE
  5
14A
330
36
100
AcDbEntity
  8
2-0
  6
Continuous
 62
     0
100
AcDbLine
 10
3242.90037001035
 20
129.400527165939
 30
0.0
 11
3247.64862071925
 21
128.70366144321
 31
0.0
  0
LINE
  5
14B
330
36
100
AcDbEntity
  8
2-0
  6
Continuous
 62
     0
100
AcDbLine
 10
3247.64862071925
 20
128.70366144321
 30
0.0
 11
3252.432746976726
 21
128.324659355355
 31
0.0
  0
LINE
  5
14C
330
36
100
AcDbEntity
  8
2-0
  6
Continuous
 62
     0
100
AcDbLine
 10
3252.432746976726
 20
128.324659355355
 30
0.0
 11
3257.231493873354
 21
128.265204732316
 31
0.0
  0
LINE
  5
14D
330
36
100
AcDbEntity
  8
2-0
  6
Continuous
 62
     0
100
AcDbLine
 10
3257.231493873354
 20
128.265204732316
 30
0.0
 11
3262.023541543145
 21
128.525561719011
 31
0.0
  0
LINE
  5
14E
330
36
100
AcDbEntity
  8
2-0
  6
Continuous
 62
     0
100
AcDbLine
 10
3262.023541543145
 20
128.525561719011
 30
0.0
 11
3266.787599883436
 21
129.104573601783
 31
0.0
  0
LINE
  5
14F
330
36
100
AcDbEntity
  8
2-0
  6
Continuous
 62
     0
100
AcDbLine
 10
3266.787599883436
 20
129.104573601783
 30
0.0
 11
3271.502503142509
 21
129.999667947453
 31
0.0
  0
LINE
  5
150
330
36
100
AcDbEntity
  8
2-0
  6
Continuous
 62
     0
100
AcDbLine
 10
3271.502503142509
 20
129.999667947453
 30
0.0
 11
3276.147303954781
 21
131.206868032115
 31
0.0
  0
LINE
  5
151
330
36
100
AcDbEntity
  8
2-0
  6
Continuous
 62
     0
100
AcDbLine
 10
3276.147303954781
 20
131.206868032115
 30
0.0
 11
3280.701366405712
 21
132.720810508927
 31
0.0
  0
LINE
  5
152
330
36
100
AcDbEntity
  8
2-0
  6
Continuous
 62
     0
100
AcDbLine
 10
3280.701366405712
 20
132.720810508927
 30
0.0
 11
3285.144457713033
 21
134.534769236376
 31
0.0
  0
LINE
  5
153
330
36
100
AcDbEntity
  8
2-0
  6
Continuous
 62
     0
100
AcDbLine
 10
3285.144457713033
 20
134.534769236376
 30
0.0
 11
3289.456838116914
 21
136.64068516117
 31
0.0
  0
LINE
  5
154
330
36
100
AcDbEntity
  8
2-0
  6
Continuous
 62
     0
100
AcDbLine
 10
3289.456838116914
 20
136.64068516117
 30
0.0
 11
3293.619348579743
 21
139.029202122993
 31
0.0
  0
LINE
  5
155
330
36
100
AcDbEntity
  8
2-0
  6
Continuous
 62
     0
100
AcDbLine
 10
3293.619348579743
 20
139.029202122993
 30
0.0
 11
3297.613495905873
 21
141.689708422036
 31
0.0
  0
LINE
  5
156
330
36
100
AcDbEntity
  8
2-0
  6
Continuous
 62
     0
100
AcDbLine
 10
3297.613495905873
 20
141.689708422036
 30
0.0
 11
3301.421534903165
 21
144.610383964644
 31
0.0
  0
LINE
  5
157
330
36
100
AcDbEntity
  8
2-0
  6
Continuous
 62
     0
100
AcDbLine
 10
3301.421534903165
 20
144.610383964644
 30
0.0
 11
3305.0265472213
 21
147.778252777611
 31
0.0
  0
LINE
  5
158
330
36
100
AcDbEntity
  8
2-0
  6
Continuous
 62
     0
100
AcDbLine
 10
3305.0265472213
 20
147.778252777611
 30
0.0
 11
3308.412516516607
 21
151.179240657817
 31
0.0
  0
LINE
  5
159
330
36
100
AcDbEntity
  8
2-0
  6
Continuous
 62
     0
100
AcDbLine
 10
3308.412516516607
 20
151.179240657817
 30
0.0
 11
3311.564399609448
 21
154.798237701079
 31
0.0
  0
LINE
  5
15A
330
36
100
AcDbEntity
  8
2-0
  6
Continuous
 62
     0
100
AcDbLine
 10
3311.564399609448
 20
154.798237701079
 30
0.0
 11
3314.46819331804
 21
158.619165432405
 31
0.0
  0
LINE
  5
15B
330
36
100
AcDbEntity
  8
2-0
  6
Continuous
 62
     0
100
AcDbLine
 10
3314.46819331804
 20
158.619165432405
 30
0.0
 11
3317.110996671765
 21
162.62504823943
 31
0.0
  0
LINE
  5
15C
330
36
100
AcDbEntity
  8
2-0
  6
Continuous
 62
     0
100
AcDbLine
 10
3317.110996671765
 20
162.62504823943
 30
0.0
 11
3319.481068227588
 21
166.798088791636
 31
0.0
  0
LINE
  5
15D
330
36
100
AcDbEntity
  8
2-0
  6
Continuous
 62
     0
100
AcDbLine
 10
3319.481068227588
 20
166.798088791636
 30
0.0
 11
3321.567878234925
 21
171.119747110308
 31
0.0
  0
LINE
  5
15E
330
36
100
AcDbEntity
  8
2-0
  6
Continuous
 62
     0
100
AcDbLine
 10
3321.567878234925
 20
171.119747110308
 30
0.0
 11
3323.362155417201
 21
175.570822937929
 31
0.0
  0
LINE
  5
15F
330
36
100
AcDbEntity
  8
2-0
  6
Continuous
 62
     0
100
AcDbLine
 10
3323.362155417201
 20
175.570822937929
 30
0.0
 11
3324.855928162268
 21
180.131541041054
 31
0.0
  0
LINE
  5
160
330
36
100
AcDbEntity
  8
2-0
  6
Continuous
 62
     0
100
AcDbLine
 10
3324.855928162268
 20
180.131541041054
 30
0.0
 11
3326.042559938669
 21
184.781639067689
 31
0.0
  0
LINE
  5
161
330
36
100
AcDbEntity
  8
2-0
  6
Continuous
 62
     0
100
AcDbLine
 10
3326.042559938669
 20
184.781639067689
 30
0.0
 11
3326.916778780411
 21
189.500457568841
 31
0.0
  0
LINE
  5
162
330
36
100
AcDbEntity
  8
2-0
  6
Continuous
 62
     0
100
AcDbLine
 10
3326.916778780411
 20
189.500457568841
 30
0.0
 11
3327.474700709248
 21
194.267031784291
 31
0.0
  0
LINE
  5
163
330
36
100
AcDbEntity
  8
2-0
  6
Continuous
 62
     0
100
AcDbLine
 10
3327.474700709248
 20
194.267031784291
 30
0.0
 11
3327.713846990418
 21
199.060184784799
 31
0.0
  0
LINE
  5
164
330
36
100
AcDbEntity
  8
2-0
  6
Continuous
 62
     0
100
AcDbLine
 10
3327.713846990418
 20
199.060184784799
 30
0.0
 11
3327.723669932744
 21
200.249473813233
 31
0.0
  0
LINE
  5
165
330
36
100
AcDbEntity
  8
2-0
  6
Continuous
 62
     0
100
AcDbLine
 10
3328.140683253934
 20
200.249473813233
 30
0.0
 11
3327.979816016943
 21
205.073703376805
 31
0.0
  0
LINE
  5
166
330
36
100
AcDbEntity
  8
2-0
  6
Continuous
 62
     0
100
AcDbLine
 10
3327.979816016943
 20
205.073703376805
 30
0.0
 11
3327.497929006705
 21
209.876499860037
 31
0.0
  0
LINE
  5
167
330
36
100
AcDbEntity
  8
2-0
  6
Continuous
 62
     0
100
AcDbLine
 10
3327.497929006705
 20
209.876499860037
 30
0.0
 11
3326.697163150152
 21
214.636525405447
 31
0.0
  0
LINE
  5
168
330
36
100
AcDbEntity
  8
2-0
  6
Continuous
 62
     0
100
AcDbLine
 10
3326.697163150152
 20
214.636525405447
 30
0.0
 11
3325.581076088712
 21
219.332632178218
 31
0.0
  0
LINE
  5
169
330
36
100
AcDbEntity
  8
2-0
  6
Continuous
 62
     0
100
AcDbLine
 10
3325.581076088712
 20
219.332632178218
 30
0.0
 11
3324.154626372413
 21
223.943956321764
 31
0.0
  0
LINE
  5
16A
330
36
100
AcDbEntity
  8
2-0
  6
Continuous
 62
     0
100
AcDbLine
 10
3324.154626372413
 20
223.943956321764
 30
0.0
 11
3322.424151430054
 21
228.450010651647
 31
0.0
  0
LINE
  5
16B
330
36
100
AcDbEntity
  8
2-0
  6
Continuous
 62
     0
100
AcDbLine
 10
3322.424151430054
 20
228.450010651647
 30
0.0
 11
3320.397339413287
 21
232.830775676008
 31
0.0
  0
LINE
  5
16C
330
36
100
AcDbEntity
  8
2-0
  6
Continuous
 62
     0
100
AcDbLine
 10
3320.397339413287
 20
232.830775676008
 30
0.0
 11
3318.083195039692
 21
237.06678853814
 31
0.0
  0
LINE
  5
16D
330
36
100
AcDbEntity
  8
2-0
  6
Continuous
 62
     0
100
AcDbLine
 10
3318.083195039692
 20
237.06678853814
 30
0.0
 11
3315.491999586652
 21
241.139229486039
 31
0.0
  0
LINE
  5
16E
330
36
100
AcDbEntity
  8
2-0
  6
Continuous
 62
     0
100
AcDbLine
 10
3315.491999586652
 20
241.139229486039
 30
0.0
 11
3312.63526521369
 21
245.030005484772
 31
0.0
  0
LINE
  5
16F
330
36
100
AcDbEntity
  8
2-0
  6
Continuous
 62
     0
100
AcDbLine
 10
3312.63526521369
 20
245.030005484772
 30
0.0
 11
3309.525683816272
 21
248.721830600189
 31
0.0
  0
LINE
  5
170
330
36
100
AcDbEntity
  8
2-0
  6
Continuous
 62
     0
100
AcDbLine
 10
3309.525683816272
 20
248.721830600189
 30
0.0
 11
3306.177070638271
 21
252.198302796842
 31
0.0
  0
LINE
  5
171
330
36
100
AcDbEntity
  8
2-0
  6
Continuous
 62
     0
100
AcDbLine
 10
3306.177070638271
 20
252.198302796842
 30
0.0
 11
3302.604302893619
 21
255.443976808932
 31
0.0
  0
LINE
  5
172
330
36
100
AcDbEntity
  8
2-0
  6
Continuous
 62
     0
100
AcDbLine
 10
3302.604302893619
 20
255.443976808932
 30
0.0
 11
3298.823253669841
 21
258.444432760509
 31
0.0
  0
LINE
  5
173
330
36
100
AcDbEntity
  8
2-0
  6
Continuous
 62
     0
100
AcDbLine
 10
3298.823253669841
 20
258.444432760509
 30
0.0
 11
3294.850721407127
 21
261.186340230078
 31
0.0
  0
LINE
  5
174
330
36
100
AcDbEntity
  8
2-0
  6
Continuous
 62
     0
100
AcDbLine
 10
3294.850721407127
 20
261.186340230078
 30
0.0
 11
3290.704355266242
 21
263.657517474979
 31
0.0
  0
LINE
  5
175
330
36
100
AcDbEntity
  8
2-0
  6
Continuous
 62
     0
100
AcDbLine
 10
3290.704355266242
 20
263.657517474979
 30
0.0
 11
3286.402576716865
 21
265.846985552414
 31
0.0
  0
LINE
  5
176
330
36
100
AcDbEntity
  8
2-0
  6
Continuous
 62
     0
100
AcDbLine
 10
3286.402576716865
 20
265.846985552414
 30
0.0
 11
3281.964497694701
 21
267.745017096677
 31
0.0
  0
LINE
  5
177
330
36
100
AcDbEntity
  8
2-0
  6
Continuous
 62
     0
100
AcDbLine
 10
3281.964497694701
 20
267.745017096677
 30
0.0
 11
3277.409835691008
 21
269.343179535886
 31
0.0
  0
LINE
  5
178
330
36
100
AcDbEntity
  8
2-0
  6
Continuous
 62
     0
100
AcDbLine
 10
3277.409835691008
 20
269.343179535886
 30
0.0
 11
3272.758826151747
 21
270.634372556196
 31
0.0
  0
LINE
  5
179
330
36
100
AcDbEntity
  8
2-0
  6
Continuous
 62
     0
100
AcDbLine
 10
3272.758826151747
 20
270.634372556196
 30
0.0
 11
3268.03213257558
 21
271.612859647068
 31
0.0
  0
LINE
  5
17A
330
36
100
AcDbEntity
  8
2-0
  6
Continuous
 62
     0
100
AcDbLine
 10
3268.03213257558
 20
271.612859647068
 30
0.0
 11
3263.250754710096
 21
272.274293587426
 31
0.0
  0
LINE
  5
17B
330
36
100
AcDbEntity
  8
2-0
  6
Continuous
 62
     0
100
AcDbLine
 10
3263.250754710096
 20
272.274293587426
 30
0.0
 11
3258.435935254174
 21
272.615735759488
 31
0.0
  0
LINE
  5
17C
330
36
100
AcDbEntity
  8
2-0
  6
Continuous
 62
     0
100
AcDbLine
 10
3258.435935254174
 20
272.615735759488
 30
0.0
 11
3253.60906548094
 21
272.635669204451
 31
0.0
  0
LINE
  5
17D
330
36
100
AcDbEntity
  8
2-0
  6
Continuous
 62
     0
100
AcDbLine
 10
3253.60906548094
 20
272.635669204451
 30
0.0
 11
3248.791590200654
 21
272.334005362032
 31
0.0
  0
LINE
  5
17E
330
36
100
AcDbEntity
  8
2-0
  6
Continuous
 62
     0
100
AcDbLine
 10
3248.791590200654
 20
272.334005362032
 30
0.0
 11
3244.004912485736
 21
271.712084463929
 31
0.0
  0
LINE
  5
17F
330
36
100
AcDbEntity
  8
2-0
  6
Continuous
 62
     0
100
AcDbLine
 10
3244.004912485736
 20
271.712084463929
 30
0.0
 11
3239.270298581227
 21
270.772669579435
 31
0.0
  0
LINE
  5
180
330
36
100
AcDbEntity
  8
2-0
  6
Continuous
 62
     0
100
AcDbLine
 10
3239.270298581227
 20
270.772669579435
 30
0.0
 11
3234.608783423141
 21
269.519934339681
 31
0.0
  0
LINE
  5
181
330
36
100
AcDbEntity
  8
2-0
  6
Continuous
 62
     0
100
AcDbLine
 10
3234.608783423141
 20
269.519934339681
 30
0.0
 11
3230.041077184485
 21
267.959444395035
 31
0.0
  0
LINE
  5
182
330
36
100
AcDbEntity
  8
2-0
  6
Continuous
 62
     0
100
AcDbLine
 10
3230.041077184485
 20
267.959444395035
 30
0.0
 11
3225.587473264134
 21
266.098132688034
 31
0.0
  0
LINE
  5
183
330
36
100
AcDbEntity
  8
2-0
  6
Continuous
 62
     0
100
AcDbLine
 10
3225.587473264134
 20
266.098132688034
 30
0.0
 11
3221.267758127338
 21
263.944268651719
 31
0.0
  0
LINE
  5
184
330
36
100
AcDbEntity
  8
2-0
  6
Continuous
 62
     0
100
AcDbLine
 10
3221.267758127338
 20
263.944268651719
 30
0.0
 11
3217.101123398451
 21
261.5074214702119
 31
0.0
  0
LINE
  5
185
330
36
100
AcDbEntity
  8
2-0
  6
Continuous
 62
     0
100
AcDbLine
 10
3217.101123398451
 20
261.5074214702119
 30
0.0
 11
3213.106080596404
 21
258.798417564753
 31
0.0
  0
LINE
  5
186
330
36
100
AcDbEntity
  8
2-0
  6
Continuous
 62
     0
100
AcDbLine
 10
3213.106080596404
 20
258.798417564753
 30
0.0
 11
3209.300378891754
 21
255.829292494095
 31
0.0
  0
LINE
  5
187
330
36
100
AcDbEntity
  8
2-0
  6
Continuous
 62
     0
100
AcDbLine
 10
3209.300378891754
 20
255.829292494095
 30
0.0
 11
3205.700926250699
 21
252.613237482938
 31
0.0
  0
LINE
  5
188
330
36
100
AcDbEntity
  8
2-0
  6
Continuous
 62
     0
100
AcDbLine
 10
3205.700926250699
 20
252.613237482938
 30
0.0
 11
3202.323714316385
 21
249.164540815976
 31
0.0
  0
LINE
  5
189
330
36
100
AcDbEntity
  8
2-0
  6
Continuous
 62
     0
100
AcDbLine
 10
3202.323714316385
 20
249.164540815976
 30
0.0
 11
3199.183747361259
 21
245.498524357926
 31
0.0
  0
LINE
  5
18A
330
36
100
AcDbEntity
  8
2-0
  6
Continuous
 62
     0
100
AcDbLine
 10
3199.183747361259
 20
245.498524357926
 30
0.0
 11
3196.294975626105
 21
241.631475481565
 31
0.0
  0
LINE
  5
18B
330
36
100
AcDbEntity
  8
2-0
  6
Continuous
 62
     0
100
AcDbLine
 10
3196.294975626105
 20
241.631475481565
 30
0.0
 11
3193.670233341939
 21
237.58057470622
 31
0.0
  0
LINE
  5
18C
330
36
100
AcDbEntity
  8
2-0
  6
Continuous
 62
     0
100
AcDbLine
 10
3193.670233341939
 20
237.58057470622
 30
0.0
 11
3191.321181710098
 21
233.363819368175
 31
0.0
  0
LINE
  5
18D
330
36
100
AcDbEntity
  8
2-0
  6
Continuous
 62
     0
100
AcDbLine
 10
3191.321181710098
 20
233.363819368175
 30
0.0
 11
3189.25825709388
 21
228.999943662133
 31
0.0
  0
LINE
  5
18E
330
36
100
AcDbEntity
  8
2-0
  6
Continuous
 62
     0
100
AcDbLine
 10
3189.25825709388
 20
228.999943662133
 30
0.0
 11
3187.490624651877
 21
224.508335408962
 31
0.0
  0
LINE
  5
18F
330
36
100
AcDbEntity
  8
2-0
  6
Continuous
 62
     0
100
AcDbLine
 10
3187.490624651877
 20
224.508335408962
 30
0.0
 11
3186.026137619022
 21
219.908949919509
 31
0.0
  0
LINE
  5
190
330
36
100
AcDbEntity
  8
2-0
  6
Continuous
 62
     0
100
AcDbLine
 10
3186.026137619022
 20
219.908949919509
 30
0.0
 11
3184.871302416255
 21
215.22222133718
 31
0.0
  0
LINE
  5
191
330
36
100
AcDbEntity
  8
2-0
  6
Continuous
 62
     0
100
AcDbLine
 10
3184.871302416255
 20
215.22222133718
 30
0.0
 11
3184.031249743789
 21
210.468971853146
 31
0.0
  0
LINE
  5
192
330
36
100
AcDbEntity
  8
2-0
  6
Continuous
 62
     0
100
AcDbLine
 10
3184.031249743789
 20
210.468971853146
 30
0.0
 11
3183.509711786465
 21
205.670319197551
 31
0.0
  0
LINE
  5
193
330
36
100
AcDbEntity
  8
2-0
  6
Continuous
 62
     0
100
AcDbLine
 10
3183.509711786465
 20
205.670319197551
 30
0.0
 11
3183.309005632387
 21
200.847582817683
 31
0.0
  0
LINE
  5
194
330
36
100
AcDbEntity
  8
2-0
  6
Continuous
 62
     0
100
AcDbLine
 10
3183.309005632387
 20
200.847582817683
 30
0.0
 11
3183.430022978574
 21
196.02218915997
 31
0.0
  0
LINE
  5
195
330
36
100
AcDbEntity
  8
2-0
  6
Continuous
 62
     0
100
AcDbLine
 10
3183.430022978574
 20
196.02218915997
 30
0.0
 11
3183.87222616933
 21
191.215576476586
 31
0.0
  0
LINE
  5
196
330
36
100
AcDbEntity
  8
2-0
  6
Continuous
 62
     0
100
AcDbLine
 10
3183.87222616933
 20
191.215576476586
 30
0.0
 11
3184.63365058494
 21
186.449099579622
 31
0.0
  0
LINE
  5
197
330
36
100
AcDbEntity
  8
2-0
  6
Continuous
 62
     0
100
AcDbLine
 10
3184.63365058494
 20
186.449099579622
 30
0.0
 11
3185.710913370078
 21
181.743934965951
 31
0.0
  0
LINE
  5
198
330
36
100
AcDbEntity
  8
2-0
  6
Continuous
 62
     0
100
AcDbLine
 10
3185.710913370078
 20
181.743934965951
 30
0.0
 11
3187.099228463152
 21
177.120986734322
 31
0.0
  0
LINE
  5
199
330
36
100
AcDbEntity
  8
2-0
  6
Continuous
 62
     0
100
AcDbLine
 10
3187.099228463152
 20
177.120986734322
 30
0.0
 11
3188.792427859814
 21
172.600793712655
 31
0.0
  0
LINE
  5
19A
330
36
100
AcDbEntity
  8
2-0
  6
Continuous
 62
     0
100
AcDbLine
 10
3188.792427859814
 20
172.600793712655
 30
0.0
 11
3190.782989016158
 21
168.203438208169
 31
0.0
  0
LINE
  5
19B
330
36
100
AcDbEntity
  8
2-0
  6
Continuous
 62
     0
100
AcDbLine
 10
3190.782989016158
 20
168.203438208169
 30
0.0
 11
3193.062068269871
 21
163.948456785733
 31
0.0
  0
LINE
  5
19C
330
36
100
AcDbEntity
  8
2-0
  6
Continuous
 62
     0
100
AcDbLine
 10
3193.062068269871
 20
163.948456785733
 30
0.0
 11
3195.619540130839
 21
159.854753470843
 31
0.0
  0
LINE
  5
19D
330
36
100
AcDbEntity
  8
2-0
  6
Continuous
 62
     0
100
AcDbLine
 10
3195.619540130839
 20
159.854753470843
 30
0.0
 11
3198.444042266666
 21
155.940515762847
 31
0.0
  0
LINE
  5
19E
330
36
100
AcDbEntity
  8
2-0
  6
Continuous
 62
     0
100
AcDbLine
 10
3198.444042266666
 20
155.940515762847
 30
0.0
 11
3201.523025983223
 21
152.223133831546
 31
0.0
  0
LINE
  5
19F
330
36
100
AcDbEntity
  8
2-0
  6
Continuous
 62
     0
100
AcDbLine
 10
3201.523025983223
 20
152.223133831546
 30
0.0
 11
3204.842811975969
 21
148.719123256171
 31
0.0
  0
LINE
  5
1A0
330
36
100
AcDbEntity
  8
2-0
  6
Continuous
 62
     0
100
AcDbLine
 10
3204.842811975969
 20
148.719123256171
 30
0.0
 11
3208.388651104355
 21
145.444051649992
 31
0.0
  0
LINE
  5
1A1
330
36
100
AcDbEntity
  8
2-0
  6
Continuous
 62
     0
100
AcDbLine
 10
3208.388651104355
 20
145.444051649992
 30
0.0
 11
3212.14478991927
 21
142.412469496549
 31
0.0
  0
LINE
  5
1A2
330
36
100
AcDbEntity
  8
2-0
  6
Continuous
 62
     0
100
AcDbLine
 10
3212.14478991927
 20
142.412469496549
 30
0.0
 11
3216.094540652456
 21
139.637845504784
 31
0.0
  0
LINE
  5
1A3
330
36
100
AcDbEntity
  8
2-0
  6
Continuous
 62
     0
100
AcDbLine
 10
3216.094540652456
 20
139.637845504784
 30
0.0
 11
3220.220355356893
 21
137.1325067702739
 31
0.0
  0
LINE
  5
1A4
330
36
100
AcDbEntity
  8
2-0
  6
Continuous
 62
     0
100
AcDbLine
 10
3220.220355356893
 20
137.1325067702739
 30
0.0
 11
3224.503903868799
 21
134.907584008438
 31
0.0
  0
LINE
  5
1A5
330
36
100
AcDbEntity
  8
2-0
  6
Continuous
 62
     0
100
AcDbLine
 10
3224.503903868799
 20
134.907584008438
 30
0.0
 11
3228.926155244851
 21
132.972962103001
 31
0.0
  0
LINE
  5
1A6
330
36
100
AcDbEntity
  8
2-0
  6
Continuous
 62
     0
100
AcDbLine
 10
3228.926155244851
 20
132.972962103001
 30
0.0
 11
3233.467462312836
 21
131.337236189452
 31
0.0
  0
LINE
  5
1A7
330
36
100
AcDbEntity
  8
2-0
  6
Continuous
 62
     0
100
AcDbLine
 10
3233.467462312836
 20
131.337236189452
 30
0.0
 11
3238.107648960081
 21
130.007673468586
 31
0.0
  0
LINE
  5
1A8
330
36
100
AcDbEntity
  8
2-0
  6
Continuous
 62
     0
100
AcDbLine
 10
3238.107648960081
 20
130.007673468586
 30
0.0
 11
3242.826099771857
 21
128.990180919795
 31
0.0
  0
LINE
  5
1A9
330
36
100
AcDbEntity
  8
2-0
  6
Continuous
 62
     0
100
AcDbLine
 10
3242.826099771857
 20
128.990180919795
 30
0.0
 11
3247.601851621512
 21
128.289279057549
 31
0.0
  0
LINE
  5
1AA
330
36
100
AcDbEntity
  8
2-0
  6
Continuous
 62
     0
100
AcDbLine
 10
3247.601851621512
 20
128.289279057549
 30
0.0
 11
3252.413686805428
 21
127.908081847657
 31
0.0
  0
LINE
  5
1AB
330
36
100
AcDbEntity
  8
2-0
  6
Continuous
 62
     0
100
AcDbLine
 10
3252.413686805428
 20
127.908081847657
 30
0.0
 11
3257.240227308993
 21
127.848282872549
 31
0.0
  0
LINE
  5
1AC
330
36
100
AcDbEntity
  8
2-0
  6
Continuous
 62
     0
100
AcDbLine
 10
3257.240227308993
 20
127.848282872549
 30
0.0
 11
3262.06002978483
 21
128.110147807028
 31
0.0
  0
LINE
  5
1AD
330
36
100
AcDbEntity
  8
2-0
  6
Continuous
 62
     0
100
AcDbLine
 10
3262.06002978483
 20
128.110147807028
 30
0.0
 11
3266.851680821255
 21
128.692513237931
 31
0.0
  0
LINE
  5
1AE
330
36
100
AcDbEntity
  8
2-0
  6
Continuous
 62
     0
100
AcDbLine
 10
3266.851680821255
 20
128.692513237931
 30
0.0
 11
3271.593892077765
 21
129.592791832937
 31
0.0
  0
LINE
  5
1AF
330
36
100
AcDbEntity
  8
2-0
  6
Continuous
 62
     0
100
AcDbLine
 10
3271.593892077765
 20
129.592791832937
 30
0.0
 11
3276.265594864836
 21
130.806983835568
 31
0.0
  0
LINE
  5
1B0
330
36
100
AcDbEntity
  8
2-0
  6
Continuous
 62
     0
100
AcDbLine
 10
3276.265594864836
 20
130.806983835568
 30
0.0
 11
3280.84603374788
 21
132.329694835296
 31
0.0
  0
LINE
  5
1B1
330
36
100
AcDbEntity
  8
2-0
  6
Continuous
 62
     0
100
AcDbLine
 10
3280.84603374788
 20
132.329694835296
 30
0.0
 11
3285.314858759448
 21
134.154159733827
 31
0.0
  0
LINE
  5
1B2
330
36
100
AcDbEntity
  8
2-0
  6
Continuous
 62
     0
100
AcDbLine
 10
3285.314858759448
 20
134.154159733827
 30
0.0
 11
3289.652215810046
 21
136.272272801068
 31
0.0
  0
LINE
  5
1B3
330
36
100
AcDbEntity
  8
2-0
  6
Continuous
 62
     0
100
AcDbLine
 10
3289.652215810046
 20
136.272272801068
 30
0.0
 11
3293.838834895851
 21
138.674623687254
 31
0.0
  0
LINE
  5
1B4
330
36
100
AcDbEntity
  8
2-0
  6
Continuous
 62
     0
100
AcDbLine
 10
3293.838834895851
 20
138.674623687254
 30
0.0
 11
3297.856115711458
 21
141.3505392312369
 31
0.0
  0
LINE
  5
1B5
330
36
100
AcDbEntity
  8
2-0
  6
Continuous
 62
     0
100
AcDbLine
 10
3297.856115711458
 20
141.3505392312369
 30
0.0
 11
3301.686210287297
 21
144.28813087919
 31
0.0
  0
LINE
  5
1B6
330
36
100
AcDbEntity
  8
2-0
  6
Continuous
 62
     0
100
AcDbLine
 10
3301.686210287297
 20
144.28813087919
 30
0.0
 11
3305.312102284553
 21
147.474347503059
 31
0.0
  0
LINE
  5
1B7
330
36
100
AcDbEntity
  8
2-0
  6
Continuous
 62
     0
100
AcDbLine
 10
3305.312102284553
 20
147.474347503059
 30
0.0
 11
3308.717682595348
 21
150.895033384095
 31
0.0
  0
LINE
  5
1B8
330
36
100
AcDbEntity
  8
2-0
  6
Continuous
 62
     0
100
AcDbLine
 10
3308.717682595348
 20
150.895033384095
 30
0.0
 11
3311.887820912249
 21
154.5349911038629
 31
0.0
  0
LINE
  5
1B9
330
36
100
AcDbEntity
  8
2-0
  6
Continuous
 62
     0
100
AcDbLine
 10
3311.887820912249
 20
154.5349911038629
 30
0.0
 11
3314.808432949189
 21
158.378049063309
 31
0.0
  0
LINE
  5
1BA
330
36
100
AcDbEntity
  8
2-0
  6
Continuous
 62
     0
100
AcDbLine
 10
3314.808432949189
 20
158.378049063309
 30
0.0
 11
3317.466543015107
 21
162.40713332992
 31
0.0
  0
LINE
  5
1BB
330
36
100
AcDbEntity
  8
2-0
  6
Continuous
 62
     0
100
AcDbLine
 10
3317.466543015107
 20
162.40713332992
 30
0.0
 11
3319.850341662326
 21
166.604343493766
 31
0.0
  0
LINE
  5
1BC
330
36
100
AcDbEntity
  8
2-0
  6
Continuous
 62
     0
100
AcDbLine
 10
3319.850341662326
 20
166.604343493766
 30
0.0
 11
3321.949238153563
 21
170.951032195417
 31
0.0
  0
LINE
  5
1BD
330
36
100
AcDbEntity
  8
2-0
  6
Continuous
 62
     0
100
AcDbLine
 10
3321.949238153563
 20
170.951032195417
 30
0.0
 11
3323.753907514426
 21
175.427887972404
 31
0.0
  0
LINE
  5
1BE
330
36
100
AcDbEntity
  8
2-0
  6
Continuous
 62
     0
100
AcDbLine
 10
3323.753907514426
 20
175.427887972404
 30
0.0
 11
3325.256331962413
 21
180.015021056158
 31
0.0
  0
LINE
  5
1BF
330
36
100
AcDbEntity
  8
2-0
  6
Continuous
 62
     0
100
AcDbLine
 10
3325.256331962413
 20
180.015021056158
 30
0.0
 11
3326.44983652829
 21
184.692051738248
 31
0.0
  0
LINE
  5
1C0
330
36
100
AcDbEntity
  8
2-0
  6
Continuous
 62
     0
100
AcDbLine
 10
3326.44983652829
 20
184.692051738248
 30
0.0
 11
3327.329118711646
 21
189.438200913317
 31
0.0
  0
LINE
  5
1C1
330
36
100
AcDbEntity
  8
2-0
  6
Continuous
 62
     0
100
AcDbLine
 10
3327.329118711646
 20
189.438200913317
 30
0.0
 11
3327.890272038832
 21
194.232382396466
 31
0.0
  0
LINE
  5
1C2
330
36
100
AcDbEntity
  8
2-0
  6
Continuous
 62
     0
100
AcDbLine
 10
3327.890272038832
 20
194.232382396466
 30
0.0
 11
3328.13080341863
 21
199.053296604925
 31
0.0
  0
LINE
  5
1C3
330
36
100
AcDbEntity
  8
2-0
  6
Continuous
 62
     0
100
AcDbLine
 10
3328.13080341863
 20
199.053296604925
 30
0.0
 11
3328.140683253934
 21
200.249473813233
 31
0.0
  0
LINE
  5
1C4
330
36
100
AcDbEntity
  8
2-0
  6
Continuous
 62
     0
100
AcDbLine
 10
3328.557696575124
 20
200.249473813233
 30
0.0
 11
3328.395902985033
 21
205.10148367621
 31
0.0
  0
LINE
  5
1C5
330
36
100
AcDbEntity
  8
2-0
  6
Continuous
 62
     0
100
AcDbLine
 10
3328.395902985033
 20
205.10148367621
 30
0.0
 11
3327.911241031098
 21
209.931937036571
 31
0.0
  0
LINE
  5
1C6
330
36
100
AcDbEntity
  8
2-0
  6
Continuous
 62
     0
100
AcDbLine
 10
3327.911241031098
 20
209.931937036571
 30
0.0
 11
3327.105863968765
 21
214.719373162901
 31
0.0
  0
LINE
  5
1C7
330
36
100
AcDbEntity
  8
2-0
  6
Continuous
 62
     0
100
AcDbLine
 10
3327.105863968765
 20
214.719373162901
 30
0.0
 11
3325.98334992612
 21
219.44252244069
 31
0.0
  0
LINE
  5
1C8
330
36
100
AcDbEntity
  8
2-0
  6
Continuous
 62
     0
100
AcDbLine
 10
3325.98334992612
 20
219.44252244069
 30
0.0
 11
3324.548686006976
 21
224.080400868951
 31
0.0
  0
LINE
  5
1C9
330
36
100
AcDbEntity
  8
2-0
  6
Continuous
 62
     0
100
AcDbLine
 10
3324.548686006976
 20
224.080400868951
 30
0.0
 11
3322.808246134183
 21
228.612403287905
 31
0.0
  0
LINE
  5
1CA
330
36
100
AcDbEntity
  8
2-0
  6
Continuous
 62
     0
100
AcDbLine
 10
3322.808246134183
 20
228.612403287905
 30
0.0
 11
3320.769762731564
 21
233.018394923561
 31
0.0
  0
LINE
  5
1CB
330
36
100
AcDbEntity
  8
2-0
  6
Continuous
 62
     0
100
AcDbLine
 10
3320.769762731564
 20
233.018394923561
 30
0.0
 11
3318.442292370324
 21
237.278800842458
 31
0.0
  0
LINE
  5
1CC
330
36
100
AcDbEntity
  8
2-0
  6
Continuous
 62
     0
100
AcDbLine
 10
3318.442292370324
 20
237.278800842458
 30
0.0
 11
3315.836175532522
 21
241.374692919154
 31
0.0
  0
LINE
  5
1CD
330
36
100
AcDbEntity
  8
2-0
  6
Continuous
 62
     0
100
AcDbLine
 10
3315.836175532522
 20
241.374692919154
 30
0.0
 11
3312.962990670387
 21
245.287873930074
 31
0.0
  0
LINE
  5
1CE
330
36
100
AcDbEntity
  8
2-0
  6
Continuous
 62
     0
100
AcDbLine
 10
3312.962990670387
 20
245.287873930074
 30
0.0
 11
3309.835502765599
 21
249.000958400109
 31
0.0
  0
LINE
  5
1CF
330
36
100
AcDbEntity
  8
2-0
  6
Continuous
 62
     0
100
AcDbLine
 10
3309.835502765599
 20
249.000958400109
 30
0.0
 11
3306.467606617032
 21
252.497449842784
 31
0.0
  0
LINE
  5
1D0
330
36
100
AcDbEntity
  8
2-0
  6
Continuous
 62
     0
100
AcDbLine
 10
3306.467606617032
 20
252.497449842784
 30
0.0
 11
3302.874265108975
 21
255.761814050819
 31
0.0
  0
LINE
  5
1D1
330
36
100
AcDbEntity
  8
2-0
  6
Continuous
 62
     0
100
AcDbLine
 10
3302.874265108975
 20
255.761814050819
 30
0.0
 11
3299.07144273404
 21
258.779548111488
 31
0.0
  0
LINE
  5
1D2
330
36
100
AcDbEntity
  8
2-0
  6
Continuous
 62
     0
100
AcDbLine
 10
3299.07144273404
 20
258.779548111488
 30
0.0
 11
3295.076034666144
 21
261.537244840138
 31
0.0
  0
LINE
  5
1D3
330
36
100
AcDbEntity
  8
2-0
  6
Continuous
 62
     0
100
AcDbLine
 10
3295.076034666144
 20
261.537244840138
 30
0.0
 11
3290.905791698645
 21
264.02265234561
 31
0.0
  0
LINE
  5
1D4
330
36
100
AcDbEntity
  8
2-0
  6
Continuous
 62
     0
100
AcDbLine
 10
3290.905791698645
 20
264.02265234561
 30
0.0
 11
3286.579241381154
 21
266.224728462925
 31
0.0
  0
LINE
  5
1D5
330
36
100
AcDbEntity
  8
2-0
  6
Continuous
 62
     0
100
AcDbLine
 10
3286.579241381154
 20
266.224728462925
 30
0.0
 11
3282.115605705356
 21
268.133689811395
 31
0.0
  0
LINE
  5
1D6
330
36
100
AcDbEntity
  8
2-0
  6
Continuous
 62
     0
100
AcDbLine
 10
3282.115605705356
 20
268.133689811395
 30
0.0
 11
3277.534715705567
 21
269.741055260219
 31
0.0
  0
LINE
  5
1D7
330
36
100
AcDbEntity
  8
2-0
  6
Continuous
 62
     0
100
AcDbLine
 10
3277.534715705567
 20
269.741055260219
 30
0.0
 11
3272.856923353459
 21
271.039683608434
 31
0.0
  0
LINE
  5
1D8
330
36
100
AcDbEntity
  8
2-0
  6
Continuous
 62
     0
100
AcDbLine
 10
3272.856923353459
 20
271.039683608434
 30
0.0
 11
3268.103011138333
 21
272.023805311836
 31
0.0
  0
LINE
  5
1D9
330
36
100
AcDbEntity
  8
2-0
  6
Continuous
 62
     0
100
AcDbLine
 10
3268.103011138333
 20
272.023805311836
 30
0.0
 11
3263.294099734713
 21
272.689048115902
 31
0.0
  0
LINE
  5
1DA
330
36
100
AcDbEntity
  8
2-0
  6
Continuous
 62
     0
100
AcDbLine
 10
3263.294099734713
 20
272.689048115902
 30
0.0
 11
3258.45155416744
 21
273.032456480833
 31
0.0
  0
LINE
  5
1DB
330
36
100
AcDbEntity
  8
2-0
  6
Continuous
 62
     0
100
AcDbLine
 10
3258.45155416744
 20
273.032456480833
 30
0.0
 11
3253.596888891169
 21
273.052504712429
 31
0.0
  0
LINE
  5
1DC
330
36
100
AcDbEntity
  8
2-0
  6
Continuous
 62
     0
100
AcDbLine
 10
3253.596888891169
 20
273.052504712429
 30
0.0
 11
3248.75167220598
 21
272.749103740433
 31
0.0
  0
LINE
  5
1DD
330
36
100
AcDbEntity
  8
2-0
  6
Continuous
 62
     0
100
AcDbLine
 10
3248.75167220598
 20
272.749103740433
 30
0.0
 11
3243.937430433772
 21
272.123601514259
 31
0.0
  0
LINE
  5
1DE
330
36
100
AcDbEntity
  8
2-0
  6
Continuous
 62
     0
100
AcDbLine
 10
3243.937430433772
 20
272.123601514259
 30
0.0
 11
3239.175552281138
 21
271.17877701432
 31
0.0
  0
LINE
  5
1DF
330
36
100
AcDbEntity
  8
2-0
  6
Continuous
 62
     0
100
AcDbLine
 10
3239.175552281138
 20
271.17877701432
 30
0.0
 11
3234.487193813655
 21
269.91882790558
 31
0.0
  0
LINE
  5
1E0
330
36
100
AcDbEntity
  8
2-0
  6
Continuous
 62
     0
100
AcDbLine
 10
3234.487193813655
 20
269.91882790558
 30
0.0
 11
3229.893184463751
 21
268.349351888171
 31
0.0
  0
LINE
  5
1E1
330
36
100
AcDbEntity
  8
2-0
  6
Continuous
 62
     0
100
AcDbLine
 10
3229.893184463751
 20
268.349351888171
 30
0.0
 11
3225.413934489723
 21
266.477321827944
 31
0.0
  0
LINE
  5
1E2
330
36
100
AcDbEntity
  8
2-0
  6
Continuous
 62
     0
100
AcDbLine
 10
3225.413934489723
 20
266.477321827944
 30
0.0
 11
3221.069344297074
 21
264.311054777424
 31
0.0
  0
LINE
  5
1E3
330
36
100
AcDbEntity
  8
2-0
  6
Continuous
 62
     0
100
AcDbLine
 10
3221.069344297074
 20
264.311054777424
 30
0.0
 11
3216.87871602502
 21
261.860175024827
 31
0.0
  0
LINE
  5
1E4
330
36
100
AcDbEntity
  8
2-0
  6
Continuous
 62
     0
100
AcDbLine
 10
3216.87871602502
 20
261.860175024827
 30
0.0
 11
3212.860667790973
 21
259.13557133528
 31
0.0
  0
LINE
  5
1E5
330
36
100
AcDbEntity
  8
2-0
  6
Continuous
 62
     0
100
AcDbLine
 10
3212.860667790973
 20
259.13557133528
 30
0.0
 11
3209.033050973991
 21
256.149348574236
 31
0.0
  0
LINE
  5
1E6
330
36
100
AcDbEntity
  8
2-0
  6
Continuous
 62
     0
100
AcDbLine
 10
3209.033050973991
 20
256.149348574236
 30
0.0
 11
3205.412870904702
 21
252.914773927988
 31
0.0
  0
LINE
  5
1E7
330
36
100
AcDbEntity
  8
2-0
  6
Continuous
 62
     0
100
AcDbLine
 10
3205.412870904702
 20
252.914773927988
 30
0.0
 11
3202.016211314042
 21
249.44621796024
 31
0.0
  0
LINE
  5
1E8
330
36
100
AcDbEntity
  8
2-0
  6
Continuous
 62
     0
100
AcDbLine
 10
3202.016211314042
 20
249.44621796024
 30
0.0
 11
3198.858162876477
 21
245.759090766581
 31
0.0
  0
LINE
  5
1E9
330
36
100
AcDbEntity
  8
2-0
  6
Continuous
 62
     0
100
AcDbLine
 10
3198.858162876477
 20
245.759090766581
 30
0.0
 11
3195.952756165179
 21
241.869773510538
 31
0.0
  0
LINE
  5
1EA
330
36
100
AcDbEntity
  8
2-0
  6
Continuous
 62
     0
100
AcDbLine
 10
3195.952756165179
 20
241.869773510538
 30
0.0
 11
3193.312899317005
 21
237.795545645361
 31
0.0
  0
LINE
  5
1EB
330
36
100
AcDbEntity
  8
2-0
  6
Continuous
 62
     0
100
AcDbLine
 10
3193.312899317005
 20
237.795545645361
 30
0.0
 11
3190.950320684265
 21
233.554508144898
 31
0.0
  0
LINE
  5
1EC
330
36
100
AcDbEntity
  8
2-0
  6
Continuous
 62
     0
100
AcDbLine
 10
3190.950320684265
 20
233.554508144898
 30
0.0
 11
3188.875516727992
 21
229.165503084607
 31
0.0
  0
LINE
  5
1ED
330
36
100
AcDbEntity
  8
2-0
  6
Continuous
 62
     0
100
AcDbLine
 10
3188.875516727992
 20
229.165503084607
 30
0.0
 11
3187.097705384295
 21
224.648029930017
 31
0.0
  0
LINE
  5
1EE
330
36
100
AcDbEntity
  8
2-0
  6
Continuous
 62
     0
100
AcDbLine
 10
3187.097705384295
 20
224.648029930017
 30
0.0
 11
3185.624785110918
 21
220.022158904524
 31
0.0
  0
LINE
  5
1EF
330
36
100
AcDbEntity
  8
2-0
  6
Continuous
 62
     0
100
AcDbLine
 10
3185.624785110918
 20
220.022158904524
 30
0.0
 11
3184.463299795986
 21
215.308441821434
 31
0.0
  0
LINE
  5
1F0
330
36
100
AcDbEntity
  8
2-0
  6
Continuous
 62
     0
100
AcDbLine
 10
3184.463299795986
 20
215.308441821434
 30
0.0
 11
3183.618409684829
 21
210.527820776393
 31
0.0
  0
LINE
  5
1F1
330
36
100
AcDbEntity
  8
2-0
  6
Continuous
 62
     0
100
AcDbLine
 10
3183.618409684829
 20
210.527820776393
 30
0.0
 11
3183.093868454048
 21
205.701535105877
 31
0.0
  0
LINE
  5
1F2
330
36
100
AcDbEntity
  8
2-0
  6
Continuous
 62
     0
100
AcDbLine
 10
3183.093868454048
 20
205.701535105877
 30
0.0
 11
3182.892006534684
 21
200.851027025095
 31
0.0
  0
LINE
  5
1F3
330
36
100
AcDbEntity
  8
2-0
  6
Continuous
 62
     0
100
AcDbLine
 10
3182.892006534684
 20
200.851027025095
 30
0.0
 11
3183.013720758593
 21
195.997846364547
 31
0.0
  0
LINE
  5
1F4
330
36
100
AcDbEntity
  8
2-0
  6
Continuous
 62
     0
100
AcDbLine
 10
3183.013720758593
 20
195.997846364547
 30
0.0
 11
3183.458470373991
 21
191.163554828467
 31
0.0
  0
LINE
  5
1F5
330
36
100
AcDbEntity
  8
2-0
  6
Continuous
 62
     0
100
AcDbLine
 10
3183.458470373991
 20
191.163554828467
 30
0.0
 11
3184.224279447909
 21
186.369630200511
 31
0.0
  0
LINE
  5
1F6
330
36
100
AcDbEntity
  8
2-0
  6
Continuous
 62
     0
100
AcDbLine
 10
3184.224279447909
 20
186.369630200511
 30
0.0
 11
3185.30774564487
 21
181.637370922294
 31
0.0
  0
LINE
  5
1F7
330
36
100
AcDbEntity
  8
2-0
  6
Continuous
 62
     0
100
AcDbLine
 10
3185.30774564487
 20
181.637370922294
 30
0.0
 11
3186.704055342771
 21
176.987801468703
 31
0.0
  0
LINE
  5
1F8
330
36
100
AcDbEntity
  8
2-0
  6
Continuous
 62
     0
100
AcDbLine
 10
3186.704055342771
 20
176.987801468703
 30
0.0
 11
3188.407005018844
 21
172.441578940386
 31
0.0
  0
LINE
  5
1F9
330
36
100
AcDbEntity
  8
2-0
  6
Continuous
 62
     0
100
AcDbLine
 10
3188.407005018844
 20
172.441578940386
 30
0.0
 11
3190.409028810657
 21
168.018901288416
 31
0.0
  0
LINE
  5
1FA
330
36
100
AcDbEntity
  8
2-0
  6
Continuous
 62
     0
100
AcDbLine
 10
3190.409028810657
 20
168.018901288416
 30
0.0
 11
3192.701232129716
 21
163.739417578864
 31
0.0
  0
LINE
  5
1FB
330
36
100
AcDbEntity
  8
2-0
  6
Continuous
 62
     0
100
AcDbLine
 10
3192.701232129716
 20
163.739417578864
 30
0.0
 11
3195.273431178327
 21
159.622140695955
 31
0.0
  0
LINE
  5
1FC
330
36
100
AcDbEntity
  8
2-0
  6
Continuous
 62
     0
100
AcDbLine
 10
3195.273431178327
 20
159.622140695955
 30
0.0
 11
3198.114198194167
 21
155.685362871649
 31
0.0
  0
LINE
  5
1FD
330
36
100
AcDbEntity
  8
2-0
  6
Continuous
 62
     0
100
AcDbLine
 10
3198.114198194167
 20
155.685362871649
 30
0.0
 11
3201.210912221517
 21
151.946574416945
 31
0.0
  0
LINE
  5
1FE
330
36
100
AcDbEntity
  8
2-0
  6
Continuous
 62
     0
100
AcDbLine
 10
3201.210912221517
 20
151.946574416945
 30
0.0
 11
3204.549815183642
 21
148.422386015946
 31
0.0
  0
LINE
  5
1FF
330
36
100
AcDbEntity
  8
2-0
  6
Continuous
 62
     0
100
AcDbLine
 10
3204.549815183642
 20
148.422386015946
 30
0.0
 11
3208.116073007143
 21
145.128454927939
 31
0.0
  0
LINE
  5
200
330
36
100
AcDbEntity
  8
2-0
  6
Continuous
 62
     0
100
AcDbLine
 10
3208.116073007143
 20
145.128454927939
 30
0.0
 11
3211.893841526763
 21
142.079415425342
 31
0.0
  0
LINE
  5
201
330
36
100
AcDbEntity
  8
2-0
  6
Continuous
 62
     0
100
AcDbLine
 10
3211.893841526763
 20
142.079415425342
 30
0.0
 11
3215.866336877819
 21
139.288813776582
 31
0.0
  0
LINE
  5
202
330
36
100
AcDbEntity
  8
2-0
  6
Continuous
 62
     0
100
AcDbLine
 10
3215.866336877819
 20
139.288813776582
 30
0.0
 11
3220.015910063537
 21
136.769048062751
 31
0.0
  0
LINE
  5
203
330
36
100
AcDbEntity
  8
2-0
  6
Continuous
 62
     0
100
AcDbLine
 10
3220.015910063537
 20
136.769048062751
 30
0.0
 11
3224.324125365985
 21
134.53131309543
 31
0.0
  0
LINE
  5
204
330
36
100
AcDbEntity
  8
2-0
  6
Continuous
 62
     0
100
AcDbLine
 10
3224.324125365985
 20
134.53131309543
 30
0.0
 11
3228.77184225226
 21
132.585550680392
 31
0.0
  0
LINE
  5
205
330
36
100
AcDbEntity
  8
2-0
  6
Continuous
 62
     0
100
AcDbLine
 10
3228.77184225226
 20
132.585550680392
 30
0.0
 11
3233.339300412015
 21
130.940405448168
 31
0.0
  0
LINE
  5
206
330
36
100
AcDbEntity
  8
2-0
  6
Continuous
 62
     0
100
AcDbLine
 10
3233.339300412015
 20
130.940405448168
 30
0.0
 11
3238.006207548544
 21
129.603186447688
 31
0.0
  0
LINE
  5
207
330
36
100
AcDbEntity
  8
2-0
  6
Continuous
 62
     0
100
AcDbLine
 10
3238.006207548544
 20
129.603186447688
 30
0.0
 11
3242.751829533364
 21
128.579834673652
 31
0.0
  0
LINE
  5
208
330
36
100
AcDbEntity
  8
2-0
  6
Continuous
 62
     0
100
AcDbLine
 10
3242.751829533364
 20
128.579834673652
 30
0.0
 11
3247.555082523776
 21
127.874896671887
 31
0.0
  0
LINE
  5
209
330
36
100
AcDbEntity
  8
2-0
  6
Continuous
 62
     0
100
AcDbLine
 10
3247.555082523776
 20
127.874896671887
 30
0.0
 11
3252.394626634127
 21
127.491504339958
 31
0.0
  0
LINE
  5
20A
330
36
100
AcDbEntity
  8
2-0
  6
Continuous
 62
     0
100
AcDbLine
 10
3252.394626634127
 20
127.491504339958
 30
0.0
 11
3257.248960744634
 21
127.431361012782
 31
0.0
  0
LINE
  5
20B
330
36
100
AcDbEntity
  8
2-0
  6
Continuous
 62
     0
100
AcDbLine
 10
3257.248960744634
 20
127.431361012782
 30
0.0
 11
3262.096518026515
 21
127.694733895046
 31
0.0
  0
LINE
  5
20C
330
36
100
AcDbEntity
  8
2-0
  6
Continuous
 62
     0
100
AcDbLine
 10
3262.096518026515
 20
127.694733895046
 30
0.0
 11
3266.915761759075
 21
128.280452874079
 31
0.0
  0
LINE
  5
20D
330
36
100
AcDbEntity
  8
2-0
  6
Continuous
 62
     0
100
AcDbLine
 10
3266.915761759075
 20
128.280452874079
 30
0.0
 11
3271.685281013019
 21
129.185915718422
 31
0.0
  0
LINE
  5
20E
330
36
100
AcDbEntity
  8
2-0
  6
Continuous
 62
     0
100
AcDbLine
 10
3271.685281013019
 20
129.185915718422
 30
0.0
 11
3276.383885774893
 21
130.407099639021
 31
0.0
  0
LINE
  5
20F
330
36
100
AcDbEntity
  8
2-0
  6
Continuous
 62
     0
100
AcDbLine
 10
3276.383885774893
 20
130.407099639021
 30
0.0
 11
3280.990701090048
 21
131.938579161665
 31
0.0
  0
LINE
  5
210
330
36
100
AcDbEntity
  8
2-0
  6
Continuous
 62
     0
100
AcDbLine
 10
3280.990701090048
 20
131.938579161665
 30
0.0
 11
3285.485259805863
 21
133.773550231278
 31
0.0
  0
LINE
  5
211
330
36
100
AcDbEntity
  8
2-0
  6
Continuous
 62
     0
100
AcDbLine
 10
3285.485259805863
 20
133.773550231278
 30
0.0
 11
3289.847593503177
 21
135.903860440965
 31
0.0
  0
LINE
  5
212
330
36
100
AcDbEntity
  8
2-0
  6
Continuous
 62
     0
100
AcDbLine
 10
3289.847593503177
 20
135.903860440965
 30
0.0
 11
3294.058321211958
 21
138.320045251515
 31
0.0
  0
LINE
  5
213
330
36
100
AcDbEntity
  8
2-0
  6
Continuous
 62
     0
100
AcDbLine
 10
3294.058321211958
 20
138.320045251515
 30
0.0
 11
3298.098735517046
 21
141.011370040438
 31
0.0
  0
LINE
  5
214
330
36
100
AcDbEntity
  8
2-0
  6
Continuous
 62
     0
100
AcDbLine
 10
3298.098735517046
 20
141.011370040438
 30
0.0
 11
3301.950885671429
 21
143.965877793737
 31
0.0
  0
LINE
  5
215
330
36
100
AcDbEntity
  8
2-0
  6
Continuous
 62
     0
100
AcDbLine
 10
3301.950885671429
 20
143.965877793737
 30
0.0
 11
3305.597657347807
 21
147.170442228507
 31
0.0
  0
LINE
  5
216
330
36
100
AcDbEntity
  8
2-0
  6
Continuous
 62
     0
100
AcDbLine
 10
3305.597657347807
 20
147.170442228507
 30
0.0
 11
3309.022848674086
 21
150.610826110373
 31
0.0
  0
LINE
  5
217
330
36
100
AcDbEntity
  8
2-0
  6
Continuous
 62
     0
100
AcDbLine
 10
3309.022848674086
 20
150.610826110373
 30
0.0
 11
3312.211242215048
 21
154.271744506647
 31
0.0
  0
LINE
  5
218
330
36
100
AcDbEntity
  8
2-0
  6
Continuous
 62
     0
100
AcDbLine
 10
3312.211242215048
 20
154.271744506647
 30
0.0
 11
3315.148672580337
 21
158.136932694213
 31
0.0
  0
LINE
  5
219
330
36
100
AcDbEntity
  8
2-0
  6
Continuous
 62
     0
100
AcDbLine
 10
3315.148672580337
 20
158.136932694213
 30
0.0
 11
3317.822089358447
 21
162.18921842041
 31
0.0
  0
LINE
  5
21A
330
36
100
AcDbEntity
  8
2-0
  6
Continuous
 62
     0
100
AcDbLine
 10
3317.822089358447
 20
162.18921842041
 30
0.0
 11
3320.219615097065
 21
166.410598195897
 31
0.0
  0
LINE
  5
21B
330
36
100
AcDbEntity
  8
2-0
  6
Continuous
 62
     0
100
AcDbLine
 10
3320.219615097065
 20
166.410598195897
 30
0.0
 11
3322.3305980722
 21
170.782317280526
 31
0.0
  0
LINE
  5
21C
330
36
100
AcDbEntity
  8
2-0
  6
Continuous
 62
     0
100
AcDbLine
 10
3322.3305980722
 20
170.782317280526
 30
0.0
 11
3324.145659611651
 21
175.284953006878
 31
0.0
  0
LINE
  5
21D
330
36
100
AcDbEntity
  8
2-0
  6
Continuous
 62
     0
100
AcDbLine
 10
3324.145659611651
 20
175.284953006878
 30
0.0
 11
3325.656735762557
 21
179.898501071262
 31
0.0
  0
LINE
  5
21E
330
36
100
AcDbEntity
  8
2-0
  6
Continuous
 62
     0
100
AcDbLine
 10
3325.656735762557
 20
179.898501071262
 30
0.0
 11
3326.857113117912
 21
184.602464408808
 31
0.0
  0
LINE
  5
21F
330
36
100
AcDbEntity
  8
2-0
  6
Continuous
 62
     0
100
AcDbLine
 10
3326.857113117912
 20
184.602464408808
 30
0.0
 11
3327.741458642885
 21
189.375944257794
 31
0.0
  0
LINE
  5
220
330
36
100
AcDbEntity
  8
2-0
  6
Continuous
 62
     0
100
AcDbLine
 10
3327.741458642885
 20
189.375944257794
 30
0.0
 11
3328.305843368417
 21
194.197733008642
 31
0.0
  0
LINE
  5
221
330
36
100
AcDbEntity
  8
2-0
  6
Continuous
 62
     0
100
AcDbLine
 10
3328.305843368417
 20
194.197733008642
 30
0.0
 11
3328.547759846844
 21
199.04640842505
 31
0.0
  0
LINE
  5
222
330
36
100
AcDbEntity
  8
2-0
  6
Continuous
 62
     0
100
AcDbLine
 10
3328.547759846844
 20
199.04640842505
 30
0.0
 11
3328.557696575124
 21
200.249473813233
 31
0.0
  0
LINE
  5
223
330
36
100
AcDbEntity
  8
2-0
  6
Continuous
 62
     0
100
AcDbLine
 10
3328.974709896314
 20
200.249473813233
 30
0.0
 11
3328.811989953124
 21
205.129263975614
 31
0.0
  0
LINE
  5
224
330
36
100
AcDbEntity
  8
2-0
  6
Continuous
 62
     0
100
AcDbLine
 10
3328.811989953124
 20
205.129263975614
 30
0.0
 11
3328.324553055491
 21
209.987374213105
 31
0.0
  0
LINE
  5
225
330
36
100
AcDbEntity
  8
2-0
  6
Continuous
 62
     0
100
AcDbLine
 10
3328.324553055491
 20
209.987374213105
 30
0.0
 11
3327.514564787378
 21
214.802220920354
 31
0.0
  0
LINE
  5
226
330
36
100
AcDbEntity
  8
2-0
  6
Continuous
 62
     0
100
AcDbLine
 10
3327.514564787378
 20
214.802220920354
 30
0.0
 11
3326.38562376353
 21
219.552412703162
 31
0.0
  0
LINE
  5
227
330
36
100
AcDbEntity
  8
2-0
  6
Continuous
 62
     0
100
AcDbLine
 10
3326.38562376353
 20
219.552412703162
 30
0.0
 11
3324.942745641541
 21
224.216845416138
 31
0.0
  0
LINE
  5
228
330
36
100
AcDbEntity
  8
2-0
  6
Continuous
 62
     0
100
AcDbLine
 10
3324.942745641541
 20
224.216845416138
 30
0.0
 11
3323.192340838311
 21
228.774795924164
 31
0.0
  0
LINE
  5
229
330
36
100
AcDbEntity
  8
2-0
  6
Continuous
 62
     0
100
AcDbLine
 10
3323.192340838311
 20
228.774795924164
 30
0.0
 11
3321.142186049844
 21
233.206014171115
 31
0.0
  0
LINE
  5
22A
330
36
100
AcDbEntity
  8
2-0
  6
Continuous
 62
     0
100
AcDbLine
 10
3321.142186049844
 20
233.206014171115
 30
0.0
 11
3318.801389700958
 21
237.490813146777
 31
0.0
  0
LINE
  5
22B
330
36
100
AcDbEntity
  8
2-0
  6
Continuous
 62
     0
100
AcDbLine
 10
3318.801389700958
 20
237.490813146777
 30
0.0
 11
3316.180351478392
 21
241.61015635227
 31
0.0
  0
LINE
  5
22C
330
36
100
AcDbEntity
  8
2-0
  6
Continuous
 62
     0
100
AcDbLine
 10
3316.180351478392
 20
241.61015635227
 30
0.0
 11
3313.290716127085
 21
245.545742375376
 31
0.0
  0
LINE
  5
22D
330
36
100
AcDbEntity
  8
2-0
  6
Continuous
 62
     0
100
AcDbLine
 10
3313.290716127085
 20
245.545742375376
 30
0.0
 11
3310.145321714923
 21
249.28008620003
 31
0.0
  0
LINE
  5
22E
330
36
100
AcDbEntity
  8
2-0
  6
Continuous
 62
     0
100
AcDbLine
 10
3310.145321714923
 20
249.28008620003
 30
0.0
 11
3306.758142595793
 21
252.796596888726
 31
0.0
  0
LINE
  5
22F
330
36
100
AcDbEntity
  8
2-0
  6
Continuous
 62
     0
100
AcDbLine
 10
3306.758142595793
 20
252.796596888726
 30
0.0
 11
3303.14422732433
 21
256.079651292705
 31
0.0
  0
LINE
  5
230
330
36
100
AcDbEntity
  8
2-0
  6
Continuous
 62
     0
100
AcDbLine
 10
3303.14422732433
 20
256.079651292705
 30
0.0
 11
3299.31963179824
 21
259.114663462467
 31
0.0
  0
LINE
  5
231
330
36
100
AcDbEntity
  8
2-0
  6
Continuous
 62
     0
100
AcDbLine
 10
3299.31963179824
 20
259.114663462467
 30
0.0
 11
3295.30134792516
 21
261.888149450198
 31
0.0
  0
LINE
  5
232
330
36
100
AcDbEntity
  8
2-0
  6
Continuous
 62
     0
100
AcDbLine
 10
3295.30134792516
 20
261.888149450198
 30
0.0
 11
3291.107228131048
 21
264.387787216241
 31
0.0
  0
LINE
  5
233
330
36
100
AcDbEntity
  8
2-0
  6
Continuous
 62
     0
100
AcDbLine
 10
3291.107228131048
 20
264.387787216241
 30
0.0
 11
3286.755906045444
 21
266.602471373436
 31
0.0
  0
LINE
  5
234
330
36
100
AcDbEntity
  8
2-0
  6
Continuous
 62
     0
100
AcDbLine
 10
3286.755906045444
 20
266.602471373436
 30
0.0
 11
3282.266713716008
 21
268.522362526113
 31
0.0
  0
LINE
  5
235
330
36
100
AcDbEntity
  8
2-0
  6
Continuous
 62
     0
100
AcDbLine
 10
3282.266713716008
 20
268.522362526113
 30
0.0
 11
3277.659595720126
 21
270.138930984552
 31
0.0
  0
LINE
  5
236
330
36
100
AcDbEntity
  8
2-0
  6
Continuous
 62
     0
100
AcDbLine
 10
3277.659595720126
 20
270.138930984552
 30
0.0
 11
3272.955020555171
 21
271.444994660672
 31
0.0
  0
LINE
  5
237
330
36
100
AcDbEntity
  8
2-0
  6
Continuous
 62
     0
100
AcDbLine
 10
3272.955020555171
 20
271.444994660672
 30
0.0
 11
3268.173889701087
 21
272.434750976605
 31
0.0
  0
LINE
  5
238
330
36
100
AcDbEntity
  8
2-0
  6
Continuous
 62
     0
100
AcDbLine
 10
3268.173889701087
 20
272.434750976605
 30
0.0
 11
3263.337444759331
 21
273.103802644377
 31
0.0
  0
LINE
  5
239
330
36
100
AcDbEntity
  8
2-0
  6
Continuous
 62
     0
100
AcDbLine
 10
3263.337444759331
 20
273.103802644377
 30
0.0
 11
3258.467173080705
 21
273.449177202179
 31
0.0
  0
LINE
  5
23A
330
36
100
AcDbEntity
  8
2-0
  6
Continuous
 62
     0
100
AcDbLine
 10
3258.467173080705
 20
273.449177202179
 30
0.0
 11
3253.584712301396
 21
273.469340220407
 31
0.0
  0
LINE
  5
23B
330
36
100
AcDbEntity
  8
2-0
  6
Continuous
 62
     0
100
AcDbLine
 10
3253.584712301396
 20
273.469340220407
 30
0.0
 11
3248.711754211307
 21
273.164202118834
 31
0.0
  0
LINE
  5
23C
330
36
100
AcDbEntity
  8
2-0
  6
Continuous
 62
     0
100
AcDbLine
 10
3248.711754211307
 20
273.164202118834
 30
0.0
 11
3243.869948381808
 21
272.53511856459
 31
0.0
  0
LINE
  5
23D
330
36
100
AcDbEntity
  8
2-0
  6
Continuous
 62
     0
100
AcDbLine
 10
3243.869948381808
 20
272.53511856459
 30
0.0
 11
3239.080805981048
 21
271.584884449206
 31
0.0
  0
LINE
  5
23E
330
36
100
AcDbEntity
  8
2-0
  6
Continuous
 62
     0
100
AcDbLine
 10
3239.080805981048
 20
271.584884449206
 30
0.0
 11
3234.36560420417
 21
270.317721471478
 31
0.0
  0
LINE
  5
23F
330
36
100
AcDbEntity
  8
2-0
  6
Continuous
 62
     0
100
AcDbLine
 10
3234.36560420417
 20
270.317721471478
 30
0.0
 11
3229.745291743017
 21
268.739259381307
 31
0.0
  0
LINE
  5
240
330
36
100
AcDbEntity
  8
2-0
  6
Continuous
 62
     0
100
AcDbLine
 10
3229.745291743017
 20
268.739259381307
 30
0.0
 11
3225.240395715312
 21
266.856510967854
 31
0.0
  0
LINE
  5
241
330
36
100
AcDbEntity
  8
2-0
  6
Continuous
 62
     0
100
AcDbLine
 10
3225.240395715312
 20
266.856510967854
 30
0.0
 11
3220.870930466809
 21
264.677840903129
 31
0.0
  0
LINE
  5
242
330
36
100
AcDbEntity
  8
2-0
  6
Continuous
 62
     0
100
AcDbLine
 10
3220.870930466809
 20
264.677840903129
 30
0.0
 11
3216.65630865159
 21
262.212928579442
 31
0.0
  0
LINE
  5
243
330
36
100
AcDbEntity
  8
2-0
  6
Continuous
 62
     0
100
AcDbLine
 10
3216.65630865159
 20
262.212928579442
 30
0.0
 11
3212.615254985542
 21
259.472725105807
 31
0.0
  0
LINE
  5
244
330
36
100
AcDbEntity
  8
2-0
  6
Continuous
 62
     0
100
AcDbLine
 10
3212.615254985542
 20
259.472725105807
 30
0.0
 11
3208.765723056228
 21
256.469404654376
 31
0.0
  0
LINE
  5
245
330
36
100
AcDbEntity
  8
2-0
  6
Continuous
 62
     0
100
AcDbLine
 10
3208.765723056228
 20
256.469404654376
 30
0.0
 11
3205.124815558706
 21
253.216310373037
 31
0.0
  0
LINE
  5
246
330
36
100
AcDbEntity
  8
2-0
  6
Continuous
 62
     0
100
AcDbLine
 10
3205.124815558706
 20
253.216310373037
 30
0.0
 11
3201.7087083117
 21
249.727895104503
 31
0.0
  0
LINE
  5
247
330
36
100
AcDbEntity
  8
2-0
  6
Continuous
 62
     0
100
AcDbLine
 10
3201.7087083117
 20
249.727895104503
 30
0.0
 11
3198.532578391696
 21
246.019657175237
 31
0.0
  0
LINE
  5
248
330
36
100
AcDbEntity
  8
2-0
  6
Continuous
 62
     0
100
AcDbLine
 10
3198.532578391696
 20
246.019657175237
 30
0.0
 11
3195.61053670425
 21
242.108071539511
 31
0.0
  0
LINE
  5
249
330
36
100
AcDbEntity
  8
2-0
  6
Continuous
 62
     0
100
AcDbLine
 10
3195.61053670425
 20
242.108071539511
 30
0.0
 11
3192.955565292073
 21
238.010516584503
 31
0.0
  0
LINE
  5
24A
330
36
100
AcDbEntity
  8
2-0
  6
Continuous
 62
     0
100
AcDbLine
 10
3192.955565292073
 20
238.010516584503
 30
0.0
 11
3190.579459658432
 21
233.745196921621
 31
0.0
  0
LINE
  5
24B
330
36
100
AcDbEntity
  8
2-0
  6
Continuous
 62
     0
100
AcDbLine
 10
3190.579459658432
 20
233.745196921621
 30
0.0
 11
3188.492776362104
 21
229.331062507082
 31
0.0
  0
LINE
  5
24C
330
36
100
AcDbEntity
  8
2-0
  6
Continuous
 62
     0
100
AcDbLine
 10
3188.492776362104
 20
229.331062507082
 30
0.0
 11
3186.704786116714
 21
224.787724451073
 31
0.0
  0
LINE
  5
24D
330
36
100
AcDbEntity
  8
2-0
  6
Continuous
 62
     0
100
AcDbLine
 10
3186.704786116714
 20
224.787724451073
 30
0.0
 11
3185.223432602814
 21
220.13536788954
 31
0.0
  0
LINE
  5
24E
330
36
100
AcDbEntity
  8
2-0
  6
Continuous
 62
     0
100
AcDbLine
 10
3185.223432602814
 20
220.13536788954
 30
0.0
 11
3184.055297175719
 21
215.394662305689
 31
0.0
  0
LINE
  5
24F
330
36
100
AcDbEntity
  8
2-0
  6
Continuous
 62
     0
100
AcDbLine
 10
3184.055297175719
 20
215.394662305689
 30
0.0
 11
3183.205569625868
 21
210.586669699641
 31
0.0
  0
LINE
  5
250
330
36
100
AcDbEntity
  8
2-0
  6
Continuous
 62
     0
100
AcDbLine
 10
3183.205569625868
 20
210.586669699641
 30
0.0
 11
3182.678025121628
 21
205.732751014204
 31
0.0
  0
LINE
  5
251
330
36
100
AcDbEntity
  8
2-0
  6
Continuous
 62
     0
100
AcDbLine
 10
3182.678025121628
 20
205.732751014204
 30
0.0
 11
3182.47500743698
 21
200.854471232508
 31
0.0
  0
LINE
  5
252
330
36
100
AcDbEntity
  8
2-0
  6
Continuous
 62
     0
100
AcDbLine
 10
3182.47500743698
 20
200.854471232508
 30
0.0
 11
3182.597418538612
 21
195.973503569125
 31
0.0
  0
LINE
  5
253
330
36
100
AcDbEntity
  8
2-0
  6
Continuous
 62
     0
100
AcDbLine
 10
3182.597418538612
 20
195.973503569125
 30
0.0
 11
3183.044714578651
 21
191.111533180347
 31
0.0
  0
LINE
  5
254
330
36
100
AcDbEntity
  8
2-0
  6
Continuous
 62
     0
100
AcDbLine
 10
3183.044714578651
 20
191.111533180347
 30
0.0
 11
3183.814908310879
 21
186.2901608214
 31
0.0
  0
LINE
  5
255
330
36
100
AcDbEntity
  8
2-0
  6
Continuous
 62
     0
100
AcDbLine
 10
3183.814908310879
 20
186.2901608214
 30
0.0
 11
3184.904577919662
 21
181.530806878638
 31
0.0
  0
LINE
  5
256
330
36
100
AcDbEntity
  8
2-0
  6
Continuous
 62
     0
100
AcDbLine
 10
3184.904577919662
 20
181.530806878638
 30
0.0
 11
3186.308882222389
 21
176.8546162030849
 31
0.0
  0
LINE
  5
257
330
36
100
AcDbEntity
  8
2-0
  6
Continuous
 62
     0
100
AcDbLine
 10
3186.308882222389
 20
176.8546162030849
 30
0.0
 11
3188.021582177875
 21
172.282364168117
 31
0.0
  0
LINE
  5
258
330
36
100
AcDbEntity
  8
2-0
  6
Continuous
 62
     0
100
AcDbLine
 10
3188.021582177875
 20
172.282364168117
 30
0.0
 11
3190.035068605157
 21
167.834364368663
 31
0.0
  0
LINE
  5
259
330
36
100
AcDbEntity
  8
2-0
  6
Continuous
 62
     0
100
AcDbLine
 10
3190.035068605157
 20
167.834364368663
 30
0.0
 11
3192.340395989561
 21
163.530378371996
 31
0.0
  0
LINE
  5
25A
330
36
100
AcDbEntity
  8
2-0
  6
Continuous
 62
     0
100
AcDbLine
 10
3192.340395989561
 20
163.530378371996
 30
0.0
 11
3194.927322225816
 21
159.389527921066
 31
0.0
  0
LINE
  5
25B
330
36
100
AcDbEntity
  8
2-0
  6
Continuous
 62
     0
100
AcDbLine
 10
3194.927322225816
 20
159.389527921066
 30
0.0
 11
3197.784354121667
 21
155.430209980451
 31
0.0
  0
LINE
  5
25C
330
36
100
AcDbEntity
  8
2-0
  6
Continuous
 62
     0
100
AcDbLine
 10
3197.784354121667
 20
155.430209980451
 30
0.0
 11
3200.898798459814
 21
151.670015002344
 31
0.0
  0
LINE
  5
25D
330
36
100
AcDbEntity
  8
2-0
  6
Continuous
 62
     0
100
AcDbLine
 10
3200.898798459814
 20
151.670015002344
 30
0.0
 11
3204.256818391315
 21
148.125648775721
 31
0.0
  0
LINE
  5
25E
330
36
100
AcDbEntity
  8
2-0
  6
Continuous
 62
     0
100
AcDbLine
 10
3204.256818391315
 20
148.125648775721
 30
0.0
 11
3207.843494909933
 21
144.812858205885
 31
0.0
  0
LINE
  5
25F
330
36
100
AcDbEntity
  8
2-0
  6
Continuous
 62
     0
100
AcDbLine
 10
3207.843494909933
 20
144.812858205885
 30
0.0
 11
3211.642893134256
 21
141.746361354134
 31
0.0
  0
LINE
  5
260
330
36
100
AcDbEntity
  8
2-0
  6
Continuous
 62
     0
100
AcDbLine
 10
3211.642893134256
 20
141.746361354134
 30
0.0
 11
3215.638133103182
 21
138.9397820483799
 31
0.0
  0
LINE
  5
261
330
36
100
AcDbEntity
  8
2-0
  6
Continuous
 62
     0
100
AcDbLine
 10
3215.638133103182
 20
138.9397820483799
 30
0.0
 11
3219.81146477018
 21
136.405589355228
 31
0.0
  0
LINE
  5
262
330
36
100
AcDbEntity
  8
2-0
  6
Continuous
 62
     0
100
AcDbLine
 10
3219.81146477018
 20
136.405589355228
 30
0.0
 11
3224.144346863171
 21
134.155042182421
 31
0.0
  0
LINE
  5
263
330
36
100
AcDbEntity
  8
2-0
  6
Continuous
 62
     0
100
AcDbLine
 10
3224.144346863171
 20
134.155042182421
 30
0.0
 11
3228.617529259671
 21
132.198139257784
 31
0.0
  0
LINE
  5
264
330
36
100
AcDbEntity
  8
2-0
  6
Continuous
 62
     0
100
AcDbLine
 10
3228.617529259671
 20
132.198139257784
 30
0.0
 11
3233.211138511195
 21
130.543574706884
 31
0.0
  0
LINE
  5
265
330
36
100
AcDbEntity
  8
2-0
  6
Continuous
 62
     0
100
AcDbLine
 10
3233.211138511195
 20
130.543574706884
 30
0.0
 11
3237.904766137007
 21
129.198699426789
 31
0.0
  0
LINE
  5
266
330
36
100
AcDbEntity
  8
2-0
  6
Continuous
 62
     0
100
AcDbLine
 10
3237.904766137007
 20
129.198699426789
 30
0.0
 11
3242.677559294872
 21
128.169488427508
 31
0.0
  0
LINE
  5
267
330
36
100
AcDbEntity
  8
2-0
  6
Continuous
 62
     0
100
AcDbLine
 10
3242.677559294872
 20
128.169488427508
 30
0.0
 11
3247.508313426038
 21
127.460514286225
 31
0.0
  0
LINE
  5
268
330
36
100
AcDbEntity
  8
2-0
  6
Continuous
 62
     0
100
AcDbLine
 10
3247.508313426038
 20
127.460514286225
 30
0.0
 11
3252.375566462828
 21
127.07492683226
 31
0.0
  0
LINE
  5
269
330
36
100
AcDbEntity
  8
2-0
  6
Continuous
 62
     0
100
AcDbLine
 10
3252.375566462828
 20
127.07492683226
 30
0.0
 11
3257.257694180275
 21
127.014439153014
 31
0.0
  0
LINE
  5
26A
330
36
100
AcDbEntity
  8
2-0
  6
Continuous
 62
     0
100
AcDbLine
 10
3257.257694180275
 20
127.014439153014
 30
0.0
 11
3262.133006268199
 21
127.279319983063
 31
0.0
  0
LINE
  5
26B
330
36
100
AcDbEntity
  8
2-0
  6
Continuous
 62
     0
100
AcDbLine
 10
3262.133006268199
 20
127.279319983063
 30
0.0
 11
3266.979842696896
 21
127.868392510227
 31
0.0
  0
LINE
  5
26C
330
36
100
AcDbEntity
  8
2-0
  6
Continuous
 62
     0
100
AcDbLine
 10
3266.979842696896
 20
127.868392510227
 30
0.0
 11
3271.776669948274
 21
128.779039603907
 31
0.0
  0
LINE
  5
26D
330
36
100
AcDbEntity
  8
2-0
  6
Continuous
 62
     0
100
AcDbLine
 10
3271.776669948274
 20
128.779039603907
 30
0.0
 11
3276.502176684949
 21
130.007215442474
 31
0.0
  0
LINE
  5
26E
330
36
100
AcDbEntity
  8
2-0
  6
Continuous
 62
     0
100
AcDbLine
 10
3276.502176684949
 20
130.007215442474
 30
0.0
 11
3281.135368432217
 21
131.547463488033
 31
0.0
  0
LINE
  5
26F
330
36
100
AcDbEntity
  8
2-0
  6
Continuous
 62
     0
100
AcDbLine
 10
3281.135368432217
 20
131.547463488033
 30
0.0
 11
3285.655660852278
 21
133.392940728729
 31
0.0
  0
LINE
  5
270
330
36
100
AcDbEntity
  8
2-0
  6
Continuous
 62
     0
100
AcDbLine
 10
3285.655660852278
 20
133.392940728729
 30
0.0
 11
3290.042971196309
 21
135.535448080862
 31
0.0
  0
LINE
  5
271
330
36
100
AcDbEntity
  8
2-0
  6
Continuous
 62
     0
100
AcDbLine
 10
3290.042971196309
 20
135.535448080862
 30
0.0
 11
3294.277807528066
 21
137.965466815775
 31
0.0
  0
LINE
  5
272
330
36
100
AcDbEntity
  8
2-0
  6
Continuous
 62
     0
100
AcDbLine
 10
3294.277807528066
 20
137.965466815775
 30
0.0
 11
3298.341355322631
 21
140.672200849639
 31
0.0
  0
LINE
  5
273
330
36
100
AcDbEntity
  8
2-0
  6
Continuous
 62
     0
100
AcDbLine
 10
3298.341355322631
 20
140.672200849639
 30
0.0
 11
3302.215561055562
 21
143.643624708283
 31
0.0
  0
LINE
  5
274
330
36
100
AcDbEntity
  8
2-0
  6
Continuous
 62
     0
100
AcDbLine
 10
3302.215561055562
 20
143.643624708283
 30
0.0
 11
3305.88321241106
 21
146.866536953956
 31
0.0
  0
LINE
  5
275
330
36
100
AcDbEntity
  8
2-0
  6
Continuous
 62
     0
100
AcDbLine
 10
3305.88321241106
 20
146.866536953956
 30
0.0
 11
3309.328014752826
 21
150.326618836651
 31
0.0
  0
LINE
  5
276
330
36
100
AcDbEntity
  8
2-0
  6
Continuous
 62
     0
100
AcDbLine
 10
3309.328014752826
 20
150.326618836651
 30
0.0
 11
3312.534663517848
 21
154.008497909432
 31
0.0
  0
LINE
  5
277
330
36
100
AcDbEntity
  8
2-0
  6
Continuous
 62
     0
100
AcDbLine
 10
3312.534663517848
 20
154.008497909432
 30
0.0
 11
3315.488912211485
 21
157.895816325117
 31
0.0
  0
LINE
  5
278
330
36
100
AcDbEntity
  8
2-0
  6
Continuous
 62
     0
100
AcDbLine
 10
3315.488912211485
 20
157.895816325117
 30
0.0
 11
3318.177635701788
 21
161.9713035109
 31
0.0
  0
LINE
  5
279
330
36
100
AcDbEntity
  8
2-0
  6
Continuous
 62
     0
100
AcDbLine
 10
3318.177635701788
 20
161.9713035109
 30
0.0
 11
3320.588888531804
 21
166.216852898027
 31
0.0
  0
LINE
  5
27A
330
36
100
AcDbEntity
  8
2-0
  6
Continuous
 62
     0
100
AcDbLine
 10
3320.588888531804
 20
166.216852898027
 30
0.0
 11
3322.711957990837
 21
170.613602365634
 31
0.0
  0
LINE
  5
27B
330
36
100
AcDbEntity
  8
2-0
  6
Continuous
 62
     0
100
AcDbLine
 10
3322.711957990837
 20
170.613602365634
 30
0.0
 11
3324.537411708876
 21
175.142018041352
 31
0.0
  0
LINE
  5
27C
330
36
100
AcDbEntity
  8
2-0
  6
Continuous
 62
     0
100
AcDbLine
 10
3324.537411708876
 20
175.142018041352
 30
0.0
 11
3326.057139562701
 21
179.781981086366
 31
0.0
  0
LINE
  5
27D
330
36
100
AcDbEntity
  8
2-0
  6
Continuous
 62
     0
100
AcDbLine
 10
3326.057139562701
 20
179.781981086366
 30
0.0
 11
3327.264389707533
 21
184.512877079367
 31
0.0
  0
LINE
  5
27E
330
36
100
AcDbEntity
  8
2-0
  6
Continuous
 62
     0
100
AcDbLine
 10
3327.264389707533
 20
184.512877079367
 30
0.0
 11
3328.153798574122
 21
189.31368760227
 31
0.0
  0
LINE
  5
27F
330
36
100
AcDbEntity
  8
2-0
  6
Continuous
 62
     0
100
AcDbLine
 10
3328.153798574122
 20
189.31368760227
 30
0.0
 11
3328.721414698003
 21
194.163083620817
 31
0.0
  0
LINE
  5
280
330
36
100
AcDbEntity
  8
2-0
  6
Continuous
 62
     0
100
AcDbLine
 10
3328.721414698003
 20
194.163083620817
 30
0.0
 11
3328.964716275056
 21
199.039520245176
 31
0.0
  0
LINE
  5
281
330
36
100
AcDbEntity
  8
2-0
  6
Continuous
 62
     0
100
AcDbLine
 10
3328.964716275056
 20
199.039520245176
 30
0.0
 11
3328.974709896314
 21
200.249473813233
 31
0.0
  0
LINE
  5
282
330
36
100
AcDbEntity
  8
2-0
  6
Continuous
 62
     0
100
AcDbLine
 10
3329.183216556909
 20
200.249473813233
 30
0.0
 11
3329.02003343717
 21
205.143154125317
 31
0.0
  0
LINE
  5
283
330
36
100
AcDbEntity
  8
2-0
  6
Continuous
 62
     0
100
AcDbLine
 10
3329.02003343717
 20
205.143154125317
 30
0.0
 11
3328.531209067687
 21
210.015092801372
 31
0.0
  0
LINE
  5
284
330
36
100
AcDbEntity
  8
2-0
  6
Continuous
 62
     0
100
AcDbLine
 10
3328.531209067687
 20
210.015092801372
 30
0.0
 11
3327.718915196685
 21
214.843644799081
 31
0.0
  0
LINE
  5
285
330
36
100
AcDbEntity
  8
2-0
  6
Continuous
 62
     0
100
AcDbLine
 10
3327.718915196685
 20
214.843644799081
 30
0.0
 11
3326.586760682234
 21
219.607357834398
 31
0.0
  0
LINE
  5
286
330
36
100
AcDbEntity
  8
2-0
  6
Continuous
 62
     0
100
AcDbLine
 10
3326.586760682234
 20
219.607357834398
 30
0.0
 11
3325.139775458823
 21
224.285067689731
 31
0.0
  0
LINE
  5
287
330
36
100
AcDbEntity
  8
2-0
  6
Continuous
 62
     0
100
AcDbLine
 10
3325.139775458823
 20
224.285067689731
 30
0.0
 11
3323.384388190374
 21
228.855992242293
 31
0.0
  0
LINE
  5
288
330
36
100
AcDbEntity
  8
2-0
  6
Continuous
 62
     0
100
AcDbLine
 10
3323.384388190374
 20
228.855992242293
 30
0.0
 11
3321.328397708982
 21
233.299823794892
 31
0.0
  0
LINE
  5
289
330
36
100
AcDbEntity
  8
2-0
  6
Continuous
 62
     0
100
AcDbLine
 10
3321.328397708982
 20
233.299823794892
 30
0.0
 11
3318.980938366273
 21
237.596819298936
 31
0.0
  0
LINE
  5
28A
330
36
100
AcDbEntity
  8
2-0
  6
Continuous
 62
     0
100
AcDbLine
 10
3318.980938366273
 20
237.596819298936
 30
0.0
 11
3316.352439451327
 21
241.727888068827
 31
0.0
  0
LINE
  5
28B
330
36
100
AcDbEntity
  8
2-0
  6
Continuous
 62
     0
100
AcDbLine
 10
3316.352439451327
 20
241.727888068827
 30
0.0
 11
3313.454578855434
 21
245.674676598027
 31
0.0
  0
LINE
  5
28C
330
36
100
AcDbEntity
  8
2-0
  6
Continuous
 62
     0
100
AcDbLine
 10
3313.454578855434
 20
245.674676598027
 30
0.0
 11
3310.300231189586
 21
249.419650099991
 31
0.0
  0
LINE
  5
28D
330
36
100
AcDbEntity
  8
2-0
  6
Continuous
 62
     0
100
AcDbLine
 10
3310.300231189586
 20
249.419650099991
 30
0.0
 11
3306.903410585172
 21
252.946170411697
 31
0.0
  0
LINE
  5
28E
330
36
100
AcDbEntity
  8
2-0
  6
Continuous
 62
     0
100
AcDbLine
 10
3306.903410585172
 20
252.946170411697
 30
0.0
 11
3303.279208432008
 21
256.238569913649
 31
0.0
  0
LINE
  5
28F
330
36
100
AcDbEntity
  8
2-0
  6
Continuous
 62
     0
100
AcDbLine
 10
3303.279208432008
 20
256.238569913649
 30
0.0
 11
3299.443726330339
 21
259.282221137956
 31
0.0
  0
LINE
  5
290
330
36
100
AcDbEntity
  8
2-0
  6
Continuous
 62
     0
100
AcDbLine
 10
3299.443726330339
 20
259.282221137956
 30
0.0
 11
3295.414004554668
 21
262.063601755228
 31
0.0
  0
LINE
  5
291
330
36
100
AcDbEntity
  8
2-0
  6
Continuous
 62
     0
100
AcDbLine
 10
3295.414004554668
 20
262.063601755228
 30
0.0
 11
3291.207946347249
 21
264.570354651557
 31
0.0
  0
LINE
  5
292
330
36
100
AcDbEntity
  8
2-0
  6
Continuous
 62
     0
100
AcDbLine
 10
3291.207946347249
 20
264.570354651557
 30
0.0
 11
3286.844238377589
 21
266.791342828691
 31
0.0
  0
LINE
  5
293
330
36
100
AcDbEntity
  8
2-0
  6
Continuous
 62
     0
100
AcDbLine
 10
3286.844238377589
 20
266.791342828691
 30
0.0
 11
3282.342267721335
 21
268.716698883472
 31
0.0
  0
LINE
  5
294
330
36
100
AcDbEntity
  8
2-0
  6
Continuous
 62
     0
100
AcDbLine
 10
3282.342267721335
 20
268.716698883472
 30
0.0
 11
3277.722035727406
 21
270.337868846718
 31
0.0
  0
LINE
  5
295
330
36
100
AcDbEntity
  8
2-0
  6
Continuous
 62
     0
100
AcDbLine
 10
3277.722035727406
 20
270.337868846718
 30
0.0
 11
3273.004069156027
 21
271.647650186791
 31
0.0
  0
LINE
  5
296
330
36
100
AcDbEntity
  8
2-0
  6
Continuous
 62
     0
100
AcDbLine
 10
3273.004069156027
 20
271.647650186791
 30
0.0
 11
3268.209328982465
 21
272.640223808989
 31
0.0
  0
LINE
  5
297
330
36
100
AcDbEntity
  8
2-0
  6
Continuous
 62
     0
100
AcDbLine
 10
3268.209328982465
 20
272.640223808989
 30
0.0
 11
3263.359117271639
 21
273.311179908615
 31
0.0
  0
LINE
  5
298
330
36
100
AcDbEntity
  8
2-0
  6
Continuous
 62
     0
100
AcDbLine
 10
3263.359117271639
 20
273.311179908615
 30
0.0
 11
3258.474982537339
 21
273.657537562851
 31
0.0
  0
LINE
  5
299
330
36
100
AcDbEntity
  8
2-0
  6
Continuous
 62
     0
100
AcDbLine
 10
3258.474982537339
 20
273.657537562851
 30
0.0
 11
3253.57862400651
 21
273.677757974396
 31
0.0
  0
LINE
  5
29A
330
36
100
AcDbEntity
  8
2-0
  6
Continuous
 62
     0
100
AcDbLine
 10
3253.57862400651
 20
273.677757974396
 30
0.0
 11
3248.69179521397
 21
273.371751308035
 31
0.0
  0
LINE
  5
29B
330
36
100
AcDbEntity
  8
2-0
  6
Continuous
 62
     0
100
AcDbLine
 10
3248.69179521397
 20
273.371751308035
 30
0.0
 11
3243.836207355826
 21
272.740877089755
 31
0.0
  0
LINE
  5
29C
330
36
100
AcDbEntity
  8
2-0
  6
Continuous
 62
     0
100
AcDbLine
 10
3243.836207355826
 20
272.740877089755
 30
0.0
 11
3239.033432831003
 21
271.787938166649
 31
0.0
  0
LINE
  5
29D
330
36
100
AcDbEntity
  8
2-0
  6
Continuous
 62
     0
100
AcDbLine
 10
3239.033432831003
 20
271.787938166649
 30
0.0
 11
3234.304809399427
 21
270.517168254427
 31
0.0
  0
LINE
  5
29E
330
36
100
AcDbEntity
  8
2-0
  6
Continuous
 62
     0
100
AcDbLine
 10
3234.304809399427
 20
270.517168254427
 30
0.0
 11
3229.671345382648
 21
268.934213127875
 31
0.0
  0
LINE
  5
29F
330
36
100
AcDbEntity
  8
2-0
  6
Continuous
 62
     0
100
AcDbLine
 10
3229.671345382648
 20
268.934213127875
 30
0.0
 11
3225.153626328106
 21
267.046105537809
 31
0.0
  0
LINE
  5
2A0
330
36
100
AcDbEntity
  8
2-0
  6
Continuous
 62
     0
100
AcDbLine
 10
3225.153626328106
 20
267.046105537809
 30
0.0
 11
3220.771723551677
 21
264.861233965982
 31
0.0
  0
LINE
  5
2A1
330
36
100
AcDbEntity
  8
2-0
  6
Continuous
 62
     0
100
AcDbLine
 10
3220.771723551677
 20
264.861233965982
 30
0.0
 11
3216.545104964875
 21
262.38930535675
 31
0.0
  0
LINE
  5
2A2
330
36
100
AcDbEntity
  8
2-0
  6
Continuous
 62
     0
100
AcDbLine
 10
3216.545104964875
 20
262.38930535675
 30
0.0
 11
3212.492548582827
 21
259.641301991071
 31
0.0
  0
LINE
  5
2A3
330
36
100
AcDbEntity
  8
2-0
  6
Continuous
 62
     0
100
AcDbLine
 10
3212.492548582827
 20
259.641301991071
 30
0.0
 11
3208.632059097347
 21
256.629432694446
 31
0.0
  0
LINE
  5
2A4
330
36
100
AcDbEntity
  8
2-0
  6
Continuous
 62
     0
100
AcDbLine
 10
3208.632059097347
 20
256.629432694446
 30
0.0
 11
3204.980787885708
 21
253.367078595562
 31
0.0
  0
LINE
  5
2A5
330
36
100
AcDbEntity
  8
2-0
  6
Continuous
 62
     0
100
AcDbLine
 10
3204.980787885708
 20
253.367078595562
 30
0.0
 11
3201.554956810528
 21
249.868733676634
 31
0.0
  0
LINE
  5
2A6
330
36
100
AcDbEntity
  8
2-0
  6
Continuous
 62
     0
100
AcDbLine
 10
3201.554956810528
 20
249.868733676634
 30
0.0
 11
3198.369786149305
 21
246.149940379565
 31
0.0
  0
LINE
  5
2A7
330
36
100
AcDbEntity
  8
2-0
  6
Continuous
 62
     0
100
AcDbLine
 10
3198.369786149305
 20
246.149940379565
 30
0.0
 11
3195.439426973786
 21
242.227220553997
 31
0.0
  0
LINE
  5
2A8
330
36
100
AcDbEntity
  8
2-0
  6
Continuous
 62
     0
100
AcDbLine
 10
3195.439426973786
 20
242.227220553997
 30
0.0
 11
3192.776898279606
 21
238.118002054073
 31
0.0
  0
LINE
  5
2A9
330
36
100
AcDbEntity
  8
2-0
  6
Continuous
 62
     0
100
AcDbLine
 10
3192.776898279606
 20
238.118002054073
 30
0.0
 11
3190.394029145515
 21
233.840541309982
 31
0.0
  0
LINE
  5
2AA
330
36
100
AcDbEntity
  8
2-0
  6
Continuous
 62
     0
100
AcDbLine
 10
3190.394029145515
 20
233.840541309982
 30
0.0
 11
3188.301406179161
 21
229.413842218319
 31
0.0
  0
LINE
  5
2AB
330
36
100
AcDbEntity
  8
2-0
  6
Continuous
 62
     0
100
AcDbLine
 10
3188.301406179161
 20
229.413842218319
 30
0.0
 11
3186.508326482922
 21
224.857571711601
 31
0.0
  0
LINE
  5
2AC
330
36
100
AcDbEntity
  8
2-0
  6
Continuous
 62
     0
100
AcDbLine
 10
3186.508326482922
 20
224.857571711601
 30
0.0
 11
3185.022756348761
 21
220.191972382047
 31
0.0
  0
LINE
  5
2AD
330
36
100
AcDbEntity
  8
2-0
  6
Continuous
 62
     0
100
AcDbLine
 10
3185.022756348761
 20
220.191972382047
 30
0.0
 11
3183.851295865586
 21
215.437772547816
 31
0.0
  0
LINE
  5
2AE
330
36
100
AcDbEntity
  8
2-0
  6
Continuous
 62
     0
100
AcDbLine
 10
3183.851295865586
 20
215.437772547816
 30
0.0
 11
3182.999149596388
 21
210.616094161264
 31
0.0
  0
LINE
  5
2AF
330
36
100
AcDbEntity
  8
2-0
  6
Continuous
 62
     0
100
AcDbLine
 10
3182.999149596388
 20
210.616094161264
 30
0.0
 11
3182.470103455419
 21
205.748358968367
 31
0.0
  0
LINE
  5
2B0
330
36
100
AcDbEntity
  8
2-0
  6
Continuous
 62
     0
100
AcDbLine
 10
3182.470103455419
 20
205.748358968367
 30
0.0
 11
3182.26650788813
 21
200.856193336214
 31
0.0
  0
LINE
  5
2B1
330
36
100
AcDbEntity
  8
2-0
  6
Continuous
 62
     0
100
AcDbLine
 10
3182.26650788813
 20
200.856193336214
 30
0.0
 11
3182.389267428622
 21
195.961332171414
 31
0.0
  0
LINE
  5
2B2
330
36
100
AcDbEntity
  8
2-0
  6
Continuous
 62
     0
100
AcDbLine
 10
3182.389267428622
 20
195.961332171414
 30
0.0
 11
3182.837836680982
 21
191.085522356288
 31
0.0
  0
LINE
  5
2B3
330
36
100
AcDbEntity
  8
2-0
  6
Continuous
 62
     0
100
AcDbLine
 10
3182.837836680982
 20
191.085522356288
 30
0.0
 11
3183.610222742364
 21
186.250426131844
 31
0.0
  0
LINE
  5
2B4
330
36
100
AcDbEntity
  8
2-0
  6
Continuous
 62
     0
100
AcDbLine
 10
3183.610222742364
 20
186.250426131844
 30
0.0
 11
3184.702994057057
 21
181.477524856809
 31
0.0
  0
LINE
  5
2B5
330
36
100
AcDbEntity
  8
2-0
  6
Continuous
 62
     0
100
AcDbLine
 10
3184.702994057057
 20
181.477524856809
 30
0.0
 11
3186.111295662198
 21
176.788023570275
 31
0.0
  0
LINE
  5
2B6
330
36
100
AcDbEntity
  8
2-0
  6
Continuous
 62
     0
100
AcDbLine
 10
3186.111295662198
 20
176.788023570275
 30
0.0
 11
3187.828870757389
 21
172.202756781982
 31
0.0
  0
LINE
  5
2B7
330
36
100
AcDbEntity
  8
2-0
  6
Continuous
 62
     0
100
AcDbLine
 10
3187.828870757389
 20
172.202756781982
 30
0.0
 11
3189.848088502406
 21
167.742095908787
 31
0.0
  0
LINE
  5
2B8
330
36
100
AcDbEntity
  8
2-0
  6
Continuous
 62
     0
100
AcDbLine
 10
3189.848088502406
 20
167.742095908787
 30
0.0
 11
3192.159977919485
 21
163.425858768562
 31
0.0
  0
LINE
  5
2B9
330
36
100
AcDbEntity
  8
2-0
  6
Continuous
 62
     0
100
AcDbLine
 10
3192.159977919485
 20
163.425858768562
 30
0.0
 11
3194.75426774956
 21
159.273221533622
 31
0.0
  0
LINE
  5
2BA
330
36
100
AcDbEntity
  8
2-0
  6
Continuous
 62
     0
100
AcDbLine
 10
3194.75426774956
 20
159.273221533622
 30
0.0
 11
3197.619432085417
 21
155.302633534851
 31
0.0
  0
LINE
  5
2BB
330
36
100
AcDbEntity
  8
2-0
  6
Continuous
 62
     0
100
AcDbLine
 10
3197.619432085417
 20
155.302633534851
 30
0.0
 11
3200.74274157896
 21
151.531735295043
 31
0.0
  0
LINE
  5
2BC
330
36
100
AcDbEntity
  8
2-0
  6
Continuous
 62
     0
100
AcDbLine
 10
3200.74274157896
 20
151.531735295043
 30
0.0
 11
3204.110319995152
 21
147.977280155609
 31
0.0
  0
LINE
  5
2BD
330
36
100
AcDbEntity
  8
2-0
  6
Continuous
 62
     0
100
AcDbLine
 10
3204.110319995152
 20
147.977280155609
 30
0.0
 11
3207.707205861327
 21
144.655059844859
 31
0.0
  0
LINE
  5
2BE
330
36
100
AcDbEntity
  8
2-0
  6
Continuous
 62
     0
100
AcDbLine
 10
3207.707205861327
 20
144.655059844859
 30
0.0
 11
3211.517418938002
 21
141.57983431853
 31
0.0
  0
LINE
  5
2BF
330
36
100
AcDbEntity
  8
2-0
  6
Continuous
 62
     0
100
AcDbLine
 10
3211.517418938002
 20
141.57983431853
 30
0.0
 11
3215.524031215865
 21
138.765266184279
 31
0.0
  0
LINE
  5
2C0
330
36
100
AcDbEntity
  8
2-0
  6
Continuous
 62
     0
100
AcDbLine
 10
3215.524031215865
 20
138.765266184279
 30
0.0
 11
3219.709242123502
 21
136.223860001467
 31
0.0
  0
LINE
  5
2C1
330
36
100
AcDbEntity
  8
2-0
  6
Continuous
 62
     0
100
AcDbLine
 10
3219.709242123502
 20
136.223860001467
 30
0.0
 11
3224.054457611765
 21
133.966906725917
 31
0.0
  0
LINE
  5
2C2
330
36
100
AcDbEntity
  8
2-0
  6
Continuous
 62
     0
100
AcDbLine
 10
3224.054457611765
 20
133.966906725917
 30
0.0
 11
3228.540372763375
 21
132.004433546479
 31
0.0
  0
LINE
  5
2C3
330
36
100
AcDbEntity
  8
2-0
  6
Continuous
 62
     0
100
AcDbLine
 10
3228.540372763375
 20
132.004433546479
 30
0.0
 11
3233.147057560785
 21
130.345159336242
 31
0.0
  0
LINE
  5
2C4
330
36
100
AcDbEntity
  8
2-0
  6
Continuous
 62
     0
100
AcDbLine
 10
3233.147057560785
 20
130.345159336242
 30
0.0
 11
3237.854045431238
 21
128.99645591634
 31
0.0
  0
LINE
  5
2C5
330
36
100
AcDbEntity
  8
2-0
  6
Continuous
 62
     0
100
AcDbLine
 10
3237.854045431238
 20
128.99645591634
 30
0.0
 11
3242.640424175625
 21
127.964315304436
 31
0.0
  0
LINE
  5
2C6
330
36
100
AcDbEntity
  8
2-0
  6
Continuous
 62
     0
100
AcDbLine
 10
3242.640424175625
 20
127.964315304436
 30
0.0
 11
3247.48492887717
 21
127.253323093394
 31
0.0
  0
LINE
  5
2C7
330
36
100
AcDbEntity
  8
2-0
  6
Continuous
 62
     0
100
AcDbLine
 10
3247.48492887717
 20
127.253323093394
 30
0.0
 11
3252.366036377178
 21
126.866638078411
 31
0.0
  0
LINE
  5
2C8
330
36
100
AcDbEntity
  8
2-0
  6
Continuous
 62
     0
100
AcDbLine
 10
3252.366036377178
 20
126.866638078411
 30
0.0
 11
3257.262060898094
 21
126.805978223131
 31
0.0
  0
LINE
  5
2C9
330
36
100
AcDbEntity
  8
2-0
  6
Continuous
 62
     0
100
AcDbLine
 10
3257.262060898094
 20
126.805978223131
 30
0.0
 11
3262.151250389042
 21
127.071613027072
 31
0.0
  0
LINE
  5
2CA
330
36
100
AcDbEntity
  8
2-0
  6
Continuous
 62
     0
100
AcDbLine
 10
3262.151250389042
 20
127.071613027072
 30
0.0
 11
3267.011883165807
 21
127.662362328301
 31
0.0
  0
LINE
  5
2CB
330
36
100
AcDbEntity
  8
2-0
  6
Continuous
 62
     0
100
AcDbLine
 10
3267.011883165807
 20
127.662362328301
 30
0.0
 11
3271.822364415901
 21
128.57560154665
 31
0.0
  0
LINE
  5
2CC
330
36
100
AcDbEntity
  8
2-0
  6
Continuous
 62
     0
100
AcDbLine
 10
3271.822364415901
 20
128.57560154665
 30
0.0
 11
3276.561322139976
 21
129.8072733442
 31
0.0
  0
LINE
  5
2CD
330
36
100
AcDbEntity
  8
2-0
  6
Continuous
 62
     0
100
AcDbLine
 10
3276.561322139976
 20
129.8072733442
 30
0.0
 11
3281.207702103301
 21
131.351905651218
 31
0.0
  0
LINE
  5
2CE
330
36
100
AcDbEntity
  8
2-0
  6
Continuous
 62
     0
100
AcDbLine
 10
3281.207702103301
 20
131.351905651218
 30
0.0
 11
3285.740861375485
 21
133.202635977454
 31
0.0
  0
LINE
  5
2CF
330
36
100
AcDbEntity
  8
2-0
  6
Continuous
 62
     0
100
AcDbLine
 10
3285.740861375485
 20
133.202635977454
 30
0.0
 11
3290.140660042875
 21
135.351241900811
 31
0.0
  0
LINE
  5
2D0
330
36
100
AcDbEntity
  8
2-0
  6
Continuous
 62
     0
100
AcDbLine
 10
3290.140660042875
 20
135.351241900811
 30
0.0
 11
3294.387550686121
 21
137.788177597906
 31
0.0
  0
LINE
  5
2D1
330
36
100
AcDbEntity
  8
2-0
  6
Continuous
 62
     0
100
AcDbLine
 10
3294.387550686121
 20
137.788177597906
 30
0.0
 11
3298.462665225425
 21
140.502616254239
 31
0.0
  0
LINE
  5
2D2
330
36
100
AcDbEntity
  8
2-0
  6
Continuous
 62
     0
100
AcDbLine
 10
3298.462665225425
 20
140.502616254239
 30
0.0
 11
3302.347898747628
 21
143.482498165557
 31
0.0
  0
LINE
  5
2D3
330
36
100
AcDbEntity
  8
2-0
  6
Continuous
 62
     0
100
AcDbLine
 10
3302.347898747628
 20
143.482498165557
 30
0.0
 11
3306.025989942687
 21
146.71458431668
 31
0.0
  0
LINE
  5
2D4
330
36
100
AcDbEntity
  8
2-0
  6
Continuous
 62
     0
100
AcDbLine
 10
3306.025989942687
 20
146.71458431668
 30
0.0
 11
3309.480597792196
 21
150.18451519979
 31
0.0
  0
LINE
  5
2D5
330
36
100
AcDbEntity
  8
2-0
  6
Continuous
 62
     0
100
AcDbLine
 10
3309.480597792196
 20
150.18451519979
 30
0.0
 11
3312.696374169247
 21
153.876874610824
 31
0.0
  0
LINE
  5
2D6
330
36
100
AcDbEntity
  8
2-0
  6
Continuous
 62
     0
100
AcDbLine
 10
3312.696374169247
 20
153.876874610824
 30
0.0
 11
3315.659032027059
 21
157.775258140569
 31
0.0
  0
LINE
  5
2D7
330
36
100
AcDbEntity
  8
2-0
  6
Continuous
 62
     0
100
AcDbLine
 10
3315.659032027059
 20
157.775258140569
 30
0.0
 11
3318.355408873459
 21
161.862346056145
 31
0.0
  0
LINE
  5
2D8
330
36
100
AcDbEntity
  8
2-0
  6
Continuous
 62
     0
100
AcDbLine
 10
3318.355408873459
 20
161.862346056145
 30
0.0
 11
3320.773525249172
 21
166.119980249093
 31
0.0
  0
LINE
  5
2D9
330
36
100
AcDbEntity
  8
2-0
  6
Continuous
 62
     0
100
AcDbLine
 10
3320.773525249172
 20
166.119980249093
 30
0.0
 11
3322.902637950156
 21
170.529244908189
 31
0.0
  0
LINE
  5
2DA
330
36
100
AcDbEntity
  8
2-0
  6
Continuous
 62
     0
100
AcDbLine
 10
3322.902637950156
 20
170.529244908189
 30
0.0
 11
3324.733287757489
 21
175.070550558589
 31
0.0
  0
LINE
  5
2DB
330
36
100
AcDbEntity
  8
2-0
  6
Continuous
 62
     0
100
AcDbLine
 10
3324.733287757489
 20
175.070550558589
 30
0.0
 11
3326.257341462773
 21
179.723721093918
 31
0.0
  0
LINE
  5
2DC
330
36
100
AcDbEntity
  8
2-0
  6
Continuous
 62
     0
100
AcDbLine
 10
3326.257341462773
 20
179.723721093918
 30
0.0
 11
3327.468028002344
 21
184.468083414647
 31
0.0
  0
LINE
  5
2DD
330
36
100
AcDbEntity
  8
2-0
  6
Continuous
 62
     0
100
AcDbLine
 10
3327.468028002344
 20
184.468083414647
 30
0.0
 11
3328.359968539742
 21
189.282559274509
 31
0.0
  0
LINE
  5
2DE
330
36
100
AcDbEntity
  8
2-0
  6
Continuous
 62
     0
100
AcDbLine
 10
3328.359968539742
 20
189.282559274509
 30
0.0
 11
3328.929200362797
 21
194.145758926905
 31
0.0
  0
LINE
  5
2DF
330
36
100
AcDbEntity
  8
2-0
  6
Continuous
 62
     0
100
AcDbLine
 10
3328.929200362797
 20
194.145758926905
 30
0.0
 11
3329.173194489163
 21
199.036076155239
 31
0.0
  0
LINE
  5
2E0
330
36
100
AcDbEntity
  8
2-0
  6
Continuous
 62
     0
100
AcDbLine
 10
3329.173194489163
 20
199.036076155239
 30
0.0
 11
3329.183216556909
 21
200.249473813233
 31
0.0
  0
LINE
  5
2E1
330
36
100
AcDbEntity
  8
2-0
  6
Continuous
 62
     0
100
AcDbLine
 10
3328.766203235719
 20
200.249473813233
 30
0.0
 11
3328.603946469079
 21
205.115373825912
 31
0.0
  0
LINE
  5
2E2
330
36
100
AcDbEntity
  8
2-0
  6
Continuous
 62
     0
100
AcDbLine
 10
3328.603946469079
 20
205.115373825912
 30
0.0
 11
3328.117897043294
 21
209.959655624838
 31
0.0
  0
LINE
  5
2E3
330
36
100
AcDbEntity
  8
2-0
  6
Continuous
 62
     0
100
AcDbLine
 10
3328.117897043294
 20
209.959655624838
 30
0.0
 11
3327.310214378072
 21
214.760797041627
 31
0.0
  0
LINE
  5
2E4
330
36
100
AcDbEntity
  8
2-0
  6
Continuous
 62
     0
100
AcDbLine
 10
3327.310214378072
 20
214.760797041627
 30
0.0
 11
3326.184486844824
 21
219.497467571926
 31
0.0
  0
LINE
  5
2E5
330
36
100
AcDbEntity
  8
2-0
  6
Continuous
 62
     0
100
AcDbLine
 10
3326.184486844824
 20
219.497467571926
 30
0.0
 11
3324.745715824258
 21
224.148623142544
 31
0.0
  0
LINE
  5
2E6
330
36
100
AcDbEntity
  8
2-0
  6
Continuous
 62
     0
100
AcDbLine
 10
3324.745715824258
 20
224.148623142544
 30
0.0
 11
3323.000293486246
 21
228.693599606034
 31
0.0
  0
LINE
  5
2E7
330
36
100
AcDbEntity
  8
2-0
  6
Continuous
 62
     0
100
AcDbLine
 10
3323.000293486246
 20
228.693599606034
 30
0.0
 11
3320.955974390703
 21
233.112204547338
 31
0.0
  0
LINE
  5
2E8
330
36
100
AcDbEntity
  8
2-0
  6
Continuous
 62
     0
100
AcDbLine
 10
3320.955974390703
 20
233.112204547338
 30
0.0
 11
3318.621841035641
 21
237.384806994618
 31
0.0
  0
LINE
  5
2E9
330
36
100
AcDbEntity
  8
2-0
  6
Continuous
 62
     0
100
AcDbLine
 10
3318.621841035641
 20
237.384806994618
 30
0.0
 11
3316.008263505457
 21
241.492424635712
 31
0.0
  0
LINE
  5
2EA
330
36
100
AcDbEntity
  8
2-0
  6
Continuous
 62
     0
100
AcDbLine
 10
3316.008263505457
 20
241.492424635712
 30
0.0
 11
3313.126853398736
 21
245.416808152725
 31
0.0
  0
LINE
  5
2EB
330
36
100
AcDbEntity
  8
2-0
  6
Continuous
 62
     0
100
AcDbLine
 10
3313.126853398736
 20
245.416808152725
 30
0.0
 11
3309.990412240261
 21
249.14052230007
 31
0.0
  0
LINE
  5
2EC
330
36
100
AcDbEntity
  8
2-0
  6
Continuous
 62
     0
100
AcDbLine
 10
3309.990412240261
 20
249.14052230007
 30
0.0
 11
3306.612874606412
 21
252.647023365755
 31
0.0
  0
LINE
  5
2ED
330
36
100
AcDbEntity
  8
2-0
  6
Continuous
 62
     0
100
AcDbLine
 10
3306.612874606412
 20
252.647023365755
 30
0.0
 11
3303.009246216653
 21
255.920732671762
 31
0.0
  0
LINE
  5
2EE
330
36
100
AcDbEntity
  8
2-0
  6
Continuous
 62
     0
100
AcDbLine
 10
3303.009246216653
 20
255.920732671762
 30
0.0
 11
3299.19553726614
 21
258.947105786977
 31
0.0
  0
LINE
  5
2EF
330
36
100
AcDbEntity
  8
2-0
  6
Continuous
 62
     0
100
AcDbLine
 10
3299.19553726614
 20
258.947105786977
 30
0.0
 11
3295.188691295652
 21
261.712697145168
 31
0.0
  0
LINE
  5
2F0
330
36
100
AcDbEntity
  8
2-0
  6
Continuous
 62
     0
100
AcDbLine
 10
3295.188691295652
 20
261.712697145168
 30
0.0
 11
3291.006509914846
 21
264.205219780926
 31
0.0
  0
LINE
  5
2F1
330
36
100
AcDbEntity
  8
2-0
  6
Continuous
 62
     0
100
AcDbLine
 10
3291.006509914846
 20
264.205219780926
 30
0.0
 11
3286.667573713299
 21
266.41359991818
 31
0.0
  0
LINE
  5
2F2
330
36
100
AcDbEntity
  8
2-0
  6
Continuous
 62
     0
100
AcDbLine
 10
3286.667573713299
 20
266.41359991818
 30
0.0
 11
3282.191159710681
 21
268.328026168754
 31
0.0
  0
LINE
  5
2F3
330
36
100
AcDbEntity
  8
2-0
  6
Continuous
 62
     0
100
AcDbLine
 10
3282.191159710681
 20
268.328026168754
 30
0.0
 11
3277.597155712846
 21
269.939993122385
 31
0.0
  0
LINE
  5
2F4
330
36
100
AcDbEntity
  8
2-0
  6
Continuous
 62
     0
100
AcDbLine
 10
3277.597155712846
 20
269.939993122385
 30
0.0
 11
3272.905971954315
 21
271.242339134553
 31
0.0
  0
LINE
  5
2F5
330
36
100
AcDbEntity
  8
2-0
  6
Continuous
 62
     0
100
AcDbLine
 10
3272.905971954315
 20
271.242339134553
 30
0.0
 11
3268.13845041971
 21
272.22927814422
 31
0.0
  0
LINE
  5
2F6
330
36
100
AcDbEntity
  8
2-0
  6
Continuous
 62
     0
100
AcDbLine
 10
3268.13845041971
 20
272.22927814422
 30
0.0
 11
3263.315772247022
 21
272.89642538014
 31
0.0
  0
LINE
  5
2F7
330
36
100
AcDbEntity
  8
2-0
  6
Continuous
 62
     0
100
AcDbLine
 10
3263.315772247022
 20
272.89642538014
 30
0.0
 11
3258.459363624073
 21
273.240816841506
 31
0.0
  0
LINE
  5
2F8
330
36
100
AcDbEntity
  8
2-0
  6
Continuous
 62
     0
100
AcDbLine
 10
3258.459363624073
 20
273.240816841506
 30
0.0
 11
3253.590800596282
 21
273.260922466418
 31
0.0
  0
LINE
  5
2F9
330
36
100
AcDbEntity
  8
2-0
  6
Continuous
 62
     0
100
AcDbLine
 10
3253.590800596282
 20
273.260922466418
 30
0.0
 11
3248.731713208644
 21
272.956652929634
 31
0.0
  0
LINE
  5
2FA
330
36
100
AcDbEntity
  8
2-0
  6
Continuous
 62
     0
100
AcDbLine
 10
3248.731713208644
 20
272.956652929634
 30
0.0
 11
3243.90368940779
 21
272.329360039425
 31
0.0
  0
LINE
  5
2FB
330
36
100
AcDbEntity
  8
2-0
  6
Continuous
 62
     0
100
AcDbLine
 10
3243.90368940779
 20
272.329360039425
 30
0.0
 11
3239.128179131093
 21
271.381830731763
 31
0.0
  0
LINE
  5
2FC
330
36
100
AcDbEntity
  8
2-0
  6
Continuous
 62
     0
100
AcDbLine
 10
3239.128179131093
 20
271.381830731763
 30
0.0
 11
3234.426399008913
 21
270.118274688529
 31
0.0
  0
LINE
  5
2FD
330
36
100
AcDbEntity
  8
2-0
  6
Continuous
 62
     0
100
AcDbLine
 10
3234.426399008913
 20
270.118274688529
 30
0.0
 11
3229.819238103384
 21
268.544305634739
 31
0.0
  0
LINE
  5
2FE
330
36
100
AcDbEntity
  8
2-0
  6
Continuous
 62
     0
100
AcDbLine
 10
3229.819238103384
 20
268.544305634739
 30
0.0
 11
3225.327165102517
 21
266.666916397899
 31
0.0
  0
LINE
  5
2FF
330
36
100
AcDbEntity
  8
2-0
  6
Continuous
 62
     0
100
AcDbLine
 10
3225.327165102517
 20
266.666916397899
 30
0.0
 11
3220.970137381942
 21
264.494447840277
 31
0.0
  0
LINE
  5
300
330
36
100
AcDbEntity
  8
2-0
  6
Continuous
 62
     0
100
AcDbLine
 10
3220.970137381942
 20
264.494447840277
 30
0.0
 11
3216.767512338305
 21
262.036551802135
 31
0.0
  0
LINE
  5
301
330
36
100
AcDbEntity
  8
2-0
  6
Continuous
 62
     0
100
AcDbLine
 10
3216.767512338305
 20
262.036551802135
 30
0.0
 11
3212.737961388257
 21
259.304148220544
 31
0.0
  0
LINE
  5
302
330
36
100
AcDbEntity
  8
2-0
  6
Continuous
 62
     0
100
AcDbLine
 10
3212.737961388257
 20
259.304148220544
 30
0.0
 11
3208.89938701511
 21
256.309376614306
 31
0.0
  0
LINE
  5
303
330
36
100
AcDbEntity
  8
2-0
  6
Continuous
 62
     0
100
AcDbLine
 10
3208.89938701511
 20
256.309376614306
 30
0.0
 11
3205.268843231704
 21
253.065542150512
 31
0.0
  0
LINE
  5
304
330
36
100
AcDbEntity
  8
2-0
  6
Continuous
 62
     0
100
AcDbLine
 10
3205.268843231704
 20
253.065542150512
 30
0.0
 11
3201.862459812871
 21
249.587056532371
 31
0.0
  0
LINE
  5
305
330
36
100
AcDbEntity
  8
2-0
  6
Continuous
 62
     0
100
AcDbLine
 10
3201.862459812871
 20
249.587056532371
 30
0.0
 11
3198.695370634087
 21
245.889373970909
 31
0.0
  0
LINE
  5
306
330
36
100
AcDbEntity
  8
2-0
  6
Continuous
 62
     0
100
AcDbLine
 10
3198.695370634087
 20
245.889373970909
 30
0.0
 11
3195.781646434713
 21
241.988922525024
 31
0.0
  0
LINE
  5
307
330
36
100
AcDbEntity
  8
2-0
  6
Continuous
 62
     0
100
AcDbLine
 10
3195.781646434713
 20
241.988922525024
 30
0.0
 11
3193.134232304539
 21
237.903031114932
 31
0.0
  0
LINE
  5
308
330
36
100
AcDbEntity
  8
2-0
  6
Continuous
 62
     0
100
AcDbLine
 10
3193.134232304539
 20
237.903031114932
 30
0.0
 11
3190.764890171348
 21
233.649852533259
 31
0.0
  0
LINE
  5
309
330
36
100
AcDbEntity
  8
2-0
  6
Continuous
 62
     0
100
AcDbLine
 10
3190.764890171348
 20
233.649852533259
 30
0.0
 11
3188.684146545048
 21
229.248282795845
 31
0.0
  0
LINE
  5
30A
330
36
100
AcDbEntity
  8
2-0
  6
Continuous
 62
     0
100
AcDbLine
 10
3188.684146545048
 20
229.248282795845
 30
0.0
 11
3186.901245750505
 21
224.717877190545
 31
0.0
  0
LINE
  5
30B
330
36
100
AcDbEntity
  8
2-0
  6
Continuous
 62
     0
100
AcDbLine
 10
3186.901245750505
 20
224.717877190545
 30
0.0
 11
3185.424108856866
 21
220.078763397032
 31
0.0
  0
LINE
  5
30C
330
36
100
AcDbEntity
  8
2-0
  6
Continuous
 62
     0
100
AcDbLine
 10
3185.424108856866
 20
220.078763397032
 30
0.0
 11
3184.259298485854
 21
215.351552063561
 31
0.0
  0
LINE
  5
30D
330
36
100
AcDbEntity
  8
2-0
  6
Continuous
 62
     0
100
AcDbLine
 10
3184.259298485854
 20
215.351552063561
 30
0.0
 11
3183.411989655348
 21
210.557245238017
 31
0.0
  0
LINE
  5
30E
330
36
100
AcDbEntity
  8
2-0
  6
Continuous
 62
     0
100
AcDbLine
 10
3183.411989655348
 20
210.557245238017
 30
0.0
 11
3182.885946787837
 21
205.717143060041
 31
0.0
  0
LINE
  5
30F
330
36
100
AcDbEntity
  8
2-0
  6
Continuous
 62
     0
100
AcDbLine
 10
3182.885946787837
 20
205.717143060041
 30
0.0
 11
3182.683506985832
 21
200.852749128801
 31
0.0
  0
LINE
  5
310
330
36
100
AcDbEntity
  8
2-0
  6
Continuous
 62
     0
100
AcDbLine
 10
3182.683506985832
 20
200.852749128801
 30
0.0
 11
3182.805569648602
 21
195.985674966836
 31
0.0
  0
LINE
  5
311
330
36
100
AcDbEntity
  8
2-0
  6
Continuous
 62
     0
100
AcDbLine
 10
3182.805569648602
 20
195.985674966836
 30
0.0
 11
3183.251592476321
 21
191.137544004407
 31
0.0
  0
LINE
  5
312
330
36
100
AcDbEntity
  8
2-0
  6
Continuous
 62
     0
100
AcDbLine
 10
3183.251592476321
 20
191.137544004407
 30
0.0
 11
3184.019593879394
 21
186.329895510955
 31
0.0
  0
LINE
  5
313
330
36
100
AcDbEntity
  8
2-0
  6
Continuous
 62
     0
100
AcDbLine
 10
3184.019593879394
 20
186.329895510955
 30
0.0
 11
3185.106161782266
 21
181.584088900466
 31
0.0
  0
LINE
  5
314
330
36
100
AcDbEntity
  8
2-0
  6
Continuous
 62
     0
100
AcDbLine
 10
3185.106161782266
 20
181.584088900466
 30
0.0
 11
3186.506468782579
 21
176.921208835894
 31
0.0
  0
LINE
  5
315
330
36
100
AcDbEntity
  8
2-0
  6
Continuous
 62
     0
100
AcDbLine
 10
3186.506468782579
 20
176.921208835894
 30
0.0
 11
3188.214293598359
 21
172.3619715542509
 31
0.0
  0
LINE
  5
316
330
36
100
AcDbEntity
  8
2-0
  6
Continuous
 62
     0
100
AcDbLine
 10
3188.214293598359
 20
172.3619715542509
 30
0.0
 11
3190.222048707907
 21
167.92663282854
 31
0.0
  0
LINE
  5
317
330
36
100
AcDbEntity
  8
2-0
  6
Continuous
 62
     0
100
AcDbLine
 10
3190.222048707907
 20
167.92663282854
 30
0.0
 11
3192.520814059638
 21
163.63489797543
 31
0.0
  0
LINE
  5
318
330
36
100
AcDbEntity
  8
2-0
  6
Continuous
 62
     0
100
AcDbLine
 10
3192.520814059638
 20
163.63489797543
 30
0.0
 11
3195.100376702072
 21
159.505834308511
 31
0.0
  0
LINE
  5
319
330
36
100
AcDbEntity
  8
2-0
  6
Continuous
 62
     0
100
AcDbLine
 10
3195.100376702072
 20
159.505834308511
 30
0.0
 11
3197.949276157916
 21
155.55778642605
 31
0.0
  0
LINE
  5
31A
330
36
100
AcDbEntity
  8
2-0
  6
Continuous
 62
     0
100
AcDbLine
 10
3197.949276157916
 20
155.55778642605
 30
0.0
 11
3201.054855340665
 21
151.808294709644
 31
0.0
  0
LINE
  5
31B
330
36
100
AcDbEntity
  8
2-0
  6
Continuous
 62
     0
100
AcDbLine
 10
3201.054855340665
 20
151.808294709644
 30
0.0
 11
3204.403316787479
 21
148.274017395834
 31
0.0
  0
LINE
  5
31C
330
36
100
AcDbEntity
  8
2-0
  6
Continuous
 62
     0
100
AcDbLine
 10
3204.403316787479
 20
148.274017395834
 30
0.0
 11
3207.979783958538
 21
144.970656566912
 31
0.0
  0
LINE
  5
31D
330
36
100
AcDbEntity
  8
2-0
  6
Continuous
 62
     0
100
AcDbLine
 10
3207.979783958538
 20
144.970656566912
 30
0.0
 11
3211.76836733051
 21
141.912888389738
 31
0.0
  0
LINE
  5
31E
330
36
100
AcDbEntity
  8
2-0
  6
Continuous
 62
     0
100
AcDbLine
 10
3211.76836733051
 20
141.912888389738
 30
0.0
 11
3215.752234990502
 21
139.114297912481
 31
0.0
  0
LINE
  5
31F
330
36
100
AcDbEntity
  8
2-0
  6
Continuous
 62
     0
100
AcDbLine
 10
3215.752234990502
 20
139.114297912481
 30
0.0
 11
3219.913687416859
 21
136.58731870899
 31
0.0
  0
LINE
  5
320
330
36
100
AcDbEntity
  8
2-0
  6
Continuous
 62
     0
100
AcDbLine
 10
3219.913687416859
 20
136.58731870899
 30
0.0
 11
3224.234236114579
 21
134.343177638926
 31
0.0
  0
LINE
  5
321
330
36
100
AcDbEntity
  8
2-0
  6
Continuous
 62
     0
100
AcDbLine
 10
3224.234236114579
 20
134.343177638926
 30
0.0
 11
3228.694685755965
 21
132.391844969088
 31
0.0
  0
LINE
  5
322
330
36
100
AcDbEntity
  8
2-0
  6
Continuous
 62
     0
100
AcDbLine
 10
3228.694685755965
 20
132.391844969088
 30
0.0
 11
3233.275219461605
 21
130.741990077526
 31
0.0
  0
LINE
  5
323
330
36
100
AcDbEntity
  8
2-0
  6
Continuous
 62
     0
100
AcDbLine
 10
3233.275219461605
 20
130.741990077526
 30
0.0
 11
3237.955486842775
 21
129.400942937238
 31
0.0
  0
LINE
  5
324
330
36
100
AcDbEntity
  8
2-0
  6
Continuous
 62
     0
100
AcDbLine
 10
3237.955486842775
 20
129.400942937238
 30
0.0
 11
3242.714694414117
 21
128.37466155058
 31
0.0
  0
LINE
  5
325
330
36
100
AcDbEntity
  8
2-0
  6
Continuous
 62
     0
100
AcDbLine
 10
3242.714694414117
 20
128.37466155058
 30
0.0
 11
3247.531697974906
 21
127.667705479056
 31
0.0
  0
LINE
  5
326
330
36
100
AcDbEntity
  8
2-0
  6
Continuous
 62
     0
100
AcDbLine
 10
3247.531697974906
 20
127.667705479056
 30
0.0
 11
3252.385096548478
 21
127.283215586109
 31
0.0
  0
LINE
  5
327
330
36
100
AcDbEntity
  8
2-0
  6
Continuous
 62
     0
100
AcDbLine
 10
3252.385096548478
 20
127.283215586109
 30
0.0
 11
3257.253327462455
 21
127.222900082898
 31
0.0
  0
LINE
  5
328
330
36
100
AcDbEntity
  8
2-0
  6
Continuous
 62
     0
100
AcDbLine
 10
3257.253327462455
 20
127.222900082898
 30
0.0
 11
3262.114762147358
 21
127.487026939054
 31
0.0
  0
LINE
  5
329
330
36
100
AcDbEntity
  8
2-0
  6
Continuous
 62
     0
100
AcDbLine
 10
3262.114762147358
 20
127.487026939054
 30
0.0
 11
3266.947802227985
 21
128.074422692153
 31
0.0
  0
LINE
  5
32A
330
36
100
AcDbEntity
  8
2-0
  6
Continuous
 62
     0
100
AcDbLine
 10
3266.947802227985
 20
128.074422692153
 30
0.0
 11
3271.730975480647
 21
128.982477661165
 31
0.0
  0
LINE
  5
32B
330
36
100
AcDbEntity
  8
2-0
  6
Continuous
 62
     0
100
AcDbLine
 10
3271.730975480647
 20
128.982477661165
 30
0.0
 11
3276.443031229921
 21
130.207157540747
 31
0.0
  0
LINE
  5
32C
330
36
100
AcDbEntity
  8
2-0
  6
Continuous
 62
     0
100
AcDbLine
 10
3276.443031229921
 20
130.207157540747
 30
0.0
 11
3281.063034761132
 21
131.743021324849
 31
0.0
  0
LINE
  5
32D
330
36
100
AcDbEntity
  8
2-0
  6
Continuous
 62
     0
100
AcDbLine
 10
3281.063034761132
 20
131.743021324849
 30
0.0
 11
3285.57046032907
 21
133.583245480003
 31
0.0
  0
LINE
  5
32E
330
36
100
AcDbEntity
  8
2-0
  6
Continuous
 62
     0
100
AcDbLine
 10
3285.57046032907
 20
133.583245480003
 30
0.0
 11
3289.945282349744
 21
135.719654260914
 31
0.0
  0
LINE
  5
32F
330
36
100
AcDbEntity
  8
2-0
  6
Continuous
 62
     0
100
AcDbLine
 10
3289.945282349744
 20
135.719654260914
 30
0.0
 11
3294.168064370012
 21
138.142756033645
 31
0.0
  0
LINE
  5
330
330
36
100
AcDbEntity
  8
2-0
  6
Continuous
 62
     0
100
AcDbLine
 10
3294.168064370012
 20
138.142756033645
 30
0.0
 11
3298.220045419839
 21
140.841785445038
 31
0.0
  0
LINE
  5
331
330
36
100
AcDbEntity
  8
2-0
  6
Continuous
 62
     0
100
AcDbLine
 10
3298.220045419839
 20
140.841785445038
 30
0.0
 11
3302.083223363496
 21
143.80475125101
 31
0.0
  0
LINE
  5
332
330
36
100
AcDbEntity
  8
2-0
  6
Continuous
 62
     0
100
AcDbLine
 10
3302.083223363496
 20
143.80475125101
 30
0.0
 11
3305.740434879433
 21
147.018489591232
 31
0.0
  0
LINE
  5
333
330
36
100
AcDbEntity
  8
2-0
  6
Continuous
 62
     0
100
AcDbLine
 10
3305.740434879433
 20
147.018489591232
 30
0.0
 11
3309.175431713456
 21
150.468722473512
 31
0.0
  0
LINE
  5
334
330
36
100
AcDbEntity
  8
2-0
  6
Continuous
 62
     0
100
AcDbLine
 10
3309.175431713456
 20
150.468722473512
 30
0.0
 11
3312.372952866447
 21
154.14012120804
 31
0.0
  0
LINE
  5
335
330
36
100
AcDbEntity
  8
2-0
  6
Continuous
 62
     0
100
AcDbLine
 10
3312.372952866447
 20
154.14012120804
 30
0.0
 11
3315.318792395912
 21
158.016374509665
 31
0.0
  0
LINE
  5
336
330
36
100
AcDbEntity
  8
2-0
  6
Continuous
 62
     0
100
AcDbLine
 10
3315.318792395912
 20
158.016374509665
 30
0.0
 11
3317.999862530117
 21
162.080260965655
 31
0.0
  0
LINE
  5
337
330
36
100
AcDbEntity
  8
2-0
  6
Continuous
 62
     0
100
AcDbLine
 10
3317.999862530117
 20
162.080260965655
 30
0.0
 11
3320.404251814433
 21
166.313725546962
 31
0.0
  0
LINE
  5
338
330
36
100
AcDbEntity
  8
2-0
  6
Continuous
 62
     0
100
AcDbLine
 10
3320.404251814433
 20
166.313725546962
 30
0.0
 11
3322.521278031519
 21
170.69795982308
 31
0.0
  0
LINE
  5
339
330
36
100
AcDbEntity
  8
2-0
  6
Continuous
 62
     0
100
AcDbLine
 10
3322.521278031519
 20
170.69795982308
 30
0.0
 11
3324.341535660264
 21
175.213485524115
 31
0.0
  0
LINE
  5
33A
330
36
100
AcDbEntity
  8
2-0
  6
Continuous
 62
     0
100
AcDbLine
 10
3324.341535660264
 20
175.213485524115
 30
0.0
 11
3325.856937662629
 21
179.840241078814
 31
0.0
  0
LINE
  5
33B
330
36
100
AcDbEntity
  8
2-0
  6
Continuous
 62
     0
100
AcDbLine
 10
3325.856937662629
 20
179.840241078814
 30
0.0
 11
3327.060751412722
 21
184.5576707440869
 31
0.0
  0
LINE
  5
33C
330
36
100
AcDbEntity
  8
2-0
  6
Continuous
 62
     0
100
AcDbLine
 10
3327.060751412722
 20
184.5576707440869
 30
0.0
 11
3327.947628608503
 21
189.344815930032
 31
0.0
  0
LINE
  5
33D
330
36
100
AcDbEntity
  8
2-0
  6
Continuous
 62
     0
100
AcDbLine
 10
3327.947628608503
 20
189.344815930032
 30
0.0
 11
3328.51362903321
 21
194.18040831473
 31
0.0
  0
LINE
  5
33E
330
36
100
AcDbEntity
  8
2-0
  6
Continuous
 62
     0
100
AcDbLine
 10
3328.51362903321
 20
194.18040831473
 30
0.0
 11
3328.75623806095
 21
199.042964335113
 31
0.0
  0
LINE
  5
33F
330
36
100
AcDbEntity
  8
2-0
  6
Continuous
 62
     0
100
AcDbLine
 10
3328.75623806095
 20
199.042964335113
 30
0.0
 11
3328.766203235719
 21
200.249473813233
 31
0.0
  0
LINE
  5
340
330
36
100
AcDbEntity
  8
2-0
  6
Continuous
 62
     0
100
AcDbLine
 10
3328.349189914529
 20
200.249473813233
 30
0.0
 11
3328.187859500989
 21
205.087593526507
 31
0.0
  0
LINE
  5
341
330
36
100
AcDbEntity
  8
2-0
  6
Continuous
 62
     0
100
AcDbLine
 10
3328.187859500989
 20
205.087593526507
 30
0.0
 11
3327.704585018901
 21
209.904218448304
 31
0.0
  0
LINE
  5
342
330
36
100
AcDbEntity
  8
2-0
  6
Continuous
 62
     0
100
AcDbLine
 10
3327.704585018901
 20
209.904218448304
 30
0.0
 11
3326.901513559459
 21
214.677949284174
 31
0.0
  0
LINE
  5
343
330
36
100
AcDbEntity
  8
2-0
  6
Continuous
 62
     0
100
AcDbLine
 10
3326.901513559459
 20
214.677949284174
 30
0.0
 11
3325.782213007416
 21
219.387577309454
 31
0.0
  0
LINE
  5
344
330
36
100
AcDbEntity
  8
2-0
  6
Continuous
 62
     0
100
AcDbLine
 10
3325.782213007416
 20
219.387577309454
 30
0.0
 11
3324.351656189694
 21
224.012178595357
 31
0.0
  0
LINE
  5
345
330
36
100
AcDbEntity
  8
2-0
  6
Continuous
 62
     0
100
AcDbLine
 10
3324.351656189694
 20
224.012178595357
 30
0.0
 11
3322.616198782118
 21
228.531206969776
 31
0.0
  0
LINE
  5
346
330
36
100
AcDbEntity
  8
2-0
  6
Continuous
 62
     0
100
AcDbLine
 10
3322.616198782118
 20
228.531206969776
 30
0.0
 11
3320.583551072425
 21
232.924585299785
 31
0.0
  0
LINE
  5
347
330
36
100
AcDbEntity
  8
2-0
  6
Continuous
 62
     0
100
AcDbLine
 10
3320.583551072425
 20
232.924585299785
 30
0.0
 11
3318.262743705009
 21
237.172794690299
 31
0.0
  0
LINE
  5
348
330
36
100
AcDbEntity
  8
2-0
  6
Continuous
 62
     0
100
AcDbLine
 10
3318.262743705009
 20
237.172794690299
 30
0.0
 11
3315.664087559587
 21
241.256961202597
 31
0.0
  0
LINE
  5
349
330
36
100
AcDbEntity
  8
2-0
  6
Continuous
 62
     0
100
AcDbLine
 10
3315.664087559587
 20
241.256961202597
 30
0.0
 11
3312.799127942039
 21
245.158939707423
 31
0.0
  0
LINE
  5
34A
330
36
100
AcDbEntity
  8
2-0
  6
Continuous
 62
     0
100
AcDbLine
 10
3312.799127942039
 20
245.158939707423
 30
0.0
 11
3309.680593290936
 21
248.861394500149
 31
0.0
  0
LINE
  5
34B
330
36
100
AcDbEntity
  8
2-0
  6
Continuous
 62
     0
100
AcDbLine
 10
3309.680593290936
 20
248.861394500149
 30
0.0
 11
3306.322338627651
 21
252.347876319813
 31
0.0
  0
LINE
  5
34C
330
36
100
AcDbEntity
  8
2-0
  6
Continuous
 62
     0
100
AcDbLine
 10
3306.322338627651
 20
252.347876319813
 30
0.0
 11
3302.739284001297
 21
255.602895429875
 31
0.0
  0
LINE
  5
34D
330
36
100
AcDbEntity
  8
2-0
  6
Continuous
 62
     0
100
AcDbLine
 10
3302.739284001297
 20
255.602895429875
 30
0.0
 11
3298.94734820194
 21
258.611990435998
 31
0.0
  0
LINE
  5
34E
330
36
100
AcDbEntity
  8
2-0
  6
Continuous
 62
     0
100
AcDbLine
 10
3298.94734820194
 20
258.611990435998
 30
0.0
 11
3294.963378036636
 21
261.361792535108
 31
0.0
  0
LINE
  5
34F
330
36
100
AcDbEntity
  8
2-0
  6
Continuous
 62
     0
100
AcDbLine
 10
3294.963378036636
 20
261.361792535108
 30
0.0
 11
3290.805073482444
 21
263.840084910295
 31
0.0
  0
LINE
  5
350
330
36
100
AcDbEntity
  8
2-0
  6
Continuous
 62
     0
100
AcDbLine
 10
3290.805073482444
 20
263.840084910295
 30
0.0
 11
3286.49090904901
 21
266.035857007669
 31
0.0
  0
LINE
  5
351
330
36
100
AcDbEntity
  8
2-0
  6
Continuous
 62
     0
100
AcDbLine
 10
3286.49090904901
 20
266.035857007669
 30
0.0
 11
3282.040051700028
 21
267.939353454036
 31
0.0
  0
LINE
  5
352
330
36
100
AcDbEntity
  8
2-0
  6
Continuous
 62
     0
100
AcDbLine
 10
3282.040051700028
 20
267.939353454036
 30
0.0
 11
3277.472275698287
 21
269.542117398052
 31
0.0
  0
LINE
  5
353
330
36
100
AcDbEntity
  8
2-0
  6
Continuous
 62
     0
100
AcDbLine
 10
3277.472275698287
 20
269.542117398052
 30
0.0
 11
3272.807874752603
 21
270.837028082315
 31
0.0
  0
LINE
  5
354
330
36
100
AcDbEntity
  8
2-0
  6
Continuous
 62
     0
100
AcDbLine
 10
3272.807874752603
 20
270.837028082315
 30
0.0
 11
3268.067571856956
 21
271.818332479452
 31
0.0
  0
LINE
  5
355
330
36
100
AcDbEntity
  8
2-0
  6
Continuous
 62
     0
100
AcDbLine
 10
3268.067571856956
 20
271.818332479452
 30
0.0
 11
3263.272427222406
 21
272.4816708516641
 31
0.0
  0
LINE
  5
356
330
36
100
AcDbEntity
  8
2-0
  6
Continuous
 62
     0
100
AcDbLine
 10
3263.272427222406
 20
272.4816708516641
 30
0.0
 11
3258.443744710807
 21
272.824096120161
 31
0.0
  0
LINE
  5
357
330
36
100
AcDbEntity
  8
2-0
  6
Continuous
 62
     0
100
AcDbLine
 10
3258.443744710807
 20
272.824096120161
 30
0.0
 11
3253.602977186054
 21
272.84408695844
 31
0.0
  0
LINE
  5
358
330
36
100
AcDbEntity
  8
2-0
  6
Continuous
 62
     0
100
AcDbLine
 10
3253.602977186054
 20
272.84408695844
 30
0.0
 11
3248.771631203318
 21
272.541554551233
 31
0.0
  0
LINE
  5
359
330
36
100
AcDbEntity
  8
2-0
  6
Continuous
 62
     0
100
AcDbLine
 10
3248.771631203318
 20
272.541554551233
 30
0.0
 11
3243.971171459754
 21
271.917842989094
 31
0.0
  0
LINE
  5
35A
330
36
100
AcDbEntity
  8
2-0
  6
Continuous
 62
     0
100
AcDbLine
 10
3243.971171459754
 20
271.917842989094
 30
0.0
 11
3239.222925431182
 21
270.975723296877
 31
0.0
  0
LINE
  5
35B
330
36
100
AcDbEntity
  8
2-0
  6
Continuous
 62
     0
100
AcDbLine
 10
3239.222925431182
 20
270.975723296877
 30
0.0
 11
3234.547988618398
 21
269.71938112263
 31
0.0
  0
LINE
  5
35C
330
36
100
AcDbEntity
  8
2-0
  6
Continuous
 62
     0
100
AcDbLine
 10
3234.547988618398
 20
269.71938112263
 30
0.0
 11
3229.967130824118
 21
268.154398141603
 31
0.0
  0
LINE
  5
35D
330
36
100
AcDbEntity
  8
2-0
  6
Continuous
 62
     0
100
AcDbLine
 10
3229.967130824118
 20
268.154398141603
 30
0.0
 11
3225.500703876928
 21
266.287727257989
 31
0.0
  0
LINE
  5
35E
330
36
100
AcDbEntity
  8
2-0
  6
Continuous
 62
     0
100
AcDbLine
 10
3225.500703876928
 20
266.287727257989
 30
0.0
 11
3221.168551212206
 21
264.127661714572
 31
0.0
  0
LINE
  5
35F
330
36
100
AcDbEntity
  8
2-0
  6
Continuous
 62
     0
100
AcDbLine
 10
3221.168551212206
 20
264.127661714572
 30
0.0
 11
3216.989919711736
 21
261.68379824752
 31
0.0
  0
LINE
  5
360
330
36
100
AcDbEntity
  8
2-0
  6
Continuous
 62
     0
100
AcDbLine
 10
3216.989919711736
 20
261.68379824752
 30
0.0
 11
3212.983374193688
 21
258.966994450017
 31
0.0
  0
LINE
  5
361
330
36
100
AcDbEntity
  8
2-0
  6
Continuous
 62
     0
100
AcDbLine
 10
3212.983374193688
 20
258.966994450017
 30
0.0
 11
3209.166714932872
 21
255.989320534165
 31
0.0
  0
LINE
  5
362
330
36
100
AcDbEntity
  8
2-0
  6
Continuous
 62
     0
100
AcDbLine
 10
3209.166714932872
 20
255.989320534165
 30
0.0
 11
3205.556898577701
 21
252.764005705463
 31
0.0
  0
LINE
  5
363
330
36
100
AcDbEntity
  8
2-0
  6
Continuous
 62
     0
100
AcDbLine
 10
3205.556898577701
 20
252.764005705463
 30
0.0
 11
3202.169962815214
 21
249.305379388108
 31
0.0
  0
LINE
  5
364
330
36
100
AcDbEntity
  8
2-0
  6
Continuous
 62
     0
100
AcDbLine
 10
3202.169962815214
 20
249.305379388108
 30
0.0
 11
3199.020955118868
 21
245.628807562253
 31
0.0
  0
LINE
  5
365
330
36
100
AcDbEntity
  8
2-0
  6
Continuous
 62
     0
100
AcDbLine
 10
3199.020955118868
 20
245.628807562253
 30
0.0
 11
3196.123865895641
 21
241.750624496052
 31
0.0
  0
LINE
  5
366
330
36
100
AcDbEntity
  8
2-0
  6
Continuous
 62
     0
100
AcDbLine
 10
3196.123865895641
 20
241.750624496052
 30
0.0
 11
3193.491566329472
 21
237.688060175791
 31
0.0
  0
LINE
  5
367
330
36
100
AcDbEntity
  8
2-0
  6
Continuous
 62
     0
100
AcDbLine
 10
3193.491566329472
 20
237.688060175791
 30
0.0
 11
3191.135751197181
 21
233.459163756537
 31
0.0
  0
LINE
  5
368
330
36
100
AcDbEntity
  8
2-0
  6
Continuous
 62
     0
100
AcDbLine
 10
3191.135751197181
 20
233.459163756537
 30
0.0
 11
3189.066886910937
 21
229.08272337337
 31
0.0
  0
LINE
  5
369
330
36
100
AcDbEntity
  8
2-0
  6
Continuous
 62
     0
100
AcDbLine
 10
3189.066886910937
 20
229.08272337337
 30
0.0
 11
3187.294165018086
 21
224.578182669489
 31
0.0
  0
LINE
  5
36A
330
36
100
AcDbEntity
  8
2-0
  6
Continuous
 62
     0
100
AcDbLine
 10
3187.294165018086
 20
224.578182669489
 30
0.0
 11
3185.825461364971
 21
219.965554412017
 31
0.0
  0
LINE
  5
36B
330
36
100
AcDbEntity
  8
2-0
  6
Continuous
 62
     0
100
AcDbLine
 10
3185.825461364971
 20
219.965554412017
 30
0.0
 11
3184.66730110612
 21
215.265331579307
 31
0.0
  0
LINE
  5
36C
330
36
100
AcDbEntity
  8
2-0
  6
Continuous
 62
     0
100
AcDbLine
 10
3184.66730110612
 20
215.265331579307
 30
0.0
 11
3183.824829714309
 21
210.49839631477
 31
0.0
  0
LINE
  5
36D
330
36
100
AcDbEntity
  8
2-0
  6
Continuous
 62
     0
100
AcDbLine
 10
3183.824829714309
 20
210.49839631477
 30
0.0
 11
3183.301790120256
 21
205.685927151714
 31
0.0
  0
LINE
  5
36E
330
36
100
AcDbEntity
  8
2-0
  6
Continuous
 62
     0
100
AcDbLine
 10
3183.301790120256
 20
205.685927151714
 30
0.0
 11
3183.100506083536
 21
200.849304921389
 31
0.0
  0
LINE
  5
36F
330
36
100
AcDbEntity
  8
2-0
  6
Continuous
 62
     0
100
AcDbLine
 10
3183.100506083536
 20
200.849304921389
 30
0.0
 11
3183.221871868583
 21
196.010017762259
 31
0.0
  0
LINE
  5
370
330
36
100
AcDbEntity
  8
2-0
  6
Continuous
 62
     0
100
AcDbLine
 10
3183.221871868583
 20
196.010017762259
 30
0.0
 11
3183.66534827166
 21
191.189565652526
 31
0.0
  0
LINE
  5
371
330
36
100
AcDbEntity
  8
2-0
  6
Continuous
 62
     0
100
AcDbLine
 10
3183.66534827166
 20
191.189565652526
 30
0.0
 11
3184.428965016425
 21
186.409364890066
 31
0.0
  0
LINE
  5
372
330
36
100
AcDbEntity
  8
2-0
  6
Continuous
 62
     0
100
AcDbLine
 10
3184.428965016425
 20
186.409364890066
 30
0.0
 11
3185.509329507474
 21
181.690652944123
 31
0.0
  0
LINE
  5
373
330
36
100
AcDbEntity
  8
2-0
  6
Continuous
 62
     0
100
AcDbLine
 10
3185.509329507474
 20
181.690652944123
 30
0.0
 11
3186.901641902961
 21
177.054394101513
 31
0.0
  0
LINE
  5
374
330
36
100
AcDbEntity
  8
2-0
  6
Continuous
 62
     0
100
AcDbLine
 10
3186.901641902961
 20
177.054394101513
 30
0.0
 11
3188.59971643933
 21
172.521186326521
 31
0.0
  0
LINE
  5
375
330
36
100
AcDbEntity
  8
2-0
  6
Continuous
 62
     0
100
AcDbLine
 10
3188.59971643933
 20
172.521186326521
 30
0.0
 11
3190.596008913408
 21
168.111169748293
 31
0.0
  0
LINE
  5
376
330
36
100
AcDbEntity
  8
2-0
  6
Continuous
 62
     0
100
AcDbLine
 10
3190.596008913408
 20
168.111169748293
 30
0.0
 11
3192.881650199793
 21
163.843937182298
 31
0.0
  0
LINE
  5
377
330
36
100
AcDbEntity
  8
2-0
  6
Continuous
 62
     0
100
AcDbLine
 10
3192.881650199793
 20
163.843937182298
 30
0.0
 11
3195.446485654584
 21
159.738447083399
 31
0.0
  0
LINE
  5
378
330
36
100
AcDbEntity
  8
2-0
  6
Continuous
 62
     0
100
AcDbLine
 10
3195.446485654584
 20
159.738447083399
 30
0.0
 11
3198.279120230416
 21
155.812939317248
 31
0.0
  0
LINE
  5
379
330
36
100
AcDbEntity
  8
2-0
  6
Continuous
 62
     0
100
AcDbLine
 10
3198.279120230416
 20
155.812939317248
 30
0.0
 11
3201.366969102369
 21
152.084854124245
 31
0.0
  0
LINE
  5
37A
330
36
100
AcDbEntity
  8
2-0
  6
Continuous
 62
     0
100
AcDbLine
 10
3201.366969102369
 20
152.084854124245
 30
0.0
 11
3204.696313579806
 21
148.570754636058
 31
0.0
  0
LINE
  5
37B
330
36
100
AcDbEntity
  8
2-0
  6
Continuous
 62
     0
100
AcDbLine
 10
3204.696313579806
 20
148.570754636058
 30
0.0
 11
3208.252362055749
 21
145.286253288965
 31
0.0
  0
LINE
  5
37C
330
36
100
AcDbEntity
  8
2-0
  6
Continuous
 62
     0
100
AcDbLine
 10
3208.252362055749
 20
145.286253288965
 30
0.0
 11
3212.019315723017
 21
142.245942460946
 31
0.0
  0
LINE
  5
37D
330
36
100
AcDbEntity
  8
2-0
  6
Continuous
 62
     0
100
AcDbLine
 10
3212.019315723017
 20
142.245942460946
 30
0.0
 11
3215.980438765138
 21
139.463329640683
 31
0.0
  0
LINE
  5
37E
330
36
100
AcDbEntity
  8
2-0
  6
Continuous
 62
     0
100
AcDbLine
 10
3215.980438765138
 20
139.463329640683
 30
0.0
 11
3220.118132710215
 21
136.950777416513
 31
0.0
  0
LINE
  5
37F
330
36
100
AcDbEntity
  8
2-0
  6
Continuous
 62
     0
100
AcDbLine
 10
3220.118132710215
 20
136.950777416513
 30
0.0
 11
3224.414014617392
 21
134.719448551934
 31
0.0
  0
LINE
  5
380
330
36
100
AcDbEntity
  8
2-0
  6
Continuous
 62
     0
100
AcDbLine
 10
3224.414014617392
 20
134.719448551934
 30
0.0
 11
3228.848998748556
 21
132.779256391696
 31
0.0
  0
LINE
  5
381
330
36
100
AcDbEntity
  8
2-0
  6
Continuous
 62
     0
100
AcDbLine
 10
3228.848998748556
 20
132.779256391696
 30
0.0
 11
3233.403381362426
 21
131.13882081881
 31
0.0
  0
LINE
  5
382
330
36
100
AcDbEntity
  8
2-0
  6
Continuous
 62
     0
100
AcDbLine
 10
3233.403381362426
 20
131.13882081881
 30
0.0
 11
3238.056928254313
 21
129.8054299581369
 31
0.0
  0
LINE
  5
383
330
36
100
AcDbEntity
  8
2-0
  6
Continuous
 62
     0
100
AcDbLine
 10
3238.056928254313
 20
129.8054299581369
 30
0.0
 11
3242.788964652611
 21
128.785007796724
 31
0.0
  0
LINE
  5
384
330
36
100
AcDbEntity
  8
2-0
  6
Continuous
 62
     0
100
AcDbLine
 10
3242.788964652611
 20
128.785007796724
 30
0.0
 11
3247.578467072643
 21
128.082087864718
 31
0.0
  0
LINE
  5
385
330
36
100
AcDbEntity
  8
2-0
  6
Continuous
 62
     0
100
AcDbLine
 10
3247.578467072643
 20
128.082087864718
 30
0.0
 11
3252.404156719778
 21
127.699793093807
 31
0.0
  0
LINE
  5
386
330
36
100
AcDbEntity
  8
2-0
  6
Continuous
 62
     0
100
AcDbLine
 10
3252.404156719778
 20
127.699793093807
 30
0.0
 11
3257.244594026814
 21
127.639821942665
 31
0.0
  0
LINE
  5
387
330
36
100
AcDbEntity
  8
2-0
  6
Continuous
 62
     0
100
AcDbLine
 10
3257.244594026814
 20
127.639821942665
 30
0.0
 11
3262.078273905672
 21
127.902440851037
 31
0.0
  0
LINE
  5
388
330
36
100
AcDbEntity
  8
2-0
  6
Continuous
 62
     0
100
AcDbLine
 10
3262.078273905672
 20
127.902440851037
 30
0.0
 11
3266.883721290165
 21
128.486483056005
 31
0.0
  0
LINE
  5
389
330
36
100
AcDbEntity
  8
2-0
  6
Continuous
 62
     0
100
AcDbLine
 10
3266.883721290165
 20
128.486483056005
 30
0.0
 11
3271.639586545392
 21
129.38935377568
 31
0.0
  0
LINE
  5
38A
330
36
100
AcDbEntity
  8
2-0
  6
Continuous
 62
     0
100
AcDbLine
 10
3271.639586545392
 20
129.38935377568
 30
0.0
 11
3276.324740319864
 21
130.607041737294
 31
0.0
  0
LINE
  5
38B
330
36
100
AcDbEntity
  8
2-0
  6
Continuous
 62
     0
100
AcDbLine
 10
3276.324740319864
 20
130.607041737294
 30
0.0
 11
3280.918367418965
 21
132.13413699848
 31
0.0
  0
LINE
  5
38C
330
36
100
AcDbEntity
  8
2-0
  6
Continuous
 62
     0
100
AcDbLine
 10
3280.918367418965
 20
132.13413699848
 30
0.0
 11
3285.400059282655
 21
133.963854982552
 31
0.0
  0
LINE
  5
38D
330
36
100
AcDbEntity
  8
2-0
  6
Continuous
 62
     0
100
AcDbLine
 10
3285.400059282655
 20
133.963854982552
 30
0.0
 11
3289.749904656611
 21
136.088066621016
 31
0.0
  0
LINE
  5
38E
330
36
100
AcDbEntity
  8
2-0
  6
Continuous
 62
     0
100
AcDbLine
 10
3289.749904656611
 20
136.088066621016
 30
0.0
 11
3293.948578053904
 21
138.497334469384
 31
0.0
  0
LINE
  5
38F
330
36
100
AcDbEntity
  8
2-0
  6
Continuous
 62
     0
100
AcDbLine
 10
3293.948578053904
 20
138.497334469384
 30
0.0
 11
3297.977425614252
 21
141.180954635837
 31
0.0
  0
LINE
  5
390
330
36
100
AcDbEntity
  8
2-0
  6
Continuous
 62
     0
100
AcDbLine
 10
3297.977425614252
 20
141.180954635837
 30
0.0
 11
3301.818547979363
 21
144.127004336463
 31
0.0
  0
LINE
  5
391
330
36
100
AcDbEntity
  8
2-0
  6
Continuous
 62
     0
100
AcDbLine
 10
3301.818547979363
 20
144.127004336463
 30
0.0
 11
3305.45487981618
 21
147.322394865783
 31
0.0
  0
LINE
  5
392
330
36
100
AcDbEntity
  8
2-0
  6
Continuous
 62
     0
100
AcDbLine
 10
3305.45487981618
 20
147.322394865783
 30
0.0
 11
3308.870265634717
 21
150.752929747234
 31
0.0
  0
LINE
  5
393
330
36
100
AcDbEntity
  8
2-0
  6
Continuous
 62
     0
100
AcDbLine
 10
3308.870265634717
 20
150.752929747234
 30
0.0
 11
3312.049531563648
 21
154.403367805255
 31
0.0
  0
LINE
  5
394
330
36
100
AcDbEntity
  8
2-0
  6
Continuous
 62
     0
100
AcDbLine
 10
3312.049531563648
 20
154.403367805255
 30
0.0
 11
3314.978552764763
 21
158.257490878761
 31
0.0
  0
LINE
  5
395
330
36
100
AcDbEntity
  8
2-0
  6
Continuous
 62
     0
100
AcDbLine
 10
3314.978552764763
 20
158.257490878761
 30
0.0
 11
3317.644316186777
 21
162.298175875165
 31
0.0
  0
LINE
  5
396
330
36
100
AcDbEntity
  8
2-0
  6
Continuous
 62
     0
100
AcDbLine
 10
3317.644316186777
 20
162.298175875165
 30
0.0
 11
3320.034978379695
 21
166.507470844832
 31
0.0
  0
LINE
  5
397
330
36
100
AcDbEntity
  8
2-0
  6
Continuous
 62
     0
100
AcDbLine
 10
3320.034978379695
 20
166.507470844832
 30
0.0
 11
3322.139918112881
 21
170.866674737971
 31
0.0
  0
LINE
  5
398
330
36
100
AcDbEntity
  8
2-0
  6
Continuous
 62
     0
100
AcDbLine
 10
3322.139918112881
 20
170.866674737971
 30
0.0
 11
3323.949783563039
 21
175.356420489641
 31
0.0
  0
LINE
  5
399
330
36
100
AcDbEntity
  8
2-0
  6
Continuous
 62
     0
100
AcDbLine
 10
3323.949783563039
 20
175.356420489641
 30
0.0
 11
3325.456533862485
 21
179.95676106371
 31
0.0
  0
LINE
  5
39A
330
36
100
AcDbEntity
  8
2-0
  6
Continuous
 62
     0
100
AcDbLine
 10
3325.456533862485
 20
179.95676106371
 30
0.0
 11
3326.653474823101
 21
184.6472580735279
 31
0.0
  0
LINE
  5
39B
330
36
100
AcDbEntity
  8
2-0
  6
Continuous
 62
     0
100
AcDbLine
 10
3326.653474823101
 20
184.6472580735279
 30
0.0
 11
3327.535288677267
 21
189.407072585556
 31
0.0
  0
LINE
  5
39C
330
36
100
AcDbEntity
  8
2-0
  6
Continuous
 62
     0
100
AcDbLine
 10
3327.535288677267
 20
189.407072585556
 30
0.0
 11
3328.098057703625
 21
194.215057702554
 31
0.0
  0
LINE
  5
39D
330
36
100
AcDbEntity
  8
2-0
  6
Continuous
 62
     0
100
AcDbLine
 10
3328.098057703625
 20
194.215057702554
 30
0.0
 11
3328.339281632737
 21
199.049852514987
 31
0.0
  0
LINE
  5
39E
330
36
100
AcDbEntity
  8
2-0
  6
Continuous
 62
     0
100
AcDbLine
 10
3328.339281632737
 20
199.049852514987
 30
0.0
 11
3328.349189914529
 21
200.249473813233
 31
0.0
  0
LINE
  5
39F
330
36
100
AcDbEntity
  8
2-0
  6
Continuous
 62
     0
100
AcDbLine
 10
3327.932176593339
 20
200.249473813233
 30
0.0
 11
3327.771772532898
 21
205.059813227102
 31
0.0
  0
LINE
  5
3A0
330
36
100
AcDbEntity
  8
2-0
  6
Continuous
 62
     0
100
AcDbLine
 10
3327.771772532898
 20
205.059813227102
 30
0.0
 11
3327.291272994508
 21
209.84878127177
 31
0.0
  0
LINE
  5
3A1
330
36
100
AcDbEntity
  8
2-0
  6
Continuous
 62
     0
100
AcDbLine
 10
3327.291272994508
 20
209.84878127177
 30
0.0
 11
3326.492812740846
 21
214.59510152672
 31
0.0
  0
LINE
  5
3A2
330
36
100
AcDbEntity
  8
2-0
  6
Continuous
 62
     0
100
AcDbLine
 10
3326.492812740846
 20
214.59510152672
 30
0.0
 11
3325.379939170006
 21
219.277687046982
 31
0.0
  0
LINE
  5
3A3
330
36
100
AcDbEntity
  8
2-0
  6
Continuous
 62
     0
100
AcDbLine
 10
3325.379939170006
 20
219.277687046982
 30
0.0
 11
3323.957596555129
 21
223.875734048171
 31
0.0
  0
LINE
  5
3A4
330
36
100
AcDbEntity
  8
2-0
  6
Continuous
 62
     0
100
AcDbLine
 10
3323.957596555129
 20
223.875734048171
 30
0.0
 11
3322.23210407799
 21
228.368814333518
 31
0.0
  0
LINE
  5
3A5
330
36
100
AcDbEntity
  8
2-0
  6
Continuous
 62
     0
100
AcDbLine
 10
3322.23210407799
 20
228.368814333518
 30
0.0
 11
3320.211127754147
 21
232.736966052231
 31
0.0
  0
LINE
  5
3A6
330
36
100
AcDbEntity
  8
2-0
  6
Continuous
 62
     0
100
AcDbLine
 10
3320.211127754147
 20
232.736966052231
 30
0.0
 11
3317.903646374376
 21
236.960782385981
 31
0.0
  0
LINE
  5
3A7
330
36
100
AcDbEntity
  8
2-0
  6
Continuous
 62
     0
100
AcDbLine
 10
3317.903646374376
 20
236.960782385981
 30
0.0
 11
3315.319911613717
 21
241.021497769481
 31
0.0
  0
LINE
  5
3A8
330
36
100
AcDbEntity
  8
2-0
  6
Continuous
 62
     0
100
AcDbLine
 10
3315.319911613717
 20
241.021497769481
 30
0.0
 11
3312.471402485341
 21
244.901071262121
 31
0.0
  0
LINE
  5
3A9
330
36
100
AcDbEntity
  8
2-0
  6
Continuous
 62
     0
100
AcDbLine
 10
3312.471402485341
 20
244.901071262121
 30
0.0
 11
3309.370774341609
 21
248.582266700228
 31
0.0
  0
LINE
  5
3AA
330
36
100
AcDbEntity
  8
2-0
  6
Continuous
 62
     0
100
AcDbLine
 10
3309.370774341609
 20
248.582266700228
 30
0.0
 11
3306.031802648891
 21
252.048729273871
 31
0.0
  0
LINE
  5
3AB
330
36
100
AcDbEntity
  8
2-0
  6
Continuous
 62
     0
100
AcDbLine
 10
3306.031802648891
 20
252.048729273871
 30
0.0
 11
3302.469321785942
 21
255.285058187989
 31
0.0
  0
LINE
  5
3AC
330
36
100
AcDbEntity
  8
2-0
  6
Continuous
 62
     0
100
AcDbLine
 10
3302.469321785942
 20
255.285058187989
 30
0.0
 11
3298.699159137741
 21
258.276875085019
 31
0.0
  0
LINE
  5
3AD
330
36
100
AcDbEntity
  8
2-0
  6
Continuous
 62
     0
100
AcDbLine
 10
3298.699159137741
 20
258.276875085019
 30
0.0
 11
3294.738064777618
 21
261.010887925048
 31
0.0
  0
LINE
  5
3AE
330
36
100
AcDbEntity
  8
2-0
  6
Continuous
 62
     0
100
AcDbLine
 10
3294.738064777618
 20
261.010887925048
 30
0.0
 11
3290.603637050041
 21
263.474950039664
 31
0.0
  0
LINE
  5
3AF
330
36
100
AcDbEntity
  8
2-0
  6
Continuous
 62
     0
100
AcDbLine
 10
3290.603637050041
 20
263.474950039664
 30
0.0
 11
3286.31424438472
 21
265.658114097158
 31
0.0
  0
LINE
  5
3B0
330
36
100
AcDbEntity
  8
2-0
  6
Continuous
 62
     0
100
AcDbLine
 10
3286.31424438472
 20
265.658114097158
 30
0.0
 11
3281.888943689375
 21
267.550680739318
 31
0.0
  0
LINE
  5
3B1
330
36
100
AcDbEntity
  8
2-0
  6
Continuous
 62
     0
100
AcDbLine
 10
3281.888943689375
 20
267.550680739318
 30
0.0
 11
3277.347395683728
 21
269.1442416737189
 31
0.0
  0
LINE
  5
3B2
330
36
100
AcDbEntity
  8
2-0
  6
Continuous
 62
     0
100
AcDbLine
 10
3277.347395683728
 20
269.1442416737189
 30
0.0
 11
3272.709777550891
 21
270.431717030077
 31
0.0
  0
LINE
  5
3B3
330
36
100
AcDbEntity
  8
2-0
  6
Continuous
 62
     0
100
AcDbLine
 10
3272.709777550891
 20
270.431717030077
 30
0.0
 11
3267.996693294203
 21
271.407386814684
 31
0.0
  0
LINE
  5
3B4
330
36
100
AcDbEntity
  8
2-0
  6
Continuous
 62
     0
100
AcDbLine
 10
3267.996693294203
 20
271.407386814684
 30
0.0
 11
3263.229082197788
 21
272.066916323189
 31
0.0
  0
LINE
  5
3B5
330
36
100
AcDbEntity
  8
2-0
  6
Continuous
 62
     0
100
AcDbLine
 10
3263.229082197788
 20
272.066916323189
 30
0.0
 11
3258.428125797542
 21
272.407375398816
 31
0.0
  0
LINE
  5
3B6
330
36
100
AcDbEntity
  8
2-0
  6
Continuous
 62
     0
100
AcDbLine
 10
3258.428125797542
 20
272.407375398816
 30
0.0
 11
3253.615153775826
 21
272.427251450462
 31
0.0
  0
LINE
  5
3B7
330
36
100
AcDbEntity
  8
2-0
  6
Continuous
 62
     0
100
AcDbLine
 10
3253.615153775826
 20
272.427251450462
 30
0.0
 11
3248.81154919799
 21
272.126456172832
 31
0.0
  0
LINE
  5
3B8
330
36
100
AcDbEntity
  8
2-0
  6
Continuous
 62
     0
100
AcDbLine
 10
3248.81154919799
 20
272.126456172832
 30
0.0
 11
3244.038653511719
 21
271.506325938764
 31
0.0
  0
LINE
  5
3B9
330
36
100
AcDbEntity
  8
2-0
  6
Continuous
 62
     0
100
AcDbLine
 10
3244.038653511719
 20
271.506325938764
 30
0.0
 11
3239.317671731271
 21
270.569615861992
 31
0.0
  0
LINE
  5
3BA
330
36
100
AcDbEntity
  8
2-0
  6
Continuous
 62
     0
100
AcDbLine
 10
3239.317671731271
 20
270.569615861992
 30
0.0
 11
3234.669578227884
 21
269.320487556732
 31
0.0
  0
LINE
  5
3BB
330
36
100
AcDbEntity
  8
2-0
  6
Continuous
 62
     0
100
AcDbLine
 10
3234.669578227884
 20
269.320487556732
 30
0.0
 11
3230.115023544853
 21
267.7644906484669
 31
0.0
  0
LINE
  5
3BC
330
36
100
AcDbEntity
  8
2-0
  6
Continuous
 62
     0
100
AcDbLine
 10
3230.115023544853
 20
267.7644906484669
 30
0.0
 11
3225.67424265134
 21
265.908538118078
 31
0.0
  0
LINE
  5
3BD
330
36
100
AcDbEntity
  8
2-0
  6
Continuous
 62
     0
100
AcDbLine
 10
3225.67424265134
 20
265.908538118078
 30
0.0
 11
3221.36696504247
 21
263.760875588867
 31
0.0
  0
LINE
  5
3BE
330
36
100
AcDbEntity
  8
2-0
  6
Continuous
 62
     0
100
AcDbLine
 10
3221.36696504247
 20
263.760875588867
 30
0.0
 11
3217.212327085167
 21
261.331044692905
 31
0.0
  0
LINE
  5
3BF
330
36
100
AcDbEntity
  8
2-0
  6
Continuous
 62
     0
100
AcDbLine
 10
3217.212327085167
 20
261.331044692905
 30
0.0
 11
3213.22878699912
 21
258.62984067949
 31
0.0
  0
LINE
  5
3C0
330
36
100
AcDbEntity
  8
2-0
  6
Continuous
 62
     0
100
AcDbLine
 10
3213.22878699912
 20
258.62984067949
 30
0.0
 11
3209.434042850635
 21
255.669264454025
 31
0.0
  0
LINE
  5
3C1
330
36
100
AcDbEntity
  8
2-0
  6
Continuous
 62
     0
100
AcDbLine
 10
3209.434042850635
 20
255.669264454025
 30
0.0
 11
3205.844953923697
 21
252.462469260414
 31
0.0
  0
LINE
  5
3C2
330
36
100
AcDbEntity
  8
2-0
  6
Continuous
 62
     0
100
AcDbLine
 10
3205.844953923697
 20
252.462469260414
 30
0.0
 11
3202.477465817556
 21
249.023702243845
 31
0.0
  0
LINE
  5
3C3
330
36
100
AcDbEntity
  8
2-0
  6
Continuous
 62
     0
100
AcDbLine
 10
3202.477465817556
 20
249.023702243845
 30
0.0
 11
3199.34653960365
 21
245.368241153598
 31
0.0
  0
LINE
  5
3C4
330
36
100
AcDbEntity
  8
2-0
  6
Continuous
 62
     0
100
AcDbLine
 10
3199.34653960365
 20
245.368241153598
 30
0.0
 11
3196.466085356569
 21
241.512326467079
 31
0.0
  0
LINE
  5
3C5
330
36
100
AcDbEntity
  8
2-0
  6
Continuous
 62
     0
100
AcDbLine
 10
3196.466085356569
 20
241.512326467079
 30
0.0
 11
3193.848900354405
 21
237.47308923665
 31
0.0
  0
LINE
  5
3C6
330
36
100
AcDbEntity
  8
2-0
  6
Continuous
 62
     0
100
AcDbLine
 10
3193.848900354405
 20
237.47308923665
 30
0.0
 11
3191.506612223015
 21
233.268474979814
 31
0.0
  0
LINE
  5
3C7
330
36
100
AcDbEntity
  8
2-0
  6
Continuous
 62
     0
100
AcDbLine
 10
3191.506612223015
 20
233.268474979814
 30
0.0
 11
3189.449627276824
 21
228.917163950896
 31
0.0
  0
LINE
  5
3C8
330
36
100
AcDbEntity
  8
2-0
  6
Continuous
 62
     0
100
AcDbLine
 10
3189.449627276824
 20
228.917163950896
 30
0.0
 11
3187.687084285667
 21
224.438488148434
 31
0.0
  0
LINE
  5
3C9
330
36
100
AcDbEntity
  8
2-0
  6
Continuous
 62
     0
100
AcDbLine
 10
3187.687084285667
 20
224.438488148434
 30
0.0
 11
3186.226813873075
 21
219.852345427002
 31
0.0
  0
LINE
  5
3CA
330
36
100
AcDbEntity
  8
2-0
  6
Continuous
 62
     0
100
AcDbLine
 10
3186.226813873075
 20
219.852345427002
 30
0.0
 11
3185.075303726387
 21
215.179111095052
 31
0.0
  0
LINE
  5
3CB
330
36
100
AcDbEntity
  8
2-0
  6
Continuous
 62
     0
100
AcDbLine
 10
3185.075303726387
 20
215.179111095052
 30
0.0
 11
3184.237669773271
 21
210.439547391522
 31
0.0
  0
LINE
  5
3CC
330
36
100
AcDbEntity
  8
2-0
  6
Continuous
 62
     0
100
AcDbLine
 10
3184.237669773271
 20
210.439547391522
 30
0.0
 11
3183.717633452675
 21
205.654711243387
 31
0.0
  0
LINE
  5
3CD
330
36
100
AcDbEntity
  8
2-0
  6
Continuous
 62
     0
100
AcDbLine
 10
3183.717633452675
 20
205.654711243387
 30
0.0
 11
3183.517505181238
 21
200.845860713977
 31
0.0
  0
LINE
  5
3CE
330
36
100
AcDbEntity
  8
2-0
  6
Continuous
 62
     0
100
AcDbLine
 10
3183.517505181238
 20
200.845860713977
 30
0.0
 11
3183.638174088564
 21
196.034360557681
 31
0.0
  0
LINE
  5
3CF
330
36
100
AcDbEntity
  8
2-0
  6
Continuous
 62
     0
100
AcDbLine
 10
3183.638174088564
 20
196.034360557681
 30
0.0
 11
3184.079104067
 21
191.241587300646
 31
0.0
  0
LINE
  5
3D0
330
36
100
AcDbEntity
  8
2-0
  6
Continuous
 62
     0
100
AcDbLine
 10
3184.079104067
 20
191.241587300646
 30
0.0
 11
3184.838336153455
 21
186.488834269177
 31
0.0
  0
LINE
  5
3D1
330
36
100
AcDbEntity
  8
2-0
  6
Continuous
 62
     0
100
AcDbLine
 10
3184.838336153455
 20
186.488834269177
 30
0.0
 11
3185.912497232682
 21
181.79721698778
 31
0.0
  0
LINE
  5
3D2
330
36
100
AcDbEntity
  8
2-0
  6
Continuous
 62
     0
100
AcDbLine
 10
3185.912497232682
 20
181.79721698778
 30
0.0
 11
3187.296815023343
 21
177.187579367131
 31
0.0
  0
LINE
  5
3D3
330
36
100
AcDbEntity
  8
2-0
  6
Continuous
 62
     0
100
AcDbLine
 10
3187.296815023343
 20
177.187579367131
 30
0.0
 11
3188.985139280298
 21
172.68040109879
 31
0.0
  0
LINE
  5
3D4
330
36
100
AcDbEntity
  8
2-0
  6
Continuous
 62
     0
100
AcDbLine
 10
3188.985139280298
 20
172.68040109879
 30
0.0
 11
3190.969969118909
 21
168.295706668045
 31
0.0
  0
LINE
  5
3D5
330
36
100
AcDbEntity
  8
2-0
  6
Continuous
 62
     0
100
AcDbLine
 10
3190.969969118909
 20
168.295706668045
 30
0.0
 11
3193.242486339948
 21
164.052976389167
 31
0.0
  0
LINE
  5
3D6
330
36
100
AcDbEntity
  8
2-0
  6
Continuous
 62
     0
100
AcDbLine
 10
3193.242486339948
 20
164.052976389167
 30
0.0
 11
3195.792594607095
 21
159.971059858287
 31
0.0
  0
LINE
  5
3D7
330
36
100
AcDbEntity
  8
2-0
  6
Continuous
 62
     0
100
AcDbLine
 10
3195.792594607095
 20
159.971059858287
 30
0.0
 11
3198.608964302915
 21
156.068092208447
 31
0.0
  0
LINE
  5
3D8
330
36
100
AcDbEntity
  8
2-0
  6
Continuous
 62
     0
100
AcDbLine
 10
3198.608964302915
 20
156.068092208447
 30
0.0
 11
3201.679082864075
 21
152.361413538847
 31
0.0
  0
LINE
  5
3D9
330
36
100
AcDbEntity
  8
2-0
  6
Continuous
 62
     0
100
AcDbLine
 10
3201.679082864075
 20
152.361413538847
 30
0.0
 11
3204.989310372132
 21
148.867491876283
 31
0.0
  0
LINE
  5
3DA
330
36
100
AcDbEntity
  8
2-0
  6
Continuous
 62
     0
100
AcDbLine
 10
3204.989310372132
 20
148.867491876283
 30
0.0
 11
3208.52494015296
 21
145.601850011018
 31
0.0
  0
LINE
  5
3DB
330
36
100
AcDbEntity
  8
2-0
  6
Continuous
 62
     0
100
AcDbLine
 10
3208.52494015296
 20
145.601850011018
 30
0.0
 11
3212.270264115523
 21
142.578996532153
 31
0.0
  0
LINE
  5
3DC
330
36
100
AcDbEntity
  8
2-0
  6
Continuous
 62
     0
100
AcDbLine
 10
3212.270264115523
 20
142.578996532153
 30
0.0
 11
3216.208642539775
 21
139.812361368884
 31
0.0
  0
LINE
  5
3DD
330
36
100
AcDbEntity
  8
2-0
  6
Continuous
 62
     0
100
AcDbLine
 10
3216.208642539775
 20
139.812361368884
 30
0.0
 11
3220.322578003572
 21
137.314236124036
 31
0.0
  0
LINE
  5
3DE
330
36
100
AcDbEntity
  8
2-0
  6
Continuous
 62
     0
100
AcDbLine
 10
3220.322578003572
 20
137.314236124036
 30
0.0
 11
3224.593793120206
 21
135.095719464942
 31
0.0
  0
LINE
  5
3DF
330
36
100
AcDbEntity
  8
2-0
  6
Continuous
 62
     0
100
AcDbLine
 10
3224.593793120206
 20
135.095719464942
 30
0.0
 11
3229.003311741146
 21
133.166667814305
 31
0.0
  0
LINE
  5
3E0
330
36
100
AcDbEntity
  8
2-0
  6
Continuous
 62
     0
100
AcDbLine
 10
3229.003311741146
 20
133.166667814305
 30
0.0
 11
3233.531543263247
 21
131.535651560094
 31
0.0
  0
LINE
  5
3E1
330
36
100
AcDbEntity
  8
2-0
  6
Continuous
 62
     0
100
AcDbLine
 10
3233.531543263247
 20
131.535651560094
 30
0.0
 11
3238.15836966585
 21
130.209916979035
 31
0.0
  0
LINE
  5
3E2
330
36
100
AcDbEntity
  8
2-0
  6
Continuous
 62
     0
100
AcDbLine
 10
3238.15836966585
 20
130.209916979035
 30
0.0
 11
3242.863234891103
 21
129.195354042867
 31
0.0
  0
LINE
  5
3E3
330
36
100
AcDbEntity
  8
2-0
  6
Continuous
 62
     0
100
AcDbLine
 10
3242.863234891103
 20
129.195354042867
 30
0.0
 11
3247.625236170381
 21
128.496470250379
 31
0.0
  0
LINE
  5
3E4
330
36
100
AcDbEntity
  8
2-0
  6
Continuous
 62
     0
100
AcDbLine
 10
3247.625236170381
 20
128.496470250379
 30
0.0
 11
3252.423216891077
 21
128.116370601506
 31
0.0
  0
LINE
  5
3E5
330
36
100
AcDbEntity
  8
2-0
  6
Continuous
 62
     0
100
AcDbLine
 10
3252.423216891077
 20
128.116370601506
 30
0.0
 11
3257.235860591173
 21
128.056743802432
 31
0.0
  0
LINE
  5
3E6
330
36
100
AcDbEntity
  8
2-0
  6
Continuous
 62
     0
100
AcDbLine
 10
3257.235860591173
 20
128.056743802432
 30
0.0
 11
3262.041785663987
 21
128.31785476302
 31
0.0
  0
LINE
  5
3E7
330
36
100
AcDbEntity
  8
2-0
  6
Continuous
 62
     0
100
AcDbLine
 10
3262.041785663987
 20
128.31785476302
 30
0.0
 11
3266.819640352345
 21
128.898543419857
 31
0.0
  0
LINE
  5
3E8
330
36
100
AcDbEntity
  8
2-0
  6
Continuous
 62
     0
100
AcDbLine
 10
3266.819640352345
 20
128.898543419857
 30
0.0
 11
3271.548197610137
 21
129.796229890195
 31
0.0
  0
LINE
  5
3E9
330
36
100
AcDbEntity
  8
2-0
  6
Continuous
 62
     0
100
AcDbLine
 10
3271.548197610137
 20
129.796229890195
 30
0.0
 11
3276.206449409808
 21
131.006925933841
 31
0.0
  0
LINE
  5
3EA
330
36
100
AcDbEntity
  8
2-0
  6
Continuous
 62
     0
100
AcDbLine
 10
3276.206449409808
 20
131.006925933841
 30
0.0
 11
3280.773700076796
 21
132.525252672111
 31
0.0
  0
LINE
  5
3EB
330
36
100
AcDbEntity
  8
2-0
  6
Continuous
 62
     0
100
AcDbLine
 10
3280.773700076796
 20
132.525252672111
 30
0.0
 11
3285.22965823624
 21
134.344464485101
 31
0.0
  0
LINE
  5
3EC
330
36
100
AcDbEntity
  8
2-0
  6
Continuous
 62
     0
100
AcDbLine
 10
3285.22965823624
 20
134.344464485101
 30
0.0
 11
3289.55452696348
 21
136.456478981119
 31
0.0
  0
LINE
  5
3ED
330
36
100
AcDbEntity
  8
2-0
  6
Continuous
 62
     0
100
AcDbLine
 10
3289.55452696348
 20
136.456478981119
 30
0.0
 11
3293.729091737797
 21
138.851912905124
 31
0.0
  0
LINE
  5
3EE
330
36
100
AcDbEntity
  8
2-0
  6
Continuous
 62
     0
100
AcDbLine
 10
3293.729091737797
 20
138.851912905124
 30
0.0
 11
3297.734805808666
 21
141.520123826636
 31
0.0
  0
LINE
  5
3EF
330
36
100
AcDbEntity
  8
2-0
  6
Continuous
 62
     0
100
AcDbLine
 10
3297.734805808666
 20
141.520123826636
 30
0.0
 11
3301.55387259523
 21
144.449257421917
 31
0.0
  0
LINE
  5
3F0
330
36
100
AcDbEntity
  8
2-0
  6
Continuous
 62
     0
100
AcDbLine
 10
3301.55387259523
 20
144.449257421917
 30
0.0
 11
3305.169324752927
 21
147.626300140335
 31
0.0
  0
LINE
  5
3F1
330
36
100
AcDbEntity
  8
2-0
  6
Continuous
 62
     0
100
AcDbLine
 10
3305.169324752927
 20
147.626300140335
 30
0.0
 11
3308.565099555977
 21
151.037137020956
 31
0.0
  0
LINE
  5
3F2
330
36
100
AcDbEntity
  8
2-0
  6
Continuous
 62
     0
100
AcDbLine
 10
3308.565099555977
 20
151.037137020956
 30
0.0
 11
3311.726110260849
 21
154.666614402471
 31
0.0
  0
LINE
  5
3F3
330
36
100
AcDbEntity
  8
2-0
  6
Continuous
 62
     0
100
AcDbLine
 10
3311.726110260849
 20
154.666614402471
 30
0.0
 11
3314.638313133614
 21
158.498607247857
 31
0.0
  0
LINE
  5
3F4
330
36
100
AcDbEntity
  8
2-0
  6
Continuous
 62
     0
100
AcDbLine
 10
3314.638313133614
 20
158.498607247857
 30
0.0
 11
3317.288769843435
 21
162.516090784675
 31
0.0
  0
LINE
  5
3F5
330
36
100
AcDbEntity
  8
2-0
  6
Continuous
 62
     0
100
AcDbLine
 10
3317.288769843435
 20
162.516090784675
 30
0.0
 11
3319.665704944957
 21
166.701216142701
 31
0.0
  0
LINE
  5
3F6
330
36
100
AcDbEntity
  8
2-0
  6
Continuous
 62
     0
100
AcDbLine
 10
3319.665704944957
 20
166.701216142701
 30
0.0
 11
3321.758558194244
 21
171.035389652863
 31
0.0
  0
LINE
  5
3F7
330
36
100
AcDbEntity
  8
2-0
  6
Continuous
 62
     0
100
AcDbLine
 10
3321.758558194244
 20
171.035389652863
 30
0.0
 11
3323.558031465815
 21
175.499355455167
 31
0.0
  0
LINE
  5
3F8
330
36
100
AcDbEntity
  8
2-0
  6
Continuous
 62
     0
100
AcDbLine
 10
3323.558031465815
 20
175.499355455167
 30
0.0
 11
3325.05613006234
 21
180.073281048606
 31
0.0
  0
LINE
  5
3F9
330
36
100
AcDbEntity
  8
2-0
  6
Continuous
 62
     0
100
AcDbLine
 10
3325.05613006234
 20
180.073281048606
 30
0.0
 11
3326.246198233479
 21
184.736845402968
 31
0.0
  0
LINE
  5
3FA
330
36
100
AcDbEntity
  8
2-0
  6
Continuous
 62
     0
100
AcDbLine
 10
3326.246198233479
 20
184.736845402968
 30
0.0
 11
3327.122948746028
 21
189.4693292410789
 31
0.0
  0
LINE
  5
3FB
330
36
100
AcDbEntity
  8
2-0
  6
Continuous
 62
     0
100
AcDbLine
 10
3327.122948746028
 20
189.4693292410789
 30
0.0
 11
3327.682486374039
 21
194.249707090379
 31
0.0
  0
LINE
  5
3FC
330
36
100
AcDbEntity
  8
2-0
  6
Continuous
 62
     0
100
AcDbLine
 10
3327.682486374039
 20
194.249707090379
 30
0.0
 11
3327.922325204524
 21
199.056740694862
 31
0.0
  0
LINE
  5
3FD
330
36
100
AcDbEntity
  8
2-0
  6
Continuous
 62
     0
100
AcDbLine
 10
3327.922325204524
 20
199.056740694862
 30
0.0
 11
3327.932176593339
 21
200.249473813233
 31
0.0
  0
LINE
  5
3FE
330
36
100
AcDbEntity
  8
2-0
  6
Continuous
 62
     0
100
AcDbLine
 10
3327.515163272149
 20
200.249473813233
 30
0.0
 11
3327.355685564807
 21
205.032032927698
 31
0.0
  0
LINE
  5
3FF
330
36
100
AcDbEntity
  8
2-0
  6
Continuous
 62
     0
100
AcDbLine
 10
3327.355685564807
 20
205.032032927698
 30
0.0
 11
3326.877960970115
 21
209.793344095235
 31
0.0
  0
LINE
  5
400
330
36
100
AcDbEntity
  8
2-0
  6
Continuous
 62
     0
100
AcDbLine
 10
3326.877960970115
 20
209.793344095235
 30
0.0
 11
3326.084111922233
 21
214.512253769267
 31
0.0
  0
LINE
  5
401
330
36
100
AcDbEntity
  8
2-0
  6
Continuous
 62
     0
100
AcDbLine
 10
3326.084111922233
 20
214.512253769267
 30
0.0
 11
3324.977665332597
 21
219.16779678451
 31
0.0
  0
LINE
  5
402
330
36
100
AcDbEntity
  8
2-0
  6
Continuous
 62
     0
100
AcDbLine
 10
3324.977665332597
 20
219.16779678451
 30
0.0
 11
3323.563536920565
 21
223.739289500984
 31
0.0
  0
LINE
  5
403
330
36
100
AcDbEntity
  8
2-0
  6
Continuous
 62
     0
100
AcDbLine
 10
3323.563536920565
 20
223.739289500984
 30
0.0
 11
3321.848009373864
 21
228.206421697259
 31
0.0
  0
LINE
  5
404
330
36
100
AcDbEntity
  8
2-0
  6
Continuous
 62
     0
100
AcDbLine
 10
3321.848009373864
 20
228.206421697259
 30
0.0
 11
3319.838704435869
 21
232.549346804678
 31
0.0
  0
LINE
  5
405
330
36
100
AcDbEntity
  8
2-0
  6
Continuous
 62
     0
100
AcDbLine
 10
3319.838704435869
 20
232.549346804678
 30
0.0
 11
3317.544549043744
 21
236.748770081662
 31
0.0
  0
LINE
  5
406
330
36
100
AcDbEntity
  8
2-0
  6
Continuous
 62
     0
100
AcDbLine
 10
3317.544549043744
 20
236.748770081662
 30
0.0
 11
3314.975735667848
 21
240.786034336366
 31
0.0
  0
LINE
  5
407
330
36
100
AcDbEntity
  8
2-0
  6
Continuous
 62
     0
100
AcDbLine
 10
3314.975735667848
 20
240.786034336366
 30
0.0
 11
3312.143677028643
 21
244.64320281682
 31
0.0
  0
LINE
  5
408
330
36
100
AcDbEntity
  8
2-0
  6
Continuous
 62
     0
100
AcDbLine
 10
3312.143677028643
 20
244.64320281682
 30
0.0
 11
3309.060955392284
 21
248.303138900307
 31
0.0
  0
LINE
  5
409
330
36
100
AcDbEntity
  8
2-0
  6
Continuous
 62
     0
100
AcDbLine
 10
3309.060955392284
 20
248.303138900307
 30
0.0
 11
3305.741266670131
 21
251.749582227929
 31
0.0
  0
LINE
  5
40A
330
36
100
AcDbEntity
  8
2-0
  6
Continuous
 62
     0
100
AcDbLine
 10
3305.741266670131
 20
251.749582227929
 30
0.0
 11
3302.199359570585
 21
254.967220946102
 31
0.0
  0
LINE
  5
40B
330
36
100
AcDbEntity
  8
2-0
  6
Continuous
 62
     0
100
AcDbLine
 10
3302.199359570585
 20
254.967220946102
 30
0.0
 11
3298.450970073542
 21
257.94175973404
 31
0.0
  0
LINE
  5
40C
330
36
100
AcDbEntity
  8
2-0
  6
Continuous
 62
     0
100
AcDbLine
 10
3298.450970073542
 20
257.94175973404
 30
0.0
 11
3294.512751518601
 21
260.659983314988
 31
0.0
  0
LINE
  5
40D
330
36
100
AcDbEntity
  8
2-0
  6
Continuous
 62
     0
100
AcDbLine
 10
3294.512751518601
 20
260.659983314988
 30
0.0
 11
3290.402200617638
 21
263.109815169033
 31
0.0
  0
LINE
  5
40E
330
36
100
AcDbEntity
  8
2-0
  6
Continuous
 62
     0
100
AcDbLine
 10
3290.402200617638
 20
263.109815169033
 30
0.0
 11
3286.137579720431
 21
265.280371186647
 31
0.0
  0
LINE
  5
40F
330
36
100
AcDbEntity
  8
2-0
  6
Continuous
 62
     0
100
AcDbLine
 10
3286.137579720431
 20
265.280371186647
 30
0.0
 11
3281.737835678721
 21
267.1620080246
 31
0.0
  0
LINE
  5
410
330
36
100
AcDbEntity
  8
2-0
  6
Continuous
 62
     0
100
AcDbLine
 10
3281.737835678721
 20
267.1620080246
 30
0.0
 11
3277.222515669168
 21
268.746365949386
 31
0.0
  0
LINE
  5
411
330
36
100
AcDbEntity
  8
2-0
  6
Continuous
 62
     0
100
AcDbLine
 10
3277.222515669168
 20
268.746365949386
 30
0.0
 11
3272.611680349181
 21
270.026405977839
 31
0.0
  0
LINE
  5
412
330
36
100
AcDbEntity
  8
2-0
  6
Continuous
 62
     0
100
AcDbLine
 10
3272.611680349181
 20
270.026405977839
 30
0.0
 11
3267.925814731449
 21
270.996441149916
 31
0.0
  0
LINE
  5
413
330
36
100
AcDbEntity
  8
2-0
  6
Continuous
 62
     0
100
AcDbLine
 10
3267.925814731449
 20
270.996441149916
 30
0.0
 11
3263.18573717317
 21
271.652161794713
 31
0.0
  0
LINE
  5
414
330
36
100
AcDbEntity
  8
2-0
  6
Continuous
 62
     0
100
AcDbLine
 10
3263.18573717317
 20
271.652161794713
 30
0.0
 11
3258.412506884276
 21
271.990654677471
 31
0.0
  0
LINE
  5
415
330
36
100
AcDbEntity
  8
2-0
  6
Continuous
 62
     0
100
AcDbLine
 10
3258.412506884276
 20
271.990654677471
 30
0.0
 11
3253.627330365598
 21
272.010415942484
 31
0.0
  0
LINE
  5
416
330
36
100
AcDbEntity
  8
2-0
  6
Continuous
 62
     0
100
AcDbLine
 10
3253.627330365598
 20
272.010415942484
 30
0.0
 11
3248.851467192665
 21
271.711357794431
 31
0.0
  0
LINE
  5
417
330
36
100
AcDbEntity
  8
2-0
  6
Continuous
 62
     0
100
AcDbLine
 10
3248.851467192665
 20
271.711357794431
 30
0.0
 11
3244.106135563683
 21
271.094808888433
 31
0.0
  0
LINE
  5
418
330
36
100
AcDbEntity
  8
2-0
  6
Continuous
 62
     0
100
AcDbLine
 10
3244.106135563683
 20
271.094808888433
 30
0.0
 11
3239.41241803136
 21
270.163508427106
 31
0.0
  0
LINE
  5
419
330
36
100
AcDbEntity
  8
2-0
  6
Continuous
 62
     0
100
AcDbLine
 10
3239.41241803136
 20
270.163508427106
 30
0.0
 11
3234.791167837368
 21
268.921593990833
 31
0.0
  0
LINE
  5
41A
330
36
100
AcDbEntity
  8
2-0
  6
Continuous
 62
     0
100
AcDbLine
 10
3234.791167837368
 20
268.921593990833
 30
0.0
 11
3230.262916265587
 21
267.374583155331
 31
0.0
  0
LINE
  5
41B
330
36
100
AcDbEntity
  8
2-0
  6
Continuous
 62
     0
100
AcDbLine
 10
3230.262916265587
 20
267.374583155331
 30
0.0
 11
3225.847781425751
 21
265.529348978168
 31
0.0
  0
LINE
  5
41C
330
36
100
AcDbEntity
  8
2-0
  6
Continuous
 62
     0
100
AcDbLine
 10
3225.847781425751
 20
265.529348978168
 30
0.0
 11
3221.565378872735
 21
263.394089463162
 31
0.0
  0
LINE
  5
41D
330
36
100
AcDbEntity
  8
2-0
  6
Continuous
 62
     0
100
AcDbLine
 10
3221.565378872735
 20
263.394089463162
 30
0.0
 11
3217.434734458598
 21
260.97829113829
 31
0.0
  0
LINE
  5
41E
330
36
100
AcDbEntity
  8
2-0
  6
Continuous
 62
     0
100
AcDbLine
 10
3217.434734458598
 20
260.97829113829
 30
0.0
 11
3213.474199804549
 21
258.292686908963
 31
0.0
  0
LINE
  5
41F
330
36
100
AcDbEntity
  8
2-0
  6
Continuous
 62
     0
100
AcDbLine
 10
3213.474199804549
 20
258.292686908963
 30
0.0
 11
3209.701370768397
 21
255.349208373885
 31
0.0
  0
LINE
  5
420
330
36
100
AcDbEntity
  8
2-0
  6
Continuous
 62
     0
100
AcDbLine
 10
3209.701370768397
 20
255.349208373885
 30
0.0
 11
3206.133009269694
 21
252.160932815364
 31
0.0
  0
LINE
  5
421
330
36
100
AcDbEntity
  8
2-0
  6
Continuous
 62
     0
100
AcDbLine
 10
3206.133009269694
 20
252.160932815364
 30
0.0
 11
3202.7849688199
 21
248.742025099582
 31
0.0
  0
LINE
  5
422
330
36
100
AcDbEntity
  8
2-0
  6
Continuous
 62
     0
100
AcDbLine
 10
3202.7849688199
 20
248.742025099582
 30
0.0
 11
3199.672124088431
 21
245.107674744942
 31
0.0
  0
LINE
  5
423
330
36
100
AcDbEntity
  8
2-0
  6
Continuous
 62
     0
100
AcDbLine
 10
3199.672124088431
 20
245.107674744942
 30
0.0
 11
3196.808304817496
 21
241.274028438106
 31
0.0
  0
LINE
  5
424
330
36
100
AcDbEntity
  8
2-0
  6
Continuous
 62
     0
100
AcDbLine
 10
3196.808304817496
 20
241.274028438106
 30
0.0
 11
3194.206234379338
 21
237.258118297508
 31
0.0
  0
LINE
  5
425
330
36
100
AcDbEntity
  8
2-0
  6
Continuous
 62
     0
100
AcDbLine
 10
3194.206234379338
 20
237.258118297508
 30
0.0
 11
3191.877473248847
 21
233.077786203091
 31
0.0
  0
LINE
  5
426
330
36
100
AcDbEntity
  8
2-0
  6
Continuous
 62
     0
100
AcDbLine
 10
3191.877473248847
 20
233.077786203091
 30
0.0
 11
3189.832367642712
 21
228.751604528422
 31
0.0
  0
LINE
  5
427
330
36
100
AcDbEntity
  8
2-0
  6
Continuous
 62
     0
100
AcDbLine
 10
3189.832367642712
 20
228.751604528422
 30
0.0
 11
3188.080003553249
 21
224.298793627378
 31
0.0
  0
LINE
  5
428
330
36
100
AcDbEntity
  8
2-0
  6
Continuous
 62
     0
100
AcDbLine
 10
3188.080003553249
 20
224.298793627378
 30
0.0
 11
3186.62816638118
 21
219.739136441987
 31
0.0
  0
LINE
  5
429
330
36
100
AcDbEntity
  8
2-0
  6
Continuous
 62
     0
100
AcDbLine
 10
3186.62816638118
 20
219.739136441987
 30
0.0
 11
3185.483306346654
 21
215.092890610798
 31
0.0
  0
LINE
  5
42A
330
36
100
AcDbEntity
  8
2-0
  6
Continuous
 62
     0
100
AcDbLine
 10
3185.483306346654
 20
215.092890610798
 30
0.0
 11
3184.650509832231
 21
210.380698468275
 31
0.0
  0
LINE
  5
42B
330
36
100
AcDbEntity
  8
2-0
  6
Continuous
 62
     0
100
AcDbLine
 10
3184.650509832231
 20
210.380698468275
 30
0.0
 11
3184.133476785094
 21
205.623495335061
 31
0.0
  0
LINE
  5
42C
330
36
100
AcDbEntity
  8
2-0
  6
Continuous
 62
     0
100
AcDbLine
 10
3184.133476785094
 20
205.623495335061
 30
0.0
 11
3183.934504278943
 21
200.842416506565
 31
0.0
  0
LINE
  5
42D
330
36
100
AcDbEntity
  8
2-0
  6
Continuous
 62
     0
100
AcDbLine
 10
3183.934504278943
 20
200.842416506565
 30
0.0
 11
3184.054476308545
 21
196.058703353103
 31
0.0
  0
LINE
  5
42E
330
36
100
AcDbEntity
  8
2-0
  6
Continuous
 62
     0
100
AcDbLine
 10
3184.054476308545
 20
196.058703353103
 30
0.0
 11
3184.492859862339
 21
191.293608948765
 31
0.0
  0
LINE
  5
42F
330
36
100
AcDbEntity
  8
2-0
  6
Continuous
 62
     0
100
AcDbLine
 10
3184.492859862339
 20
191.293608948765
 30
0.0
 11
3185.247707290486
 21
186.568303648289
 31
0.0
  0
LINE
  5
430
330
36
100
AcDbEntity
  8
2-0
  6
Continuous
 62
     0
100
AcDbLine
 10
3185.247707290486
 20
186.568303648289
 30
0.0
 11
3186.31566495789
 21
181.903781031436
 31
0.0
  0
LINE
  5
431
330
36
100
AcDbEntity
  8
2-0
  6
Continuous
 62
     0
100
AcDbLine
 10
3186.31566495789
 20
181.903781031436
 30
0.0
 11
3187.691988143724
 21
177.32076463275
 31
0.0
  0
LINE
  5
432
330
36
100
AcDbEntity
  8
2-0
  6
Continuous
 62
     0
100
AcDbLine
 10
3187.691988143724
 20
177.32076463275
 30
0.0
 11
3189.370562121268
 21
172.839615871059
 31
0.0
  0
LINE
  5
433
330
36
100
AcDbEntity
  8
2-0
  6
Continuous
 62
     0
100
AcDbLine
 10
3189.370562121268
 20
172.839615871059
 30
0.0
 11
3191.343929324409
 21
168.480243587798
 31
0.0
  0
LINE
  5
434
330
36
100
AcDbEntity
  8
2-0
  6
Continuous
 62
     0
100
AcDbLine
 10
3191.343929324409
 20
168.480243587798
 30
0.0
 11
3193.603322480103
 21
164.262015596035
 31
0.0
  0
LINE
  5
435
330
36
100
AcDbEntity
  8
2-0
  6
Continuous
 62
     0
100
AcDbLine
 10
3193.603322480103
 20
164.262015596035
 30
0.0
 11
3196.138703559607
 21
160.203672633175
 31
0.0
  0
LINE
  5
436
330
36
100
AcDbEntity
  8
2-0
  6
Continuous
 62
     0
100
AcDbLine
 10
3196.138703559607
 20
160.203672633175
 30
0.0
 11
3198.938808375415
 21
156.323245099645
 31
0.0
  0
LINE
  5
437
330
36
100
AcDbEntity
  8
2-0
  6
Continuous
 62
     0
100
AcDbLine
 10
3198.938808375415
 20
156.323245099645
 30
0.0
 11
3201.991196625779
 21
152.637972953448
 31
0.0
  0
LINE
  5
438
330
36
100
AcDbEntity
  8
2-0
  6
Continuous
 62
     0
100
AcDbLine
 10
3201.991196625779
 20
152.637972953448
 30
0.0
 11
3205.28230716446
 21
149.164229116507
 31
0.0
  0
LINE
  5
439
330
36
100
AcDbEntity
  8
2-0
  6
Continuous
 62
     0
100
AcDbLine
 10
3205.28230716446
 20
149.164229116507
 30
0.0
 11
3208.797518250171
 21
145.917446733072
 31
0.0
  0
LINE
  5
43A
330
36
100
AcDbEntity
  8
2-0
  6
Continuous
 62
     0
100
AcDbLine
 10
3208.797518250171
 20
145.917446733072
 30
0.0
 11
3212.521212508031
 21
142.912050603361
 31
0.0
  0
LINE
  5
43B
330
36
100
AcDbEntity
  8
2-0
  6
Continuous
 62
     0
100
AcDbLine
 10
3212.521212508031
 20
142.912050603361
 30
0.0
 11
3216.436846314411
 21
140.1613930970859
 31
0.0
  0
LINE
  5
43C
330
36
100
AcDbEntity
  8
2-0
  6
Continuous
 62
     0
100
AcDbLine
 10
3216.436846314411
 20
140.1613930970859
 30
0.0
 11
3220.527023296928
 21
137.677694831559
 31
0.0
  0
LINE
  5
43D
330
36
100
AcDbEntity
  8
2-0
  6
Continuous
 62
     0
100
AcDbLine
 10
3220.527023296928
 20
137.677694831559
 30
0.0
 11
3224.77357162302
 21
135.47199037795
 31
0.0
  0
LINE
  5
43E
330
36
100
AcDbEntity
  8
2-0
  6
Continuous
 62
     0
100
AcDbLine
 10
3224.77357162302
 20
135.47199037795
 30
0.0
 11
3229.157624733737
 21
133.554079236914
 31
0.0
  0
LINE
  5
43F
330
36
100
AcDbEntity
  8
2-0
  6
Continuous
 62
     0
100
AcDbLine
 10
3229.157624733737
 20
133.554079236914
 30
0.0
 11
3233.659705164067
 21
131.932482301378
 31
0.0
  0
LINE
  5
440
330
36
100
AcDbEntity
  8
2-0
  6
Continuous
 62
     0
100
AcDbLine
 10
3233.659705164067
 20
131.932482301378
 30
0.0
 11
3238.259811077387
 21
130.614403999934
 31
0.0
  0
LINE
  5
441
330
36
100
AcDbEntity
  8
2-0
  6
Continuous
 62
     0
100
AcDbLine
 10
3238.259811077387
 20
130.614403999934
 30
0.0
 11
3242.937505129596
 21
129.605700289011
 31
0.0
  0
LINE
  5
442
330
36
100
AcDbEntity
  8
2-0
  6
Continuous
 62
     0
100
AcDbLine
 10
3242.937505129596
 20
129.605700289011
 30
0.0
 11
3247.672005268119
 21
128.910852636041
 31
0.0
  0
LINE
  5
443
330
36
100
AcDbEntity
  8
2-0
  6
Continuous
 62
     0
100
AcDbLine
 10
3247.672005268119
 20
128.910852636041
 30
0.0
 11
3252.442277062376
 21
128.532948109204
 31
0.0
  0
LINE
  5
444
330
36
100
AcDbEntity
  8
2-0
  6
Continuous
 62
     0
100
AcDbLine
 10
3252.442277062376
 20
128.532948109204
 30
0.0
 11
3257.227127155533
 21
128.4736656622
 31
0.0
  0
LINE
  5
445
330
36
100
AcDbEntity
  8
2-0
  6
Continuous
 62
     0
100
AcDbLine
 10
3257.227127155533
 20
128.4736656622
 30
0.0
 11
3262.005297422302
 21
128.733268675002
 31
0.0
  0
LINE
  5
446
330
36
100
AcDbEntity
  8
2-0
  6
Continuous
 62
     0
100
AcDbLine
 10
3262.005297422302
 20
128.733268675002
 30
0.0
 11
3266.755559414525
 21
129.3106037837089
 31
0.0
  0
LINE
  5
447
330
36
100
AcDbEntity
  8
2-0
  6
Continuous
 62
     0
100
AcDbLine
 10
3266.755559414525
 20
129.3106037837089
 30
0.0
 11
3271.456808674883
 21
130.20310600471
 31
0.0
  0
LINE
  5
448
330
36
100
AcDbEntity
  8
2-0
  6
Continuous
 62
     0
100
AcDbLine
 10
3271.456808674883
 20
130.20310600471
 30
0.0
 11
3276.088158499753
 21
131.4068101303879
 31
0.0
  0
LINE
  5
449
330
36
100
AcDbEntity
  8
2-0
  6
Continuous
 62
     0
100
AcDbLine
 10
3276.088158499753
 20
131.4068101303879
 30
0.0
 11
3280.629032734629
 21
132.916368345743
 31
0.0
  0
LINE
  5
44A
330
36
100
AcDbEntity
  8
2-0
  6
Continuous
 62
     0
100
AcDbLine
 10
3280.629032734629
 20
132.916368345743
 30
0.0
 11
3285.059257189826
 21
134.72507398765
 31
0.0
  0
LINE
  5
44B
330
36
100
AcDbEntity
  8
2-0
  6
Continuous
 62
     0
100
AcDbLine
 10
3285.059257189826
 20
134.72507398765
 30
0.0
 11
3289.359149270348
 21
136.824891341222
 31
0.0
  0
LINE
  5
44C
330
36
100
AcDbEntity
  8
2-0
  6
Continuous
 62
     0
100
AcDbLine
 10
3289.359149270348
 20
136.824891341222
 30
0.0
 11
3293.509605421689
 21
139.206491340863
 31
0.0
  0
LINE
  5
44D
330
36
100
AcDbEntity
  8
2-0
  6
Continuous
 62
     0
100
AcDbLine
 10
3293.509605421689
 20
139.206491340863
 30
0.0
 11
3297.49218600308
 21
141.859293017436
 31
0.0
  0
LINE
  5
44E
330
36
100
AcDbEntity
  8
2-0
  6
Continuous
 62
     0
100
AcDbLine
 10
3297.49218600308
 20
141.859293017436
 30
0.0
 11
3301.289197211098
 21
144.77151050737
 31
0.0
  0
LINE
  5
44F
330
36
100
AcDbEntity
  8
2-0
  6
Continuous
 62
     0
100
AcDbLine
 10
3301.289197211098
 20
144.77151050737
 30
0.0
 11
3304.883769689674
 21
147.930205414887
 31
0.0
  0
LINE
  5
450
330
36
100
AcDbEntity
  8
2-0
  6
Continuous
 62
     0
100
AcDbLine
 10
3304.883769689674
 20
147.930205414887
 30
0.0
 11
3308.259933477238
 21
151.321344294679
 31
0.0
  0
LINE
  5
451
330
36
100
AcDbEntity
  8
2-0
  6
Continuous
 62
     0
100
AcDbLine
 10
3308.259933477238
 20
151.321344294679
 30
0.0
 11
3311.402688958049
 21
154.929860999686
 31
0.0
  0
LINE
  5
452
330
36
100
AcDbEntity
  8
2-0
  6
Continuous
 62
     0
100
AcDbLine
 10
3311.402688958049
 20
154.929860999686
 30
0.0
 11
3314.298073502466
 21
158.739723616953
 31
0.0
  0
LINE
  5
453
330
36
100
AcDbEntity
  8
2-0
  6
Continuous
 62
     0
100
AcDbLine
 10
3314.298073502466
 20
158.739723616953
 30
0.0
 11
3316.933223500094
 21
162.734005694185
 31
0.0
  0
LINE
  5
454
330
36
100
AcDbEntity
  8
2-0
  6
Continuous
 62
     0
100
AcDbLine
 10
3316.933223500094
 20
162.734005694185
 30
0.0
 11
3319.296431510219
 21
166.89496144057
 31
0.0
  0
LINE
  5
455
330
36
100
AcDbEntity
  8
2-0
  6
Continuous
 62
     0
100
AcDbLine
 10
3319.296431510219
 20
166.89496144057
 30
0.0
 11
3321.377198275607
 21
171.204104567754
 31
0.0
  0
LINE
  5
456
330
36
100
AcDbEntity
  8
2-0
  6
Continuous
 62
     0
100
AcDbLine
 10
3321.377198275607
 20
171.204104567754
 30
0.0
 11
3323.166279368589
 21
175.6422904206919
 31
0.0
  0
LINE
  5
457
330
36
100
AcDbEntity
  8
2-0
  6
Continuous
 62
     0
100
AcDbLine
 10
3323.166279368589
 20
175.6422904206919
 30
0.0
 11
3324.655726262196
 21
180.189801033502
 31
0.0
  0
LINE
  5
458
330
36
100
AcDbEntity
  8
2-0
  6
Continuous
 62
     0
100
AcDbLine
 10
3324.655726262196
 20
180.189801033502
 30
0.0
 11
3325.838921643858
 21
184.826432732409
 31
0.0
  0
LINE
  5
459
330
36
100
AcDbEntity
  8
2-0
  6
Continuous
 62
     0
100
AcDbLine
 10
3325.838921643858
 20
184.826432732409
 30
0.0
 11
3326.710608814791
 21
189.531585896603
 31
0.0
  0
LINE
  5
45A
330
36
100
AcDbEntity
  8
2-0
  6
Continuous
 62
     0
100
AcDbLine
 10
3326.710608814791
 20
189.531585896603
 30
0.0
 11
3327.266915044454
 21
194.284356478203
 31
0.0
  0
LINE
  5
45B
330
36
100
AcDbEntity
  8
2-0
  6
Continuous
 62
     0
100
AcDbLine
 10
3327.266915044454
 20
194.284356478203
 30
0.0
 11
3327.505368776311
 21
199.063628874736
 31
0.0
  0
LINE
  5
45C
330
36
100
AcDbEntity
  8
2-0
  6
Continuous
 62
     0
100
AcDbLine
 10
3327.505368776311
 20
199.063628874736
 30
0.0
 11
3327.515163272149
 21
200.249473813233
 31
0.0
  0
LINE
  5
45D
330
36
100
AcDbEntity
  8
2-0
  6
Continuous
 62
     0
100
AcDbLine
 10
3327.515163272149
 20
200.249473813233
 30
0.0
 11
3327.355685564807
 21
205.032032927698
 31
0.0
  0
LINE
  5
45E
330
36
100
AcDbEntity
  8
2-0
  6
Continuous
 62
     0
100
AcDbLine
 10
3327.355685564807
 20
205.032032927698
 30
0.0
 11
3326.877960970115
 21
209.793344095235
 31
0.0
  0
LINE
  5
45F
330
36
100
AcDbEntity
  8
2-0
  6
Continuous
 62
     0
100
AcDbLine
 10
3326.877960970115
 20
209.793344095235
 30
0.0
 11
3326.084111922233
 21
214.512253769267
 31
0.0
  0
LINE
  5
460
330
36
100
AcDbEntity
  8
2-0
  6
Continuous
 62
     0
100
AcDbLine
 10
3326.084111922233
 20
214.512253769267
 30
0.0
 11
3324.977665332597
 21
219.16779678451
 31
0.0
  0
LINE
  5
461
330
36
100
AcDbEntity
  8
2-0
  6
Continuous
 62
     0
100
AcDbLine
 10
3324.977665332597
 20
219.16779678451
 30
0.0
 11
3323.563536920565
 21
223.739289500984
 31
0.0
  0
LINE
  5
462
330
36
100
AcDbEntity
  8
2-0
  6
Continuous
 62
     0
100
AcDbLine
 10
3323.563536920565
 20
223.739289500984
 30
0.0
 11
3321.848009373864
 21
228.206421697259
 31
0.0
  0
LINE
  5
463
330
36
100
AcDbEntity
  8
2-0
  6
Continuous
 62
     0
100
AcDbLine
 10
3321.848009373864
 20
228.206421697259
 30
0.0
 11
3319.838704435869
 21
232.549346804678
 31
0.0
  0
LINE
  5
464
330
36
100
AcDbEntity
  8
2-0
  6
Continuous
 62
     0
100
AcDbLine
 10
3319.838704435869
 20
232.549346804678
 30
0.0
 11
3317.544549043744
 21
236.748770081662
 31
0.0
  0
LINE
  5
465
330
36
100
AcDbEntity
  8
2-0
  6
Continuous
 62
     0
100
AcDbLine
 10
3317.544549043744
 20
236.748770081662
 30
0.0
 11
3314.975735667848
 21
240.786034336366
 31
0.0
  0
LINE
  5
466
330
36
100
AcDbEntity
  8
2-0
  6
Continuous
 62
     0
100
AcDbLine
 10
3314.975735667848
 20
240.786034336366
 30
0.0
 11
3312.143677028643
 21
244.64320281682
 31
0.0
  0
LINE
  5
467
330
36
100
AcDbEntity
  8
2-0
  6
Continuous
 62
     0
100
AcDbLine
 10
3312.143677028643
 20
244.64320281682
 30
0.0
 11
3309.060955392284
 21
248.303138900307
 31
0.0
  0
LINE
  5
468
330
36
100
AcDbEntity
  8
2-0
  6
Continuous
 62
     0
100
AcDbLine
 10
3309.060955392284
 20
248.303138900307
 30
0.0
 11
3305.741266670131
 21
251.749582227929
 31
0.0
  0
LINE
  5
469
330
36
100
AcDbEntity
  8
2-0
  6
Continuous
 62
     0
100
AcDbLine
 10
3305.741266670131
 20
251.749582227929
 30
0.0
 11
3302.199359570585
 21
254.967220946102
 31
0.0
  0
LINE
  5
46A
330
36
100
AcDbEntity
  8
2-0
  6
Continuous
 62
     0
100
AcDbLine
 10
3302.199359570585
 20
254.967220946102
 30
0.0
 11
3298.450970073542
 21
257.94175973404
 31
0.0
  0
LINE
  5
46B
330
36
100
AcDbEntity
  8
2-0
  6
Continuous
 62
     0
100
AcDbLine
 10
3298.450970073542
 20
257.94175973404
 30
0.0
 11
3294.512751518601
 21
260.659983314988
 31
0.0
  0
LINE
  5
46C
330
36
100
AcDbEntity
  8
2-0
  6
Continuous
 62
     0
100
AcDbLine
 10
3294.512751518601
 20
260.659983314988
 30
0.0
 11
3290.402200617638
 21
263.109815169033
 31
0.0
  0
LINE
  5
46D
330
36
100
AcDbEntity
  8
2-0
  6
Continuous
 62
     0
100
AcDbLine
 10
3290.402200617638
 20
263.109815169033
 30
0.0
 11
3286.137579720431
 21
265.280371186647
 31
0.0
  0
LINE
  5
46E
330
36
100
AcDbEntity
  8
2-0
  6
Continuous
 62
     0
100
AcDbLine
 10
3286.137579720431
 20
265.280371186647
 30
0.0
 11
3281.737835678721
 21
267.1620080246
 31
0.0
  0
LINE
  5
46F
330
36
100
AcDbEntity
  8
2-0
  6
Continuous
 62
     0
100
AcDbLine
 10
3281.737835678721
 20
267.1620080246
 30
0.0
 11
3277.222515669168
 21
268.746365949386
 31
0.0
  0
LINE
  5
470
330
36
100
AcDbEntity
  8
2-0
  6
Continuous
 62
     0
100
AcDbLine
 10
3277.222515669168
 20
268.746365949386
 30
0.0
 11
3272.611680349181
 21
270.026405977839
 31
0.0
  0
LINE
  5
471
330
36
100
AcDbEntity
  8
2-0
  6
Continuous
 62
     0
100
AcDbLine
 10
3272.611680349181
 20
270.026405977839
 30
0.0
 11
3267.925814731449
 21
270.996441149916
 31
0.0
  0
LINE
  5
472
330
36
100
AcDbEntity
  8
2-0
  6
Continuous
 62
     0
100
AcDbLine
 10
3267.925814731449
 20
270.996441149916
 30
0.0
 11
3263.18573717317
 21
271.652161794713
 31
0.0
  0
LINE
  5
473
330
36
100
AcDbEntity
  8
2-0
  6
Continuous
 62
     0
100
AcDbLine
 10
3263.18573717317
 20
271.652161794713
 30
0.0
 11
3258.412506884276
 21
271.990654677471
 31
0.0
  0
LINE
  5
474
330
36
100
AcDbEntity
  8
2-0
  6
Continuous
 62
     0
100
AcDbLine
 10
3258.412506884276
 20
271.990654677471
 30
0.0
 11
3253.627330365598
 21
272.010415942484
 31
0.0
  0
LINE
  5
475
330
36
100
AcDbEntity
  8
2-0
  6
Continuous
 62
     0
100
AcDbLine
 10
3253.627330365598
 20
272.010415942484
 30
0.0
 11
3248.851467192665
 21
271.711357794431
 31
0.0
  0
LINE
  5
476
330
36
100
AcDbEntity
  8
2-0
  6
Continuous
 62
     0
100
AcDbLine
 10
3248.851467192665
 20
271.711357794431
 30
0.0
 11
3244.106135563683
 21
271.094808888433
 31
0.0
  0
LINE
  5
477
330
36
100
AcDbEntity
  8
2-0
  6
Continuous
 62
     0
100
AcDbLine
 10
3244.106135563683
 20
271.094808888433
 30
0.0
 11
3239.41241803136
 21
270.163508427106
 31
0.0
  0
LINE
  5
478
330
36
100
AcDbEntity
  8
2-0
  6
Continuous
 62
     0
100
AcDbLine
 10
3239.41241803136
 20
270.163508427106
 30
0.0
 11
3234.791167837368
 21
268.921593990833
 31
0.0
  0
LINE
  5
479
330
36
100
AcDbEntity
  8
2-0
  6
Continuous
 62
     0
100
AcDbLine
 10
3234.791167837368
 20
268.921593990833
 30
0.0
 11
3230.262916265587
 21
267.374583155331
 31
0.0
  0
LINE
  5
47A
330
36
100
AcDbEntity
  8
2-0
  6
Continuous
 62
     0
100
AcDbLine
 10
3230.262916265587
 20
267.374583155331
 30
0.0
 11
3225.847781425751
 21
265.529348978168
 31
0.0
  0
LINE
  5
47B
330
36
100
AcDbEntity
  8
2-0
  6
Continuous
 62
     0
100
AcDbLine
 10
3225.847781425751
 20
265.529348978168
 30
0.0
 11
3221.565378872735
 21
263.394089463162
 31
0.0
  0
LINE
  5
47C
330
36
100
AcDbEntity
  8
2-0
  6
Continuous
 62
     0
100
AcDbLine
 10
3221.565378872735
 20
263.394089463162
 30
0.0
 11
3217.434734458598
 21
260.97829113829
 31
0.0
  0
LINE
  5
47D
330
36
100
AcDbEntity
  8
2-0
  6
Continuous
 62
     0
100
AcDbLine
 10
3217.434734458598
 20
260.97829113829
 30
0.0
 11
3213.474199804549
 21
258.292686908963
 31
0.0
  0
LINE
  5
47E
330
36
100
AcDbEntity
  8
2-0
  6
Continuous
 62
     0
100
AcDbLine
 10
3213.474199804549
 20
258.292686908963
 30
0.0
 11
3209.701370768397
 21
255.349208373885
 31
0.0
  0
LINE
  5
47F
330
36
100
AcDbEntity
  8
2-0
  6
Continuous
 62
     0
100
AcDbLine
 10
3209.701370768397
 20
255.349208373885
 30
0.0
 11
3206.133009269694
 21
252.160932815364
 31
0.0
  0
LINE
  5
480
330
36
100
AcDbEntity
  8
2-0
  6
Continuous
 62
     0
100
AcDbLine
 10
3206.133009269694
 20
252.160932815364
 30
0.0
 11
3202.7849688199
 21
248.742025099582
 31
0.0
  0
LINE
  5
481
330
36
100
AcDbEntity
  8
2-0
  6
Continuous
 62
     0
100
AcDbLine
 10
3202.7849688199
 20
248.742025099582
 30
0.0
 11
3199.672124088431
 21
245.107674744942
 31
0.0
  0
LINE
  5
482
330
36
100
AcDbEntity
  8
2-0
  6
Continuous
 62
     0
100
AcDbLine
 10
3199.672124088431
 20
245.107674744942
 30
0.0
 11
3196.808304817496
 21
241.274028438106
 31
0.0
  0
LINE
  5
483
330
36
100
AcDbEntity
  8
2-0
  6
Continuous
 62
     0
100
AcDbLine
 10
3196.808304817496
 20
241.274028438106
 30
0.0
 11
3194.206234379338
 21
237.258118297508
 31
0.0
  0
LINE
  5
484
330
36
100
AcDbEntity
  8
2-0
  6
Continuous
 62
     0
100
AcDbLine
 10
3194.206234379338
 20
237.258118297508
 30
0.0
 11
3191.877473248847
 21
233.077786203091
 31
0.0
  0
LINE
  5
485
330
36
100
AcDbEntity
  8
2-0
  6
Continuous
 62
     0
100
AcDbLine
 10
3191.877473248847
 20
233.077786203091
 30
0.0
 11
3189.832367642712
 21
228.751604528422
 31
0.0
  0
LINE
  5
486
330
36
100
AcDbEntity
  8
2-0
  6
Continuous
 62
     0
100
AcDbLine
 10
3189.832367642712
 20
228.751604528422
 30
0.0
 11
3188.080003553249
 21
224.298793627378
 31
0.0
  0
LINE
  5
487
330
36
100
AcDbEntity
  8
2-0
  6
Continuous
 62
     0
100
AcDbLine
 10
3188.080003553249
 20
224.298793627378
 30
0.0
 11
3186.62816638118
 21
219.739136441987
 31
0.0
  0
LINE
  5
488
330
36
100
AcDbEntity
  8
2-0
  6
Continuous
 62
     0
100
AcDbLine
 10
3186.62816638118
 20
219.739136441987
 30
0.0
 11
3185.483306346654
 21
215.092890610798
 31
0.0
  0
LINE
  5
489
330
36
100
AcDbEntity
  8
2-0
  6
Continuous
 62
     0
100
AcDbLine
 10
3185.483306346654
 20
215.092890610798
 30
0.0
 11
3184.650509832231
 21
210.380698468275
 31
0.0
  0
LINE
  5
48A
330
36
100
AcDbEntity
  8
2-0
  6
Continuous
 62
     0
100
AcDbLine
 10
3184.650509832231
 20
210.380698468275
 30
0.0
 11
3184.133476785094
 21
205.623495335061
 31
0.0
  0
LINE
  5
48B
330
36
100
AcDbEntity
  8
2-0
  6
Continuous
 62
     0
100
AcDbLine
 10
3184.133476785094
 20
205.623495335061
 30
0.0
 11
3183.934504278943
 21
200.842416506565
 31
0.0
  0
LINE
  5
48C
330
36
100
AcDbEntity
  8
2-0
  6
Continuous
 62
     0
100
AcDbLine
 10
3183.934504278943
 20
200.842416506565
 30
0.0
 11
3184.054476308545
 21
196.058703353103
 31
0.0
  0
LINE
  5
48D
330
36
100
AcDbEntity
  8
2-0
  6
Continuous
 62
     0
100
AcDbLine
 10
3184.054476308545
 20
196.058703353103
 30
0.0
 11
3184.492859862339
 21
191.293608948765
 31
0.0
  0
LINE
  5
48E
330
36
100
AcDbEntity
  8
2-0
  6
Continuous
 62
     0
100
AcDbLine
 10
3184.492859862339
 20
191.293608948765
 30
0.0
 11
3185.247707290486
 21
186.568303648289
 31
0.0
  0
LINE
  5
48F
330
36
100
AcDbEntity
  8
2-0
  6
Continuous
 62
     0
100
AcDbLine
 10
3185.247707290486
 20
186.568303648289
 30
0.0
 11
3186.31566495789
 21
181.903781031436
 31
0.0
  0
LINE
  5
490
330
36
100
AcDbEntity
  8
2-0
  6
Continuous
 62
     0
100
AcDbLine
 10
3186.31566495789
 20
181.903781031436
 30
0.0
 11
3187.691988143724
 21
177.32076463275
 31
0.0
  0
LINE
  5
491
330
36
100
AcDbEntity
  8
2-0
  6
Continuous
 62
     0
100
AcDbLine
 10
3187.691988143724
 20
177.32076463275
 30
0.0
 11
3189.370562121268
 21
172.839615871059
 31
0.0
  0
LINE
  5
492
330
36
100
AcDbEntity
  8
2-0
  6
Continuous
 62
     0
100
AcDbLine
 10
3189.370562121268
 20
172.839615871059
 30
0.0
 11
3191.343929324409
 21
168.480243587798
 31
0.0
  0
LINE
  5
493
330
36
100
AcDbEntity
  8
2-0
  6
Continuous
 62
     0
100
AcDbLine
 10
3191.343929324409
 20
168.480243587798
 30
0.0
 11
3193.603322480103
 21
164.262015596035
 31
0.0
  0
LINE
  5
494
330
36
100
AcDbEntity
  8
2-0
  6
Continuous
 62
     0
100
AcDbLine
 10
3193.603322480103
 20
164.262015596035
 30
0.0
 11
3196.138703559607
 21
160.203672633175
 31
0.0
  0
LINE
  5
495
330
36
100
AcDbEntity
  8
2-0
  6
Continuous
 62
     0
100
AcDbLine
 10
3196.138703559607
 20
160.203672633175
 30
0.0
 11
3198.938808375415
 21
156.323245099645
 31
0.0
  0
LINE
  5
496
330
36
100
AcDbEntity
  8
2-0
  6
Continuous
 62
     0
100
AcDbLine
 10
3198.938808375415
 20
156.323245099645
 30
0.0
 11
3201.991196625779
 21
152.637972953448
 31
0.0
  0
LINE
  5
497
330
36
100
AcDbEntity
  8
2-0
  6
Continuous
 62
     0
100
AcDbLine
 10
3201.991196625779
 20
152.637972953448
 30
0.0
 11
3205.28230716446
 21
149.164229116507
 31
0.0
  0
LINE
  5
498
330
36
100
AcDbEntity
  8
2-0
  6
Continuous
 62
     0
100
AcDbLine
 10
3205.28230716446
 20
149.164229116507
 30
0.0
 11
3208.797518250171
 21
145.917446733072
 31
0.0
  0
LINE
  5
499
330
36
100
AcDbEntity
  8
2-0
  6
Continuous
 62
     0
100
AcDbLine
 10
3208.797518250171
 20
145.917446733072
 30
0.0
 11
3212.521212508031
 21
142.912050603361
 31
0.0
  0
LINE
  5
49A
330
36
100
AcDbEntity
  8
2-0
  6
Continuous
 62
     0
100
AcDbLine
 10
3212.521212508031
 20
142.912050603361
 30
0.0
 11
3216.436846314411
 21
140.1613930970859
 31
0.0
  0
LINE
  5
49B
330
36
100
AcDbEntity
  8
2-0
  6
Continuous
 62
     0
100
AcDbLine
 10
3216.436846314411
 20
140.1613930970859
 30
0.0
 11
3220.527023296928
 21
137.677694831559
 31
0.0
  0
LINE
  5
49C
330
36
100
AcDbEntity
  8
2-0
  6
Continuous
 62
     0
100
AcDbLine
 10
3220.527023296928
 20
137.677694831559
 30
0.0
 11
3224.77357162302
 21
135.47199037795
 31
0.0
  0
LINE
  5
49D
330
36
100
AcDbEntity
  8
2-0
  6
Continuous
 62
     0
100
AcDbLine
 10
3224.77357162302
 20
135.47199037795
 30
0.0
 11
3229.157624733737
 21
133.554079236914
 31
0.0
  0
LINE
  5
49E
330
36
100
AcDbEntity
  8
2-0
  6
Continuous
 62
     0
100
AcDbLine
 10
3229.157624733737
 20
133.554079236914
 30
0.0
 11
3233.659705164067
 21
131.932482301378
 31
0.0
  0
LINE
  5
49F
330
36
100
AcDbEntity
  8
2-0
  6
Continuous
 62
     0
100
AcDbLine
 10
3233.659705164067
 20
131.932482301378
 30
0.0
 11
3238.259811077387
 21
130.614403999934
 31
0.0
  0
LINE
  5
4A0
330
36
100
AcDbEntity
  8
2-0
  6
Continuous
 62
     0
100
AcDbLine
 10
3238.259811077387
 20
130.614403999934
 30
0.0
 11
3242.937505129596
 21
129.605700289011
 31
0.0
  0
LINE
  5
4A1
330
36
100
AcDbEntity
  8
2-0
  6
Continuous
 62
     0
100
AcDbLine
 10
3242.937505129596
 20
129.605700289011
 30
0.0
 11
3247.672005268119
 21
128.910852636041
 31
0.0
  0
LINE
  5
4A2
330
36
100
AcDbEntity
  8
2-0
  6
Continuous
 62
     0
100
AcDbLine
 10
3247.672005268119
 20
128.910852636041
 30
0.0
 11
3252.442277062376
 21
128.532948109204
 31
0.0
  0
LINE
  5
4A3
330
36
100
AcDbEntity
  8
2-0
  6
Continuous
 62
     0
100
AcDbLine
 10
3252.442277062376
 20
128.532948109204
 30
0.0
 11
3257.227127155533
 21
128.4736656622
 31
0.0
  0
LINE
  5
4A4
330
36
100
AcDbEntity
  8
2-0
  6
Continuous
 62
     0
100
AcDbLine
 10
3257.227127155533
 20
128.4736656622
 30
0.0
 11
3262.005297422302
 21
128.733268675002
 31
0.0
  0
LINE
  5
4A5
330
36
100
AcDbEntity
  8
2-0
  6
Continuous
 62
     0
100
AcDbLine
 10
3262.005297422302
 20
128.733268675002
 30
0.0
 11
3266.755559414525
 21
129.3106037837089
 31
0.0
  0
LINE
  5
4A6
330
36
100
AcDbEntity
  8
2-0
  6
Continuous
 62
     0
100
AcDbLine
 10
3266.755559414525
 20
129.3106037837089
 30
0.0
 11
3271.456808674883
 21
130.20310600471
 31
0.0
  0
LINE
  5
4A7
330
36
100
AcDbEntity
  8
2-0
  6
Continuous
 62
     0
100
AcDbLine
 10
3271.456808674883
 20
130.20310600471
 30
0.0
 11
3276.088158499753
 21
131.4068101303879
 31
0.0
  0
LINE
  5
4A8
330
36
100
AcDbEntity
  8
2-0
  6
Continuous
 62
     0
100
AcDbLine
 10
3276.088158499753
 20
131.4068101303879
 30
0.0
 11
3280.629032734629
 21
132.916368345743
 31
0.0
  0
LINE
  5
4A9
330
36
100
AcDbEntity
  8
2-0
  6
Continuous
 62
     0
100
AcDbLine
 10
3280.629032734629
 20
132.916368345743
 30
0.0
 11
3285.059257189826
 21
134.72507398765
 31
0.0
  0
LINE
  5
4AA
330
36
100
AcDbEntity
  8
2-0
  6
Continuous
 62
     0
100
AcDbLine
 10
3285.059257189826
 20
134.72507398765
 30
0.0
 11
3289.359149270348
 21
136.824891341222
 31
0.0
  0
LINE
  5
4AB
330
36
100
AcDbEntity
  8
2-0
  6
Continuous
 62
     0
100
AcDbLine
 10
3289.359149270348
 20
136.824891341222
 30
0.0
 11
3293.509605421689
 21
139.206491340863
 31
0.0
  0
LINE
  5
4AC
330
36
100
AcDbEntity
  8
2-0
  6
Continuous
 62
     0
100
AcDbLine
 10
3293.509605421689
 20
139.206491340863
 30
0.0
 11
3297.49218600308
 21
141.859293017436
 31
0.0
  0
LINE
  5
4AD
330
36
100
AcDbEntity
  8
2-0
  6
Continuous
 62
     0
100
AcDbLine
 10
3297.49218600308
 20
141.859293017436
 30
0.0
 11
3301.289197211098
 21
144.77151050737
 31
0.0
  0
LINE
  5
4AE
330
36
100
AcDbEntity
  8
2-0
  6
Continuous
 62
     0
100
AcDbLine
 10
3301.289197211098
 20
144.77151050737
 30
0.0
 11
3304.883769689674
 21
147.930205414887
 31
0.0
  0
LINE
  5
4AF
330
36
100
AcDbEntity
  8
2-0
  6
Continuous
 62
     0
100
AcDbLine
 10
3304.883769689674
 20
147.930205414887
 30
0.0
 11
3308.259933477238
 21
151.321344294679
 31
0.0
  0
LINE
  5
4B0
330
36
100
AcDbEntity
  8
2-0
  6
Continuous
 62
     0
100
AcDbLine
 10
3308.259933477238
 20
151.321344294679
 30
0.0
 11
3311.402688958049
 21
154.929860999686
 31
0.0
  0
LINE
  5
4B1
330
36
100
AcDbEntity
  8
2-0
  6
Continuous
 62
     0
100
AcDbLine
 10
3311.402688958049
 20
154.929860999686
 30
0.0
 11
3314.298073502466
 21
158.739723616953
 31
0.0
  0
LINE
  5
4B2
330
36
100
AcDbEntity
  8
2-0
  6
Continuous
 62
     0
100
AcDbLine
 10
3314.298073502466
 20
158.739723616953
 30
0.0
 11
3316.933223500094
 21
162.734005694185
 31
0.0
  0
LINE
  5
4B3
330
36
100
AcDbEntity
  8
2-0
  6
Continuous
 62
     0
100
AcDbLine
 10
3316.933223500094
 20
162.734005694185
 30
0.0
 11
3319.296431510219
 21
166.89496144057
 31
0.0
  0
LINE
  5
4B4
330
36
100
AcDbEntity
  8
2-0
  6
Continuous
 62
     0
100
AcDbLine
 10
3319.296431510219
 20
166.89496144057
 30
0.0
 11
3321.377198275607
 21
171.204104567754
 31
0.0
  0
LINE
  5
4B5
330
36
100
AcDbEntity
  8
2-0
  6
Continuous
 62
     0
100
AcDbLine
 10
3321.377198275607
 20
171.204104567754
 30
0.0
 11
3323.166279368589
 21
175.6422904206919
 31
0.0
  0
LINE
  5
4B6
330
36
100
AcDbEntity
  8
2-0
  6
Continuous
 62
     0
100
AcDbLine
 10
3323.166279368589
 20
175.6422904206919
 30
0.0
 11
3324.655726262196
 21
180.189801033502
 31
0.0
  0
LINE
  5
4B7
330
36
100
AcDbEntity
  8
2-0
  6
Continuous
 62
     0
100
AcDbLine
 10
3324.655726262196
 20
180.189801033502
 30
0.0
 11
3325.838921643858
 21
184.826432732409
 31
0.0
  0
LINE
  5
4B8
330
36
100
AcDbEntity
  8
2-0
  6
Continuous
 62
     0
100
AcDbLine
 10
3325.838921643858
 20
184.826432732409
 30
0.0
 11
3326.710608814791
 21
189.531585896603
 31
0.0
  0
LINE
  5
4B9
330
36
100
AcDbEntity
  8
2-0
  6
Continuous
 62
     0
100
AcDbLine
 10
3326.710608814791
 20
189.531585896603
 30
0.0
 11
3327.266915044454
 21
194.284356478203
 31
0.0
  0
LINE
  5
4BA
330
36
100
AcDbEntity
  8
2-0
  6
Continuous
 62
     0
100
AcDbLine
 10
3327.266915044454
 20
194.284356478203
 30
0.0
 11
3327.505368776311
 21
199.063628874736
 31
0.0
  0
LINE
  5
4BB
330
36
100
AcDbEntity
  8
2-0
  6
Continuous
 62
     0
100
AcDbLine
 10
3327.505368776311
 20
199.063628874736
 30
0.0
 11
3327.515163272149
 21
200.249473813233
 31
0.0
  0
LINE
  5
4BC
330
36
100
AcDbEntity
  8
2-0
  6
Continuous
 62
     0
100
AcDbLine
 10
3304.153838792561
 20
159.254611225908
 30
0.0
 11
3306.777222766363
 21
162.571968056725
 31
0.0
  0
LINE
  5
4BD
330
36
100
AcDbEntity
  8
2-0
  6
Continuous
 62
     0
100
AcDbLine
 10
3306.777222766363
 20
162.571968056725
 30
0.0
 11
3309.173785818481
 21
166.056718457284
 31
0.0
  0
LINE
  5
4BE
330
36
100
AcDbEntity
  8
2-0
  6
Continuous
 62
     0
100
AcDbLine
 10
3309.173785818481
 20
166.056718457284
 30
0.0
 11
3311.332880501947
 21
169.693380383391
 31
0.0
  0
LINE
  5
4BF
330
36
100
AcDbEntity
  8
2-0
  6
Continuous
 62
     0
100
AcDbLine
 10
3311.332880501947
 20
169.693380383391
 30
0.0
 11
3313.244914393925
 21
173.465796878541
 31
0.0
  0
LINE
  5
4C0
330
36
100
AcDbEntity
  8
2-0
  6
Continuous
 62
     0
100
AcDbLine
 10
3313.244914393925
 20
173.465796878541
 30
0.0
 11
3314.901392712929
 21
177.35720785602
 31
0.0
  0
LINE
  5
4C1
330
36
100
AcDbEntity
  8
2-0
  6
Continuous
 62
     0
100
AcDbLine
 10
3314.901392712929
 20
177.35720785602
 30
0.0
 11
3316.2949560594
 21
181.350324560593
 31
0.0
  0
LINE
  5
4C2
330
36
100
AcDbEntity
  8
2-0
  6
Continuous
 62
     0
100
AcDbLine
 10
3316.2949560594
 20
181.350324560593
 30
0.0
 11
3317.419413112058
 21
185.427406378964
 31
0.0
  0
LINE
  5
4C3
330
36
100
AcDbEntity
  8
2-0
  6
Continuous
 62
     0
100
AcDbLine
 10
3317.419413112058
 20
185.427406378964
 30
0.0
 11
3318.269768134687
 21
189.570339657748
 31
0.0
  0
LINE
  5
4C4
330
36
100
AcDbEntity
  8
2-0
  6
Continuous
 62
     0
100
AcDbLine
 10
3318.269768134687
 20
189.570339657748
 30
0.0
 11
3318.842243171183
 21
193.760718178783
 31
0.0
  0
LINE
  5
4C5
330
36
100
AcDbEntity
  8
2-0
  6
Continuous
 62
     0
100
AcDbLine
 10
3318.842243171183
 20
193.760718178783
 30
0.0
 11
3319.134294830258
 21
197.979924934252
 31
0.0
  0
LINE
  5
4C6
330
36
100
AcDbEntity
  8
2-0
  6
Continuous
 62
     0
100
AcDbLine
 10
3319.134294830258
 20
197.979924934252
 30
0.0
 11
3319.144625585212
 21
202.209214838298
 31
0.0
  0
LINE
  5
4C7
330
36
100
AcDbEntity
  8
2-0
  6
Continuous
 62
     0
100
AcDbLine
 10
3319.144625585212
 20
202.209214838298
 30
0.0
 11
3318.873189538578
 21
206.429798007666
 31
0.0
  0
LINE
  5
4C8
330
36
100
AcDbEntity
  8
2-0
  6
Continuous
 62
     0
100
AcDbLine
 10
3318.873189538578
 20
206.429798007666
 30
0.0
 11
3318.321192626046
 21
210.622923241369
 31
0.0
  0
LINE
  5
4C9
330
36
100
AcDbEntity
  8
2-0
  6
Continuous
 62
     0
100
AcDbLine
 10
3318.321192626046
 20
210.622923241369
 30
0.0
 11
3317.491087258723
 21
214.769961328499
 31
0.0
  0
LINE
  5
4CA
330
36
100
AcDbEntity
  8
2-0
  6
Continuous
 62
     0
100
AcDbLine
 10
3317.491087258723
 20
214.769961328499
 30
0.0
 11
3316.386561427574
 21
218.852487814058
 31
0.0
  0
LINE
  5
4CB
330
36
100
AcDbEntity
  8
2-0
  6
Continuous
 62
     0
100
AcDbLine
 10
3316.386561427574
 20
218.852487814058
 30
0.0
 11
3315.012522318408
 21
222.8523648551
 31
0.0
  0
LINE
  5
4CC
330
36
100
AcDbEntity
  8
2-0
  6
Continuous
 62
     0
100
AcDbLine
 10
3315.012522318408
 20
222.8523648551
 30
0.0
 11
3313.375074510258
 21
226.751821803515
 31
0.0
  0
LINE
  5
4CD
330
36
100
AcDbEntity
  8
2-0
  6
Continuous
 62
     0
100
AcDbLine
 10
3313.375074510258
 20
226.751821803515
 30
0.0
 11
3311.481492853946
 21
230.533534157442
 31
0.0
  0
LINE
  5
4CE
330
36
100
AcDbEntity
  8
2-0
  6
Continuous
 62
     0
100
AcDbLine
 10
3311.481492853946
 20
230.533534157442
 30
0.0
 11
3309.340190151401
 21
234.180700530538
 31
0.0
  0
LINE
  5
4CF
330
36
100
AcDbEntity
  8
2-0
  6
Continuous
 62
     0
100
AcDbLine
 10
3309.340190151401
 20
234.180700530538
 30
0.0
 11
3306.960679779268
 21
237.677117297154
 31
0.0
  0
LINE
  5
4D0
330
36
100
AcDbEntity
  8
2-0
  6
Continuous
 62
     0
100
AcDbLine
 10
3306.960679779268
 20
237.677117297154
 30
0.0
 11
3304.353533422889
 21
241.007250581782
 31
0.0
  0
LINE
  5
4D1
330
36
100
AcDbEntity
  8
2-0
  6
Continuous
 62
     0
100
AcDbLine
 10
3304.353533422889
 20
241.007250581782
 30
0.0
 11
3301.530334108441
 21
244.156305272935
 31
0.0
  0
LINE
  5
4D2
330
36
100
AcDbEntity
  8
2-0
  6
Continuous
 62
     0
100
AcDbLine
 10
3301.530334108441
 20
244.156305272935
 30
0.0
 11
3298.503624741882
 21
247.110290754847
 31
0.0
  0
LINE
  5
4D3
330
36
100
AcDbEntity
  8
2-0
  6
Continuous
 62
     0
100
AcDbLine
 10
3298.503624741882
 20
247.110290754847
 30
0.0
 11
3295.286852383339
 21
249.856083064962
 31
0.0
  0
LINE
  5
4D4
330
36
100
AcDbEntity
  8
2-0
  6
Continuous
 62
     0
100
AcDbLine
 10
3295.286852383339
 20
249.856083064962
 30
0.0
 11
3291.894308504537
 21
252.381483201053
 31
0.0
  0
LINE
  5
4D5
330
36
100
AcDbEntity
  8
2-0
  6
Continuous
 62
     0
100
AcDbLine
 10
3291.894308504537
 20
252.381483201053
 30
0.0
 11
3288.341065494662
 21
254.675271318938
 31
0.0
  0
LINE
  5
4D6
330
36
100
AcDbEntity
  8
2-0
  6
Continuous
 62
     0
100
AcDbLine
 10
3288.341065494662
 20
254.675271318938
 30
0.0
 11
3284.642909696779
 21
256.727256579983
 31
0.0
  0
LINE
  5
4D7
330
36
100
AcDbEntity
  8
2-0
  6
Continuous
 62
     0
100
AcDbLine
 10
3284.642909696779
 20
256.727256579983
 30
0.0
 11
3280.816271272278
 21
258.528322426947
 31
0.0
  0
LINE
  5
4D8
330
36
100
AcDbEntity
  8
2-0
  6
Continuous
 62
     0
100
AcDbLine
 10
3280.816271272278
 20
258.528322426947
 30
0.0
 11
3276.878151204986
 21
260.070467087012
 31
0.0
  0
LINE
  5
4D9
330
36
100
AcDbEntity
  8
2-0
  6
Continuous
 62
     0
100
AcDbLine
 10
3276.878151204986
 20
260.070467087012
 30
0.0
 11
3272.846045769216
 21
261.346839122043
 31
0.0
  0
LINE
  5
4DA
330
36
100
AcDbEntity
  8
2-0
  6
Continuous
 62
     0
100
AcDbLine
 10
3272.846045769216
 20
261.346839122043
 30
0.0
 11
3268.737868797347
 21
262.351767868155
 31
0.0
  0
LINE
  5
4DB
330
36
100
AcDbEntity
  8
2-0
  6
Continuous
 62
     0
100
AcDbLine
 10
3268.737868797347
 20
262.351767868155
 30
0.0
 11
3264.571872092263
 21
263.080788629321
 31
0.0
  0
LINE
  5
4DC
330
36
100
AcDbEntity
  8
2-0
  6
Continuous
 62
     0
100
AcDbLine
 10
3264.571872092263
 20
263.080788629321
 30
0.0
 11
3260.366564338288
 21
263.530662513127
 31
0.0
  0
LINE
  5
4DD
330
36
100
AcDbEntity
  8
2-0
  6
Continuous
 62
     0
100
AcDbLine
 10
3260.366564338288
 20
263.530662513127
 30
0.0
 11
3256.140628870814
 21
263.699390820514
 31
0.0
  0
LINE
  5
4DE
330
36
100
AcDbEntity
  8
2-0
  6
Continuous
 62
     0
100
AcDbLine
 10
3256.140628870814
 20
263.699390820514
 30
0.0
 11
3251.912840670009
 21
263.586223925592
 31
0.0
  0
LINE
  5
4DF
330
36
100
AcDbEntity
  8
2-0
  6
Continuous
 62
     0
100
AcDbLine
 10
3251.912840670009
 20
263.586223925592
 30
0.0
 11
3247.701982947364
 21
263.191664606085
 31
0.0
  0
LINE
  5
4E0
330
36
100
AcDbEntity
  8
2-0
  6
Continuous
 62
     0
100
AcDbLine
 10
3247.701982947364
 20
263.191664606085
 30
0.0
 11
3243.526763695665
 21
262.517465809584
 31
0.0
  0
LINE
  5
4E1
330
36
100
AcDbEntity
  8
2-0
  6
Continuous
 62
     0
100
AcDbLine
 10
3243.526763695665
 20
262.517465809584
 30
0.0
 11
3239.405732573145
 21
261.566622865556
 31
0.0
  0
LINE
  5
4E2
330
36
100
AcDbEntity
  8
2-0
  6
Continuous
 62
     0
100
AcDbLine
 10
3239.405732573145
 20
261.566622865556
 30
0.0
 11
3235.357198491101
 21
260.343360177701
 31
0.0
  0
LINE
  5
4E3
330
36
100
AcDbEntity
  8
2-0
  6
Continuous
 62
     0
100
AcDbLine
 10
3235.357198491101
 20
260.343360177701
 30
0.0
 11
3231.399148271075
 21
258.853112455772
 31
0.0
  0
LINE
  5
4E4
330
36
100
AcDbEntity
  8
2-0
  6
Continuous
 62
     0
100
AcDbLine
 10
3231.399148271075
 20
258.853112455772
 30
0.0
 11
3227.549166733032
 21
257.102500570258
 31
0.0
  0
LINE
  5
4E5
330
36
100
AcDbEntity
  8
2-0
  6
Continuous
 62
     0
100
AcDbLine
 10
3227.549166733032
 20
257.102500570258
 30
0.0
 11
3223.824358569554
 21
255.09930213719
 31
0.0
  0
LINE
  5
4E6
330
36
100
AcDbEntity
  8
2-0
  6
Continuous
 62
     0
100
AcDbLine
 10
3223.824358569554
 20
255.09930213719
 30
0.0
 11
3220.241272353122
 21
252.852416963757
 31
0.0
  0
LINE
  5
4E7
330
36
100
AcDbEntity
  8
2-0
  6
Continuous
 62
     0
100
AcDbLine
 10
3220.241272353122
 20
252.852416963757
 30
0.0
 11
3216.815827014158
 21
250.371827508257
 31
0.0
  0
LINE
  5
4E8
330
36
100
AcDbEntity
  8
2-0
  6
Continuous
 62
     0
100
AcDbLine
 10
3216.815827014158
 20
250.371827508257
 30
0.0
 11
3213.563241116408
 21
247.668554530045
 31
0.0
  0
LINE
  5
4E9
330
36
100
AcDbEntity
  8
2-0
  6
Continuous
 62
     0
100
AcDbLine
 10
3213.563241116408
 20
247.668554530045
 30
0.0
 11
3210.49796524394
 21
244.754608126517
 31
0.0
  0
LINE
  5
4EA
330
36
100
AcDbEntity
  8
2-0
  6
Continuous
 62
     0
100
AcDbLine
 10
3210.49796524394
 20
244.754608126517
 30
0.0
 11
3207.633617800101
 21
241.64293437467
 31
0.0
  0
LINE
  5
4EB
330
36
100
AcDbEntity
  8
2-0
  6
Continuous
 62
     0
100
AcDbLine
 10
3207.633617800101
 20
241.64293437467
 30
0.0
 11
3204.982924503697
 21
238.347357814283
 31
0.0
  0
LINE
  5
4EC
330
36
100
AcDbEntity
  8
2-0
  6
Continuous
 62
     0
100
AcDbLine
 10
3204.982924503697
 20
238.347357814283
 30
0.0
 11
3202.557661851189
 21
234.88252002828
 31
0.0
  0
LINE
  5
4ED
330
36
100
AcDbEntity
  8
2-0
  6
Continuous
 62
     0
100
AcDbLine
 10
3202.557661851189
 20
234.88252002828
 30
0.0
 11
3200.36860479609
 21
231.263814593116
 31
0.0
  0
LINE
  5
4EE
330
36
100
AcDbEntity
  8
2-0
  6
Continuous
 62
     0
100
AcDbLine
 10
3200.36860479609
 20
231.263814593116
 30
0.0
 11
3198.425478878013
 21
227.507318688225
 31
0.0
  0
LINE
  5
4EF
330
36
100
AcDbEntity
  8
2-0
  6
Continuous
 62
     0
100
AcDbLine
 10
3198.425478878013
 20
227.507318688225
 30
0.0
 11
3196.736917014062
 21
223.629721668346
 31
0.0
  0
LINE
  5
4F0
330
36
100
AcDbEntity
  8
2-0
  6
Continuous
 62
     0
100
AcDbLine
 10
3196.736917014062
 20
223.629721668346
 30
0.0
 11
3195.310421144519
 21
219.64825091608
 31
0.0
  0
LINE
  5
4F1
330
36
100
AcDbEntity
  8
2-0
  6
Continuous
 62
     0
100
AcDbLine
 10
3195.310421144519
 20
219.64825091608
 30
0.0
 11
3194.152328903234
 21
215.580595304104
 31
0.0
  0
LINE
  5
4F2
330
36
100
AcDbEntity
  8
2-0
  6
Continuous
 62
     0
100
AcDbLine
 10
3194.152328903234
 20
215.580595304104
 30
0.0
 11
3193.267785460791
 21
211.444826607067
 31
0.0
  0
LINE
  5
4F3
330
36
100
AcDbEntity
  8
2-0
  6
Continuous
 62
     0
100
AcDbLine
 10
3193.267785460791
 20
211.444826607067
 30
0.0
 11
3192.660720665557
 21
207.259319212335
 31
0.0
  0
LINE
  5
4F4
330
36
100
AcDbEntity
  8
2-0
  6
Continuous
 62
     0
100
AcDbLine
 10
3192.660720665557
 20
207.259319212335
 30
0.0
 11
3192.333831584152
 21
203.042668486294
 31
0.0
  0
LINE
  5
4F5
330
36
100
AcDbEntity
  8
2-0
  6
Continuous
 62
     0
100
AcDbLine
 10
3192.333831584152
 20
203.042668486294
 30
0.0
 11
3192.28857051893
 21
198.813608158876
 31
0.0
  0
LINE
  5
4F6
330
36
100
AcDbEntity
  8
2-0
  6
Continuous
 62
     0
100
AcDbLine
 10
3192.28857051893
 20
198.813608158876
 30
0.0
 11
3192.525138555686
 21
194.5909270933739
 31
0.0
  0
LINE
  5
4F7
330
36
100
AcDbEntity
  8
2-0
  6
Continuous
 62
     0
100
AcDbLine
 10
3192.525138555686
 20
194.5909270933739
 30
0.0
 11
3193.042484670279
 21
190.393385811304
 31
0.0
  0
LINE
  5
4F8
330
36
100
AcDbEntity
  8
2-0
  6
Continuous
 62
     0
100
AcDbLine
 10
3193.042484670279
 20
190.393385811304
 30
0.0
 11
3193.838310398117
 21
186.239633143189
 31
0.0
  0
LINE
  5
4F9
330
36
100
AcDbEntity
  8
2-0
  6
Continuous
 62
     0
100
AcDbLine
 10
3193.838310398117
 20
186.239633143189
 30
0.0
 11
3194.909080045772
 21
182.148123375557
 31
0.0
  0
LINE
  5
4FA
330
36
100
AcDbEntity
  8
2-0
  6
Continuous
 62
     0
100
AcDbLine
 10
3194.909080045772
 20
182.148123375557
 30
0.0
 11
3196.250036399354
 21
178.137034262267
 31
0.0
  0
LINE
  5
4FB
330
36
100
AcDbEntity
  8
2-0
  6
Continuous
 62
     0
100
AcDbLine
 10
3196.250036399354
 20
178.137034262267
 30
0.0
 11
3197.855221859857
 21
174.224186264408
 31
0.0
  0
LINE
  5
4FC
330
36
100
AcDbEntity
  8
2-0
  6
Continuous
 62
     0
100
AcDbLine
 10
3197.855221859857
 20
174.224186264408
 30
0.0
 11
3199.717504911567
 21
170.426963377576
 31
0.0
  0
LINE
  5
4FD
330
36
100
AcDbEntity
  8
2-0
  6
Continuous
 62
     0
100
AcDbLine
 10
3199.717504911567
 20
170.426963377576
 30
0.0
 11
3201.828611805954
 21
166.762235898289
 31
0.0
  0
LINE
  5
4FE
330
36
100
AcDbEntity
  8
2-0
  6
Continuous
 62
     0
100
AcDbLine
 10
3201.828611805954
 20
166.762235898289
 30
0.0
 11
3204.179163320266
 21
163.246285472654
 31
0.0
  0
LINE
  5
4FF
330
36
100
AcDbEntity
  8
2-0
  6
Continuous
 62
     0
100
AcDbLine
 10
3204.179163320266
 20
163.246285472654
 30
0.0
 11
3206.758716427535
 21
159.89473276029
 31
0.0
  0
LINE
  5
500
330
36
100
AcDbEntity
  8
2-0
  6
Continuous
 62
     0
100
AcDbLine
 10
3206.758716427535
 20
159.89473276029
 30
0.0
 11
3207.29338009281
 21
159.254611225908
 31
0.0
  0
LINE
  5
501
330
36
100
AcDbEntity
  8
2-0
  6
Continuous
 62
     0
100
AcDbLine
 10
3327.098149950959
 20
200.249473813233
 30
0.0
 11
3326.939598596716
 21
205.004252628293
 31
0.0
  0
LINE
  5
502
330
36
100
AcDbEntity
  8
2-0
  6
Continuous
 62
     0
100
AcDbLine
 10
3326.939598596716
 20
205.004252628293
 30
0.0
 11
3326.464648945722
 21
209.737906918701
 31
0.0
  0
LINE
  5
503
330
36
100
AcDbEntity
  8
2-0
  6
Continuous
 62
     0
100
AcDbLine
 10
3326.464648945722
 20
209.737906918701
 30
0.0
 11
3325.67541110362
 21
214.429406011814
 31
0.0
  0
LINE
  5
504
330
36
100
AcDbEntity
  8
2-0
  6
Continuous
 62
     0
100
AcDbLine
 10
3325.67541110362
 20
214.429406011814
 30
0.0
 11
3324.575391495188
 21
219.057906522038
 31
0.0
  0
LINE
  5
505
330
36
100
AcDbEntity
  8
2-0
  6
Continuous
 62
     0
100
AcDbLine
 10
3324.575391495188
 20
219.057906522038
 30
0.0
 11
3323.169477286001
 21
223.602844953797
 31
0.0
  0
LINE
  5
506
330
36
100
AcDbEntity
  8
2-0
  6
Continuous
 62
     0
100
AcDbLine
 10
3323.169477286001
 20
223.602844953797
 30
0.0
 11
3321.463914669735
 21
228.044029061001
 31
0.0
  0
LINE
  5
507
330
36
100
AcDbEntity
  8
2-0
  6
Continuous
 62
     0
100
AcDbLine
 10
3321.463914669735
 20
228.044029061001
 30
0.0
 11
3319.46628111759
 21
232.361727557124
 31
0.0
  0
LINE
  5
508
330
36
100
AcDbEntity
  8
2-0
  6
Continuous
 62
     0
100
AcDbLine
 10
3319.46628111759
 20
232.361727557124
 30
0.0
 11
3317.185451713111
 21
236.536757777343
 31
0.0
  0
LINE
  5
509
330
36
100
AcDbEntity
  8
2-0
  6
Continuous
 62
     0
100
AcDbLine
 10
3317.185451713111
 20
236.536757777343
 30
0.0
 11
3314.631559721977
 21
240.55057090325
 31
0.0
  0
LINE
  5
50A
330
36
100
AcDbEntity
  8
2-0
  6
Continuous
 62
     0
100
AcDbLine
 10
3314.631559721977
 20
240.55057090325
 30
0.0
 11
3311.815951571946
 21
244.385334371518
 31
0.0
  0
LINE
  5
50B
330
36
100
AcDbEntity
  8
2-0
  6
Continuous
 62
     0
100
AcDbLine
 10
3311.815951571946
 20
244.385334371518
 30
0.0
 11
3308.751136442958
 21
248.024011100386
 31
0.0
  0
LINE
  5
50C
330
36
100
AcDbEntity
  8
2-0
  6
Continuous
 62
     0
100
AcDbLine
 10
3308.751136442958
 20
248.024011100386
 30
0.0
 11
3305.450730691371
 21
251.450435181987
 31
0.0
  0
LINE
  5
50D
330
36
100
AcDbEntity
  8
2-0
  6
Continuous
 62
     0
100
AcDbLine
 10
3305.450730691371
 20
251.450435181987
 30
0.0
 11
3301.929397355229
 21
254.649383704215
 31
0.0
  0
LINE
  5
50E
330
36
100
AcDbEntity
  8
2-0
  6
Continuous
 62
     0
100
AcDbLine
 10
3301.929397355229
 20
254.649383704215
 30
0.0
 11
3298.202781009342
 21
257.606644383061
 31
0.0
  0
LINE
  5
50F
330
36
100
AcDbEntity
  8
2-0
  6
Continuous
 62
     0
100
AcDbLine
 10
3298.202781009342
 20
257.606644383061
 30
0.0
 11
3294.287438259586
 21
260.309078704929
 31
0.0
  0
LINE
  5
510
330
36
100
AcDbEntity
  8
2-0
  6
Continuous
 62
     0
100
AcDbLine
 10
3294.287438259586
 20
260.309078704929
 30
0.0
 11
3290.200764185235
 21
262.744680298402
 31
0.0
  0
LINE
  5
511
330
36
100
AcDbEntity
  8
2-0
  6
Continuous
 62
     0
100
AcDbLine
 10
3290.200764185235
 20
262.744680298402
 30
0.0
 11
3285.960915056141
 21
264.902628276136
 31
0.0
  0
LINE
  5
512
330
36
100
AcDbEntity
  8
2-0
  6
Continuous
 62
     0
100
AcDbLine
 10
3285.960915056141
 20
264.902628276136
 30
0.0
 11
3281.586727668069
 21
266.773335309881
 31
0.0
  0
LINE
  5
513
330
36
100
AcDbEntity
  8
2-0
  6
Continuous
 62
     0
100
AcDbLine
 10
3281.586727668069
 20
266.773335309881
 30
0.0
 11
3277.097635654609
 21
268.348490225053
 31
0.0
  0
LINE
  5
514
330
36
100
AcDbEntity
  8
2-0
  6
Continuous
 62
     0
100
AcDbLine
 10
3277.097635654609
 20
268.348490225053
 30
0.0
 11
3272.513583147468
 21
269.621094925601
 31
0.0
  0
LINE
  5
515
330
36
100
AcDbEntity
  8
2-0
  6
Continuous
 62
     0
100
AcDbLine
 10
3272.513583147468
 20
269.621094925601
 30
0.0
 11
3267.854936168696
 21
270.585495485147
 31
0.0
  0
LINE
  5
516
330
36
100
AcDbEntity
  8
2-0
  6
Continuous
 62
     0
100
AcDbLine
 10
3267.854936168696
 20
270.585495485147
 30
0.0
 11
3263.142392148554
 21
271.237407266238
 31
0.0
  0
LINE
  5
517
330
36
100
AcDbEntity
  8
2-0
  6
Continuous
 62
     0
100
AcDbLine
 10
3263.142392148554
 20
271.237407266238
 30
0.0
 11
3258.396887971011
 21
271.573933956126
 31
0.0
  0
LINE
  5
518
330
36
100
AcDbEntity
  8
2-0
  6
Continuous
 62
     0
100
AcDbLine
 10
3258.396887971011
 20
271.573933956126
 30
0.0
 11
3253.63950695537
 21
271.593580434505
 31
0.0
  0
LINE
  5
519
330
36
100
AcDbEntity
  8
2-0
  6
Continuous
 62
     0
100
AcDbLine
 10
3253.63950695537
 20
271.593580434505
 30
0.0
 11
3248.891385187338
 21
271.29625941603
 31
0.0
  0
LINE
  5
51A
330
36
100
AcDbEntity
  8
2-0
  6
Continuous
 62
     0
100
AcDbLine
 10
3248.891385187338
 20
271.29625941603
 30
0.0
 11
3244.173617615647
 21
270.683291838103
 31
0.0
  0
LINE
  5
51B
330
36
100
AcDbEntity
  8
2-0
  6
Continuous
 62
     0
100
AcDbLine
 10
3244.173617615647
 20
270.683291838103
 30
0.0
 11
3239.50716433145
 21
269.757400992221
 31
0.0
  0
LINE
  5
51C
330
36
100
AcDbEntity
  8
2-0
  6
Continuous
 62
     0
100
AcDbLine
 10
3239.50716433145
 20
269.757400992221
 30
0.0
 11
3234.912757446853
 21
268.522700424935
 31
0.0
  0
LINE
  5
51D
330
36
100
AcDbEntity
  8
2-0
  6
Continuous
 62
     0
100
AcDbLine
 10
3234.912757446853
 20
268.522700424935
 30
0.0
 11
3230.410808986321
 21
266.984675662194
 31
0.0
  0
LINE
  5
51E
330
36
100
AcDbEntity
  8
2-0
  6
Continuous
 62
     0
100
AcDbLine
 10
3230.410808986321
 20
266.984675662194
 30
0.0
 11
3226.021320200163
 21
265.150159838258
 31
0.0
  0
LINE
  5
51F
330
36
100
AcDbEntity
  8
2-0
  6
Continuous
 62
     0
100
AcDbLine
 10
3226.021320200163
 20
265.150159838258
 30
0.0
 11
3221.763792703
 21
263.027303337457
 31
0.0
  0
LINE
  5
520
330
36
100
AcDbEntity
  8
2-0
  6
Continuous
 62
     0
100
AcDbLine
 10
3221.763792703
 20
263.027303337457
 30
0.0
 11
3217.657141832029
 21
260.625537583675
 31
0.0
  0
LINE
  5
521
330
36
100
AcDbEntity
  8
2-0
  6
Continuous
 62
     0
100
AcDbLine
 10
3217.657141832029
 20
260.625537583675
 30
0.0
 11
3213.71961260998
 21
257.955533138436
 31
0.0
  0
LINE
  5
522
330
36
100
AcDbEntity
  8
2-0
  6
Continuous
 62
     0
100
AcDbLine
 10
3213.71961260998
 20
257.955533138436
 30
0.0
 11
3209.968698686161
 21
255.029152293745
 31
0.0
  0
LINE
  5
523
330
36
100
AcDbEntity
  8
2-0
  6
Continuous
 62
     0
100
AcDbLine
 10
3209.968698686161
 20
255.029152293745
 30
0.0
 11
3206.421064615689
 21
251.859396370315
 31
0.0
  0
LINE
  5
524
330
36
100
AcDbEntity
  8
2-0
  6
Continuous
 62
     0
100
AcDbLine
 10
3206.421064615689
 20
251.859396370315
 30
0.0
 11
3203.092471822241
 21
248.460347955318
 31
0.0
  0
LINE
  5
525
330
36
100
AcDbEntity
  8
2-0
  6
Continuous
 62
     0
100
AcDbLine
 10
3203.092471822241
 20
248.460347955318
 30
0.0
 11
3199.997708573212
 21
244.847108336287
 31
0.0
  0
LINE
  5
526
330
36
100
AcDbEntity
  8
2-0
  6
Continuous
 62
     0
100
AcDbLine
 10
3199.997708573212
 20
244.847108336287
 30
0.0
 11
3197.150524278424
 21
241.035730409133
 31
0.0
  0
LINE
  5
527
330
36
100
AcDbEntity
  8
2-0
  6
Continuous
 62
     0
100
AcDbLine
 10
3197.150524278424
 20
241.035730409133
 30
0.0
 11
3194.56356840427
 21
237.043147358367
 31
0.0
  0
LINE
  5
528
330
36
100
AcDbEntity
  8
2-0
  6
Continuous
 62
     0
100
AcDbLine
 10
3194.56356840427
 20
237.043147358367
 30
0.0
 11
3192.248334274681
 21
232.887097426368
 31
0.0
  0
LINE
  5
529
330
36
100
AcDbEntity
  8
2-0
  6
Continuous
 62
     0
100
AcDbLine
 10
3192.248334274681
 20
232.887097426368
 30
0.0
 11
3190.2151080086
 21
228.586045105948
 31
0.0
  0
LINE
  5
52A
330
36
100
AcDbEntity
  8
2-0
  6
Continuous
 62
     0
100
AcDbLine
 10
3190.2151080086
 20
228.586045105948
 30
0.0
 11
3188.472922820831
 21
224.159099106322
 31
0.0
  0
LINE
  5
52B
330
36
100
AcDbEntity
  8
2-0
  6
Continuous
 62
     0
100
AcDbLine
 10
3188.472922820831
 20
224.159099106322
 30
0.0
 11
3187.029518889284
 21
219.625927456972
 31
0.0
  0
LINE
  5
52C
330
36
100
AcDbEntity
  8
2-0
  6
Continuous
 62
     0
100
AcDbLine
 10
3187.029518889284
 20
219.625927456972
 30
0.0
 11
3185.891308966921
 21
215.006670126543
 31
0.0
  0
LINE
  5
52D
330
36
100
AcDbEntity
  8
2-0
  6
Continuous
 62
     0
100
AcDbLine
 10
3185.891308966921
 20
215.006670126543
 30
0.0
 11
3185.063349891191
 21
210.321849545027
 31
0.0
  0
LINE
  5
52E
330
36
100
AcDbEntity
  8
2-0
  6
Continuous
 62
     0
100
AcDbLine
 10
3185.063349891191
 20
210.321849545027
 30
0.0
 11
3184.549320117513
 21
205.592279426734
 31
0.0
  0
LINE
  5
52F
330
36
100
AcDbEntity
  8
2-0
  6
Continuous
 62
     0
100
AcDbLine
 10
3184.549320117513
 20
205.592279426734
 30
0.0
 11
3184.351503376645
 21
200.838972299153
 31
0.0
  0
LINE
  5
530
330
36
100
AcDbEntity
  8
2-0
  6
Continuous
 62
     0
100
AcDbLine
 10
3184.351503376645
 20
200.838972299153
 30
0.0
 11
3184.470778528526
 21
196.083046148526
 31
0.0
  0
LINE
  5
531
330
36
100
AcDbEntity
  8
2-0
  6
Continuous
 62
     0
100
AcDbLine
 10
3184.470778528526
 20
196.083046148526
 30
0.0
 11
3184.906615657679
 21
191.345630596885
 31
0.0
  0
LINE
  5
532
330
36
100
AcDbEntity
  8
2-0
  6
Continuous
 62
     0
100
AcDbLine
 10
3184.906615657679
 20
191.345630596885
 30
0.0
 11
3185.657078427516
 21
186.6477730274
 31
0.0
  0
LINE
  5
533
330
36
100
AcDbEntity
  8
2-0
  6
Continuous
 62
     0
100
AcDbLine
 10
3185.657078427516
 20
186.6477730274
 30
0.0
 11
3186.718832683098
 21
182.010345075093
 31
0.0
  0
LINE
  5
534
330
36
100
AcDbEntity
  8
2-0
  6
Continuous
 62
     0
100
AcDbLine
 10
3186.718832683098
 20
182.010345075093
 30
0.0
 11
3188.087161264106
 21
177.453949898369
 31
0.0
  0
LINE
  5
535
330
36
100
AcDbEntity
  8
2-0
  6
Continuous
 62
     0
100
AcDbLine
 10
3188.087161264106
 20
177.453949898369
 30
0.0
 11
3189.755984962238
 21
172.998830643328
 31
0.0
  0
LINE
  5
536
330
36
100
AcDbEntity
  8
2-0
  6
Continuous
 62
     0
100
AcDbLine
 10
3189.755984962238
 20
172.998830643328
 30
0.0
 11
3191.71788952991
 21
168.664780507551
 31
0.0
  0
LINE
  5
537
330
36
100
AcDbEntity
  8
2-0
  6
Continuous
 62
     0
100
AcDbLine
 10
3191.71788952991
 20
168.664780507551
 30
0.0
 11
3193.964158620258
 21
164.471054802903
 31
0.0
  0
LINE
  5
538
330
36
100
AcDbEntity
  8
2-0
  6
Continuous
 62
     0
100
AcDbLine
 10
3193.964158620258
 20
164.471054802903
 30
0.0
 11
3196.484812512118
 21
160.436285408064
 31
0.0
  0
LINE
  5
539
330
36
100
AcDbEntity
  8
2-0
  6
Continuous
 62
     0
100
AcDbLine
 10
3196.484812512118
 20
160.436285408064
 30
0.0
 11
3199.268652447915
 21
156.578397990843
 31
0.0
  0
LINE
  5
53A
330
36
100
AcDbEntity
  8
2-0
  6
Continuous
 62
     0
100
AcDbLine
 10
3199.268652447915
 20
156.578397990843
 30
0.0
 11
3202.303310387483
 21
152.914532368049
 31
0.0
  0
LINE
  5
53B
330
36
100
AcDbEntity
  8
2-0
  6
Continuous
 62
     0
100
AcDbLine
 10
3202.303310387483
 20
152.914532368049
 30
0.0
 11
3205.575303956786
 21
149.460966356732
 31
0.0
  0
LINE
  5
53C
330
36
100
AcDbEntity
  8
2-0
  6
Continuous
 62
     0
100
AcDbLine
 10
3205.575303956786
 20
149.460966356732
 30
0.0
 11
3209.070096347382
 21
146.233043455125
 31
0.0
  0
LINE
  5
53D
330
36
100
AcDbEntity
  8
2-0
  6
Continuous
 62
     0
100
AcDbLine
 10
3209.070096347382
 20
146.233043455125
 30
0.0
 11
3212.772160900538
 21
143.245104674569
 31
0.0
  0
LINE
  5
53E
330
36
100
AcDbEntity
  8
2-0
  6
Continuous
 62
     0
100
AcDbLine
 10
3212.772160900538
 20
143.245104674569
 30
0.0
 11
3216.665050089048
 21
140.510424825288
 31
0.0
  0
LINE
  5
53F
330
36
100
AcDbEntity
  8
2-0
  6
Continuous
 62
     0
100
AcDbLine
 10
3216.665050089048
 20
140.510424825288
 30
0.0
 11
3220.731468590285
 21
138.041153539082
 31
0.0
  0
LINE
  5
540
330
36
100
AcDbEntity
  8
2-0
  6
Continuous
 62
     0
100
AcDbLine
 10
3220.731468590285
 20
138.041153539082
 30
0.0
 11
3224.953350125834
 21
135.848261290958
 31
0.0
  0
LINE
  5
541
330
36
100
AcDbEntity
  8
2-0
  6
Continuous
 62
     0
100
AcDbLine
 10
3224.953350125834
 20
135.848261290958
 30
0.0
 11
3229.311937726328
 21
133.941490659522
 31
0.0
  0
LINE
  5
542
330
36
100
AcDbEntity
  8
2-0
  6
Continuous
 62
     0
100
AcDbLine
 10
3229.311937726328
 20
133.941490659522
 30
0.0
 11
3233.787867064888
 21
132.329313042662
 31
0.0
  0
LINE
  5
543
330
36
100
AcDbEntity
  8
2-0
  6
Continuous
 62
     0
100
AcDbLine
 10
3233.787867064888
 20
132.329313042662
 30
0.0
 11
3238.361252488925
 21
131.018891020832
 31
0.0
  0
LINE
  5
544
330
36
100
AcDbEntity
  8
2-0
  6
Continuous
 62
     0
100
AcDbLine
 10
3238.361252488925
 20
131.018891020832
 30
0.0
 11
3243.011775368089
 21
130.016046535154
 31
0.0
  0
LINE
  5
545
330
36
100
AcDbEntity
  8
2-0
  6
Continuous
 62
     0
100
AcDbLine
 10
3243.011775368089
 20
130.016046535154
 30
0.0
 11
3247.718774365856
 21
129.325235021703
 31
0.0
  0
LINE
  5
546
330
36
100
AcDbEntity
  8
2-0
  6
Continuous
 62
     0
100
AcDbLine
 10
3247.718774365856
 20
129.325235021703
 30
0.0
 11
3252.461337233675
 21
128.949525616902
 31
0.0
  0
LINE
  5
547
330
36
100
AcDbEntity
  8
2-0
  6
Continuous
 62
     0
100
AcDbLine
 10
3252.461337233675
 20
128.949525616902
 30
0.0
 11
3257.218393719892
 21
128.890587521967
 31
0.0
  0
LINE
  5
548
330
36
100
AcDbEntity
  8
2-0
  6
Continuous
 62
     0
100
AcDbLine
 10
3257.218393719892
 20
128.890587521967
 30
0.0
 11
3261.968809180617
 21
129.148682586985
 31
0.0
  0
LINE
  5
549
330
36
100
AcDbEntity
  8
2-0
  6
Continuous
 62
     0
100
AcDbLine
 10
3261.968809180617
 20
129.148682586985
 30
0.0
 11
3266.691478476705
 21
129.722664147562
 31
0.0
  0
LINE
  5
54A
330
36
100
AcDbEntity
  8
2-0
  6
Continuous
 62
     0
100
AcDbLine
 10
3266.691478476705
 20
129.722664147562
 30
0.0
 11
3271.365419739627
 21
130.609982119225
 31
0.0
  0
LINE
  5
54B
330
36
100
AcDbEntity
  8
2-0
  6
Continuous
 62
     0
100
AcDbLine
 10
3271.365419739627
 20
130.609982119225
 30
0.0
 11
3275.969867589696
 21
131.806694326935
 31
0.0
  0
LINE
  5
54C
330
36
100
AcDbEntity
  8
2-0
  6
Continuous
 62
     0
100
AcDbLine
 10
3275.969867589696
 20
131.806694326935
 30
0.0
 11
3280.484365392459
 21
133.307484019374
 31
0.0
  0
LINE
  5
54D
330
36
100
AcDbEntity
  8
2-0
  6
Continuous
 62
     0
100
AcDbLine
 10
3280.484365392459
 20
133.307484019374
 30
0.0
 11
3284.888856143412
 21
135.105683490199
 31
0.0
  0
LINE
  5
54E
330
36
100
AcDbEntity
  8
2-0
  6
Continuous
 62
     0
100
AcDbLine
 10
3284.888856143412
 20
135.105683490199
 30
0.0
 11
3289.163771577217
 21
137.193303701324
 31
0.0
  0
LINE
  5
54F
330
36
100
AcDbEntity
  8
2-0
  6
Continuous
 62
     0
100
AcDbLine
 10
3289.163771577217
 20
137.193303701324
 30
0.0
 11
3293.290119105581
 21
139.561069776603
 31
0.0
  0
LINE
  5
550
330
36
100
AcDbEntity
  8
2-0
  6
Continuous
 62
     0
100
AcDbLine
 10
3293.290119105581
 20
139.561069776603
 30
0.0
 11
3297.249566197494
 21
142.198462208235
 31
0.0
  0
LINE
  5
551
330
36
100
AcDbEntity
  8
2-0
  6
Continuous
 62
     0
100
AcDbLine
 10
3297.249566197494
 20
142.198462208235
 30
0.0
 11
3301.024521826966
 21
145.093763592824
 31
0.0
  0
LINE
  5
552
330
36
100
AcDbEntity
  8
2-0
  6
Continuous
 62
     0
100
AcDbLine
 10
3301.024521826966
 20
145.093763592824
 30
0.0
 11
3304.598214626421
 21
148.234110689438
 31
0.0
  0
LINE
  5
553
330
36
100
AcDbEntity
  8
2-0
  6
Continuous
 62
     0
100
AcDbLine
 10
3304.598214626421
 20
148.234110689438
 30
0.0
 11
3307.954767398497
 21
151.605551568401
 31
0.0
  0
LINE
  5
554
330
36
100
AcDbEntity
  8
2-0
  6
Continuous
 62
     0
100
AcDbLine
 10
3307.954767398497
 20
151.605551568401
 30
0.0
 11
3311.07926765525
 21
155.193107596902
 31
0.0
  0
LINE
  5
555
330
36
100
AcDbEntity
  8
2-0
  6
Continuous
 62
     0
100
AcDbLine
 10
3311.07926765525
 20
155.193107596902
 30
0.0
 11
3313.957833871318
 21
158.980839986049
 31
0.0
  0
LINE
  5
556
330
36
100
AcDbEntity
  8
2-0
  6
Continuous
 62
     0
100
AcDbLine
 10
3313.957833871318
 20
158.980839986049
 30
0.0
 11
3316.577677156753
 21
162.951920603695
 31
0.0
  0
LINE
  5
557
330
36
100
AcDbEntity
  8
2-0
  6
Continuous
 62
     0
100
AcDbLine
 10
3316.577677156753
 20
162.951920603695
 30
0.0
 11
3318.92715807548
 21
167.08870673844
 31
0.0
  0
LINE
  5
558
330
36
100
AcDbEntity
  8
2-0
  6
Continuous
 62
     0
100
AcDbLine
 10
3318.92715807548
 20
167.08870673844
 30
0.0
 11
3320.995838356968
 21
171.3728194826449
 31
0.0
  0
LINE
  5
559
330
36
100
AcDbEntity
  8
2-0
  6
Continuous
 62
     0
100
AcDbLine
 10
3320.995838356968
 20
171.3728194826449
 30
0.0
 11
3322.774527271364
 21
175.785225386218
 31
0.0
  0
LINE
  5
55A
330
36
100
AcDbEntity
  8
2-0
  6
Continuous
 62
     0
100
AcDbLine
 10
3322.774527271364
 20
175.785225386218
 30
0.0
 11
3324.255322462053
 21
180.306321018398
 31
0.0
  0
LINE
  5
55B
330
36
100
AcDbEntity
  8
2-0
  6
Continuous
 62
     0
100
AcDbLine
 10
3324.255322462053
 20
180.306321018398
 30
0.0
 11
3325.431645054236
 21
184.916020061849
 31
0.0
  0
LINE
  5
55C
330
36
100
AcDbEntity
  8
2-0
  6
Continuous
 62
     0
100
AcDbLine
 10
3325.431645054236
 20
184.916020061849
 30
0.0
 11
3326.298268883553
 21
189.593842552126
 31
0.0
  0
LINE
  5
55D
330
36
100
AcDbEntity
  8
2-0
  6
Continuous
 62
     0
100
AcDbLine
 10
3326.298268883553
 20
189.593842552126
 30
0.0
 11
3326.851343714869
 21
194.319005866028
 31
0.0
  0
LINE
  5
55E
330
36
100
AcDbEntity
  8
2-0
  6
Continuous
 62
     0
100
AcDbLine
 10
3326.851343714869
 20
194.319005866028
 30
0.0
 11
3327.088412348099
 21
199.07051705461
 31
0.0
  0
LINE
  5
55F
330
36
100
AcDbEntity
  8
2-0
  6
Continuous
 62
     0
100
AcDbLine
 10
3327.088412348099
 20
199.07051705461
 30
0.0
 11
3327.098149950959
 21
200.249473813233
 31
0.0
  0
LINE
  5
560
330
36
100
AcDbEntity
  8
2-0
  6
Continuous
 62
     0
100
AcDbLine
 10
3303.835546577967
 20
159.524036867188
 30
0.0
 11
3306.441689198467
 21
162.819591429742
 31
0.0
  0
LINE
  5
561
330
36
100
AcDbEntity
  8
2-0
  6
Continuous
 62
     0
100
AcDbLine
 10
3306.441689198467
 20
162.819591429742
 30
0.0
 11
3308.822501605347
 21
166.281439421264
 31
0.0
  0
LINE
  5
562
330
36
100
AcDbEntity
  8
2-0
  6
Continuous
 62
     0
100
AcDbLine
 10
3308.822501605347
 20
166.281439421264
 30
0.0
 11
3310.967406328583
 21
169.894200548352
 31
0.0
  0
LINE
  5
563
330
36
100
AcDbEntity
  8
2-0
  6
Continuous
 62
     0
100
AcDbLine
 10
3310.967406328583
 20
169.894200548352
 30
0.0
 11
3312.86687398848
 21
173.6418240409349
 31
0.0
  0
LINE
  5
564
330
36
100
AcDbEntity
  8
2-0
  6
Continuous
 62
     0
100
AcDbLine
 10
3312.86687398848
 20
173.6418240409349
 30
0.0
 11
3314.512465632783
 21
177.507659962615
 31
0.0
  0
LINE
  5
565
330
36
100
AcDbEntity
  8
2-0
  6
Continuous
 62
     0
100
AcDbLine
 10
3314.512465632783
 20
177.507659962615
 30
0.0
 11
3315.89687022924
 21
181.474533182982
 31
0.0
  0
LINE
  5
566
330
36
100
AcDbEntity
  8
2-0
  6
Continuous
 62
     0
100
AcDbLine
 10
3315.89687022924
 20
181.474533182982
 30
0.0
 11
3317.013937147052
 21
185.524819683254
 31
0.0
  0
LINE
  5
567
330
36
100
AcDbEntity
  8
2-0
  6
Continuous
 62
     0
100
AcDbLine
 10
3317.013937147052
 20
185.524819683254
 30
0.0
 11
3317.858703482884
 21
189.640524856247
 31
0.0
  0
LINE
  5
568
330
36
100
AcDbEntity
  8
2-0
  6
Continuous
 62
     0
100
AcDbLine
 10
3317.858703482884
 20
189.640524856247
 30
0.0
 11
3318.427416110042
 21
193.80336345279
 31
0.0
  0
LINE
  5
569
330
36
100
AcDbEntity
  8
2-0
  6
Continuous
 62
     0
100
AcDbLine
 10
3318.427416110042
 20
193.80336345279
 30
0.0
 11
3318.717548352865
 21
197.994840819403
 31
0.0
  0
LINE
  5
56A
330
36
100
AcDbEntity
  8
2-0
  6
Continuous
 62
     0
100
AcDbLine
 10
3318.717548352865
 20
197.994840819403
 30
0.0
 11
3318.727811212231
 21
202.196335066319
 31
0.0
  0
LINE
  5
56B
330
36
100
AcDbEntity
  8
2-0
  6
Continuous
 62
     0
100
AcDbLine
 10
3318.727811212231
 20
202.196335066319
 30
0.0
 11
3318.458159092322
 21
206.389179800791
 31
0.0
  0
LINE
  5
56C
330
36
100
AcDbEntity
  8
2-0
  6
Continuous
 62
     0
100
AcDbLine
 10
3318.458159092322
 20
206.389179800791
 30
0.0
 11
3317.909790003199
 21
210.55474705811
 31
0.0
  0
LINE
  5
56D
330
36
100
AcDbEntity
  8
2-0
  6
Continuous
 62
     0
100
AcDbLine
 10
3317.909790003199
 20
210.55474705811
 30
0.0
 11
3317.085140238282
 21
214.674530061907
 31
0.0
  0
LINE
  5
56E
330
36
100
AcDbEntity
  8
2-0
  6
Continuous
 62
     0
100
AcDbLine
 10
3317.085140238282
 20
214.674530061907
 30
0.0
 11
3315.987873550389
 21
218.73022544603
 31
0.0
  0
LINE
  5
56F
330
36
100
AcDbEntity
  8
2-0
  6
Continuous
 62
     0
100
AcDbLine
 10
3315.987873550389
 20
218.73022544603
 30
0.0
 11
3314.622864874424
 21
222.703814572714
 31
0.0
  0
LINE
  5
570
330
36
100
AcDbEntity
  8
2-0
  6
Continuous
 62
     0
100
AcDbLine
 10
3314.622864874424
 20
222.703814572714
 30
0.0
 11
3312.996178669018
 21
226.577643585757
 31
0.0
  0
LINE
  5
571
330
36
100
AcDbEntity
  8
2-0
  6
Continuous
 62
     0
100
AcDbLine
 10
3312.996178669018
 20
226.577643585757
 30
0.0
 11
3311.115041973365
 21
230.334501843054
 31
0.0
  0
LINE
  5
572
330
36
100
AcDbEntity
  8
2-0
  6
Continuous
 62
     0
100
AcDbLine
 10
3311.115041973365
 20
230.334501843054
 30
0.0
 11
3308.987812298935
 21
233.957698380007
 31
0.0
  0
LINE
  5
573
330
36
100
AcDbEntity
  8
2-0
  6
Continuous
 62
     0
100
AcDbLine
 10
3308.987812298935
 20
233.957698380007
 30
0.0
 11
3306.623940498746
 21
237.431136064121
 31
0.0
  0
LINE
  5
574
330
36
100
AcDbEntity
  8
2-0
  6
Continuous
 62
     0
100
AcDbLine
 10
3306.623940498746
 20
237.431136064121
 30
0.0
 11
3304.033928779116
 21
240.739383111325
 31
0.0
  0
LINE
  5
575
330
36
100
AcDbEntity
  8
2-0
  6
Continuous
 62
     0
100
AcDbLine
 10
3304.033928779116
 20
240.739383111325
 30
0.0
 11
3301.22928404048
 21
243.867741646276
 31
0.0
  0
LINE
  5
576
330
36
100
AcDbEntity
  8
2-0
  6
Continuous
 62
     0
100
AcDbLine
 10
3301.22928404048
 20
243.867741646276
 30
0.0
 11
3298.222466754552
 21
246.802313002062
 31
0.0
  0
LINE
  5
577
330
36
100
AcDbEntity
  8
2-0
  6
Continuous
 62
     0
100
AcDbLine
 10
3298.222466754552
 20
246.802313002062
 30
0.0
 11
3295.026835604952
 21
249.530059469179
 31
0.0
  0
LINE
  5
578
330
36
100
AcDbEntity
  8
2-0
  6
Continuous
 62
     0
100
AcDbLine
 10
3295.026835604952
 20
249.530059469179
 30
0.0
 11
3291.656588137271
 21
252.038862219446
 31
0.0
  0
LINE
  5
579
330
36
100
AcDbEntity
  8
2-0
  6
Continuous
 62
     0
100
AcDbLine
 10
3291.656588137271
 20
252.038862219446
 30
0.0
 11
3288.126697682234
 21
254.317575147524
 31
0.0
  0
LINE
  5
57A
330
36
100
AcDbEntity
  8
2-0
  6
Continuous
 62
     0
100
AcDbLine
 10
3288.126697682234
 20
254.317575147524
 30
0.0
 11
3284.452846832201
 21
256.356074390811
 31
0.0
  0
LINE
  5
57B
330
36
100
AcDbEntity
  8
2-0
  6
Continuous
 62
     0
100
AcDbLine
 10
3284.452846832201
 20
256.356074390811
 30
0.0
 11
3280.651357766581
 21
258.145303307727
 31
0.0
  0
LINE
  5
57C
330
36
100
AcDbEntity
  8
2-0
  6
Continuous
 62
     0
100
AcDbLine
 10
3280.651357766581
 20
258.145303307727
 30
0.0
 11
3276.739119735661
 21
259.677312714548
 31
0.0
  0
LINE
  5
57D
330
36
100
AcDbEntity
  8
2-0
  6
Continuous
 62
     0
100
AcDbLine
 10
3276.739119735661
 20
259.677312714548
 30
0.0
 11
3272.733514025082
 21
260.945296202032
 31
0.0
  0
LINE
  5
57E
330
36
100
AcDbEntity
  8
2-0
  6
Continuous
 62
     0
100
AcDbLine
 10
3272.733514025082
 20
260.945296202032
 30
0.0
 11
3268.652336734275
 21
261.943620374916
 31
0.0
  0
LINE
  5
57F
330
36
100
AcDbEntity
  8
2-0
  6
Continuous
 62
     0
100
AcDbLine
 10
3268.652336734275
 20
261.943620374916
 30
0.0
 11
3264.513719711987
 21
262.667849879967
 31
0.0
  0
LINE
  5
580
330
36
100
AcDbEntity
  8
2-0
  6
Continuous
 62
     0
100
AcDbLine
 10
3264.513719711987
 20
262.667849879967
 30
0.0
 11
3260.33605000012
 21
263.114767111354
 31
0.0
  0
LINE
  5
581
330
36
100
AcDbEntity
  8
2-0
  6
Continuous
 62
     0
100
AcDbLine
 10
3260.33605000012
 20
263.114767111354
 30
0.0
 11
3256.137888143811
 21
263.282386505829
 31
0.0
  0
LINE
  5
582
330
36
100
AcDbEntity
  8
2-0
  6
Continuous
 62
     0
100
AcDbLine
 10
3256.137888143811
 20
263.282386505829
 30
0.0
 11
3251.937885730672
 21
263.169963364181
 31
0.0
  0
LINE
  5
583
330
36
100
AcDbEntity
  8
2-0
  6
Continuous
 62
     0
100
AcDbLine
 10
3251.937885730672
 20
263.169963364181
 30
0.0
 11
3247.75470252553
 21
262.777997159786
 31
0.0
  0
LINE
  5
584
330
36
100
AcDbEntity
  8
2-0
  6
Continuous
 62
     0
100
AcDbLine
 10
3247.75470252553
 20
262.777997159786
 30
0.0
 11
3243.606923568868
 21
262.108229319547
 31
0.0
  0
LINE
  5
585
330
36
100
AcDbEntity
  8
2-0
  6
Continuous
 62
     0
100
AcDbLine
 10
3243.606923568868
 20
262.108229319547
 30
0.0
 11
3239.512976607212
 21
261.163635487085
 31
0.0
  0
LINE
  5
586
330
36
100
AcDbEntity
  8
2-0
  6
Continuous
 62
     0
100
AcDbLine
 10
3239.512976607212
 20
261.163635487085
 30
0.0
 11
3235.491050222388
 21
259.948412302556
 31
0.0
  0
LINE
  5
587
330
36
100
AcDbEntity
  8
2-0
  6
Continuous
 62
     0
100
AcDbLine
 10
3235.491050222388
 20
259.948412302556
 30
0.0
 11
3231.559013023298
 21
258.467958757819
 31
0.0
  0
LINE
  5
588
330
36
100
AcDbEntity
  8
2-0
  6
Continuous
 62
     0
100
AcDbLine
 10
3231.559013023298
 20
258.467958757819
 30
0.0
 11
3227.734334259294
 21
256.728852209806
 31
0.0
  0
LINE
  5
589
330
36
100
AcDbEntity
  8
2-0
  6
Continuous
 62
     0
100
AcDbLine
 10
3227.734334259294
 20
256.728852209806
 30
0.0
 11
3224.034006207828
 21
254.738819158651
 31
0.0
  0
LINE
  5
58A
330
36
100
AcDbEntity
  8
2-0
  6
Continuous
 62
     0
100
AcDbLine
 10
3224.034006207828
 20
254.738819158651
 30
0.0
 11
3220.474468681176
 21
252.506700920403
 31
0.0
  0
LINE
  5
58B
330
36
100
AcDbEntity
  8
2-0
  6
Continuous
 62
     0
100
AcDbLine
 10
3220.474468681176
 20
252.506700920403
 30
0.0
 11
3217.071535987673
 21
250.042414346841
 31
0.0
  0
LINE
  5
58C
330
36
100
AcDbEntity
  8
2-0
  6
Continuous
 62
     0
100
AcDbLine
 10
3217.071535987673
 20
250.042414346841
 30
0.0
 11
3213.840326671915
 21
247.356907766898
 31
0.0
  0
LINE
  5
58D
330
36
100
AcDbEntity
  8
2-0
  6
Continuous
 62
     0
100
AcDbLine
 10
3213.840326671915
 20
247.356907766898
 30
0.0
 11
3210.795196346119
 21
244.462112345441
 31
0.0
  0
LINE
  5
58E
330
36
100
AcDbEntity
  8
2-0
  6
Continuous
 62
     0
100
AcDbLine
 10
3210.795196346119
 20
244.462112345441
 30
0.0
 11
3207.949673911031
 21
241.370889075511
 31
0.0
  0
LINE
  5
58F
330
36
100
AcDbEntity
  8
2-0
  6
Continuous
 62
     0
100
AcDbLine
 10
3207.949673911031
 20
241.370889075511
 30
0.0
 11
3205.316401449729
 21
238.096971639516
 31
0.0
  0
LINE
  5
590
330
36
100
AcDbEntity
  8
2-0
  6
Continuous
 62
     0
100
AcDbLine
 10
3205.316401449729
 20
238.096971639516
 30
0.0
 11
3202.907078061418
 21
234.654905393249
 31
0.0
  0
LINE
  5
591
330
36
100
AcDbEntity
  8
2-0
  6
Continuous
 62
     0
100
AcDbLine
 10
3202.907078061418
 20
234.654905393249
 30
0.0
 11
3200.732407884663
 21
231.059982743804
 31
0.0
  0
LINE
  5
592
330
36
100
AcDbEntity
  8
2-0
  6
Continuous
 62
     0
100
AcDbLine
 10
3200.732407884663
 20
231.059982743804
 30
0.0
 11
3198.802052541081
 21
227.328175208485
 31
0.0
  0
LINE
  5
593
330
36
100
AcDbEntity
  8
2-0
  6
Continuous
 62
     0
100
AcDbLine
 10
3198.802052541081
 20
227.328175208485
 30
0.0
 11
3197.124588210682
 21
223.476062456579
 31
0.0
  0
LINE
  5
594
330
36
100
AcDbEntity
  8
2-0
  6
Continuous
 62
     0
100
AcDbLine
 10
3197.124588210682
 20
223.476062456579
 30
0.0
 11
3195.707467529644
 21
219.520758649218
 31
0.0
  0
LINE
  5
595
330
36
100
AcDbEntity
  8
2-0
  6
Continuous
 62
     0
100
AcDbLine
 10
3195.707467529644
 20
219.520758649218
 30
0.0
 11
3194.556986479739
 21
215.47983640461
 31
0.0
  0
LINE
  5
596
330
36
100
AcDbEntity
  8
2-0
  6
Continuous
 62
     0
100
AcDbLine
 10
3194.556986479739
 20
215.47983640461
 30
0.0
 11
3193.678256416563
 21
211.371248726438
 31
0.0
  0
LINE
  5
597
330
36
100
AcDbEntity
  8
2-0
  6
Continuous
 62
     0
100
AcDbLine
 10
3193.678256416563
 20
211.371248726438
 30
0.0
 11
3193.075181360809
 21
207.213249242277
 31
0.0
  0
LINE
  5
598
330
36
100
AcDbEntity
  8
2-0
  6
Continuous
 62
     0
100
AcDbLine
 10
3193.075181360809
 20
207.213249242277
 30
0.0
 11
3192.75044065349
 21
203.024311106405
 31
0.0
  0
LINE
  5
599
330
36
100
AcDbEntity
  8
2-0
  6
Continuous
 62
     0
100
AcDbLine
 10
3192.75044065349
 20
203.024311106405
 30
0.0
 11
3192.705477052162
 21
198.823044927298
 31
0.0
  0
LINE
  5
59A
330
36
100
AcDbEntity
  8
2-0
  6
Continuous
 62
     0
100
AcDbLine
 10
3192.705477052162
 20
198.823044927298
 30
0.0
 11
3192.940490321053
 21
194.628116084445
 31
0.0
  0
LINE
  5
59B
330
36
100
AcDbEntity
  8
2-0
  6
Continuous
 62
     0
100
AcDbLine
 10
3192.940490321053
 20
194.628116084445
 30
0.0
 11
3193.454436343539
 21
190.458161801827
 31
0.0
  0
LINE
  5
59C
330
36
100
AcDbEntity
  8
2-0
  6
Continuous
 62
     0
100
AcDbLine
 10
3193.454436343539
 20
190.458161801827
 30
0.0
 11
3194.245031760954
 21
186.331708346483
 31
0.0
  0
LINE
  5
59D
330
36
100
AcDbEntity
  8
2-0
  6
Continuous
 62
     0
100
AcDbLine
 10
3194.245031760954
 20
186.331708346483
 30
0.0
 11
3195.308764117086
 21
182.267088720039
 31
0.0
  0
LINE
  5
59E
330
36
100
AcDbEntity
  8
2-0
  6
Continuous
 62
     0
100
AcDbLine
 10
3195.308764117086
 20
182.267088720039
 30
0.0
 11
3196.640907463313
 21
178.282361208871
 31
0.0
  0
LINE
  5
59F
330
36
100
AcDbEntity
  8
2-0
  6
Continuous
 62
     0
100
AcDbLine
 10
3196.640907463313
 20
178.282361208871
 30
0.0
 11
3198.235543355047
 21
174.395229154779
 31
0.0
  0
LINE
  5
5A0
330
36
100
AcDbEntity
  8
2-0
  6
Continuous
 62
     0
100
AcDbLine
 10
3198.235543355047
 20
174.395229154779
 30
0.0
 11
3200.085587146181
 21
170.622962302601
 31
0.0
  0
LINE
  5
5A1
330
36
100
AcDbEntity
  8
2-0
  6
Continuous
 62
     0
100
AcDbLine
 10
3200.085587146181
 20
170.622962302601
 30
0.0
 11
3202.182819464757
 21
166.98232007422
 31
0.0
  0
LINE
  5
5A2
330
36
100
AcDbEntity
  8
2-0
  6
Continuous
 62
     0
100
AcDbLine
 10
3202.182819464757
 20
166.98232007422
 30
0.0
 11
3204.51792272997
 21
163.489477109821
 31
0.0
  0
LINE
  5
5A3
330
36
100
AcDbEntity
  8
2-0
  6
Continuous
 62
     0
100
AcDbLine
 10
3204.51792272997
 20
163.489477109821
 30
0.0
 11
3207.080522548306
 21
160.159951407229
 31
0.0
  0
LINE
  5
5A4
330
36
100
AcDbEntity
  8
2-0
  6
Continuous
 62
     0
100
AcDbLine
 10
3207.080522548306
 20
160.159951407229
 30
0.0
 11
3207.611672307404
 21
159.524036867187
 31
0.0
  0
TEXT
  5
5A5
330
36
100
AcDbEntity
  8
2-0
 62
     0
100
AcDbText
 10
3216.519
 20
142.243
 30
0.0
 40
48.64
  1
A
100
AcDbText
  0
TEXT
  5
5A6
330
36
100
AcDbEntity
  8
2-0
 62
     0
100
AcDbText
 10
3259.01
 20
142.346
 30
0.0
 40
48.64
  1
I
100
AcDbText
  0
TEXT
  5
5A7
330
36
100
AcDbEntity
  8
2-0
 62
     0
100
AcDbText
 10
3269.408
 20
142.312
 30
0.0
 40
48.64
  1
O
100
AcDbText
  0
LINE
  5
5A8
330
36
100
AcDbEntity
  8
C-0
  6
Continuous
 62
     0
100
AcDbLine
 10
2987.652541338452
 20
2670.067177746475
 30
0.0
 11
3850.063493338451
 21
2670.067177746475
 31
0.0
  0
LINE
  5
5A9
330
36
100
AcDbEntity
  8
C-0
  6
Continuous
 62
     0
100
AcDbLine
 10
2987.652541338452
 20
2620.067177746475
 30
0.0
 11
3850.063493338451
 21
2620.067177746475
 31
0.0
  0
LINE
  5
5AA
330
36
100
AcDbEntity
  8
C-0
  6
Continuous
 62
     0
100
AcDbLine
 10
2987.652541338452
 20
2570.067177746475
 30
0.0
 11
3840.063493338451
 21
2570.067177746475
 31
0.0
  0
LINE
  5
5AB
330
36
100
AcDbEntity
  8
C-0
  6
Continuous
 62
     0
100
AcDbLine
 10
2987.652541338452
 20
2670.067177746475
 30
0.0
 11
2987.652541338452
 21
2570.067177746475
 31
0.0
  0
LINE
  5
5AC
330
36
100
AcDbEntity
  8
C-0
  6
Continuous
 62
     0
100
AcDbLine
 10
3850.063493338451
 20
2670.067177746475
 30
0.0
 11
3850.063493338451
 21
2570.067177746475
 31
0.0
  0
LINE
  5
5AD
330
36
100
AcDbEntity
  8
C-0
  6
Continuous
 62
     0
100
AcDbLine
 10
3331.535919338451
 20
2670.067177746475
 30
0.0
 11
3331.535919338451
 21
2669.309454746475
 31
0.0
  0
LINE
  5
5AE
330
36
100
AcDbEntity
  8
C-0
  6
Continuous
 62
     0
100
AcDbLine
 10
3180.063493338451
 20
2620.067177746475
 30
0.0
 11
3180.063493338451
 21
2570.067177746475
 31
0.0
  0
TEXT
  5
5AF
330
36
100
AcDbEntity
  8
C-0
 62
     0
100
AcDbText
 10
3200.002
 20
2582.513
 30
0.0
 40
25.92
  1
SUS-430　ステンレス   エンボス加工
100
AcDbText
  0
LINE
  5
5B0
330
36
100
AcDbEntity
  8
C-0
  6
Continuous
 62
     0
100
AcDbLine
 10
2987.652541338452
 20
2570.067177746475
 30
0.0
 11
3850.063493338451
 21
2570.067177746475
 31
0.0
  0
TEXT
  5
5B1
330
36
100
AcDbEntity
  8
C-0
 62
     0
100
AcDbText
 10
3010.057000000001
 20
2626.67
 30
0.0
 40
25.92
  1
BKG-70G   BKG-60G   BKG-35G
100
AcDbText
  0
TEXT
  5
5B2
330
36
100
AcDbEntity
  8
C-0
 62
     0
100
AcDbText
 10
3050.353
 20
2580.831
 30
0.0
 40
25.92
  1
表面 
100
AcDbText
  0
LINE
  5
5B3
330
36
100
AcDbEntity
  8
1-0
  6
Continuous
 62
     0
100
AcDbLine
 10
1158.328036338451
 20
1672.214868746475
 30
0.0
 11
2558.328036338451
 21
1672.214868746475
 31
0.0
  0
LINE
  5
5B4
330
36
100
AcDbEntity
  8
1-0
  6
Continuous
 62
     0
100
AcDbLine
 10
1158.328036338451
 20
1132.214868746475
 30
0.0
 11
2558.328036338451
 21
1132.214868746475
 31
0.0
  0
LINE
  5
5B5
330
36
100
AcDbEntity
  8
1-0
  6
Continuous
 62
     0
100
AcDbLine
 10
1158.328036338451
 20
1672.214868746475
 30
0.0
 11
1158.328036338451
 21
1132.214868746475
 31
0.0
  0
LINE
  5
5B6
330
36
100
AcDbEntity
  8
1-0
  6
Continuous
 62
     0
100
AcDbLine
 10
2558.328036338451
 20
1672.214868746475
 30
0.0
 11
2558.328036338451
 21
1132.214868746475
 31
0.0
  0
LINE
  5
5B7
330
36
100
AcDbEntity
  8
1-0
  6
Continuous
 62
     0
100
AcDbLine
 10
3058.328036338451
 20
1642.214868746474
 30
0.0
 11
3058.328036338451
 21
1132.214868746475
 31
0.0
  0
ARC
  5
5B8
330
36
100
AcDbEntity
  8
1-0
  6
Continuous
 62
     0
100
AcDbCircle
 10
3088.328036338451
 20
1642.214868746474
 30
0.0
 40
30.0
100
AcDbArc
 50
90.0
 51
180.0
  0
LINE
  5
5B9
330
36
100
AcDbEntity
  8
1-0
  6
Continuous
 62
     0
100
AcDbLine
 10
3108.328036338451
 20
1672.214868746475
 30
0.0
 11
3108.328036338451
 21
1132.214868746475
 31
0.0
  0
LINE
  5
5BA
330
36
100
AcDbEntity
  8
1-0
  6
Continuous
 62
     0
100
AcDbLine
 10
2578.328036267201
 20
1672.21486853895
 30
0.0
 11
2782.994980267201
 21
1672.21486853895
 31
0.0
  0
LINE
  5
5BB
330
36
100
AcDbEntity
  8
1-0
  6
Continuous
 62
     0
100
AcDbLine
 10
2578.328036267201
 20
1132.21486853895
 30
0.0
 11
2782.994980267201
 21
1132.21486853895
 31
0.0
  0
TEXT
  5
5BC
330
36
100
AcDbEntity
  8
1-0
 62
     0
100
AcDbText
 10
2782.375
 20
1368.615
 30
0.0
 40
36.288
  1
270
 50
90.0
100
AcDbText
  0
LINE
  5
5BD
330
36
100
AcDbEntity
  8
1-0
  6
Continuous
 62
     0
100
AcDbLine
 10
2782.994980494708
 20
1132.214868950026
 30
0.0
 11
2782.994980494708
 21
1672.214868950027
 31
0.0
  0
CIRCLE
  5
5BE
330
36
100
AcDbEntity
  8
1-0
  6
Continuous
 62
     0
100
AcDbCircle
 10
2782.994980494708
 20
1132.214868950026
 30
0.0
 40
0.25
  0
CIRCLE
  5
5BF
330
36
100
AcDbEntity
  8
1-0
  6
Continuous
 62
     0
100
AcDbCircle
 10
2782.994980494708
 20
1132.214868950026
 30
0.0
 40
0.1875
  0
CIRCLE
  5
5C0
330
36
100
AcDbEntity
  8
1-0
  6
Continuous
 62
     0
100
AcDbCircle
 10
2782.994980494708
 20
1132.214868950026
 30
0.0
 40
0.125
  0
CIRCLE
  5
5C1
330
36
100
AcDbEntity
  8
1-0
  6
Continuous
 62
     0
100
AcDbCircle
 10
2782.994980494708
 20
1132.214868950026
 30
0.0
 40
0.0625
  0
CIRCLE
  5
5C2
330
36
100
AcDbEntity
  8
1-0
  6
Continuous
 62
     0
100
AcDbCircle
 10
2782.994980494708
 20
1672.214868950027
 30
0.0
 40
0.25
  0
CIRCLE
  5
5C3
330
36
100
AcDbEntity
  8
1-0
  6
Continuous
 62
     0
100
AcDbCircle
 10
2782.994980494708
 20
1672.214868950027
 30
0.0
 40
0.1875
  0
CIRCLE
  5
5C4
330
36
100
AcDbEntity
  8
1-0
  6
Continuous
 62
     0
100
AcDbCircle
 10
2782.994980494708
 20
1672.214868950027
 30
0.0
 40
0.125
  0
CIRCLE
  5
5C5
330
36
100
AcDbEntity
  8
1-0
  6
Continuous
 62
     0
100
AcDbCircle
 10
2782.994980494708
 20
1672.214868950027
 30
0.0
 40
0.0625
  0
LINE
  5
5C6
330
36
100
AcDbEntity
  8
1-0
  6
Continuous
 62
     0
100
AcDbLine
 10
1158.328036267201
 20
1692.21486853895
 30
0.0
 11
1158.328036267201
 21
1954.06878753895
 31
0.0
  0
LINE
  5
5C7
330
36
100
AcDbEntity
  8
1-0
  6
Continuous
 62
     0
100
AcDbLine
 10
2558.328036267201
 20
1692.21486853895
 30
0.0
 11
2558.328036267201
 21
1954.06878753895
 31
0.0
  0
TEXT
  5
5C8
330
36
100
AcDbEntity
  8
1-0
 62
     0
100
AcDbText
 10
1726.75
 20
1957.62
 30
0.0
 40
36.288
  1
700(BKG-70G)
100
AcDbText
  0
LINE
  5
5C9
330
36
100
AcDbEntity
  8
1-0
  6
Continuous
 62
     0
100
AcDbLine
 10
2558.328035974715
 20
1954.068787984363
 30
0.0
 11
1158.328035974714
 21
1954.068787984363
 31
0.0
  0
CIRCLE
  5
5CA
330
36
100
AcDbEntity
  8
1-0
  6
Continuous
 62
     0
100
AcDbCircle
 10
2558.328035974715
 20
1954.068787984363
 30
0.0
 40
0.25
  0
CIRCLE
  5
5CB
330
36
100
AcDbEntity
  8
1-0
  6
Continuous
 62
     0
100
AcDbCircle
 10
2558.328035974715
 20
1954.068787984363
 30
0.0
 40
0.1875
  0
CIRCLE
  5
5CC
330
36
100
AcDbEntity
  8
1-0
  6
Continuous
 62
     0
100
AcDbCircle
 10
2558.328035974715
 20
1954.068787984363
 30
0.0
 40
0.125
  0
CIRCLE
  5
5CD
330
36
100
AcDbEntity
  8
1-0
  6
Continuous
 62
     0
100
AcDbCircle
 10
2558.328035974715
 20
1954.068787984363
 30
0.0
 40
0.0625
  0
CIRCLE
  5
5CE
330
36
100
AcDbEntity
  8
1-0
  6
Continuous
 62
     0
100
AcDbCircle
 10
1158.328035974714
 20
1954.068787984363
 30
0.0
 40
0.25
  0
CIRCLE
  5
5CF
330
36
100
AcDbEntity
  8
1-0
  6
Continuous
 62
     0
100
AcDbCircle
 10
1158.328035974714
 20
1954.068787984363
 30
0.0
 40
0.1875
  0
CIRCLE
  5
5D0
330
36
100
AcDbEntity
  8
1-0
  6
Continuous
 62
     0
100
AcDbCircle
 10
1158.328035974714
 20
1954.068787984363
 30
0.0
 40
0.125
  0
CIRCLE
  5
5D1
330
36
100
AcDbEntity
  8
1-0
  6
Continuous
 62
     0
100
AcDbCircle
 10
1158.328035974714
 20
1954.068787984363
 30
0.0
 40
0.0625
  0
LINE
  5
5D2
330
36
100
AcDbEntity
  8
1-0
  6
Continuous
 62
     0
100
AcDbLine
 10
3088.328036338451
 20
1672.214868746475
 30
0.0
 11
3108.328036338451
 21
1672.214868746475
 31
0.0
  0
LINE
  5
5D3
330
36
100
AcDbEntity
  8
1-0
  6
Continuous
 62
     0
100
AcDbLine
 10
3058.328036338451
 20
1132.214868746475
 30
0.0
 11
3108.328036338451
 21
1132.214868746475
 31
0.0
  0
LINE
  5
5D4
330
36
100
AcDbEntity
  8
1-0
  6
Continuous
 62
     0
100
AcDbLine
 10
3108.328036267201
 20
1692.21486853895
 30
0.0
 11
3108.328036267201
 21
1954.06878753895
 31
0.0
  0
LINE
  5
5D5
330
36
100
AcDbEntity
  8
1-0
  6
Continuous
 62
     0
100
AcDbLine
 10
3058.328036267201
 20
1692.21486853895
 30
0.0
 11
3058.328036267201
 21
1954.06878753895
 31
0.0
  0
LINE
  5
5D6
330
36
100
AcDbEntity
  8
1-0
  6
Continuous
 62
     0
100
AcDbLine
 10
3098.328036267201
 20
1954.06878753895
 30
0.0
 11
3068.328036267201
 21
1954.06878753895
 31
0.0
  0
TEXT
  5
5D7
330
36
100
AcDbEntity
  8
1-0
 62
     0
100
AcDbText
 10
3067.159
 20
1976.925
 30
0.0
 40
36.288
  1
25
100
AcDbText
  0
CIRCLE
  5
5D8
330
36
100
AcDbEntity
  8
1-0
  6
Continuous
 62
     0
100
AcDbCircle
 10
3108.328035974715
 20
1954.068787984363
 30
0.0
 40
0.25
  0
CIRCLE
  5
5D9
330
36
100
AcDbEntity
  8
1-0
  6
Continuous
 62
     0
100
AcDbCircle
 10
3108.328035974715
 20
1954.068787984363
 30
0.0
 40
0.1875
  0
CIRCLE
  5
5DA
330
36
100
AcDbEntity
  8
1-0
  6
Continuous
 62
     0
100
AcDbCircle
 10
3108.328035974715
 20
1954.068787984363
 30
0.0
 40
0.125
  0
CIRCLE
  5
5DB
330
36
100
AcDbEntity
  8
1-0
  6
Continuous
 62
     0
100
AcDbCircle
 10
3108.328035974715
 20
1954.068787984363
 30
0.0
 40
0.0625
  0
ARC
  5
5DC
330
36
100
AcDbEntity
  8
1-0
 62
     0
100
AcDbCircle
 10
3108.328035974715
 20
1954.073787984363
 30
0.0
 40
2.5
100
AcDbArc
 50
0.1145914065300158
 51
180.114591405945
  0
LINE
  5
5DD
330
36
100
AcDbEntity
  8
1-0
 62
     0
100
AcDbLine
 10
3103.328035974715
 20
1954.068787984363
 30
0.0
 11
3098.328035974715
 21
1954.068787984363
 31
0.0
  0
CIRCLE
  5
5DE
330
36
100
AcDbEntity
  8
1-0
  6
Continuous
 62
     0
100
AcDbCircle
 10
3058.328035974715
 20
1954.068787984363
 30
0.0
 40
0.25
  0
CIRCLE
  5
5DF
330
36
100
AcDbEntity
  8
1-0
  6
Continuous
 62
     0
100
AcDbCircle
 10
3058.328035974715
 20
1954.068787984363
 30
0.0
 40
0.1875
  0
CIRCLE
  5
5E0
330
36
100
AcDbEntity
  8
1-0
  6
Continuous
 62
     0
100
AcDbCircle
 10
3058.328035974715
 20
1954.068787984363
 30
0.0
 40
0.125
  0
CIRCLE
  5
5E1
330
36
100
AcDbEntity
  8
1-0
  6
Continuous
 62
     0
100
AcDbCircle
 10
3058.328035974715
 20
1954.068787984363
 30
0.0
 40
0.0625
  0
ARC
  5
5E2
330
36
100
AcDbEntity
  8
1-0
 62
     0
100
AcDbCircle
 10
3058.328035974715
 20
1954.063787984363
 30
0.0
 40
2.5
100
AcDbArc
 50
180.1145914065301
 51
0.1145914059449637
  0
LINE
  5
5E3
330
36
100
AcDbEntity
  8
1-0
 62
     0
100
AcDbLine
 10
3063.328035974715
 20
1954.068787984414
 30
0.0
 11
3068.328035974715
 21
1954.068787984465
 31
0.0
  0
TEXT
  5
5E4
330
36
100
AcDbEntity
  8
2-0
 62
     0
100
AcDbText
 10
1729.421
 20
1891.347
 30
0.0
 40
36.288
  1
600(BKG-60G)
100
AcDbText
  0
TEXT
  5
5E5
330
36
100
AcDbEntity
  8
2-0
 62
     0
100
AcDbText
 10
1731.379
 20
1833.611
 30
0.0
 40
36.288
  1
350(BKG-35G)
100
AcDbText
  0
ENDSEC
  0
SECTION
  2
OBJECTS
  0
DICTIONARY
  5
C
330
0
100
AcDbDictionary
281
     1
  3
ACAD_COLOR
350
2F
  3
ACAD_GROUP
350
D
  3
ACAD_LAYOUT
350
2E
  3
ACAD_MATERIAL
350
10
  3
ACAD_MLINESTYLE
350
2B
  3
ACAD_PLOTSETTINGS
350
2D
  3
ACAD_PLOTSTYLENAME
350
E
  3
ACAD_TABLESTYLE
350
30
  3
ACAD_VISUALSTYLE
350
14
  3
AcDbVariableDictionary
350
5E8
  3
DWGPROPS
350
5ED
  0
DICTIONARY
  5
2F
102
{ACAD_REACTORS
330
C
102
}
330
C
100
AcDbDictionary
281
     1
  0
DICTIONARY
  5
D
102
{ACAD_REACTORS
330
C
102
}
330
C
100
AcDbDictionary
281
     1
  0
DICTIONARY
  5
2E
102
{ACAD_REACTORS
330
C
102
}
330
C
100
AcDbDictionary
281
     1
  3
Model
350
39
  3
レイアウト1
350
35
  0
DICTIONARY
  5
10
102
{ACAD_REACTORS
330
C
102
}
330
C
100
AcDbDictionary
281
     1
  3
ByBlock
350
12
  3
ByLayer
350
11
  3
Global
350
13
  0
DICTIONARY
  5
2B
102
{ACAD_REACTORS
330
C
102
}
330
C
100
AcDbDictionary
281
     1
  3
Standard
350
2C
  0
DICTIONARY
  5
2D
102
{ACAD_REACTORS
330
C
102
}
330
C
100
AcDbDictionary
281
     1
  0
ACDBDICTIONARYWDFLT
  5
E
102
{ACAD_REACTORS
330
C
102
}
330
C
100
AcDbDictionary
281
     1
  3
Normal
350
F
100
AcDbDictionaryWithDefault
340
F
  0
DICTIONARY
  5
30
102
{ACAD_REACTORS
330
C
102
}
330
C
100
AcDbDictionary
281
     1
  3
Standard
350
31
  0
DICTIONARY
  5
14
102
{ACAD_REACTORS
330
C
102
}
330
C
100
AcDbDictionary
281
     1
  3
2dWireframe
350
1A
  3
3D Hidden
350
1C
  3
3dWireframe
350
1B
  3
Basic
350
19
  3
Brighten
350
20
  3
ColorChange
350
24
  3
Conceptual
350
1D
  3
Dim
350
1F
  3
Facepattern
350
23
  3
Flat
350
15
  3
FlatWithEdges
350
16
  3
Gouraud
350
17
  3
GouraudWithEdges
350
18
  3
Linepattern
350
22
  3
Realistic
350
1E
  3
Thicken
350
21
  0
DICTIONARY
  5
5E8
102
{ACAD_REACTORS
330
C
102
}
330
C
100
AcDbDictionary
281
     1
  3
CTABLESTYLE
350
5E9
  3
DIMASSOC
350
5EC
  3
INDEXCTL
350
5EB
  3
SORTENTS
350
5EA
  0
XRECORD
  5
5ED
102
{ACAD_REACTORS
330
C
102
}
330
C
100
AcDbXrecord
280
     1
  1
DWGPROPS COOKIE
  2

  3

  4

  6

  7

  8
saisu
  9

300
=
301
=
302
=
303
=
304
=
305
=
306
=
307
=
308
=
309
=
 40
0.0003759259259259
 41
2457316.678891655
 42
2457316.679267026
  1

 90
        0
  0
LAYOUT
  5
39
102
{ACAD_XDICTIONARY
360
5F8
102
}
102
{ACAD_REACTORS
330
2E
102
}
330
2E
100
AcDbPlotSettings
  1

  2
ApeosPort-II 4000
  4

  6

 40
0.0
 41
0.0
 42
0.0
 43
0.0
 44
0.0
 45
0.0
 46
0.0
 47
0.0
 48
0.0
 49
0.0
140
0.0
141
0.0
142
1.0
143
1.0
 70
  1712
 72
     0
 73
     0
 74
     0
  7

 75
     0
147
1.0
148
0.0
149
0.0
100
AcDbLayout
  1
Model
 70
     1
 71
     0
 10
0.0
 20
0.0
 11
12.0
 21
9.0
 12
0.0
 22
0.0
 32
0.0
 14
0.0
 24
0.0
 34
0.0
 15
0.0
 25
0.0
 35
0.0
146
0.0
 13
0.0
 23
0.0
 33
0.0
 16
1.0
 26
0.0
 36
0.0
 17
0.0
 27
1.0
 37
0.0
 76
     0
330
36
331
50
  0
LAYOUT
  5
35
102
{ACAD_XDICTIONARY
360
5F6
102
}
102
{ACAD_REACTORS
330
2E
102
}
330
2E
100
AcDbPlotSettings
  1

  2
ApeosPort-II 4000
  4

  6

 40
0.0
 41
0.0
 42
0.0
 43
0.0
 44
0.0
 45
0.0
 46
0.0
 47
0.0
 48
0.0
 49
0.0
140
0.0
141
0.0
142
1.0
143
1.0
 70
   688
 72
     0
 73
     0
 74
     5
  7

 75
    16
147
1.0
148
0.0
149
0.0
100
AcDbLayout
  1
レイアウト1
 70
     1
 71
     1
 10
0.0
 20
0.0
 11
12.0
 21
9.0
 12
0.0
 22
0.0
 32
0.0
 14
1.000000000000000E+20
 24
1.000000000000000E+20
 34
1.000000000000000E+20
 15
-1.000000000000000E+20
 25
-1.000000000000000E+20
 35
-1.000000000000000E+20
146
0.0
 13
0.0
 23
0.0
 33
0.0
 16
1.0
 26
0.0
 36
0.0
 17
0.0
 27
1.0
 37
0.0
 76
     0
330
32
  0
MATERIAL
  5
12
102
{ACAD_XDICTIONARY
360
5F0
102
}
102
{ACAD_REACTORS
330
10
102
}
330
10
100
AcDbMaterial
  1
ByBlock
  0
MATERIAL
  5
11
102
{ACAD_XDICTIONARY
360
5EE
102
}
102
{ACAD_REACTORS
330
10
102
}
330
10
100
AcDbMaterial
  1
ByLayer
  0
MATERIAL
  5
13
102
{ACAD_XDICTIONARY
360
5F2
102
}
102
{ACAD_REACTORS
330
10
102
}
330
10
100
AcDbMaterial
  1
Global
  0
MLINESTYLE
  5
2C
102
{ACAD_REACTORS
330
2B
102
}
330
2B
100
AcDbMlineStyle
  2
STANDARD
 70
     0
  3

 62
   256
 51
90.0
 52
90.0
 71
     2
 49
0.5
 62
   256
  6
BYLAYER
 49
-0.5
 62
   256
  6
BYLAYER
  0
ACDBPLACEHOLDER
  5
F
102
{ACAD_REACTORS
330
E
102
}
330
E
  0
TABLESTYLE
  5
31
102
{ACAD_XDICTIONARY
360
5F4
102
}
102
{ACAD_REACTORS
330
30
102
}
330
30
100
AcDbTableStyle
  3
Standard
 70
     0
 71
     0
 40
0.06
 41
0.06
280
     0
281
     0
  7
STANDARD
140
0.18
170
     2
 62
     0
 63
     7
283
     0
274
    -2
284
     1
 64
     0
275
    -2
285
     1
 65
     0
276
    -2
286
     1
 66
     0
277
    -2
287
     1
 67
     0
278
    -2
288
     1
 68
     0
279
    -2
289
     1
 69
     0
  7
STANDARD
140
0.25
170
     5
 62
     0
 63
     7
283
     0
274
    -2
284
     1
 64
     0
275
    -2
285
     1
 65
     0
276
    -2
286
     1
 66
     0
277
    -2
287
     1
 67
     0
278
    -2
288
     1
 68
     0
279
    -2
289
     1
 69
     0
  7
STANDARD
140
0.18
170
     5
 62
     0
 63
     7
283
     0
274
    -2
284
     1
 64
     0
275
    -2
285
     1
 65
     0
276
    -2
286
     1
 66
     0
277
    -2
287
     1
 67
     0
278
    -2
288
     1
 68
     0
279
    -2
289
     1
 69
     0
  0
VISUALSTYLE
  5
1A
102
{ACAD_REACTORS
330
14
102
}
330
14
100
AcDbVisualStyle
  2
2dWireframe
 70
     4
 71
     0
 72
     2
 73
     0
 90
        0
 40
-0.6
 41
-30.0
 62
     5
 63
     7
 74
     1
 91
        4
 64
     7
 65
   257
 75
     1
175
     1
 42
1.0
 92
        0
 66
   257
 43
1.0
 76
     1
 77
     6
 78
     2
 67
     7
 79
     5
170
     0
171
     0
290
     0
174
     0
 93
        1
 44
0.0
173
     0
291
     0
 45
0.0
1001
ACAD
1000
AcDbSavedByObjectVersion
1070
     0
  0
VISUALSTYLE
  5
1C
102
{ACAD_REACTORS
330
14
102
}
330
14
100
AcDbVisualStyle
  2
3D Hidden
 70
     6
 71
     1
 72

     2
 73
     2
 90
        0
 40
-0.6
 41
-30.0
 62
     5
 63
     7
 74
     2
 91
        2
 64
     7
 65
   257
 75
     2
175
     1
 42
40.0
 92
        0
 66
   257
 43
1.0
 76
     1
 77
     6
 78
     2
 67
     7
 79
     3
170
     0
171
     0
290
     0
174
     0
 93
        1
 44
0.0
173
     0
291
     0
 45
0.0
1001
ACAD
1000
AcDbSavedByObjectVersion
1070
     0
  0
VISUALSTYLE
  5
1B
102
{ACAD_REACTORS
330
14
102
}
330
14
100
AcDbVisualStyle
  2
3dWireframe
 70
     5
 71
     0
 72
     2
 73
     0
 90
        0
 40
-0.6
 41
-30.0
 62
     5
 63
     7
 74
     1
 91
        4
 64
     7
 65
   257
 75
     1
175
     1
 42
1.0
 92
        0
 66
   257
 43
1.0
 76
     1
 77
     6
 78
     2
 67
     7
 79
     5
170
     0
171
     0
290
     0
174
     0
 93
        1
 44
0.0
173
     0
291
     0
 45
0.0
1001
ACAD
1000
AcDbSavedByObjectVersion
1070
     0
  0
VISUALSTYLE
  5
19
102
{ACAD_REACTORS
330
14
102
}
330
14
100
AcDbVisualStyle
  2
Basic
 70
     7
 71
     1
 72
     0
 73
     1
 90
        0
 40
-0.6
 41
-30.0
 62
     5
 63
     7
 74
     0
 91
        4
 64
     7
 65
   257
 75
     1
175
     1
 42
1.0
 92
        8
 66
     7
 43
1.0
 76
     1
 77
     6
 78
     2
 67
     7
 79
     5
170
     0
171
     0
290
     0
174
     0
 93
        1
 44
0.0
173
     0
291
     1
 45
0.0
1001
ACAD
1000
AcDbSavedByObjectVersion
1070
     0
  0
VISUALSTYLE
  5
20
102
{ACAD_REACTORS
330
14
102
}
330
14
100
AcDbVisualStyle
  2
Brighten
 70
    12
 71
     2
 72
     2
 73
     0
 90
        0
 40
-0.6
 41
-30.0
 62
     5
 63
     7
 74
     1
 91
        4
 64
     7
 65
   257
 75
     1
175
     1
 42
1.0
 92
        8
 66
     7
 43
1.0
 76
     1
 77
     6
 78
     2
 67
     7
 79
     5
170
     0
171
     0
290
     0
174
     0
 93
        1
 44
50.0
173
     0
291
     1
 45
0.0
1001
ACAD
1000
AcDbSavedByObjectVersion
1070
     0
  0
VISUALSTYLE
  5
24
102
{ACAD_REACTORS
330
14
102
}
330
14
100
AcDbVisualStyle
  2
ColorChange
 70
    16
 71
     2
 72
     2
 73
     3
 90
        0
 40
-0.6
 41
-30.0
 62
     5
 63
     8
 74
     1
 91
        4
 64
     7
 65
   257
 75
     1
175
     1
 42
1.0
 92
        8
 66
     8
 43
1.0
 76
     1
 77
     6
 78
     2
 67
     7
 79
     5
170
     0
171
     0
290
     0
174
     0
 93
        1
 44
0.0
173
     0
291
     1
 45
0.0
1001
ACAD
1000
AcDbSavedByObjectVersion
1070
     0
  0
VISUALSTYLE
  5
1D
102
{ACAD_REACTORS
330
14
102
}
330
14
100
AcDbVisualStyle
  2
Conceptual
 70
     9
 71
     3
 72
     2
 73
     0
 90
        0
 40
-0.6
 41
-30.0
 62
     5
 63
     7
 74
     2
 91
        2
 64
     7
 65
   257
 75
     1
175
     1
 42
40.0
 92
        8
 66
     7
 43
1.0
 76
     1
 77
     6
 78
     2
 67
     7
 79
     3
170
     0
171
     0
290
     0
174
     0
 93
        1
 44
0.0
173
     0
291
     0
 45
0.0
1001
ACAD
1000
AcDbSavedByObjectVersion
1070
     0
  0
VISUALSTYLE
  5
1F
102
{ACAD_REACTORS
330
14
102
}
330
14
100
AcDbVisualStyle
  2
Dim
 70
    11
 71
     2
 72
     2
 73
     0
 90
        0
 40
-0.6
 41
-30.0
 62
     5
 63
     7
 74
     1
 91
        4
 64
     7
 65
   257
 75
     1
175
     1
 42
1.0
 92
        8
 66
     7
 43
1.0
 76
     1
 77
     6
 78
     2
 67
     7
 79
     5
170
     0
171
     0
290
     0
174
     0
 93
        1
 44
-50.0
173
     0
291
     1
 45
0.0
1001
ACAD
1000
AcDbSavedByObjectVersion
1070
     0
  0
VISUALSTYLE
  5
23
102
{ACAD_REACTORS
330
14
102
}
330
14
100
AcDbVisualStyle
  2
Facepattern
 70
    15
 71
     2
 72
     2
 73
     0
 90
        0
 40
-0.6
 41
-30.0
 62
     5
 63
     7
 74
     1
 91
        4
 64
     7
 65
   257
 75
     1
175
     1
 42
1.0
 92
        8
 66
     7
 43
1.0
 76
     1
 77
     6
 78
     2
 67
     7
 79
     5
170
     0
171
     0
290
     0
174
     0
 93
        1
 44
0.0
173
     0
291
     1
 45
0.0
1001
ACAD
1000
AcDbSavedByObjectVersion
1070
     0
  0
VISUALSTYLE
  5
15
102
{ACAD_REACTORS
330
14
102
}
330
14
100
AcDbVisualStyle
  2
Flat
 70
     0
 71
     2
 72
     1
 73
     1
 90
        2
 40
-0.6
 41
30.0
 62
     5
 63
     7
 74
     0
 91
        4
 64
     7
 65
   257
 75
     1
175
     1
 42
1.0
 92
        8
 66
     7
 43
1.0
 76
     1
 77
     6
 78
     2
 67
     7
 79
     5
170
     0
171
     0
290
     0
174
     0
 93
       13
 44
0.0
173
     0
291
     1
 45
0.0
1001
ACAD
1000
AcDbSavedByObjectVersion
1070
     0
  0
VISUALSTYLE
  5
16
102
{ACAD_REACTORS
330
14
102
}
330
14
100
AcDbVisualStyle
  2
FlatWithEdges
 70
     1
 71
     2
 72
     1
 73
     1
 90
        2
 40
-0.6
 41
30.0
 62
     5
 63
     7
 74
     1
 91
        4
 64
     7
 65
   257
 75
     1
175
     1
 42
1.0
 92
        0
 66
   257
 43
1.0
 76
     1
 77
     6
 78
     2
 67
     7
 79
     5
170
     0
171
     0
290
     0
174
     0
 93
       13
 44
0.0
173
     0
291
     1
 45
0.0
1001
ACAD
1000
AcDbSavedByObjectVersion
1070
     0
  0
VISUALSTYLE
  5
17
102
{ACAD_REACTORS
330
14
102
}
330
14
100
AcDbVisualStyle
  2
Gouraud
 70
     2
 71
     2
 72
     2
 73
     1
 90
        2
 40
-0.6
 41
30.0
 62
     5
 63
     7
 74
     0
 91
        4
 64
     7
 65
   257
 75
     1
175
     1
 42
1.0
 92
        0
 66
     7
 43
1.0
 76
     1
 77
     6
 78
     2
 67
     7
 79
     5
170
     0
171
     0
290
     0
174
     0
 93
       13
 44
0.0
173
     0
291
     1
 45
0.0
1001
ACAD
1000
AcDbSavedByObjectVersion
1070
     0
  0
VISUALSTYLE
  5
18
102
{ACAD_REACTORS
330
14
102
}
330
14
100
AcDbVisualStyle
  2
GouraudWithEdges
 70
     3
 71
     2
 72
     2
 73
     1
 90
        2
 40
-0.6
 41
30.0
 62
     5
 63
     7
 74
     1
 91
        4
 64
     7
 65
   257
 75
     1
175
     1
 42
1.0
 92
        0
 66
   257
 43
1.0
 76
     1
 77
     6
 78
     2
 67
     7
 79
     5
170
     0
171
     0
290
     0
174
     0
 93
       13
 44
0.0
173
     0
291
     1
 45
0.0
1001
ACAD
1000
AcDbSavedByObjectVersion
1070
     0
  0
VISUALSTYLE
  5
22
102
{ACAD_REACTORS
330
14
102
}
330
14
100
AcDbVisualStyle
  2
Linepattern
 70
    14
 71
     2
 72
     2
 73
     0
 90
        0
 40
-0.6
 41
-30.0
 62
     5
 63
     7
 74
     1
 91
        4
 64
     7
 65
   257
 75
     7
175
     7
 42
1.0
 92
        8
 66
     7
 43
1.0
 76
     1
 77
     6
 78
     2
 67
     7
 79
     5
170
     0
171
     0
290
     0
174
     0
 93
        1
 44
0.0
173
     0
291
     1
 45
0.0
1001
ACAD
1000
AcDbSavedByObjectVersion
1070
     0
  0
VISUALSTYLE
  5
1E
102
{ACAD_REACTORS
330
14
102
}
330
14
100
AcDbVisualStyle
  2
Realistic
 70
     8
 71
     2
 72
     2
 73
     0
 90
        0
 40
-0.6
 41
-30.0
 62
     5
 63
     7
 74
     1
 91
        0
 64
     7
 65
   257
 75
     1
175
     1
 42
1.0
 92
        8
 66
     8
 43
1.0
 76
     1
 77
     6
 78
     2
 67
     7
 79
     5
170
     0
171
     0
290
     0
174
     0
 93
       13
 44
0.0
173
     0
291
     0
 45
0.0
1001
ACAD
1000
AcDbSavedByObjectVersion
1070
     0
  0
VISUALSTYLE
  5
21
102
{ACAD_REACTORS
330
14
102
}
330
14
100
AcDbVisualStyle
  2
Thicken
 70
    13
 71
     2
 72
     2
 73
     0
 90
        0
 40
-0.6
 41
-30.0
 62
     5
 63
     7
 74
     1
 91
        4
 64
     7
 65
   257
 75
     1
175
     1
 42
1.0
 92
       12
 66
     7
 43
1.0
 76
     1
 77
     6
 78
     2
 67
     7
 79
     5
170
     0
171
     0
290
     0
174
     0
 93
        1
 44
0.0
173
     0
291
     1
 45
0.0
1001
ACAD
1000
AcDbSavedByObjectVersion
1070
     0
  0
DICTIONARYVAR
  5
5E9
102
{ACAD_REACTORS
330
5E8
102
}
330
5E8
100
DictionaryVariables
280
     0
  1
STANDARD
  0
DICTIONARYVAR
  5
5EC
102
{ACAD_REACTORS
330
5E8
102
}
330
5E8
100
DictionaryVariables
280
     0
  1
1
  0
DICTIONARYVAR
  5
5EB
102
{ACAD_REACTORS
330
5E8
102
}
330
5E8
100
DictionaryVariables
280
     0
  1
0
  0
DICTIONARYVAR
  5
5EA
102
{ACAD_REACTORS
330
5E8
102
}
330
5E8
100
DictionaryVariables
280
     0
  1
127
  0
DICTIONARY
  5
5F8
330
39
100
AcDbDictionary
280
     1
281
     1
  3
ACAD_XREC_ROUNDTRIP
360
5F9
  0
DICTIONARY
  5
5F6
330
35
100
AcDbDictionary
280
     1
281
     1
  3
ACAD_XREC_ROUNDTRIP
360
5F7
  0
DICTIONARY
  5
5F0
330
12
100
AcDbDictionary
280
     1
281
     1
  3
ACAD_XREC_ROUNDTRIP
360
5F1
  0
DICTIONARY
  5
5EE
330
11
100
AcDbDictionary
280
     1
281
     1
  3
ACAD_XREC_ROUNDTRIP
360
5EF
  0
DICTIONARY
  5
5F2
330
13
100
AcDbDictionary
280
     1
281
     1
  3
ACAD_XREC_ROUNDTRIP
360
5F3
  0
DICTIONARY
  5
5F4
330
31
100
AcDbDictionary
280
     1
281
     1
  3
ACAD_XREC_ROUNDTRIP
360
5F5
  0
XRECORD
  5
5F9
102
{ACAD_REACTORS
330
5F8
102
}
330
5F8
100
AcDbXrecord
280
     1
102
SHADEPLOT
 70
     0
102
SHADEPLOTRESLEVEL
 70
     2
102
SHADEPLOTCUSTOMDPI
 70
   300
  0
XRECORD
  5
5F7
102
{ACAD_REACTORS
330
5F6
102
}
330
5F6
100
AcDbXrecord
280
     1
102
SHADEPLOT
 70
     0
102
SHADEPLOTRESLEVEL
 70
     2
102
SHADEPLOTCUSTOMDPI
 70
   300
  0
XRECORD
  5
5F1
102
{ACAD_REACTORS
330
5F0
102
}
330
5F0
100
AcDbXrecord
280
     1
102
MATERIAL
148
0.0
149
0.0
149
0.0
 93
        0
 94
       63
282
     0
 72
     1
 77
     1
171
     1
175
     1
179
     1
273
     0
  0
XRECORD
  5
5EF
102
{ACAD_REACTORS
330
5EE
102
}
330
5EE
100
AcDbXrecord
280
     1
102
MATERIAL
148
0.0
149
0.0
149
0.0
 93
        0
 94
       63
282
     0
 72
     1
 77
     1
171
     1
175
     1
179
     1
273
     0
  0
XRECORD
  5
5F3
102
{ACAD_REACTORS
330
5F2
102
}
330
5F2
100
AcDbXrecord
280
     1
102
MATERIAL
148
0.0
149
0.0
149
0.0
 93
        0
 94
       63
282
     0
 72
     1
 77
     1
171
     1
175
     1
179
     1
273
     0
  0
XRECORD
  5
5F5
102
{ACAD_REACTORS
330
5F4
102
}
330
5F4
100
AcDbXrecord
280
     1
102
ACAD_ROUNDTRIP_PRE2007_TABLESTYLE
 90
      512
 91
        0
  1

 92
      512
 93
        0
  2

 94
      512
 95
        0
  3

  0
ENDSEC
  0
EOF
