  0
SECTION
  2
HEADER
  9
$ACADVER
  1
AC1009
  9
$DWGCODEPAGE
  3
ansi_932
  9
$INSBASE
 10
0.0
 20
0.0
 30
0.0
  9
$EXTMIN
 10
-630.0
 20
-445.5
 30
0.0
  9
$EXTMAX
 10
630.0
 20
445.5
 30
0.0
  9
$LIMMIN
 10
-210.0
 20
-148.5
  9
$LIMMAX
 10
210.0
 20
148.5
  9
$ORTHOMODE
 70
     0
  9
$REGENMODE
 70
     1
  9
$FILLMODE
 70
     1
  9
$QTEXTMODE
 70
     0
  9
$MIRRTEXT
 70
     1
  9
$DRAGMODE
 70
     2
  9
$LTSCALE
 40
1.0
  9
$OSMODE
 70
    37
  9
$ATTMODE
 70
     1
  9
$TEXTSIZE
 40
0.2
  9
$TRACEWID
 40
0.05
  9
$TEXTSTYLE
  7
STANDARD
  9
$CLAYER
  8
0
  9
$CELTYPE
  6
BYLAYER
  9
$CECOLOR
 62
   256
  9
$DIMSCALE
 40
1.0
  9
$DIMASZ
 40
2.5
  9
$DIMEXO
 40
0.0625
  9
$DIMDLI
 40
0.38
  9
$DIMRND
 40
0.0
  9
$DIMDLE
 40
0.0
  9
$DIMEXE
 40
0.18
  9
$DIMTP
 40
0.0
  9
$DIMTM
 40
0.0
  9
$DIMTXT
 40
0.18
  9
$DIMCEN
 40
0.09
  9
$DIMTSZ
 40
0.0
  9
$DIMTOL
 70
     0
  9
$DIMLIM
 70
     0
  9
$DIMTIH
 70
     1
  9
$DIMTOH
 70
     1
  9
$DIMSE1
 70
     0
  9
$DIMSE2
 70
     0
  9
$DIMTAD
 70
     3
  9
$DIMZIN
 70
     0
  9
$DIMBLK
  1

  9
$DIMASO
 70
     1
  9
$DIMSHO
 70
     1
  9
$DIMPOST
  1

  9
$DIMAPOST
  1

  9
$DIMALT
 70
     0
  9
$DIMALTD
 70
     2
  9
$DIMALTF
 40
25.4
  9
$DIMLFAC
 40
1.0
  9
$DIMTOFL
 70
     0
  9
$DIMTVP
 40
0.0
  9
$DIMTIX
 70
     0
  9
$DIMSOXD
 70
     0
  9
$DIMSAH
 70
     0
  9
$DIMBLK1
  1

  9
$DIMBLK2
  1

  9
$DIMSTYLE
  2
STANDARD
  9
$DIMCLRD
 70
     0
  9
$DIMCLRE
 70
     0
  9
$DIMCLRT
 70
     0
  9
$DIMTFAC
 40
1.0
  9
$DIMGAP
 40
0.09
  9
$LUNITS
 70
     2
  9
$LUPREC
 70
     4
  9
$SKETCHINC
 40
0.1
  9
$FILLETRAD
 40
0.5
  9
$AUNITS
 70
     0
  9
$AUPREC
 70
     0
  9
$MENU
  1
.
  9
$ELEVATION
 40
0.0
  9
$PELEVATION
 40
0.0
  9
$THICKNESS
 40
0.0
  9
$LIMCHECK
 70
     0
  9
$CHAMFERA
 40
0.5
  9
$CHAMFERB
 40
0.5
  9
$SKPOLY
 70
     0
  9
$TDCREATE
 40
2456252.623675382
  9
$TDUPDATE
 40
2456252.623675393
  9
$TDINDWG
 40
0.0000000116
  9
$TDUSRTIMER
 40
0.0000000116
  9
$USRTIMER
 70
     1
  9
$ANGBASE
 50
0.0
  9
$ANGDIR
 70
     0
  9
$PDMODE
 70
     0
  9
$PDSIZE
 40
1.0
  9
$PLINEWID
 40
0.0
  9
$COORDS
 70
     1
  9
$SPLFRAME
 70
     0
  9
$SPLINETYPE
 70
     6
  9
$SPLINESEGS
 70
     8
  9
$ATTDIA
 70
     0
  9
$ATTREQ
 70
     1
  9
$HANDLING
 70
     1
  9
$HANDSEED
  5
698
  9
$SURFTAB1
 70
     6
  9
$SURFTAB2
 70
     6
  9
$SURFTYPE
 70
     6
  9
$SURFU
 70
     6
  9
$SURFV
 70
     6
  9
$UCSNAME
  2

  9
$UCSORG
 10
0.0
 20
0.0
 30
0.0
  9
$UCSXDIR
 10
1.0
 20
0.0
 30
0.0
  9
$UCSYDIR
 10
0.0
 20
1.0
 30
0.0
  9
$PUCSNAME
  2

  9
$PUCSORG
 10
0.0
 20
0.0
 30
0.0
  9
$PUCSXDIR
 10
1.0
 20
0.0
 30
0.0
  9
$PUCSYDIR
 10
0.0
 20
1.0
 30
0.0
  9
$USERI1
 70
     0
  9
$USERI2
 70
     0
  9
$USERI3
 70
     0
  9
$USERI4
 70
     0
  9
$USERI5
 70
     0
  9
$USERR1
 40
0.0
  9
$USERR2
 40
0.0
  9
$USERR3
 40
0.0
  9
$USERR4
 40
0.0
  9
$USERR5
 40
0.0
  9
$WORLDVIEW
 70
     1
  9
$SHADEDGE
 70
     3
  9
$SHADEDIF
 70
    70
  9
$TILEMODE
 70
     1
  9
$MAXACTVP
 70
    64
  9
$PLIMCHECK
 70
     0
  9
$PEXTMIN
 10
1.000000000000000E+20
 20
1.000000000000000E+20
 30
1.000000000000000E+20
  9
$PEXTMAX
 10
-1.000000000000000E+20
 20
-1.000000000000000E+20
 30
-1.000000000000000E+20
  9
$PLIMMIN
 10
0.0
 20
0.0
  9
$PLIMMAX
 10
12.0
 20
9.0
  9
$UNITMODE
 70
     0
  9
$VISRETAIN
 70
     0
  9
$PLINEGEN
 70
     1
  9
$PSLTSCALE
 70
     0
  0
ENDSEC
  0
SECTION
  2
TABLES
  0
TABLE
  2
VPORT
 70
     1
  0
VPORT
  2
*ACTIVE
 70
     0
 10
0.0
 20
0.0
 11
1.0
 21
1.0
 12
0.0
 22
0.0
 13
0.0
 23
0.0
 14
0.5
 24
0.5
 15
0.5
 25
0.5
 16
0.0
 26
0.0
 36
1.0
 17
-0.0000000000000036
 27
0.0
 37
0.0
 40
302.94
 41
1.414141414141414
 42
50.0
 43
0.0
 44
0.0
 50
0.0
 51
0.0
 71
     0
 72
  1000
 73
     1
 74
     1
 75
     0
 76
     0
 77
     0
 78
     0
  0
ENDTAB
  0
TABLE
  2
LTYPE
 70
    28
  0
LTYPE
  2
CONTINUOUS
 70
     0
  3
Solid line
 72
    65
 73
     0
 40
0.0
  0
LTYPE
  2
HIDDENX2
 70
     0
  3
CADPAC LINETYPE
 72
    65
 73
     2
 40
6.191732629727369
 49
4.643799472295527
 49
-1.547933157431842
  0
LTYPE
  2
HIDDEN
 70
     0
  3
CADPAC LINETYPE
 72
    65
 73
     2
 40
4.643799472295527
 49
3.095866314863685
 49
-1.547933157431842
  0
LTYPE
  2
HIDDEN2
 70
     0
  3
CADPAC LINETYPE
 72
    65
 73
     2
 40
3.869832893579606
 49
2.321899736147763
 49
-1.547933157431842
  0
LTYPE
  2
DASHED
 70
     0
  3
CADPAC LINETYPE
 72
    65
 73
     2
 40
4.334212840809158
 49
3.095866314863685
 49
-1.238346525945474
  0
LTYPE
  2
DASHED2
 70
     0
  3
CADPAC LINETYPE
 72
    65
 73
     2
 40
2.78627968337733
 49
1.857519788918211
 49
-0.9287598944591196
  0
LTYPE
  2
DASHEDX2
 70
     0
  3
CADPAC LINETYPE
 72
    65
 73
     2
 40
7.430079155672843
 49
6.191732629727369
 49
-1.238346525945474
  0
LTYPE
  2
DOTX2
 70
     0
  3
CADPAC LINETYPE
 72
    65
 73
     2
 40
2.708883025505742
 49
0.0
 49
-2.708883025505742
  0
LTYPE
  2
DOT
 70
     0
  3
CADPAC LINETYPE
 72
    65
 73
     2
 40
2.167106420404593
 49
0.0
 49
-2.167106420404593
  0
LTYPE
  2
DOT2
 70
     0
  3
CADPAC LINETYPE
 72
    65
 73
     2
 40
1.625329815303445
 49
0.0
 49
-1.625329815303445
  0
LTYPE
  2
CENTERX2
 70
     0
  3
CADPAC LINETYPE
 72
    65
 73
     4
 40
9.287598944591053
 49
3.869832893579606
 49
-1.934916446789803
 49
1.547933157431842
 49
-1.934916446789803
  0
LTYPE
  2
CENTER
 70
     0
  3
CADPAC LINETYPE
 72
    65
 73
     4
 40
7.120492524186474
 49
3.095866314863685
 49
-1.547933157431842
 49
0.9287598944591053
 49
-1.547933157431842
  0
LTYPE
  2
CENTER2
 70
     0
  3
CADPAC LINETYPE
 72
    65
 73
     4
 40
4.953386103781895
 49
2.321899736147763
 49
-1.160949868073882
 49
0.3095866314863685
 49
-1.160949868073882
  0
LTYPE
  2
DASHDOTX2
 70
     0
  3
CADPAC LINETYPE
 72
    65
 73
     4
 40
14.86015831134569
 49
7.430079155672843
 49
-2.476693051890948
 49
2.476693051890948
 49
-2.476693051890948
  0
LTYPE
  2
DASHDOT
 70
     0
  3
CADPAC LINETYPE
 72
    65
 73
     4
 40
7.430079155672843
 49
3.715039577836421
 49
-1.238346525945474
 49
1.238346525945474
 49
-1.238346525945474
  0
LTYPE
  2
DASHDOT2
 70
     0
  3
CADPAC LINETYPE
 72
    65
 73
     4
 40
4.767634124890074
 49
2.786279683377316
 49
-0.9287598944591053
 49
0.1238346525945474
 49
-0.9287598944591053
  0
LTYPE
  2
DIVIDEX2
 70
     0
  3
CADPAC LINETYPE
 72
    65
 73
     6
 40
19.81354441512758
 49
7.430079155672843
 49
-2.476693051890948
 49
2.476693051890948
 49
-2.476693051890948
 49
2.476693051890948
 49
-2.476693051890948
  0
LTYPE
  2
DIVIDE
 70
     0
  3
CADPAC LINETYPE
 72
    65
 73
     6
 40
9.90677220756379
 49
3.715039577836421
 49
-1.238346525945474
 49
1.238346525945474
 49
-1.238346525945474
 49
1.238346525945474
 49
-1.238346525945474
  0
LTYPE
  2
DIVIDE2
 70
     0
  3
CADPAC LINETYPE
 72
    65
 73
     6
 40
7.430079155672843
 49
2.786279683377316
 49
-0.9287598944591053
 49
0.9287598944591053
 49
-0.9287598944591053
 49
0.9287598944591053
 49
-0.9287598944591053
  0
LTYPE
  2
BORDERX2
 70
     0
  3
CADPAC LINETYPE
 72
    65
 73
     6
 40
13.54441512752862
 49
3.869832893579606
 49
-1.934916446789803
 49
3.869832893579606
 49
-1.934916446789803
 49
0.0
 49
-1.934916446789803
  0
LTYPE
  2
BORDER
 70
     0
  3
CADPAC LINETYPE
 72
    65
 73
     6
 40
10.8355321020229
 49
3.095866314863685
 49
-1.547933157431842
 49
3.095866314863685
 49
-1.547933157431842
 49
0.0
 49
-1.547933157431842
  0
LTYPE
  2
BORDER2
 70
     0
  3
CADPAC LINETYPE
 72
    65
 73
     6
 40
8.049252418645622
 49
2.476693051890948
 49
-1.547933157431856
 49
0.9287598944591196
 49
-1.547933157431856
 49
0.0
 49
-1.547933157431842
  0
LTYPE
  2
PHANTOMX2
 70
     0
  3
CADPAC LINETYPE
 72
    65
 73
     6
 40
11.60949868073882
 49
3.869832893579606
 49
-1.547933157431842
 49
1.547933157431842
 49
-1.547933157431842
 49
1.547933157431842
 49
-1.547933157431842
  0
LTYPE
  2
PHANTOM
 70
     0
  3
CADPAC LINETYPE
 72
    65
 73
     6
 40
9.597185576077422
 49
3.095866314863685
 49
-1.547933157431842
 49
0.9287598944591053
 49
-1.547933157431842
 49
0.9287598944591053
 49
-1.547933157431842
  0
LTYPE
  2
PHANTOM2
 70
     0
  3
CADPAC LINETYPE
 72
    65
 73
     6
 40
8.204045734388764
 49
2.321899736147763
 49
-1.547933157431842
 49
0.6191732629727369
 49
-1.547933157431842
 49
0.6191732629727369
 49
-1.547933157431842
  0
LTYPE
  2
ACAD_ISO06W100
 70
     0
  3
CADPAC LINETYPE
 72
    65
 73
     8
 40
16.40809146877763
 49
7.430079155672843
 49
-1.547933157431856
 49
0.9287598944591196
 49
-1.547933157431856
 49
0.9287598944591196
 49
-1.547933157431856
 49
0.9287598944591196
 49
-1.547933157431856
  0
LTYPE
  2
ACAD_ISO13W100
 70
     0
  3
CADPAC LINETYPE
 72
    65
 73
     8
 40
12.38346525945474
 49
3.095866314863685
 49
-1.547933157431842
 49
3.095866314863685
 49
-1.547933157431842
 49
0.0
 49
-1.547933157431842
 49
0.0
 49
-1.547933157431842
  0
LTYPE
  2
ACAD_ISO14W100
 70
     0
  3
CADPAC LINETYPE
 72
    65
 73
     8
 40
9.287598944591053
 49
3.095866314863685
 49
-1.547933157431842
 49
0.0
 49
-1.547933157431842
 49
0.0
 49
-1.547933157431842
 49
0.0
 49
-1.547933157431842
  0
ENDTAB
  0
TABLE
  2
LAYER
 70
     6
  0
LAYER
  2
0
 70
     0
 62
     7
  6
CONTINUOUS
  0
LAYER
  2
LAYER0014
 70
     0
 62
     7
  6
CONTINUOUS
  0
LAYER
  2
LAYER0015
 70
     0
 62
     7
  6
CONTINUOUS
  0
LAYER
  2
LAYER0016
 70
     0
 62
     7
  6
CONTINUOUS
  0
LAYER
  2
LAYER0224
 70
     0
 62
     7
  6
CONTINUOUS
  0
LAYER
  2
ZUWAKU
 70
     0
 62
     7
  6
CONTINUOUS
  0
ENDTAB
  0
TABLE
  2
STYLE
 70
     2
  0
STYLE
  2
STANDARD
 70
     0
 40
0.0
 41
1.0
 50
0.0
 71
     0
 42
0.2
  3
txt
  4

  0
STYLE
  2
FDASTYLE0
 70
     0
 40
0.0
 41
0.7999999999999924
 50
0.0
 71
     0
 42
0.2
  3
txt.shx
  4
bigfont
  0
ENDTAB
  0
TABLE
  2
VIEW
 70
     0
  0
ENDTAB
  0
TABLE
  2
UCS
 70
     0
  0
ENDTAB
  0
TABLE
  2
APPID
 70
     2
  0
APPID
  2
ACAD
 70
     0
  0
APPID
  2
DAFUSIONOUT
 70
     0
  0
ENDTAB
  0
TABLE
  2
DIMSTYLE
 70
     1
  0
DIMSTYLE
  2
STANDARD
 70
     0
  3

  4

  5

  6

  7

 40
1.0
 41
0.18
 42
0.0625
 43
0.38
 44
0.18
 45
0.0
 46
0.0
 47
0.0
 48
0.0
140
0.18
141
0.09
142
0.0
143
25.4
144
1.0
145
0.0
146
1.0
147
0.09
 71
     0
 72
     0
 73
     1
 74
     1
 75
     0
 76
     0
 77
     0
 78
     0
170
     0
171
     2
172
     0
173
     0
174
     0
175
     0
176
     0
177
     0
178
     0
  0
ENDTAB
  0
ENDSEC
  0
SECTION
  2
BLOCKS
  0
BLOCK
  8
0
  2
$MODEL_SPACE
 70
     0
 10
0.0
 20
0.0
 30
0.0
  3
$MODEL_SPACE
  1

  0
ENDBLK
  5
21
  8
0
  0
BLOCK
 67
     1
  8
0
  2
$PAPER_SPACE
 70
     0
 10
0.0
 20
0.0
 30
0.0
  3
$PAPER_SPACE
  1

  0
ENDBLK
  5
1D
 67
     1
  8
0
  0
BLOCK
  8
0
  2
DC_GROUP_1
 70
     0
 10
0.0
 20
0.0
 30
0.0
  3
DC_GROUP_1
  1

  0
LINE
  5
B5
  8
ZUWAKU
  6
CONTINUOUS
 62
     4
 10
-192.5
 20
-131.5
 30
0.0
 11
-189.0358983848622
 21
-125.5
 31
0.0
  0
LINE
  5
B6
  8
ZUWAKU
  6
CONTINUOUS
 62
     4
 10
-189.0358983848622
 20
-125.5
 30
0.0
 11
-185.5717967697245
 21
-131.5
 31
0.0
  0
LINE
  5
B7
  8
ZUWAKU
  6
CONTINUOUS
 62
     4
 10
-192.5
 20
-131.5
 30
0.0
 11
-185.5717967697245
 21
-131.5
 31
0.0
  0
TEXT
  5
B9
  8
ZUWAKU
 62
     7
 10
-190.2358983848622
 20
-131.0
 30
0.0
 40
3.0
  1
1
 41
0.7999999999999924
  7
FDASTYLE0
 72
     5
 11
-187.8358983848623
 21
-131.0
 31
0.0
  0
ENDBLK
  5
51
  8
0
  0
BLOCK
  8
0
  2
DC_GROUP_2
 70
     0
 10
0.0
 20
0.0
 30
0.0
  3
DC_GROUP_2
  1

  0
LINE
  5
BA
  8
ZUWAKU
  6
CONTINUOUS
 62
     4
 10
-192.5
 20
-124.5
 30
0.0
 11
-189.0358983848622
 21
-118.5
 31
0.0
  0
LINE
  5
BB
  8
ZUWAKU
  6
CONTINUOUS
 62
     4
 10
-189.0358983848622
 20
-118.5
 30
0.0
 11
-185.5717967697245
 21
-124.5
 31
0.0
  0
LINE
  5
BC
  8
ZUWAKU
  6
CONTINUOUS
 62
     4
 10
-192.5
 20
-124.5
 30
0.0
 11
-185.5717967697245
 21
-124.5
 31
0.0
  0
TEXT
  5
BD
  8
ZUWAKU
 62
     7
 10
-190.2358983848622
 20
-124.0
 30
0.0
 40
3.0
  1
2
 41
0.7999999999999924
  7
FDASTYLE0
 72
     5
 11
-187.8358983848623
 21
-124.0
 31
0.0
  0
ENDBLK
  5
54
  8
0
  0
BLOCK
  8
0
  2
DC_GROUP_3
 70
     0
 10
0.0
 20
0.0
 30
0.0
  3
DC_GROUP_3
  1

  0
LINE
  5
BE
  8
ZUWAKU
  6
CONTINUOUS
 62
     4
 10
-192.5
 20
-117.5
 30
0.0
 11
-189.0358983848622
 21
-111.5
 31
0.0
  0
LINE
  5
BF
  8
ZUWAKU
  6
CONTINUOUS
 62
     4
 10
-189.0358983848622
 20
-111.5
 30
0.0
 11
-185.5717967697245
 21
-117.5
 31
0.0
  0
LINE
  5
C0
  8
ZUWAKU
  6
CONTINUOUS
 62
     4
 10
-192.5
 20
-117.5
 30
0.0
 11
-185.5717967697245
 21
-117.5
 31
0.0
  0
TEXT
  5
C1
  8
ZUWAKU
 62
     7
 10
-190.2358983848622
 20
-117.0
 30
0.0
 40
3.0
  1
3
 41
0.7999999999999924
  7
FDASTYLE0
 72
     5
 11
-187.8358983848623
 21
-117.0
 31
0.0
  0
ENDBLK
  5
57
  8
0
  0
BLOCK
  8
0
  2
DC_GROUP_4
 70
     0
 10
0.0
 20
0.0
 30
0.0
  3
DC_GROUP_4
  1

  0
LINE
  5
C2
  8
ZUWAKU
  6
CONTINUOUS
 62
     4
 10
-192.5
 20
-110.5
 30
0.0
 11
-189.0358983848622
 21
-104.5
 31
0.0
  0
LINE
  5
C3
  8
ZUWAKU
  6
CONTINUOUS
 62
     4
 10
-189.0358983848622
 20
-104.5
 30
0.0
 11
-185.5717967697245
 21
-110.5
 31
0.0
  0
LINE
  5
C4
  8
ZUWAKU
  6
CONTINUOUS
 62
     4
 10
-192.5
 20
-110.5
 30
0.0
 11
-185.5717967697245
 21
-110.5
 31
0.0
  0
TEXT
  5
C5
  8
ZUWAKU
 62
     7
 10
-190.2358983848622
 20
-110.0
 30
0.0
 40
3.0
  1
4
 41
0.7999999999999924
  7
FDASTYLE0
 72
     5
 11
-187.8358983848623
 21
-110.0
 31
0.0
  0
ENDBLK
  5
5A
  8
0
  0
BLOCK
  8
0
  2
DC_GROUP_5
 70
     0
 10
0.0
 20
0.0
 30
0.0
  3
DC_GROUP_5
  1

  0
LINE
  5
C6
  8
ZUWAKU
  6
CONTINUOUS
 62
     4
 10
-192.5
 20
-103.5
 30
0.0
 11
-189.0358983848622
 21
-97.50000000000003
 31
0.0
  0
LINE
  5
C7
  8
ZUWAKU
  6
CONTINUOUS
 62
     4
 10
-189.0358983848622
 20
-97.50000000000003
 30
0.0
 11
-185.5717967697245
 21
-103.5
 31
0.0
  0
LINE
  5
C8
  8
ZUWAKU
  6
CONTINUOUS
 62
     4
 10
-192.5
 20
-103.5
 30
0.0
 11
-185.5717967697245
 21
-103.5
 31
0.0
  0
TEXT
  5
C9
  8
ZUWAKU
 62
     7
 10
-190.2358983848622
 20
-103.0
 30
0.0
 40
3.0
  1
5
 41
0.7999999999999924
  7
FDASTYLE0
 72
     5
 11
-187.8358983848623
 21
-103.0
 31
0.0
  0
ENDBLK
  5
5D
  8
0
  0
BLOCK
  8
0
  2
DC_GROUP_6
 70
     0
 10
0.0
 20
0.0
 30
0.0
  3
DC_GROUP_6
  1

  0
INSERT
  5
CA
  8
ZUWAKU
  6
CONTINUOUS
  2
DC_GROUP_7
 10
0.0
 20
0.0
 30
0.0
  0
INSERT
  5
CB
  8
ZUWAKU
  6
CONTINUOUS
  2
DC_GROUP_8
 10
0.0
 20
0.0
 30
0.0
  0
INSERT
  5
CC
  8
ZUWAKU
  6
CONTINUOUS
  2
DC_GROUP_9
 10
0.0
 20
0.0
 30
0.0
  0
INSERT
  5
CD
  8
ZUWAKU
  6
CONTINUOUS
  2
DC_GROUP_10
 10
0.0
 20
0.0
 30
0.0
  0
INSERT
  5
CE
  8
ZUWAKU
  6
CONTINUOUS
  2
DC_GROUP_11
 10
0.0
 20
0.0
 30
0.0
  0
INSERT
  5
CF
  8
ZUWAKU
  6
CONTINUOUS
  2
DC_GROUP_12
 10
0.0
 20
0.0
 30
0.0
  0
INSERT
  5
D0
  8
ZUWAKU
  6
CONTINUOUS
  2
DC_GROUP_13
 10
0.0
 20
0.0
 30
0.0
  0
INSERT
  5
D1
  8
ZUWAKU
  6
CONTINUOUS
  2
DC_GROUP_14
 10
0.0
 20
0.0
 30
0.0
  0
INSERT
  5
D2
  8
ZUWAKU
  6
CONTINUOUS
  2
DC_GROUP_15
 10
0.0
 20
0.0
 30
0.0
  0
INSERT
  5
D3
  8
ZUWAKU
  6
CONTINUOUS
  2
DC_GROUP_16
 10
0.0
 20
0.0
 30
0.0
  0
INSERT
  5
D4
  8
ZUWAKU
  6
CONTINUOUS
  2
DC_GROUP_17
 10
0.0
 20
0.0
 30
0.0
  0
LINE
  5
D5
  8
ZUWAKU
  6
CONTINUOUS
 62
     7
 10
148.6163728456568
 20
-131.5305456568976
 30
0.0
 11
157.2163728456568
 21
-131.5305456568976
 31
0.0
  0
ENDBLK
  5
60
  8
0
  0
BLOCK
  8
0
  2
DC_GROUP_7
 70
     0
 10
0.0
 20
0.0
 30
0.0
  3
DC_GROUP_7
  1

  0
LINE
  5
D6
  8
ZUWAKU
  6
CONTINUOUS
 62
     7
 10
95.8592354484195
 20
-130.8811630926134
 30
0.0
 11
98.10445716765031
 21
-130.8811630926134
 31
0.0
  0
LINE
  5
D7
  8
ZUWAKU
  6
CONTINUOUS
 62
     7
 10
102.1463728456568
 20
-130.8811630926134
 30
0.0
 11
104.5463728456568
 21
-130.8811630926134
 31
0.0
  0
LINE
  5
D8
  8
ZUWAKU
  6
CONTINUOUS
 62
     7
 10
95.97484530437535
 20
-130.3811630926134
 30
0.0
 11
98.27109928792987
 21
-130.3811630926134
 31
0.0
  0
LINE
  5
D9
  8
ZUWAKU
  6
CONTINUOUS
 62
     7
 10
102.1463728456568
 20
-130.3811630926134
 30
0.0
 11
104.5463728456568
 21
-130.3811630926134
 31
0.0
  0
LINE
  5
DA
  8
ZUWAKU
  6
CONTINUOUS
 62
     7
 10
96.03791022019186
 20
-129.8811630926134
 30
0.0
 11
98.39941093985408
 21
-129.8811630926134
 31
0.0
  0
LINE
  5
DB
  8
ZUWAKU
  6
CONTINUOUS
 62
     7
 10
102.1463728456568
 20
-129.8811630926134
 30
0.0
 11
104.5463728456568
 21
-129.8811630926134
 31
0.0
  0
LINE
  5
DC
  8
ZUWAKU
  6
CONTINUOUS
 62
     7
 10
96.05041945969171
 20
-129.3811630926134
 30
0.0
 11
98.49140820304567
 21
-129.3811630926134
 31
0.0
  0
LINE
  5
DD
  8
ZUWAKU
  6
CONTINUOUS
 62
     7
 10
102.1463728456568
 20
-129.3811630926134
 30
0.0
 11
104.5463728456568
 21
-129.3811630926134
 31
0.0
  0
LINE
  5
DE
  8
ZUWAKU
  6
CONTINUOUS
 62
     7
 10
90.58362715434316
 20
-128.8811630926134
 30
0.0
 11
104.5463728456568
 21
-128.8811630926134
 31
0.0
  0
LINE
  5
DF
  8
ZUWAKU
  6
CONTINUOUS
 62
     7
 10
90.58362715434316
 20
-128.3811630926134
 30
0.0
 11
104.5463728456568
 21
-128.3811630926134
 31
0.0
  0
LINE
  5
E0
  8
ZUWAKU
  6
CONTINUOUS
 62
     7
 10
90.58362715434316
 20
-127.8811630926134
 30
0.0
 11
104.5463728456568
 21
-127.8811630926134
 31
0.0
  0
LINE
  5
E1
  8
ZUWAKU
  6
CONTINUOUS
 62
     7
 10
96.04637284565683
 20
-127.3811630926134
 30
0.0
 11
98.44637284565681
 21
-127.3811630926134
 31
0.0
  0
LINE
  5
E2
  8
ZUWAKU
  6
CONTINUOUS
 62
     7
 10
96.04637284565683
 20
-126.8811630926134
 30
0.0
 11
98.44637284565681
 21
-126.8811630926134
 31
0.0
  0
LINE
  5
E3
  8
ZUWAKU
  6
CONTINUOUS
 62
     7
 10
96.04637284565683
 20
-126.3811630926134
 30
0.0
 11
98.44637284565681
 21
-126.3811630926134
 31
0.0
  0
LINE
  5
E4
  8
ZUWAKU
  6
CONTINUOUS
 62
     7
 10
92.44637284565681
 20
-131.3811630926134
 30
0.0
 11
100.4463728456568
 21
-131.3811630926134
 31
0.0
  0
LINE
  5
E5
  8
ZUWAKU
  6
CONTINUOUS
 62
     7
 10
102.1463728456568
 20
-131.3811630926134
 30
0.0
 11
104.5463728456568
 21
-131.3811630926134
 31
0.0
  0
LINE
  5
E6
  8
ZUWAKU
  6
CONTINUOUS
 62
     7
 10
92.44637284565681
 20
-131.8811630926134
 30
0.0
 11
100.4463728456568
 21
-131.8811630926134
 31
0.0
  0
LINE
  5
E7
  8
ZUWAKU
  6
CONTINUOUS
 62
     7
 10
102.1463728456568
 20
-131.8811630926134
 30
0.0
 11
104.5463728456568
 21
-131.8811630926134
 31
0.0
  0
LINE
  5
E8
  8
ZUWAKU
  6
CONTINUOUS
 62
     7
 10
92.44637284565681
 20
-132.3811630926134
 30
0.0
 11
100.4463728456568
 21
-132.3811630926134
 31
0.0
  0
LINE
  5
E9
  8
ZUWAKU
  6
CONTINUOUS
 62
     7
 10
102.1463728456568
 20
-132.3811630926134
 30
0.0
 11
104.5463728456568
 21
-132.3811630926134
 31
0.0
  0
LINE
  5
EA
  8
ZUWAKU
  6
CONTINUOUS
 62
     7
 10
110.604536355518
 20
-132.3811630926134
 30
0.0
 11
113.8417405120595
 21
-132.3811630926134
 31
0.0
  0
LINE
  5
EB
  8
ZUWAKU
  6
CONTINUOUS
 62
     7
 10
94.74116788281884
 20
-132.8811630926134
 30
0.0
 11
96.97769441725583
 21
-132.8811630926134
 31
0.0
  0
LINE
  5
EC
  8
ZUWAKU
  6
CONTINUOUS
 62
     7
 10
102.1463728456568
 20
-132.8811630926134
 30
0.0
 11
104.5463728456568
 21
-132.8811630926134
 31
0.0
  0
LINE
  5
ED
  8
ZUWAKU
  6
CONTINUOUS
 62
     7
 10
109.8963228939548
 20
-132.8811630926134
 30
0.0
 11
113.3333876979017
 21
-132.8811630926134
 31
0.0
  0
LINE
  5
EE
  8
ZUWAKU
  6
CONTINUOUS
 62
     7
 10
94.21191756518869
 20
-133.3811630926134
 30
0.0
 11
96.5448863676931
 21
-133.3811630926134
 31
0.0
  0
LINE
  5
EF
  8
ZUWAKU
  6
CONTINUOUS
 62
     7
 10
102.1463728456568
 20
-133.3811630926134
 30
0.0
 11
104.5463728456568
 21
-133.3811630926134
 31
0.0
  0
LINE
  5
F0
  8
ZUWAKU
  6
CONTINUOUS
 62
     7
 10
109.025375517766
 20
-133.3811630926134
 30
0.0
 11
112.7480747417856
 21
-133.3811630926134
 31
0.0
  0
LINE
  5
F1
  8
ZUWAKU
  6
CONTINUOUS
 62
     7
 10
93.47278597893467
 20
-133.8811630926134
 30
0.0
 11
96.02274748755042
 21
-133.8811630926134
 31
0.0
  0
LINE
  5
F2
  8
ZUWAKU
  6
CONTINUOUS
 62
     7
 10
102.1463728456568
 20
-133.8811630926134
 30
0.0
 11
104.5463728456568
 21
-133.8811630926134
 31
0.0
  0
LINE
  5
F3
  8
ZUWAKU
  6
CONTINUOUS
 62
     7
 10
107.8681459252262
 20
-133.8811630926134
 30
0.0
 11
112.0628740626163
 21
-133.8811630926134
 31
0.0
  0
LINE
  5
F4
  8
ZUWAKU
  6
CONTINUOUS
 62
     7
 10
92.16346202882176
 20
-134.3811630926134
 30
0.0
 11
95.37814146302139
 21
-134.3811630926134
 31
0.0
  0
LINE
  5
F5
  8
ZUWAKU
  6
CONTINUOUS
 62
     7
 10
102.1463728456568
 20
-134.3811630926134
 30
0.0
 11
104.5463728456568
 21
-134.3811630926134
 31
0.0
  0
LINE
  5
F6
  8
ZUWAKU
  6
CONTINUOUS
 62
     7
 10
105.8155311692083
 20
-134.3811630926134
 30
0.0
 11
111.2373451587009
 21
-134.3811630926134
 31
0.0
  0
LINE
  5
F7
  8
ZUWAKU
  6
CONTINUOUS
 62
     7
 10
90.58362715434316
 20
-134.8811630926134
 30
0.0
 11
94.54150297508784
 21
-134.8811630926134
 31
0.0
  0
LINE
  5
F8
  8
ZUWAKU
  6
CONTINUOUS
 62
     7
 10
102.1748475825431
 20
-134.8811630926134
 30
0.0
 11
110.1856413090584
 21
-134.8811630926134
 31
0.0
  0
LINE
  5
F9
  8
ZUWAKU
  6
CONTINUOUS
 62
     7
 10
90.58362715434316
 20
-135.3811630926134
 30
0.0
 11
93.29698933454563
 21
-135.3811630926134
 31
0.0
  0
LINE
  5
FA
  8
ZUWAKU
  6
CONTINUOUS
 62
     7
 10
103.7282777975827
 20
-135.3811630926134
 30
0.0
 11
108.6322110940188
 21
-135.3811630926134
 31
0.0
  0
ENDBLK
  5
63
  8
0
  0
BLOCK
  8
0
  2
DC_GROUP_8
 70
     0
 10
0.0
 20
0.0
 30
0.0
  3
DC_GROUP_8
  1

  0
LINE
  5
FB
  8
ZUWAKU
  6
CONTINUOUS
 62
     7
 10
106.5463728456568
 20
-130.6694543431024
 30
0.0
 11
117.9463728456568
 21
-130.6694543431024
 31
0.0
  0
LINE
  5
FC
  8
ZUWAKU
  6
CONTINUOUS
 62
     7
 10
106.5463728456568
 20
-130.1694543431024
 30
0.0
 11
117.9463728456568
 21
-130.1694543431024
 31
0.0
  0
LINE
  5
FD
  8
ZUWAKU
  6
CONTINUOUS
 62
     7
 10
106.5463728456568
 20
-131.1694543431024
 30
0.0
 11
117.9463728456568
 21
-131.1694543431024
 31
0.0
  0
ENDBLK
  5
66
  8
0
  0
BLOCK
  8
0
  2
DC_GROUP_9
 70
     0
 10
0.0
 20
0.0
 30
0.0
  3
DC_GROUP_9
  1

  0
LINE
  5
FE
  8
ZUWAKU
  6
CONTINUOUS
 62
     7
 10
120.3762688606991
 20
-131.55
 30
0.0
 11
122.9463728456568
 21
-131.55
 31
0.0
  0
LINE
  5
FF
  8
ZUWAKU
  6
CONTINUOUS
 62
     7
 10
123.4880098163495
 20
-131.55
 30
0.0
 11
124.1463728456568
 21
-131.55
 31
0.0
  0
LINE
  5
100
  8
ZUWAKU
  6
CONTINUOUS
 62
     7
 10
120.5401914483943
 20
-131.05
 30
0.0
 11
124.1463728456568
 21
-131.05
 31
0.0
  0
LINE
  5
101
  8
ZUWAKU
  6
CONTINUOUS
 62
     7
 10
120.6573329194075
 20
-130.55
 30
0.0
 11
123.9671913310034
 21
-130.55
 31
0.0
  0
LINE
  5
102
  8
ZUWAKU
  6
CONTINUOUS
 62
     7
 10
120.7304485357685
 20
-130.05
 30
0.0
 11
123.2171913310033
 21
-130.05
 31
0.0
  0
LINE
  5
103
  8
ZUWAKU
  6
CONTINUOUS
 62
     7
 10
119.4463728456568
 20
-129.55
 30
0.0
 11
124.1463728456568
 21
-129.55
 31
0.0
  0
LINE
  5
104
  8
ZUWAKU
  6
CONTINUOUS
 62
     7
 10
119.4463728456568
 20
-129.05
 30
0.0
 11
124.1463728456568
 21
-129.05
 31
0.0
  0
LINE
  5
105
  8
ZUWAKU
  6
CONTINUOUS
 62
     7
 10
121.5463728456568
 20
-128.55
 30
0.0
 11
122.9463728456568
 21
-128.55
 31
0.0
  0
LINE
  5
106
  8
ZUWAKU
  6
CONTINUOUS
 62
     7
 10
121.5463728456568
 20
-128.05
 30
0.0
 11
122.9463728456568
 21
-128.05
 31
0.0
  0
LINE
  5
107
  8
ZUWAKU
  6
CONTINUOUS
 62
     7
 10
120.1613057869596
 20
-132.05
 30
0.0
 11
122.9463728456568
 21
-132.05
 31
0.0
  0
LINE
  5
108
  8
ZUWAKU
  6
CONTINUOUS
 62
     7
 10
119.8888857047598
 20
-132.55
 30
0.0
 11
122.9463728456568
 21
-132.55
 31
0.0
  0
LINE
  5
109
  8
ZUWAKU
  6
CONTINUOUS
 62
     7
 10
119.5492091213338
 20
-133.05
 30
0.0
 11
122.9463728456568
 21
-133.05
 31
0.0
  0
LINE
  5
10A
  8
ZUWAKU
  6
CONTINUOUS
 62
     7
 10
119.3463728456568
 20
-133.55
 30
0.0
 11
120.5627654424019
 21
-133.55
 31
0.0
  0
LINE
  5
10B
  8
ZUWAKU
  6
CONTINUOUS
 62
     7
 10
121.3463728456568
 20
-133.55
 30
0.0
 11
122.9463728456568
 21
-133.55
 31
0.0
  0
LINE
  5
10C
  8
ZUWAKU
  6
CONTINUOUS
 62
     7
 10
119.3463728456568
 20
-134.05
 30
0.0
 11
120.0135150512066
 21
-134.05
 31
0.0
  0
LINE
  5
10D
  8
ZUWAKU
  6
CONTINUOUS
 62
     7
 10
121.3463728456568
 20
-134.05
 30
0.0
 11
122.9463728456568
 21
-134.05
 31
0.0
  0
LINE
  5
10E
  8
ZUWAKU
  6
CONTINUOUS
 62
     7
 10
121.3463728456568
 20
-134.55
 30
0.0
 11
122.9463728456568
 21
-134.55
 31
0.0
  0
LINE
  5
10F
  8
ZUWAKU
  6
CONTINUOUS
 62
     7
 10
121.3463728456568
 20
-135.05
 30
0.0
 11
122.9463728456568
 21
-135.05
 31
0.0
  0
ENDBLK
  5
69
  8
0
  0
BLOCK
  8
0
  2
DC_GROUP_10
 70
     0
 10
0.0
 20
0.0
 30
0.0
  3
DC_GROUP_10
  1

  0
LINE
  5
110
  8
ZUWAKU
  6
CONTINUOUS
 62
     7
 10
124.6463728456568
 20
-131.55
 30
0.0
 11
131.7463728456568
 21
-131.55
 31
0.0
  0
LINE
  5
111
  8
ZUWAKU
  6
CONTINUOUS
 62
     7
 10
124.6463728456568
 20
-131.05
 30
0.0
 11
131.7463728456568
 21
-131.05
 31
0.0
  0
LINE
  5
112
  8
ZUWAKU
  6
CONTINUOUS
 62
     7
 10
127.1463728456568
 20
-130.55
 30
0.0
 11
128.9463728456568
 21
-130.55
 31
0.0
  0
LINE
  5
113
  8
ZUWAKU
  6
CONTINUOUS
 62
     7
 10
127.1463728456568
 20
-130.05
 30
0.0
 11
128.9463728456568
 21
-130.05
 31
0.0
  0
LINE
  5
114
  8
ZUWAKU
  6
CONTINUOUS
 62
     7
 10
124.6463728456568
 20
-129.55
 30
0.0
 11
131.5463728456568
 21
-129.55
 31
0.0
  0
LINE
  5
115
  8
ZUWAKU
  6
CONTINUOUS
 62
     7
 10
124.6463728456568
 20
-129.05
 30
0.0
 11
131.5463728456568
 21
-129.05
 31
0.0
  0
LINE
  5
116
  8
ZUWAKU
  6
CONTINUOUS
 62
     7
 10
124.6463728456568
 20
-128.55
 30
0.0
 11
126.2063728456568
 21
-128.55
 31
0.0
  0
LINE
  5
117
  8
ZUWAKU
  6
CONTINUOUS
 62
     7
 10
127.1463728456568
 20
-128.55
 30
0.0
 11
128.9463728456568
 21
-128.55
 31
0.0
  0
LINE
  5
118
  8
ZUWAKU
  6
CONTINUOUS
 62
     7
 10
124.6463728456568
 20
-128.05
 30
0.0
 11
126.2063728456568
 21
-128.05
 31
0.0
  0
LINE
  5
119
  8
ZUWAKU
  6
CONTINUOUS
 62
     7
 10
127.1463728456568
 20
-128.05
 30
0.0
 11
128.9463728456568
 21
-128.05
 31
0.0
  0
LINE
  5
11A
  8
ZUWAKU
  6
CONTINUOUS
 62
     7
 10
125.8786611924532
 20
-132.05
 30
0.0
 11
130.4774938194927
 21
-132.05
 31
0.0
  0
LINE
  5
11B
  8
ZUWAKU
  6
CONTINUOUS
 62
     7
 10
125.7022203023616
 20
-132.55
 30
0.0
 11
130.5839164239199
 21
-132.55
 31
0.0
  0
LINE
  5
11C
  8
ZUWAKU
  6
CONTINUOUS
 62
     7
 10
125.4444907322737
 20
-133.05
 30
0.0
 11
130.7607865985839
 21
-133.05
 31
0.0
  0
LINE
  5
11D
  8
ZUWAKU
  6
CONTINUOUS
 62
     7
 10
125.0849898652322
 20
-133.55
 30
0.0
 11
127.0512574302935
 21
-133.55
 31
0.0
  0
LINE
  5
11E
  8
ZUWAKU
  6
CONTINUOUS
 62
     7
 10
127.1463728456568
 20
-133.55
 30
0.0
 11
131.019029431235
 21
-133.55
 31
0.0
  0
LINE
  5
11F
  8
ZUWAKU
  6
CONTINUOUS
 62
     7
 10
124.5811039379163
 20
-134.05
 30
0.0
 11
126.5931405813734
 21
-134.05
 31
0.0
  0
LINE
  5
120
  8
ZUWAKU
  6
CONTINUOUS
 62
     7
 10
127.1463728456568
 20
-134.05
 30
0.0
 11
128.9463728456568
 21
-134.05
 31
0.0
  0
LINE
  5
121
  8
ZUWAKU
  6
CONTINUOUS
 62
     7
 10
129.2557665128225
 20
-134.05
 30
0.0
 11
131.3792055022369
 21
-134.05
 31
0.0
  0
LINE
  5
122
  8
ZUWAKU
  6
CONTINUOUS
 62
     7
 10
124.3463728456568
 20
-134.55
 30
0.0
 11
126.0096133195874
 21
-134.55
 31
0.0
  0
LINE
  5
123
  8
ZUWAKU
  6
CONTINUOUS
 62
     7
 10
127.1463728456568
 20
-134.55
 30
0.0
 11
128.9463728456568
 21
-134.55
 31
0.0
  0
LINE
  5
124
  8
ZUWAKU
  6
CONTINUOUS
 62
     7
 10
129.7599871032927
 20
-134.55
 30
0.0
 11
131.7463728456568
 21
-134.55
 31
0.0
  0
LINE
  5
125
  8
ZUWAKU
  6
CONTINUOUS
 62
     7
 10
124.3463728456568
 20
-135.05
 30
0.0
 11
125.2238286865397
 21
-135.05
 31
0.0
  0
LINE
  5
126
  8
ZUWAKU
  6
CONTINUOUS
 62
     7
 10
127.1463728456568
 20
-135.05
 30
0.0
 11
128.9463728456568
 21
-135.05
 31
0.0
  0
LINE
  5
127
  8
ZUWAKU
  6
CONTINUOUS
 62
     7
 10
130.5271619874551
 20
-135.05
 30
0.0
 11
131.7463728456568
 21
-135.05
 31
0.0
  0
ENDBLK
  5
6C
  8
0
  0
BLOCK
  8
0
  2
DC_GROUP_11
 70
     0
 10
0.0
 20
0.0
 30
0.0
  3
DC_GROUP_11
  1

  0
LINE
  5
128
  8
ZUWAKU
  6
CONTINUOUS
 62
     7
 10
140.6463728456568
 20
-131.55
 30
0.0
 11
142.7963728456568
 21
-131.55
 31
0.0
  0
LINE
  5
129
  8
ZUWAKU
  6
CONTINUOUS
 62
     7
 10
140.6463728456568
 20
-131.05
 30
0.0
 11
142.7963728456568
 21
-131.05
 31
0.0
  0
LINE
  5
12A
  8
ZUWAKU
  6
CONTINUOUS
 62
     7
 10
140.6463728456568
 20
-130.55
 30
0.0
 11
142.7963728456568
 21
-130.55
 31
0.0
  0
LINE
  5
12B
  8
ZUWAKU
  6
CONTINUOUS
 62
     7
 10
140.6463728456568
 20
-130.05
 30
0.0
 11
142.7963728456568
 21
-130.05
 31
0.0
  0
LINE
  5
12C
  8
ZUWAKU
  6
CONTINUOUS
 62
     7
 10
133.1463728456568
 20
-129.55
 30
0.0
 11
145.7163728456568
 21
-129.55
 31
0.0
  0
LINE
  5
12D
  8
ZUWAKU
  6
CONTINUOUS
 62
     7
 10
133.1463728456568
 20
-129.05
 30
0.0
 11
145.7163728456568
 21
-129.05
 31
0.0
  0
LINE
  5
12E
  8
ZUWAKU
  6
CONTINUOUS
 62
     7
 10
140.6463728456568
 20
-128.55
 30
0.0
 11
142.7963728456568
 21
-128.55
 31
0.0
  0
LINE
  5
12F
  8
ZUWAKU
  6
CONTINUOUS
 62
     7
 10
144.1963728456568
 20
-128.55
 30
0.0
 11
145.7163728456568
 21
-128.55
 31
0.0
  0
LINE
  5
130
  8
ZUWAKU
  6
CONTINUOUS
 62
     7
 10
140.6463728456568
 20
-128.05
 30
0.0
 11
142.7963728456568
 21
-128.05
 31
0.0
  0
LINE
  5
131
  8
ZUWAKU
  6
CONTINUOUS
 62
     7
 10
144.1963728456568
 20
-128.05
 30
0.0
 11
145.7163728456568
 21
-128.05
 31
0.0
  0
LINE
  5
132
  8
ZUWAKU
  6
CONTINUOUS
 62
     7
 10
140.6463728456568
 20
-132.05
 30
0.0
 11
142.7963728456568
 21
-132.05
 31
0.0
  0
LINE
  5
133
  8
ZUWAKU
  6
CONTINUOUS
 62
     7
 10
140.6463728456568
 20
-132.55
 30
0.0
 11
142.7963728456568
 21
-132.55
 31
0.0
  0
LINE
  5
134
  8
ZUWAKU
  6
CONTINUOUS
 62
     7
 10
140.6463728456568
 20
-133.05
 30
0.0
 11
142.7963728456568
 21
-133.05
 31
0.0
  0
LINE
  5
135
  8
ZUWAKU
  6
CONTINUOUS
 62
     7
 10
144.1358445034737
 20
-133.05
 30
0.0
 11
145.5814320923754
 21
-133.05
 31
0.0
  0
LINE
  5
136
  8
ZUWAKU
  6
CONTINUOUS
 62
     7
 10
140.6463728456568
 20
-133.55
 30
0.0
 11
142.7963728456568
 21
-133.55
 31
0.0
  0
LINE
  5
137
  8
ZUWAKU
  6
CONTINUOUS
 62
     7
 10
143.9214609952618
 20
-133.55
 30
0.0
 11
145.3352302649021
 21
-133.55
 31
0.0
  0
LINE
  5
138
  8
ZUWAKU
  6
CONTINUOUS
 62
     7
 10
140.6463728456568
 20
-134.05
 30
0.0
 11
142.7963728456568
 21
-134.05
 31
0.0
  0
LINE
  5
139
  8
ZUWAKU
  6
CONTINUOUS
 62
     7
 10
143.4946600818465
 20
-134.05
 30
0.0
 11
144.990775923055
 21
-134.05
 31
0.0
  0
LINE
  5
13A
  8
ZUWAKU
  6
CONTINUOUS
 62
     7
 10
140.6463728456568
 20
-134.55
 30
0.0
 11
144.5097616138391
 21
-134.55
 31
0.0
  0
LINE
  5
13B
  8
ZUWAKU
  6
CONTINUOUS
 62
     7
 10
140.6463728456568
 20
-135.05
 30
0.0
 11
143.7918248912179
 21
-135.05
 31
0.0
  0
ENDBLK
  5
6F
  8
0
  0
BLOCK
  8
0
  2
DC_GROUP_12
 70
     0
 10
0.0
 20
0.0
 30
0.0
  3
DC_GROUP_12
  1

  0
LINE
  5
13C
  8
ZUWAKU
  6
CONTINUOUS
 62
     7
 10
135.8463728456568
 20
-133.25
 30
0.0
 11
137.9463728456568
 21
-133.25
 31
0.0
  0
LINE
  5
13D
  8
ZUWAKU
  6
CONTINUOUS
 62
     7
 10
135.8463728456568
 20
-132.75
 30
0.0
 11
137.9463728456568
 21
-132.75
 31
0.0
  0
LINE
  5
13E
  8
ZUWAKU
  6
CONTINUOUS
 62
     7
 10
135.8463728456568
 20
-132.25
 30
0.0
 11
137.9463728456568
 21
-132.25
 31
0.0
  0
LINE
  5
13F
  8
ZUWAKU
  6
CONTINUOUS
 62
     7
 10
133.1463728456568
 20
-131.75
 30
0.0
 11
139.7463728456568
 21
-131.75
 31
0.0
  0
LINE
  5
140
  8
ZUWAKU
  6
CONTINUOUS
 62
     7
 10
133.1463728456568
 20
-131.25
 30
0.0
 11
139.7463728456568
 21
-131.25
 31
0.0
  0
LINE
  5
141
  8
ZUWAKU
  6
CONTINUOUS
 62
     7
 10
133.1463728456568
 20
-133.75
 30
0.0
 11
139.7463728456568
 21
-133.75
 31
0.0
  0
LINE
  5
142
  8
ZUWAKU
  6
CONTINUOUS
 62
     7
 10
133.1463728456568
 20
-134.25
 30
0.0
 11
139.7463728456568
 21
-134.25
 31
0.0
  0
LINE
  5
143
  8
ZUWAKU
  6
CONTINUOUS
 62
     7
 10
133.1463728456568
 20
-134.75
 30
0.0
 11
139.3256932440106
 21
-134.75
 31
0.0
  0
LINE
  5
144
  8
ZUWAKU
  6
CONTINUOUS
 62
     7
 10
133.1463728456568
 20
-135.25
 30
0.0
 11
136.9087996408371
 21
-135.25
 31
0.0
  0
ENDBLK
  5
72
  8
0
  0
BLOCK
  8
0
  2
DC_GROUP_13
 70
     0
 10
0.0
 20
0.0
 30
0.0
  3
DC_GROUP_13
  1

  0
LINE
  5
145
  8
ZUWAKU
  6
CONTINUOUS
 62
     7
 10
168.4163728456568
 20
-131.55
 30
0.0
 11
170.3163728456568
 21
-131.55
 31
0.0
  0
LINE
  5
146
  8
ZUWAKU
  6
CONTINUOUS
 62
     7
 10
168.4163728456568
 20
-131.05
 30
0.0
 11
170.3163728456568
 21
-131.05
 31
0.0
  0
LINE
  5
147
  8
ZUWAKU
  6
CONTINUOUS
 62
     7
 10
168.4163728456568
 20
-130.55
 30
0.0
 11
170.3163728456568
 21
-130.55
 31
0.0
  0
LINE
  5
148
  8
ZUWAKU
  6
CONTINUOUS
 62
     7
 10
166.6163728456568
 20
-130.05
 30
0.0
 11
171.9163728456568
 21
-130.05
 31
0.0
  0
LINE
  5
149
  8
ZUWAKU
  6
CONTINUOUS
 62
     7
 10
166.6163728456568
 20
-129.55
 30
0.0
 11
171.9163728456568
 21
-129.55
 31
0.0
  0
LINE
  5
14A
  8
ZUWAKU
  6
CONTINUOUS
 62
     7
 10
166.6163728456568
 20
-129.05
 30
0.0
 11
171.9163728456568
 21
-129.05
 31
0.0
  0
LINE
  5
14B
  8
ZUWAKU
  6
CONTINUOUS
 62
     7
 10
168.4163728456568
 20
-128.55
 30
0.0
 11
170.3163728456568
 21
-128.55
 31
0.0
  0
LINE
  5
14C
  8
ZUWAKU
  6
CONTINUOUS
 62
     7
 10
168.4163728456568
 20
-128.05
 30
0.0
 11
170.3163728456568
 21
-128.05
 31
0.0
  0
LINE
  5
14D
  8
ZUWAKU
  6
CONTINUOUS
 62
     7
 10
168.4163728456568
 20
-132.05
 30
0.0
 11
170.3163728456568
 21
-132.05
 31
0.0
  0
LINE
  5
14E
  8
ZUWAKU
  6
CONTINUOUS
 62
     7
 10
168.4163728456568
 20
-132.55
 30
0.0
 11
170.3163728456568
 21
-132.55
 31
0.0
  0
LINE
  5
14F
  8
ZUWAKU
  6
CONTINUOUS
 62
     7
 10
168.4163728456568
 20
-133.05
 30
0.0
 11
170.3163728456568
 21
-133.05
 31
0.0
  0
LINE
  5
150
  8
ZUWAKU
  6
CONTINUOUS
 62
     7
 10
166.4163728456568
 20
-133.55
 30
0.0
 11
172.4163728456568
 21
-133.55
 31
0.0
  0
LINE
  5
151
  8
ZUWAKU
  6
CONTINUOUS
 62
     7
 10
166.4163728456568
 20
-134.05
 30
0.0
 11
172.4163728456568
 21
-134.05
 31
0.0
  0
LINE
  5
152
  8
ZUWAKU
  6
CONTINUOUS
 62
     7
 10
166.4163728456568
 20
-134.55
 30
0.0
 11
172.4163728456568
 21
-134.55
 31
0.0
  0
LINE
  5
153
  8
ZUWAKU
  6
CONTINUOUS
 62
     7
 10
166.4163728456568
 20
-135.05
 30
0.0
 11
172.4163728456568
 21
-135.05
 31
0.0
  0
ENDBLK
  5
75
  8
0
  0
BLOCK
  8
0
  2
DC_GROUP_14
 70
     0
 10
0.0
 20
0.0
 30
0.0
  3
DC_GROUP_14
  1

  0
LINE
  5
154
  8
ZUWAKU
  6
CONTINUOUS
 62
     7
 10
148.53659593608
 20
-129.1512995588781
 30
0.0
 11
152.6827745314139
 21
-129.1512995588781
 31
0.0
  0
LINE
  5
155
  8
ZUWAKU
  6
CONTINUOUS
 62
     7
 10
152.7537677038454
 20
-129.1512995588781
 30
0.0
 11
156.919704031706
 21
-129.1512995588781
 31
0.0
  0
LINE
  5
156
  8
ZUWAKU
  6
CONTINUOUS
 62
     7
 10
149.647730764762
 20
-128.6512995588781
 30
0.0
 11
155.7936103080192
 21
-128.6512995588781
 31
0.0
  0
LINE
  5
157
  8
ZUWAKU
  6
CONTINUOUS
 62
     7
 10
150.3808204717105
 20
-128.1512995588781
 30
0.0
 11
155.0550444732114
 21
-128.1512995588781
 31
0.0
  0
LINE
  5
158
  8
ZUWAKU
  6
CONTINUOUS
 62
     7
 10
147.2163728456568
 20
-129.6512995588781
 30
0.0
 11
151.7655682998408
 21
-129.6512995588781
 31
0.0
  0
LINE
  5
159
  8
ZUWAKU
  6
CONTINUOUS
 62
     7
 10
153.7687259431705
 20
-129.6512995588781
 30
0.0
 11
159.2163728456568
 21
-129.6512995588781
 31
0.0
  0
LINE
  5
15A
  8
ZUWAKU
  6
CONTINUOUS
 62
     7
 10
147.2163728456568
 20
-130.1512995588781
 30
0.0
 11
150.5110681543286
 21
-130.1512995588781
 31
0.0
  0
LINE
  5
15B
  8
ZUWAKU
  6
CONTINUOUS
 62
     7
 10
155.1396032344489
 20
-130.1512995588781
 30
0.0
 11
159.2163728456568
 21
-130.1512995588781
 31
0.0
  0
ENDBLK
  5
78
  8
0
  0
BLOCK
  8
0
  2
DC_GROUP_15
 70
     0
 10
0.0
 20
0.0
 30
0.0
  3
DC_GROUP_15
  1

  0
LINE
  5
15C
  8
ZUWAKU
  6
CONTINUOUS
 62
     7
 10
162.4372031523923
 20
-131.55
 30
0.0
 11
165.0309087734352
 21
-131.55
 31
0.0
  0
LINE
  5
15D
  8
ZUWAKU
  6
CONTINUOUS
 62
     7
 10
163.0235540538986
 20
-131.05
 30
0.0
 11
165.2616456754909
 21
-131.05
 31
0.0
  0
LINE
  5
15E
  8
ZUWAKU
  6
CONTINUOUS
 62
     7
 10
163.3899766640403
 20
-130.55
 30
0.0
 11
165.5505367479891
 21
-130.55
 31
0.0
  0
LINE
  5
15F
  8
ZUWAKU
  6
CONTINUOUS
 62
     7
 10
160.6163728456568
 20
-130.05
 30
0.0
 11
165.7631269437853
 21
-130.05
 31
0.0
  0
LINE
  5
160
  8
ZUWAKU
  6
CONTINUOUS
 62
     7
 10
160.6163728456568
 20
-129.55
 30
0.0
 11
165.9102932726119
 21
-129.55
 31
0.0
  0
LINE
  5
161
  8
ZUWAKU
  6
CONTINUOUS
 62
     7
 10
160.6163728456568
 20
-129.05
 30
0.0
 11
165.9983642039967
 21
-129.05
 31
0.0
  0
LINE
  5
162
  8
ZUWAKU
  6
CONTINUOUS
 62
     7
 10
162.6163728456568
 20
-128.55
 30
0.0
 11
164.2163728456568
 21
-128.55
 31
0.0
  0
LINE
  5
163
  8
ZUWAKU
  6
CONTINUOUS
 62
     7
 10
162.6163728456568
 20
-128.05
 30
0.0
 11
164.2163728456568
 21
-128.05
 31
0.0
  0
LINE
  5
164
  8
ZUWAKU
  6
CONTINUOUS
 62
     7
 10
160.6163728456568
 20
-132.05
 30
0.0
 11
166.0163728456568
 21
-132.05
 31
0.0
  0
LINE
  5
165
  8
ZUWAKU
  6
CONTINUOUS
 62
     7
 10
160.6163728456568
 20
-132.55
 30
0.0
 11
164.2163728456568
 21
-132.55
 31
0.0
  0
LINE
  5
166
  8
ZUWAKU
  6
CONTINUOUS
 62
     7
 10
164.4937661375371
 20
-132.55
 30
0.0
 11
166.0163728456568
 21
-132.55
 31
0.0
  0
LINE
  5
167
  8
ZUWAKU
  6
CONTINUOUS
 62
     7
 10
160.6163728456568
 20
-133.05
 30
0.0
 11
161.2391757382088
 21
-133.05
 31
0.0
  0
LINE
  5
168
  8
ZUWAKU
  6
CONTINUOUS
 62
     7
 10
162.6163728456568
 20
-133.05
 30
0.0
 11
164.2163728456568
 21
-133.05
 31
0.0
  0
LINE
  5
169
  8
ZUWAKU
  6
CONTINUOUS
 62
     7
 10
162.6163728456568
 20
-133.55
 30
0.0
 11
164.2163728456568
 21
-133.55
 31
0.0
  0
LINE
  5
16A
  8
ZUWAKU
  6
CONTINUOUS
 62
     7
 10
162.6163728456568
 20
-134.05
 30
0.0
 11
164.2163728456568
 21
-134.05
 31
0.0
  0
LINE
  5
16B
  8
ZUWAKU
  6
CONTINUOUS
 62
     7
 10
162.6163728456568
 20
-134.55
 30
0.0
 11
164.2163728456568
 21
-134.55
 31
0.0
  0
LINE
  5
16C
  8
ZUWAKU
  6
CONTINUOUS
 62
     7
 10
162.6163728456568
 20
-135.05
 30
0.0
 11
164.2163728456568
 21
-135.05
 31
0.0
  0
ENDBLK
  5
7B
  8
0
  0
BLOCK
  8
0
  2
DC_GROUP_16
 70
     0
 10
0.0
 20
0.0
 30
0.0
  3
DC_GROUP_16
  1

  0
LINE
  5
16D
  8
ZUWAKU
  6
CONTINUOUS
 62
     7
 10
160.6163728456568
 20
-132.0361668241051
 30
0.0
 11
160.7999359294301
 21
-132.0361668241051
 31
0.0
  0
LINE
  5
16E
  8
ZUWAKU
  6
CONTINUOUS
 62
     7
 10
160.6163728456568
 20
-133.0524216486367
 30
0.0
 11
161.0835787514163
 21
-133.0524216486367
 31
0.0
  0
LINE
  5
16F
  8
ZUWAKU
  6
CONTINUOUS
 62
     7
 10
160.6163728456568
 20
-128.8694543431024
 30
0.0
 11
160.6163728456568
 21
-130.0694543431024
 31
0.0
  0
LINE
  5
170
  8
ZUWAKU
  6
CONTINUOUS
 62
     7
 10
164.2163728456568
 20
-127.6694543431024
 30
0.0
 11
164.2163728456568
 21
-128.8694543431024
 31
0.0
  0
LINE
  5
171
  8
ZUWAKU
  6
CONTINUOUS
 62
     7
 10
166.4163728456568
 20
-135.4305456568976
 30
0.0
 11
172.4163728456568
 21
-135.4305456568976
 31
0.0
  0
LINE
  5
172
  8
ZUWAKU
  6
CONTINUOUS
 62
     7
 10
162.6163728456568
 20
-132.8116802321412
 30
0.0
 11
162.6163728456568
 21
-135.4305456568976
 31
0.0
  0
LINE
  5
173
  8
ZUWAKU
  6
CONTINUOUS
 62
     7
 10
160.6163728456568
 20
-130.0694543431024
 30
0.0
 11
163.6163728456568
 21
-130.0694543431024
 31
0.0
  0
LINE
  5
174
  8
ZUWAKU
  6
CONTINUOUS
 62
     7
 10
164.2163728456568
 20
-128.8694543431024
 30
0.0
 11
166.0163728456568
 21
-128.8694543431024
 31
0.0
  0
LINE
  5
175
  8
ZUWAKU
  6
CONTINUOUS
 62
     7
 10
160.6163728456568
 20
-128.8694543431024
 30
0.0
 11
162.6163728456568
 21
-128.8694543431024
 31
0.0
  0
LINE
  5
176
  8
ZUWAKU
  6
CONTINUOUS
 62
     7
 10
170.3163728456568
 20
-130.0694543431024
 30
0.0
 11
171.9163728456568
 21
-130.0694543431024
 31
0.0
  0
LINE
  5
177
  8
ZUWAKU
  6
CONTINUOUS
 62
     7
 10
170.3163728456568
 20
-128.8694543431024
 30
0.0
 11
171.9163728456568
 21
-128.8694543431024
 31
0.0
  0
LINE
  5
178
  8
ZUWAKU
  6
CONTINUOUS
 62
     7
 10
170.3163728456568
 20
-130.0694543431024
 30
0.0
 11
170.3163728456568
 21
-133.4694543431024
 31
0.0
  0
LINE
  5
179
  8
ZUWAKU
  6
CONTINUOUS
 62
     7
 10
170.3163728456568
 20
-133.4694543431024
 30
0.0
 11
172.4163728456568
 21
-133.4694543431024
 31
0.0
  0
LINE
  5
17A
  8
ZUWAKU
  6
CONTINUOUS
 62
     7
 10
162.6163728456568
 20
-127.6694543431024
 30
0.0
 11
164.2163728456568
 21
-127.6694543431024
 31
0.0
  0
LINE
  5
17B
  8
ZUWAKU
  6
CONTINUOUS
 62
     7
 10
166.4163728456568
 20
-133.4694543431024
 30
0.0
 11
168.4163728456568
 21
-133.4694543431024
 31
0.0
  0
LINE
  5
17C
  8
ZUWAKU
  6
CONTINUOUS
 62
     7
 10
168.4163728456568
 20
-130.0694543431024
 30
0.0
 11
168.4163728456568
 21
-133.4694543431024
 31
0.0
  0
LINE
  5
17D
  8
ZUWAKU
  6
CONTINUOUS
 62
     7
 10
166.6163728456568
 20
-130.0694543431024
 30
0.0
 11
168.4163728456568
 21
-130.0694543431024
 31
0.0
  0
LINE
  5
17E
  8
ZUWAKU
  6
CONTINUOUS
 62
     7
 10
168.4163728456568
 20
-127.6694543431024
 30
0.0
 11
170.3163728456568
 21
-127.6694543431024
 31
0.0
  0
LINE
  5
17F
  8
ZUWAKU
  6
CONTINUOUS
 62
     7
 10
166.6163728456568
 20
-128.8694543431024
 30
0.0
 11
168.4163728456568
 21
-128.8694543431024
 31
0.0
  0
LINE
  5
180
  8
ZUWAKU
  6
CONTINUOUS
 62
     7
 10
162.6163728456568
 20
-135.4305456568976
 30
0.0
 11
164.2163728456568
 21
-135.4305456568976
 31
0.0
  0
LINE
  5
181
  8
ZUWAKU
  6
CONTINUOUS
 62
     7
 10
172.4163728456568
 20
-133.4694543431024
 30
0.0
 11
172.4163728456568
 21
-135.4305456568976
 31
0.0
  0
LINE
  5
182
  8
ZUWAKU
  6
CONTINUOUS
 62
     7
 10
155.0163728456568
 20
-133.8305456568976
 30
0.0
 11
154.8163728456569
 21
-133.6305456568977
 31
0.0
  0
LINE
  5
183
  8
ZUWAKU
  6
CONTINUOUS
 62
     7
 10
170.3163728456568
 20
-127.6694543431024
 30
0.0
 11
170.3163728456568
 21
-128.8694543431024
 31
0.0
  0
LINE
  5
184
  8
ZUWAKU
  6
CONTINUOUS
 62
     7
 10
171.9163728456568
 20
-128.8694543431024
 30
0.0
 11
171.9163728456568
 21
-130.0694543431024
 31
0.0
  0
LINE
  5
185
  8
ZUWAKU
  6
CONTINUOUS
 62
     7
 10
166.4163728456568
 20
-133.4694543431024
 30
0.0
 11
166.4163728456568
 21
-135.4305456568976
 31
0.0
  0
LINE
  5
186
  8
ZUWAKU
  6
CONTINUOUS
 62
     7
 10
159.2163728456568
 20
-134.6305456568976
 30
0.0
 11
159.2163728456568
 21
-135.4305456568976
 31
0.0
  0
LINE
  5
187
  8
ZUWAKU
  6
CONTINUOUS
 62
     7
 10
168.4163728456568
 20
-127.6694543431024
 30
0.0
 11
168.4163728456568
 21
-128.8694543431024
 31
0.0
  0
LINE
  5
188
  8
ZUWAKU
  6
CONTINUOUS
 62
     7
 10
151.6163728456567
 20
-133.6305456568975
 30
0.0
 11
151.2163728456567
 21
-134.4305456568976
 31
0.0
  0
LINE
  5
189
  8
ZUWAKU
  6
CONTINUOUS
 62
     7
 10
151.6163728456568
 20
-133.6305456568976
 30
0.0
 11
154.8163728456568
 21
-133.6305456568976
 31
0.0
  0
LINE
  5
18A
  8
ZUWAKU
  6
CONTINUOUS
 62
     7
 10
157.4163728456568
 20
-133.6305456568976
 30
0.0
 11
159.2163728456568
 21
-133.6305456568976
 31
0.0
  0
LINE
  5
18B
  8
ZUWAKU
  6
CONTINUOUS
 62
     7
 10
149.2163728456567
 20
-133.6305456568975
 30
0.0
 11
148.2163728456567
 21
-135.4305456568975
 31
0.0
  0
LINE
  5
18C
  8
ZUWAKU
  6
CONTINUOUS
 62
     7
 10
166.6163728456568
 20
-128.8694543431024
 30
0.0
 11
166.6163728456568
 21
-130.0694543431024
 31
0.0
  0
LINE
  5
18D
  8
ZUWAKU
  6
CONTINUOUS
 62
     7
 10
159.2163728456568
 20
-129.4305456568976
 30
0.0
 11
159.2163728456568
 21
-130.6331447746538
 31
0.0
  0
LINE
  5
18E
  8
ZUWAKU
  6
CONTINUOUS
 62
     7
 10
147.2163728456568
 20
-129.4305456568976
 30
0.0
 11
147.2163728456568
 21
-130.6331447746538
 31
0.0
  0
LINE
  5
18F
  8
ZUWAKU
  6
CONTINUOUS
 62
     7
 10
166.0163728456568
 20
-132.0305456568976
 30
0.0
 11
166.0163728456568
 21
-133.0305456568976
 31
0.0
  0
LINE
  5
190
  8
ZUWAKU
  6
CONTINUOUS
 62
     7
 10
162.6163728456568
 20
-127.6694543431024
 30
0.0
 11
162.6163728456568
 21
-128.8694543431024
 31
0.0
  0
LINE
  5
191
  8
ZUWAKU
  6
CONTINUOUS
 62
     7
 10
147.2163728456568
 20
-130.6331447746538
 30
0.0
 11
147.4443544232267
 21
-130.6331447746538
 31
0.0
  0
LINE
  5
192
  8
ZUWAKU
  6
CONTINUOUS
 62
     7
 10
164.2163728456568
 20
-132.5305456568976
 30
0.0
 11
164.2163728456568
 21
-135.4305456568976
 31
0.0
  0
LINE
  5
193
  8
ZUWAKU
  6
CONTINUOUS
 62
     7
 10
151.2163728456568
 20
-134.4305456568976
 30
0.0
 11
152.9092420950863
 21
-134.4305456568976
 31
0.0
  0
LINE
  5
194
  8
ZUWAKU
  6
CONTINUOUS
 62
     7
 10
147.2163728456568
 20
-133.6305456568976
 30
0.0
 11
149.2163728456568
 21
-133.6305456568976
 31
0.0
  0
LINE
  5
195
  8
ZUWAKU
  6
CONTINUOUS
 62
     7
 10
147.2163728456568
 20
-132.6305456568976
 30
0.0
 11
159.2163728456568
 21
-132.6305456568976
 31
0.0
  0
LINE
  5
196
  8
ZUWAKU
  6
CONTINUOUS
 62
     7
 10
148.6163728456568
 20
-132.0305456568976
 30
0.0
 11
157.2163728456568
 21
-132.0305456568976
 31
0.0
  0
LINE
  5
197
  8
ZUWAKU
  6
CONTINUOUS
 62
     7
 10
157.9495181016829
 20
-130.6331447746538
 30
0.0
 11
159.2163728456568
 21
-130.6331447746538
 31
0.0
  0
LINE
  5
198
  8
ZUWAKU
  6
CONTINUOUS
 62
     7
 10
148.6163728456568
 20
-131.0305456568976
 30
0.0
 11
157.2163728456568
 21
-131.0305456568976
 31
0.0
  0
LINE
  5
199
  8
ZUWAKU
  6
CONTINUOUS
 62
     7
 10
157.2163728456568
 20
-131.0305456568976
 30
0.0
 11
157.2163728456568
 21
-132.0305456568976
 31
0.0
  0
LINE
  5
19A
  8
ZUWAKU
  6
CONTINUOUS
 62
     7
 10
148.6163728456568
 20
-131.0305456568976
 30
0.0
 11
148.6163728456568
 21
-132.0305456568976
 31
0.0
  0
LINE
  5
19B
  8
ZUWAKU
  6
CONTINUOUS
 62
     7
 10
159.2163728456568
 20
-132.6305456568976
 30
0.0
 11
159.2163728456568
 21
-133.6305456568976
 31
0.0
  0
LINE
  5
19C
  8
ZUWAKU
  6
CONTINUOUS
 62
     7
 10
147.2163728456568
 20
-132.6305456568976
 30
0.0
 11
147.2163728456568
 21
-133.6305456568976
 31
0.0
  0
LINE
  5
19D
  8
ZUWAKU
  6
CONTINUOUS
 62
     7
 10
158.7786428876944
 20
-129.4465342528391
 30
0.0
 11
159.2163728456568
 21
-129.4465342528391
 31
0.0
  0
LINE
  5
19E
  8
ZUWAKU
  6
CONTINUOUS
 62
     7
 10
150.9163728456568
 20
-127.6694543431024
 30
0.0
 11
154.5163728456568
 21
-127.6694543431024
 31
0.0
  0
LINE
  5
19F
  8
ZUWAKU
  6
CONTINUOUS
 62
     7
 10
121.3463728456568
 20
-135.4305456568976
 30
0.0
 11
122.9463728456568
 21
-135.4305456568976
 31
0.0
  0
LINE
  5
1A0
  8
ZUWAKU
  6
CONTINUOUS
 62
     7
 10
127.1463728456568
 20
-135.4305456568976
 30
0.0
 11
128.9463728456568
 21
-135.4305456568976
 31
0.0
  0
LINE
  5
1A1
  8
ZUWAKU
  6
CONTINUOUS
 62
     7
 10
144.1963728456568
 20
-132.7305456568976
 30
0.0
 11
145.6963728456568
 21
-132.7305456568976
 31
0.0
  0
LINE
  5
1A2
  8
ZUWAKU
  6
CONTINUOUS
 62
     7
 10
142.7963728456568
 20
-129.8694543431024
 30
0.0
 11
145.7163728456568
 21
-129.8694543431024
 31
0.0
  0
LINE
  5
1A3
  8
ZUWAKU
  6
CONTINUOUS
 62
     7
 10
144.1963728456568
 20
-127.6694543431024
 30
0.0
 11
145.7163728456568
 21
-127.6694543431024
 31
0.0
  0
LINE
  5
1A4
  8
ZUWAKU
  6
CONTINUOUS
 62
     7
 10
137.9463728456568
 20
-131.9694543431024
 30
0.0
 11
139.7463728456568
 21
-131.9694543431024
 31
0.0
  0
LINE
  5
1A5
  8
ZUWAKU
  6
CONTINUOUS
 62
     7
 10
133.1463728456568
 20
-131.9694543431024
 30
0.0
 11
135.8463728456568
 21
-131.9694543431024
 31
0.0
  0
LINE
  5
1A6
  8
ZUWAKU
  6
CONTINUOUS
 62
     7
 10
133.1463728456568
 20
-129.8694543431024
 30
0.0
 11
133.1463728456568
 21
-128.8694543431024
 31
0.0
  0
LINE
  5
1A7
  8
ZUWAKU
  6
CONTINUOUS
 62
     7
 10
140.6463728456568
 20
-135.4305456568976
 30
0.0
 11
142.7963728456568
 21
-135.4305456568976
 31
0.0
  0
LINE
  5
1A8
  8
ZUWAKU
  6
CONTINUOUS
 62
     7
 10
137.9463728456568
 20
-133.3694543431024
 30
0.0
 11
139.7463728456568
 21
-133.3694543431024
 31
0.0
  0
LINE
  5
1A9
  8
ZUWAKU
  6
CONTINUOUS
 62
     7
 10
133.1463728456568
 20
-133.3694543431024
 30
0.0
 11
133.1463728456568
 21
-135.4305456568976
 31
0.0
  0
LINE
  5
1AA
  8
ZUWAKU
  6
CONTINUOUS
 62
     7
 10
140.6463728456568
 20
-129.8694543431024
 30
0.0
 11
140.6463728456568
 21
-135.4305456568976
 31
0.0
  0
LINE
  5
1AB
  8
ZUWAKU
  6
CONTINUOUS
 62
     7
 10
133.1463728456568
 20
-133.3694543431024
 30
0.0
 11
135.8463728456568
 21
-133.3694543431024
 31
0.0
  0
LINE
  5
1AC
  8
ZUWAKU
  6
CONTINUOUS
 62
     7
 10
139.7463728456568
 20
-133.3694543431024
 30
0.0
 11
139.7463728456568
 21
-134.6305456568976
 31
0.0
  0
LINE
  5
1AD
  8
ZUWAKU
  6
CONTINUOUS
 62
     7
 10
142.7963728456568
 20
-129.8694543431024
 30
0.0
 11
142.7963728456568
 21
-134.4305456568976
 31
0.0
  0
LINE
  5
1AE
  8
ZUWAKU
  6
CONTINUOUS
 62
     7
 10
137.9463728456568
 20
-131.9694543431024
 30
0.0
 11
137.9463728456568
 21
-133.3694543431024
 31
0.0
  0
LINE
  5
1AF
  8
ZUWAKU
  6
CONTINUOUS
 62
     7
 10
135.8463728456568
 20
-131.9694543431024
 30
0.0
 11
135.8463728456568
 21
-133.3694543431024
 31
0.0
  0
LINE
  5
1B0
  8
ZUWAKU
  6
CONTINUOUS
 62
     7
 10
142.7963728456568
 20
-128.8694543431024
 30
0.0
 11
144.1963728456568
 21
-128.8694543431024
 31
0.0
  0
LINE
  5
1B1
  8
ZUWAKU
  6
CONTINUOUS
 62
     7
 10
131.7463728456568
 20
-130.6694543431024
 30
0.0
 11
131.7463728456568
 21
-131.7694543431024
 31
0.0
  0
LINE
  5
1B2
  8
ZUWAKU
  6
CONTINUOUS
 62
     7
 10
133.1463728456568
 20
-131.0694543431024
 30
0.0
 11
133.1463728456568
 21
-131.9694543431024
 31
0.0
  0
LINE
  5
1B3
  8
ZUWAKU
  6
CONTINUOUS
 62
     7
 10
148.2163728456568
 20
-135.4305456568976
 30
0.0
 11
151.6971892572037
 21
-135.4305456568976
 31
0.0
  0
LINE
  5
1B4
  8
ZUWAKU
  6
CONTINUOUS
 62
     7
 10
133.1463728456568
 20
-131.0694543431024
 30
0.0
 11
139.7463728456568
 21
-131.0694543431024
 31
0.0
  0
LINE
  5
1B5
  8
ZUWAKU
  6
CONTINUOUS
 62
     7
 10
121.3463728456568
 20
-133.0569023297954
 30
0.0
 11
121.3463728456568
 21
-135.4305456568976
 31
0.0
  0
LINE
  5
1B6
  8
ZUWAKU
  6
CONTINUOUS
 62
     7
 10
131.7463728456568
 20
-134.4305456568976
 30
0.0
 11
131.7463728456568
 21
-135.4305456568976
 31
0.0
  0
LINE
  5
1B7
  8
ZUWAKU
  6
CONTINUOUS
 62
     7
 10
124.3463728456568
 20
-134.2305456568976
 30
0.0
 11
124.3463728456568
 21
-135.4305456568976
 31
0.0
  0
LINE
  5
1B8
  8
ZUWAKU
  6
CONTINUOUS
 62
     7
 10
119.3463728456568
 20
-133.3038225185832
 30
0.0
 11
119.3463728456568
 21
-134.4569023297954
 31
0.0
  0
LINE
  5
1B9
  8
ZUWAKU
  6
CONTINUOUS
 62
     7
 10
122.9463728456568
 20
-129.8694543431024
 30
0.0
 11
124.1463728456568
 21
-129.8694543431024
 31
0.0
  0
LINE
  5
1BA
  8
ZUWAKU
  6
CONTINUOUS
 62
     7
 10
128.9463728456568
 20
-129.8694543431024
 30
0.0
 11
131.5463728456568
 21
-129.8694543431024
 31
0.0
  0
LINE
  5
1BB
  8
ZUWAKU
  6
CONTINUOUS
 62
     7
 10
130.4463728456568
 20
-131.7694543431024
 30
0.0
 11
131.7463728456568
 21
-131.7694543431024
 31
0.0
  0
LINE
  5
1BC
  8
ZUWAKU
  6
CONTINUOUS
 62
     7
 10
128.9463728456568
 20
-130.6694543431024
 30
0.0
 11
131.7463728456568
 21
-130.6694543431024
 31
0.0
  0
LINE
  5
1BD
  8
ZUWAKU
  6
CONTINUOUS
 62
     7
 10
128.9463728456568
 20
-133.6305456568976
 30
0.0
 11
128.9463728456568
 21
-135.4305456568976
 31
0.0
  0
LINE
  5
1BE
  8
ZUWAKU
  6
CONTINUOUS
 62
     7
 10
127.1463728456568
 20
-133.4305456568976
 30
0.0
 11
127.1463728456568
 21
-135.4305456568976
 31
0.0
  0
LINE
  5
1BF
  8
ZUWAKU
  6
CONTINUOUS
 62
     7
 10
124.6463728456568
 20
-130.6694543431024
 30
0.0
 11
124.6463728456568
 21
-131.7694543431024
 31
0.0
  0
LINE
  5
1C0
  8
ZUWAKU
  6
CONTINUOUS
 62
     7
 10
122.9463728456568
 20
-131.3694543431024
 30
0.0
 11
122.9463728456568
 21
-135.4305456568976
 31
0.0
  0
LINE
  5
1C1
  8
ZUWAKU
  6
CONTINUOUS
 62
     7
 10
120.9463728456568
 20
-133.0569023297954
 30
0.0
 11
121.3463728456568
 21
-133.0569023297954
 31
0.0
  0
LINE
  5
1C2
  8
ZUWAKU
  6
CONTINUOUS
 62
     7
 10
124.1463728456568
 20
-130.6694543431024
 30
0.0
 11
124.1463728456568
 21
-131.7694543431024
 31
0.0
  0
LINE
  5
1C3
  8
ZUWAKU
  6
CONTINUOUS
 62
     7
 10
124.6463728456568
 20
-129.8694543431024
 30
0.0
 11
127.1463728456568
 21
-129.8694543431024
 31
0.0
  0
LINE
  5
1C4
  8
ZUWAKU
  6
CONTINUOUS
 62
     7
 10
128.9463728456568
 20
-128.8694543431024
 30
0.0
 11
131.5463728456568
 21
-128.8694543431024
 31
0.0
  0
LINE
  5
1C5
  8
ZUWAKU
  6
CONTINUOUS
 62
     7
 10
126.2063728456568
 20
-128.8694543431024
 30
0.0
 11
127.1463728456568
 21
-128.8694543431024
 31
0.0
  0
LINE
  5
1C6
  8
ZUWAKU
  6
CONTINUOUS
 62
     7
 10
127.1463728456568
 20
-127.6694543431024
 30
0.0
 11
128.9463728456568
 21
-127.6694543431024
 31
0.0
  0
LINE
  5
1C7
  8
ZUWAKU
  6
CONTINUOUS
 62
     7
 10
122.9463728456568
 20
-128.8694543431024
 30
0.0
 11
124.1463728456568
 21
-128.8694543431024
 31
0.0
  0
LINE
  5
1C8
  8
ZUWAKU
  6
CONTINUOUS
 62
     7
 10
122.9463728456568
 20
-131.3694543431025
 30
0.0
 11
124.1463728456568
 21
-131.7694543431024
 31
0.0
  0
LINE
  5
1C9
  8
ZUWAKU
  6
CONTINUOUS
 62
     7
 10
122.9463728456569
 20
-129.8694543431023
 30
0.0
 11
124.1463728456568
 21
-130.6694543431023
 31
0.0
  0
LINE
  5
1CA
  8
ZUWAKU
  6
CONTINUOUS
 62
     7
 10
128.9463728456568
 20
-129.8694543431024
 30
0.0
 11
128.9463728456568
 21
-130.6694543431024
 31
0.0
  0
LINE
  5
1CB
  8
ZUWAKU
  6
CONTINUOUS
 62
     7
 10
124.6463728456568
 20
-127.6694543431024
 30
0.0
 11
124.6463728456568
 21
-129.8694543431024
 31
0.0
  0
LINE
  5
1CC
  8
ZUWAKU
  6
CONTINUOUS
 62
     7
 10
133.1463728456568
 20
-135.4305456568976
 30
0.0
 11
135.0000668278699
 21
-135.4305456568976
 31
0.0
  0
LINE
  5
1CD
  8
ZUWAKU
  6
CONTINUOUS
 62
     7
 10
140.6463728456568
 20
-127.6694543431024
 30
0.0
 11
142.7963728456568
 21
-127.6694543431024
 31
0.0
  0
LINE
  5
1CE
  8
ZUWAKU
  6
CONTINUOUS
 62
     7
 10
140.6463728456568
 20
-127.6694543431024
 30
0.0
 11
140.6463728456568
 21
-128.8694543431024
 31
0.0
  0
LINE
  5
1CF
  8
ZUWAKU
  6
CONTINUOUS
 62
     7
 10
124.6463728456568
 20
-131.7694543431024
 30
0.0
 11
125.9463728456568
 21
-131.7694543431024
 31
0.0
  0
LINE
  5
1D0
  8
ZUWAKU
  6
CONTINUOUS
 62
     7
 10
124.6463728456568
 20
-130.6694543431024
 30
0.0
 11
127.1463728456568
 21
-130.6694543431024
 31
0.0
  0
LINE
  5
1D1
  8
ZUWAKU
  6
CONTINUOUS
 62
     7
 10
127.1463728456568
 20
-129.8694543431024
 30
0.0
 11
127.1463728456568
 21
-130.6694543431024
 31
0.0
  0
LINE
  5
1D2
  8
ZUWAKU
  6
CONTINUOUS
 62
     7
 10
145.7163728456568
 20
-127.6694543431024
 30
0.0
 11
145.7163728456568
 21
-129.8694543431024
 31
0.0
  0
LINE
  5
1D3
  8
ZUWAKU
  6
CONTINUOUS
 62
     7
 10
144.1963728456568
 20
-127.6694543431024
 30
0.0
 11
144.1963728456568
 21
-128.8694543431024
 31
0.0
  0
LINE
  5
1D4
  8
ZUWAKU
  6
CONTINUOUS
 62
     7
 10
142.7963728456568
 20
-127.6694543431024
 30
0.0
 11
142.7963728456568
 21
-128.8694543431024
 31
0.0
  0
LINE
  5
1D5
  8
ZUWAKU
  6
CONTINUOUS
 62
     7
 10
133.1463728456568
 20
-128.8694543431024
 30
0.0
 11
140.6463728456568
 21
-128.8694543431024
 31
0.0
  0
LINE
  5
1D6
  8
ZUWAKU
  6
CONTINUOUS
 62
     7
 10
133.1463728456568
 20
-129.8694543431024
 30
0.0
 11
140.6463728456568
 21
-129.8694543431024
 31
0.0
  0
LINE
  5
1D7
  8
ZUWAKU
  6
CONTINUOUS
 62
     7
 10
133.1463728456568
 20
-131.9694543431024
 30
0.0
 11
135.8463728456568
 21
-131.9694543431024
 31
0.0
  0
LINE
  5
1D8
  8
ZUWAKU
  6
CONTINUOUS
 62
     7
 10
131.5463728456568
 20
-128.8694543431024
 30
0.0
 11
131.5463728456568
 21
-129.8694543431024
 31
0.0
  0
LINE
  5
1D9
  8
ZUWAKU
  6
CONTINUOUS
 62
     7
 10
160.6163728456568
 20
-132.0305456568976
 30
0.0
 11
160.6163728456568
 21
-133.0524216486367
 31
0.0
  0
LINE
  5
1DA
  8
ZUWAKU
  6
CONTINUOUS
 62
     7
 10
121.5463728456568
 20
-127.6694543431024
 30
0.0
 11
122.9463728456568
 21
-127.6694543431024
 31
0.0
  0
LINE
  5
1DB
  8
ZUWAKU
  6
CONTINUOUS
 62
     7
 10
126.2063728456568
 20
-127.6694543431024
 30
0.0
 11
126.2063728456568
 21
-128.8694543431024
 31
0.0
  0
LINE
  5
1DC
  8
ZUWAKU
  6
CONTINUOUS
 62
     7
 10
124.6463728456568
 20
-127.6694543431024
 30
0.0
 11
126.2063728456568
 21
-127.6694543431024
 31
0.0
  0
LINE
  5
1DD
  8
ZUWAKU
  6
CONTINUOUS
 62
     7
 10
127.1463728456568
 20
-127.6694543431024
 30
0.0
 11
127.1463728456568
 21
-128.8694543431024
 31
0.0
  0
LINE
  5
1DE
  8
ZUWAKU
  6
CONTINUOUS
 62
     7
 10
128.9463728456568
 20
-127.6694543431024
 30
0.0
 11
128.9463728456568
 21
-128.8694543431024
 31
0.0
  0
LINE
  5
1DF
  8
ZUWAKU
  6
CONTINUOUS
 62
     7
 10
124.1463728456568
 20
-128.8694543431024
 30
0.0
 11
124.1463728456568
 21
-129.8694543431024
 31
0.0
  0
LINE
  5
1E0
  8
ZUWAKU
  6
CONTINUOUS
 62
     7
 10
119.4463728456568
 20
-129.8694543431024
 30
0.0
 11
120.7463728456568
 21
-129.8694543431024
 31
0.0
  0
LINE
  5
1E1
  8
ZUWAKU
  6
CONTINUOUS
 62
     7
 10
92.44637284565681
 20
-131.0694543431024
 30
0.0
 11
95.80134639299502
 21
-131.0694543431024
 31
0.0
  0
LINE
  5
1E2
  8
ZUWAKU
  6
CONTINUOUS
 62
     7
 10
98.44637284565681
 20
-127.6694543431024
 30
0.0
 11
104.5463728456568
 21
-127.6694543431024
 31
0.0
  0
LINE
  5
1E3
  8
ZUWAKU
  6
CONTINUOUS
 62
     7
 10
92.44637284565681
 20
-131.0694543431023
 30
0.0
 11
92.44637284565681
 21
-132.8694543431024
 31
0.0
  0
LINE
  5
1E4
  8
ZUWAKU
  6
CONTINUOUS
 62
     7
 10
119.4463728456568
 20
-128.8694543431024
 30
0.0
 11
121.5463728456568
 21
-128.8694543431024
 31
0.0
  0
LINE
  5
1E5
  8
ZUWAKU
  6
CONTINUOUS
 62
     7
 10
92.44637284565681
 20
-132.8694543431024
 30
0.0
 11
94.75184431632226
 21
-132.8694543431024
 31
0.0
  0
LINE
  5
1E6
  8
ZUWAKU
  6
CONTINUOUS
 62
     7
 10
100.4463728456568
 20
-131.0694543431024
 30
0.0
 11
100.4463728456568
 21
-132.8694543431024
 31
0.0
  0
LINE
  5
1E7
  8
ZUWAKU
  6
CONTINUOUS
 62
     7
 10
98.50714767707265
 20
-129.2694543431024
 30
0.0
 11
102.1463728456568
 21
-129.2694543431024
 31
0.0
  0
LINE
  5
1E8
  8
ZUWAKU
  6
CONTINUOUS
 62
     7
 10
139.7463728456568
 20
-131.0694543431024
 30
0.0
 11
139.7463728456568
 21
-131.9694543431024
 31
0.0
  0
LINE
  5
1E9
  8
ZUWAKU
  6
CONTINUOUS
 62
     7
 10
122.9463728456568
 20
-127.6694543431024
 30
0.0
 11
122.9463728456568
 21
-128.8694543431024
 31
0.0
  0
LINE
  5
1EA
  8
ZUWAKU
  6
CONTINUOUS
 62
     7
 10
110.7463728456568
 20
-132.2694543431024
 30
0.0
 11
113.9463728456568
 21
-132.2694543431024
 31
0.0
  0
LINE
  5
1EB
  8
ZUWAKU
  6
CONTINUOUS
 62
     7
 10
106.5463728456568
 20
-131.6694543431024
 30
0.0
 11
117.9463728456568
 21
-131.6694543431024
 31
0.0
  0
LINE
  5
1EC
  8
ZUWAKU
  6
CONTINUOUS
 62
     7
 10
106.5463728456568
 20
-129.6694543431024
 30
0.0
 11
117.9463728456568
 21
-129.6694543431024
 31
0.0
  0
LINE
  5
1ED
  8
ZUWAKU
  6
CONTINUOUS
 62
     7
 10
117.9463728456568
 20
-129.6694543431024
 30
0.0
 11
117.9463728456568
 21
-131.6694543431024
 31
0.0
  0
LINE
  5
1EE
  8
ZUWAKU
  6
CONTINUOUS
 62
     7
 10
106.5463728456568
 20
-129.6694543431024
 30
0.0
 11
106.5463728456568
 21
-131.6694543431024
 31
0.0
  0
LINE
  5
1EF
  8
ZUWAKU
  6
CONTINUOUS
 62
     7
 10
104.5463728456568
 20
-127.6694543431024
 30
0.0
 11
104.5463728456568
 21
-134.4694543431024
 31
0.0
  0
LINE
  5
1F0
  8
ZUWAKU
  6
CONTINUOUS
 62
     7
 10
102.1463728456568
 20
-129.2694543431024
 30
0.0
 11
102.1463728456568
 21
-134.8694543431024
 31
0.0
  0
LINE
  5
1F1
  8
ZUWAKU
  6
CONTINUOUS
 62
     7
 10
90.58362715434316
 20
-129.2694543431024
 30
0.0
 11
96.04637284565683
 21
-129.2694543431024
 31
0.0
  0
LINE
  5
1F2
  8
ZUWAKU
  6
CONTINUOUS
 62
     7
 10
96.04637284565683
 20
-126.0694543431023
 30
0.0
 11
96.04637284565683
 21
-127.6694543431024
 31
0.0
  0
LINE
  5
1F3
  8
ZUWAKU
  6
CONTINUOUS
 62
     7
 10
98.44637284565681
 20
-126.0694543431023
 30
0.0
 11
98.44637284565681
 21
-127.6694543431024
 31
0.0
  0
LINE
  5
1F4
  8
ZUWAKU
  6
CONTINUOUS
 62
     7
 10
96.04637284565683
 20
-126.0694543431024
 30
0.0
 11
98.44637284565681
 21
-126.0694543431024
 31
0.0
  0
LINE
  5
1F5
  8
ZUWAKU
  6
CONTINUOUS
 62
     7
 10
90.58362715434316
 20
-127.6694543431024
 30
0.0
 11
90.58362715434316
 21
-129.2694543431024
 31
0.0
  0
LINE
  5
1F6
  8
ZUWAKU
  6
CONTINUOUS
 62
     7
 10
90.58362715434316
 20
-127.6694543431024
 30
0.0
 11
96.04637284565683
 21
-127.6694543431024
 31
0.0
  0
LINE
  5
1F7
  8
ZUWAKU
  6
CONTINUOUS
 62
     7
 10
98.03121405164808
 20
-131.0694543431024
 30
0.0
 11
100.4463728456568
 21
-131.0694543431024
 31
0.0
  0
LINE
  5
1F8
  8
ZUWAKU
  6
CONTINUOUS
 62
     7
 10
121.5463728456568
 20
-127.6694543431024
 30
0.0
 11
121.5463728456568
 21
-128.8694543431024
 31
0.0
  0
LINE
  5
1F9
  8
ZUWAKU
  6
CONTINUOUS
 62
     7
 10
119.4463728456568
 20
-128.8694543431024
 30
0.0
 11
119.4463728456568
 21
-129.8694543431024
 31
0.0
  0
LINE
  5
1FA
  8
ZUWAKU
  6
CONTINUOUS
 62
     7
 10
96.98692822066201
 20
-132.8694543431024
 30
0.0
 11
100.4463728456568
 21
-132.8694543431024
 31
0.0
  0
LINE
  5
1FB
  8
ZUWAKU
  6
CONTINUOUS
 62
     7
 10
157.2163728456568
 20
-135.4305456568976
 30
0.0
 11
159.2163728456568
 21
-135.4305456568976
 31
0.0
  0
LINE
  5
1FC
  8
ZUWAKU
  6
CONTINUOUS
 62
     7
 10
90.58362715434316
 20
-134.4842821983328
 30
0.0
 11
90.58362715434316
 21
-135.6694543431024
 31
0.0
  0
ARC
  5
1FD
  8
ZUWAKU
  6
CONTINUOUS
 62
     7
 10
164.0753964745717
 20
-136.5280605928041
 30
0.0
 40
4.0
 50
60.9715340609843
 51
87.98024394550768
  0
ARC
  5
1FE
  8
ZUWAKU
  6
CONTINUOUS
 62
     7
 10
161.4309728961217
 20
-128.5032477036166
 30
0.0
 40
4.6
 50
318.8442436704028
 51
355.4338431265014
  0
ARC
  5
1FF
  8
ZUWAKU
  6
CONTINUOUS
 62
     7
 10
164.6806138811
 20
-133.5190845339868
 30
0.0
 40
2.0
 50
48.09638755561873
 51
83.86317369123302
  0
ARC
  5
200
  8
ZUWAKU
  6
CONTINUOUS
 62
     7
 10
161.0835787514163
 20
-128.0524216486367
 30
0.0
 40
5.0
 50
270.0
 51
287.8519707863945
  0
ARC
  5
201
  8
ZUWAKU
  6
CONTINUOUS
 62
     7
 10
160.7999359294301
 20
-129.0361668241051
 30
0.0
 40
3.0
 50
270.0
 51
339.8530457328942
  0
ARC
  5
202
  8
ZUWAKU
  6
CONTINUOUS
 62
     7
 10
152.9092420950863
 20
-130.4305456568976
 30
0.0
 40
4.0
 50
270.0
 51
301.7883306170518
  0
ARC
  5
203
  8
ZUWAKU
  6
CONTINUOUS
 62
     7
 10
159.1490770106609
 20
-132.6316781598903
 30
0.0
 40
2.0
 50
209.9625441683634
 51
271.9282476334827
  0
ARC
  5
204
  8
ZUWAKU
  6
CONTINUOUS
 62
     7
 10
151.6971892572037
 20
-125.4305456568976
 30
0.0
 40
10.0
 50
270.0
 51
293.073918065631
  0
ARC
  5
205
  8
ZUWAKU
  6
CONTINUOUS
 62
     7
 10
157.2163728456568
 20
-133.4305456568976
 30
0.0
 40
2.0
 50
216.8698976458439
 51
270.0
  0
ARC
  5
206
  8
ZUWAKU
  6
CONTINUOUS
 62
     7
 10
146.6427444155
 20
-123.4580294012382
 30
0.0
 40
6.0
 50
275.4861271989983
 51
315.4200248778122
  0
ARC
  5
207
  8
ZUWAKU
  6
CONTINUOUS
 62
     7
 10
158.7786428876944
 20
-123.4465342528391
 30
0.0
 40
6.0
 50
224.7342935204538
 51
270.0
  0
ARC
  5
208
  8
ZUWAKU
  6
CONTINUOUS
 62
     7
 10
158.5583602832044
 20
-118.6486000941914
 30
0.0
 40
12.0
 50
240.8674112692758
 51
267.0917440539539
  0
ARC
  5
209
  8
ZUWAKU
  6
CONTINUOUS
 62
     7
 10
147.4443544232267
 20
-120.6331447746538
 30
0.0
 40
10.0
 50
270.0
 51
301.8165888069296
  0
ARC
  5
20A
  8
ZUWAKU
  6
CONTINUOUS
 62
     7
 10
141.8785047405764
 20
-131.5372799144038
 30
0.0
 40
4.0
 50
283.265695396094
 51
342.6434876261313
  0
ARC
  5
20B
  8
ZUWAKU
  6
CONTINUOUS
 62
     7
 10
142.2075729563648
 20
-132.5191810421865
 30
0.0
 40
2.0
 50
287.1215589227386
 51
353.9335213805733
  0
ARC
  5
20C
  8
ZUWAKU
  6
CONTINUOUS
 62
     7
 10
134.0732198367634
 20
-115.4520333335269
 30
0.0
 40
20.0
 50
272.6561723599371
 51
286.4786265979867
  0
ARC
  5
20D
  8
ZUWAKU
  6
CONTINUOUS
 62
     7
 10
134.4350708718812
 20
-131.4689746339814
 30
0.0
 40
4.0
 50
184.3081130703794
 51
227.7648830848148
  0
ARC
  5
20E
  8
ZUWAKU
  6
CONTINUOUS
 62
     7
 10
132.3132740533973
 20
-131.470921555968
 30
0.0
 40
4.0
 50
212.6772418063084
 51
261.8523056494763
  0
ARC
  5
20F
  8
ZUWAKU
  6
CONTINUOUS
 62
     7
 10
122.0267019278491
 20
-130.9718454815092
 30
0.0
 40
4.0
 50
305.4447563754824
 51
348.4979955985226
  0
ARC
  5
210
  8
ZUWAKU
  6
CONTINUOUS
 62
     7
 10
117.607071150831
 20
-130.8548432499945
 30
0.0
 40
4.0
 50
295.7741858394136
 51
326.5976644920056
  0
ARC
  5
211
  8
ZUWAKU
  6
CONTINUOUS
 62
     7
 10
122.4053906304749
 20
-129.7531705556429
 30
0.0
 40
6.0
 50
288.8745432034554
 51
322.2008123804935
  0
ARC
  5
212
  8
ZUWAKU
  6
CONTINUOUS
 62
     7
 10
114.7622963094578
 20
-129.4326156899224
 30
0.0
 40
6.0
 50
319.8192422116139
 51
355.8248039544737
  0
ARC
  5
213
  8
ZUWAKU
  6
CONTINUOUS
 62
     7
 10
91.05198398637199
 20
-129.5062663407956
 30
0.0
 40
5.0
 50
264.6251462956196
 51
317.7290360759776
  0
ARC
  5
214
  8
ZUWAKU
  6
CONTINUOUS
 62
     7
 10
106.1802438133988
 20
-125.1000995043927
 30
0.0
 40
10.56940911068407
 50
247.5637467185126
 51
317.2881390123424
  0
ARC
  5
215
  8
ZUWAKU
  6
CONTINUOUS
 62
     7
 10
104.4883680238249
 20
-124.4696225724852
 30
0.0
 40
10.0
 50
270.3323450119129
 51
308.7409648643439
  0
ARC
  5
216
  8
ZUWAKU
  6
CONTINUOUS
 62
     7
 10
91.17187081666828
 20
-128.2928718421244
 30
0.0
 40
7.4
 50
337.9624692219032
 51
352.416518898312
  0
ARC
  5
217
  8
ZUWAKU
  6
CONTINUOUS
 62
     7
 10
91.05198398637199
 20
-129.5062663407956
 30
0.0
 40
5.0
 50
341.7817433502872
 51
362.7146811743762
  0
ARC
  5
218
  8
ZUWAKU
  6
CONTINUOUS
 62
     7
 10
91.17187081666828
 20
-128.2928718421244
 30
0.0
 40
7.4
 50
265.4406112814197
 51
321.7964493072675
  0
ENDBLK
  5
7E
  8
0
  0
BLOCK
  8
0
  2
DC_GROUP_17
 70
     0
 10
0.0
 20
0.0
 30
0.0
  3
DC_GROUP_17
  1

  0
LINE
  5
219
  8
ZUWAKU
  6
CONTINUOUS
 62
     7
 10
148.9941506234345
 20
-134.0305456568976
 30
0.0
 11
151.4163728456568
 21
-134.0305456568976
 31
0.0
  0
LINE
  5
21A
  8
ZUWAKU
  6
CONTINUOUS
 62
     7
 10
154.6528016725025
 20
-134.0305456568976
 30
0.0
 11
157.7196821296652
 21
-134.0305456568976
 31
0.0
  0
LINE
  5
21B
  8
ZUWAKU
  6
CONTINUOUS
 62
     7
 10
147.2163728456568
 20
-133.5305456568976
 30
0.0
 11
159.2163728456568
 21
-133.5305456568976
 31
0.0
  0
LINE
  5
21C
  8
ZUWAKU
  6
CONTINUOUS
 62
     7
 10
147.2163728456568
 20
-133.0305456568976
 30
0.0
 11
159.2163728456568
 21
-133.0305456568976
 31
0.0
  0
LINE
  5
21D
  8
ZUWAKU
  6
CONTINUOUS
 62
     7
 10
148.7163728456567
 20
-134.5305456568976
 30
0.0
 11
158.521142118487
 21
-134.5305456568976
 31
0.0
  0
LINE
  5
21E
  8
ZUWAKU
  6
CONTINUOUS
 62
     7
 10
148.4385950678789
 20
-135.0305456568976
 30
0.0
 11
154.4971892572037
 21
-135.0305456568976
 31
0.0
  0
LINE
  5
21F
  8
ZUWAKU
  6
CONTINUOUS
 62
     7
 10
156.0163728456568
 20
-135.0305456568976
 30
0.0
 11
159.2163728456568
 21
-135.0305456568976
 31
0.0
  0
ENDBLK
  5
81
  8
0
  0
BLOCK
  8
0
  2
DC_GROUP_18
 70
     0
 10
0.0
 20
0.0
 30
0.0
  3
DC_GROUP_18
  1

  0
POINT
  5
220
  8
ZUWAKU
  6
CONTINUOUS
 62
     2
 10
162.0006765899865
 20
-97.57239512855193
 30
0.0
  0
POINT
  5
221
  8
ZUWAKU
  6
CONTINUOUS
 62
     2
 10
75.50118055207491
 20
-85.16260991106857
 30
0.0
  0
POINT
  5
222
  8
ZUWAKU
  6
CONTINUOUS
 62
     2
 10
142.4853351955303
 20
-120.3443513345745
 30
0.0
  0
POINT
  5
223
  8
ZUWAKU
  6
CONTINUOUS
 62
     2
 10
161.0193620275377
 20
-87.26949353429845
 30
0.0
  0
POINT
  5
224
  8
ZUWAKU
  6
CONTINUOUS
 62
     2
 10
162.145474507651
 20
-119.9080450954827
 30
0.0
  0
POINT
  5
225
  8
ZUWAKU
  6
CONTINUOUS
 62
     2
 10
169.0941648737996
 20
-108.7969250144304
 30
0.0
  0
ENDBLK
  5
84
  8
0
  0
BLOCK
  8
0
  2
DA_IMAGEDIMGROUP_1
 70
     0
 10
0.0
 20
0.0
 30
0.0
  3
DA_IMAGEDIMGROUP_1
  1

  0
LINE
  5
226
  8
LAYER0014
  6
CONTINUOUS
 62
     7
 10
-57.51554570825789
 20
50.30795875072097
 30
0.0
 11
-57.51554570825789
 21
80.71994566015698
 31
0.0
  0
LINE
  5
227
  8
LAYER0014
  6
CONTINUOUS
 62
     7
 10
-37.51554570825789
 20
49.00795875072097
 30
0.0
 11
-37.51554570825789
 21
80.71994566015698
 31
0.0
  0
LINE
  5
228
  8
LAYER0014
  6
CONTINUOUS
 62
     7
 10
-57.51554570825789
 20
78.43394566015698
 30
0.0
 11
-37.51554570825789
 21
78.43394566015698
 31
0.0
  0
INSERT
  5
22F
  8
LAYER0014
 62
     7
  2
_OPEN30
 10
-57.51554570825789
 20
78.43394566015698
 30
0.0
 41
3.000002787824364
 42
2.999989273978464
 50
180.0
  0
INSERT
  5
230
  8
LAYER0014
 62
     7
  2
_OPEN30
 10
-37.51554570825789
 20
78.43394566015698
 30
0.0
 41
3.000002787824364
 42
2.999989273978464
 50
360.0
  0
TEXT
  5
231
  8
LAYER0014
 62
     7
 10
-50.25854570897315
 20
79.23394567207791
 30
0.0
 40
3.200000047683716
  1
20
 41
0.75006835505256
  7
FDASTYLE0
 72
     5
 11
-44.77254570754263
 21
79.23394567207791
 31
0.0
  0
ENDBLK
  5
87
  8
0
  0
BLOCK
  8
0
  2
DA_IMAGEDIMGROUP_2
 70
     0
 10
0.0
 20
0.0
 30
0.0
  3
DA_IMAGEDIMGROUP_2
  1

  0
LINE
  5
232
  8
LAYER0224
  6
CONTINUOUS
 62
     7
 10
-55.81554570825796
 20
45.40795875072098
 30
0.0
 11
-68.95211917018071
 21
45.40795875072098
 31
0.0
  0
LINE
  5
233
  8
LAYER0224
  6
CONTINUOUS
 62
     7
 10
-67.95211917018071
 20
-8.379636732545864
 30
0.0
 11
-67.95211917018071
 21
45.40795875072098
 31
0.0
  0
INSERT
  5
234
  8
LAYER0224
 62
     7
  2
_OPEN30
 10
-67.95211917018071
 20
45.40795875072098
 30
0.0
 41
3.000002787824364
 42
2.999989273978464
 50
90.0
  0
TEXT
  5
235
  8
LAYER0224
 62
     7
 10
-68.95211917018071
 20
9.235251193589978
 30
0.0
 40
3.0
  1
φ56.8
 50
90.0
 41
0.9615384615384616
  7
FDASTYLE0
 72
     5
 11
-68.95211917018071
 21
24.23525119358998
 31
0.0
  0
ENDBLK
  5
8A
  8
0
  0
BLOCK
  8
0
  2
DA_IMAGEDIMGROUP_3
 70
     0
 10
0.0
 20
0.0
 30
0.0
  3
DA_IMAGEDIMGROUP_3
  1

  0
LINE
  5
236
  8
LAYER0224
  6
CONTINUOUS
 62
     7
 10
-58.01554570825795
 20
47.10795875072097
 30
0.0
 11
-77.5950644706067
 21
47.10795875072097
 31
0.0
  0
LINE
  5
237
  8
LAYER0224
  6
CONTINUOUS
 62
     7
 10
-76.5950644706067
 20
-10.66267888737537
 30
0.0
 11
-76.5950644706067
 21
47.10795875072097
 31
0.0
  0
INSERT
  5
238
  8
LAYER0224
 62
     7
  2
_OPEN30
 10
-76.5950644706067
 20
47.10795875072097
 30
0.0
 41
3.000002787824364
 42
2.999989273978464
 50
90.0
  0
TEXT
  5
239
  8
LAYER0224
 62
     7
 10
-77.5950644706067
 20
9.724474512482022
 30
0.0
 40
3.0
  1
φ60.2
 50
90.0
 41
0.9615384615384616
  7
FDASTYLE0
 72
     5
 11
-77.5950644706067
 21
24.72447451248202
 31
0.0
  0
ENDBLK
  5
8D
  8
0
  0
BLOCK
  8
0
  2
DA_IMAGEDIMGROUP_4
 70
     0
 10
0.0
 20
0.0
 30
0.0
  3
DA_IMAGEDIMGROUP_4
  1

  0
LINE
  5
23A
  8
LAYER0014
  6
CONTINUOUS
 62
     7
 10
-57.51554570825795
 20
-17.29204124927901
 30
0.0
 11
-87.59917640222318
 21
-17.29204124927901
 31
0.0
  0
LINE
  5
23B
  8
LAYER0014
  6
CONTINUOUS
 62
     7
 10
-57.51554570825795
 20
51.30795875072097
 30
0.0
 11
-87.59917640222318
 21
51.30795875072097
 31
0.0
  0
LINE
  5
23C
  8
LAYER0014
  6
CONTINUOUS
 62
     7
 10
-86.59917640222318
 20
-17.29204124927901
 30
0.0
 11
-86.59917640222318
 21
51.30795875072097
 31
0.0
  0
INSERT
  5
23D
  8
LAYER0014
 62
     7
  2
_OPEN30
 10
-86.59917640222318
 20
-17.29204124927901
 30
0.0
 41
3.000002787824364
 42
2.999989273978464
 50
270.0
  0
INSERT
  5
23E
  8
LAYER0014
 62
     7
  2
_OPEN30
 10
-86.59917640222318
 20
51.30795875072097
 30
0.0
 41
3.000002787824364
 42
2.999989273978464
 50
90.0
  0
TEXT
  5
23F
  8
LAYER0014
 62
     7
 10
-87.59917640222318
 20
9.507958750720984
 30
0.0
 40
3.0
  1
φ68.6
 50
90.0
 41
0.9615384615384616
  7
FDASTYLE0
 72
     5
 11
-87.59917640222318
 21
24.50795875072098
 31
0.0
  0
ENDBLK
  5
90
  8
0
  0
BLOCK
  8
0
  2
DA_IMAGEDIMGROUP_5
 70
     0
 10
0.0
 20
0.0
 30
0.0
  3
DA_IMAGEDIMGROUP_5
  1

  0
LINE
  5
240
  8
LAYER0014
  6
CONTINUOUS
 62
     7
 10
128.7219878054361
 20
32.25795875072097
 30
0.0
 11
140.3601586675844
 21
32.25795875072097
 31
0.0
  0
LINE
  5
241
  8
LAYER0014
  6
CONTINUOUS
 62
     7
 10
139.3601586675844
 20
5.445836944417369
 30
0.0
 11
139.3601586675844
 21
32.25795875072097
 31
0.0
  0
INSERT
  5
242
  8
LAYER0014
 62
     7
  2
_OPEN30
 10
139.3601586675844
 20
32.25795875072097
 30
0.0
 41
3.000002787824364
 42
2.999989273978464
 50
90.0
  0
TEXT
  5
243
  8
LAYER0014
 62
     7
 10
138.3601586675844
 20
10.44583694441737
 30
0.0
 40
2.5
  1
φ30.5
 50
90.0
 41
0.9615384615384616
  7
FDASTYLE0
 72
     5
 11
138.3601586675844
 21
22.94583694441737
 31
0.0
  0
ENDBLK
  5
93
  8
0
  0
BLOCK
  8
0
  2
DA_IMAGEDIMGROUP_6
 70
     0
 10
0.0
 20
0.0
 30
0.0
  3
DA_IMAGEDIMGROUP_6
  1

  0
LINE
  5
244
  8
LAYER0224
  6
CONTINUOUS
 62
     7
 10
-46.91554570825787
 20
36.75795875072095
 30
0.0
 11
-46.91554570825787
 21
66.32613601646861
 31
0.0
  0
LINE
  5
245
  8
LAYER0224
  6
CONTINUOUS
 62
     7
 10
127.7219878054361
 20
34.00795875072099
 30
0.0
 11
127.7219878054361
 21
66.32613601646861
 31
0.0
  0
LINE
  5
246
  8
LAYER0224
  6
CONTINUOUS
 62
     7
 10
-46.91554570825787
 20
65.32613601646861
 30
0.0
 11
127.7219878054361
 21
65.32613601646861
 31
0.0
  0
INSERT
  5
247
  8
LAYER0224
 62
     7
  2
_OPEN30
 10
-46.91554570825787
 20
65.32613601646861
 30
0.0
 41
3.000002787824364
 42
2.999989273978464
 50
180.0
  0
INSERT
  5
248
  8
LAYER0224
 62
     7
  2
_OPEN30
 10
127.7219878054361
 20
65.32613601646861
 30
0.0
 41
3.000002787824364
 42
2.999989273978464
 50
360.0
  0
TEXT
  5
249
  8
LAYER0224
 62
     7
 10
35.9032210485891
 20
66.32613601646861
 30
0.0
 40
3.0
  1
800
  7
FDASTYLE0
 72
     5
 11
44.9032210485891
 21
66.32613601646861
 31
0.0
  0
TEXT
  5
24A
  8
LAYER0224
 62
     7
 10
45.9032210485891
 20
68.27613601646861
 30
0.0
 40
1.95
  1
+20
 41
1.0
  7
FDASTYLE0
 72
     5
 11
51.7532210485891
 21
68.27613601646861
 31
0.0
  0
TEXT
  5
24B
  8
LAYER0224
 62
     7
 10
45.9032210485891
 20
66.12613601646861
 30
0.0
 40
1.95
  1
-0
 41
0.9999999999999996
  7
FDASTYLE0
 72
     5
 11
49.8032210485891
 21
66.12613601646861
 31
0.0
  0
ENDBLK
  5
96
  8
0
  0
BLOCK
  8
0
  2
DC_GROUP_19
 70
     0
 10
0.0
 20
0.0
 30
0.0
  3
DC_GROUP_19
  1

  0
LINE
  5
24C
  8
0
  6
CONTINUOUS
 62
     3
 10
-35.81554570826182
 20
-8.792041249251721
 30
0.0
 11
-35.80068449014885
 21
-8.792041249251721
 31
0.0
  0
LINE
  5
24D
  8
0
  6
CONTINUOUS
 62
     3
 10
-35.80068449014885
 20
-8.792041249251721
 30
0.0
 11
-35.78582327203577
 21
-8.792041249251721
 31
0.0
  0
LINE
  5
24E
  8
0
  6
CONTINUOUS
 62
     3
 10
-35.78582327203577
 20
-8.792041249251721
 30
0.0
 11
-35.77096205392269
 21
-8.792041249251721
 31
0.0
  0
LINE
  5
24F
  8
0
  6
CONTINUOUS
 62
     3
 10
-35.77096205392269
 20
-8.792041249251721
 30
0.0
 11
-35.75610083580961
 21
-8.792041249251721
 31
0.0
  0
LINE
  5
250
  8
0
  6
CONTINUOUS
 62
     3
 10
-35.75610083580961
 20
-8.792041249251721
 30
0.0
 11
-35.74123961769652
 21
-8.792041249251721
 31
0.0
  0
LINE
  5
251
  8
0
  6
CONTINUOUS
 62
     3
 10
-35.74123961769652
 20
-8.792041249251721
 30
0.0
 11
-35.72637839958344
 21
-8.792041249251721
 31
0.0
  0
LINE
  5
252
  8
0
  6
CONTINUOUS
 62
     3
 10
-35.72637839958344
 20
-8.792041249251721
 30
0.0
 11
-35.71151718147047
 21
-8.792041249251721
 31
0.0
  0
LINE
  5
253
  8
0
  6
CONTINUOUS
 62
     3
 10
-35.71151718147047
 20
-8.792041249251721
 30
0.0
 11
-35.69665596335739
 21
-8.792041249251721
 31
0.0
  0
LINE
  5
254
  8
0
  6
CONTINUOUS
 62
     3
 10
-35.69665596335739
 20
-8.792041249251721
 30
0.0
 11
-35.6817947452443
 21
-8.792041249251721
 31
0.0
  0
LINE
  5
255
  8
0
  6
CONTINUOUS
 62
     3
 10
-35.6817947452443
 20
-8.792041249251721
 30
0.0
 11
-35.66693352713122
 21
-8.792041249251721
 31
0.0
  0
ENDBLK
  5
99
  8
0
  0
BLOCK
  8
0
  2
DC_GROUP_20
 70
     0
 10
0.0
 20
0.0
 30
0.0
  3
DC_GROUP_20
  1

  0
LINE
  5
256
  8
0
  6
CONTINUOUS
 62
     3
 10
-37.51554570825789
 20
-5.715677315379704
 30
0.0
 11
-37.45170792370669
 21
-5.715677315379704
 31
0.0
  0
LINE
  5
257
  8
0
  6
CONTINUOUS
 62
     3
 10
-37.45170792370669
 20
-5.715677315379704
 30
0.0
 11
-36.88787013915572
 21
-5.715677315379704
 31
0.0
  0
LINE
  5
258
  8
0
  6
CONTINUOUS
 62
     3
 10
-36.88787013915572
 20
-5.715677315379704
 30
0.0
 11
-36.32403235460453
 21
-5.715677315379704
 31
0.0
  0
LINE
  5
259
  8
0
  6
CONTINUOUS
 62
     3
 10
-36.32403235460453
 20
-5.715677315379704
 30
0.0
 11
-35.76019457005344
 21
-5.715677315379704
 31
0.0
  0
LINE
  5
25A
  8
0
  6
CONTINUOUS
 62
     3
 10
-35.76019457005344
 20
-5.715677315379704
 30
0.0
 11
-35.19635678550236
 21
-5.715677315379704
 31
0.0
  0
LINE
  5
25B
  8
0
  6
CONTINUOUS
 62
     3
 10
-35.19635678550236
 20
-5.715677315379704
 30
0.0
 11
-34.63251900095128
 21
-5.715677315379704
 31
0.0
  0
LINE
  5
25C
  8
0
  6
CONTINUOUS
 62
     3
 10
-34.63251900095128
 20
-5.715677315379704
 30
0.0
 11
-34.06868121640019
 21
-5.715677315379704
 31
0.0
  0
LINE
  5
25D
  8
0
  6
CONTINUOUS
 62
     3
 10
-34.06868121640019
 20
-5.715677315379704
 30
0.0
 11
-33.50484343184911
 21
-5.715677315379704
 31
0.0
  0
LINE
  5
25E
  8
0
  6
CONTINUOUS
 62
     3
 10
-33.50484343184911
 20
-5.715677315379704
 30
0.0
 11
-32.94100564729803
 21
-5.715677315379704
 31
0.0
  0
LINE
  5
25F
  8
0
  6
CONTINUOUS
 62
     3
 10
-32.94100564729803
 20
-5.715677315379704
 30
0.0
 11
-32.37716786274694
 21
-5.715677315379704
 31
0.0
  0
ENDBLK
  5
9C
  8
0
  0
BLOCK
  8
0
  2
DC_GROUP_21
 70
     0
 10
0.0
 20
0.0
 30
0.0
  3
DC_GROUP_21
  1

  0
LINE
  5
260
  8
0
  6
CONTINUOUS
 62
     3
 10
-35.3895834290135
 20
-8.70806639641739
 30
0.0
 11
-35.12444464712615
 21
-8.531307208487757
 31
0.0
  0
LINE
  5
261
  8
0
  6
CONTINUOUS
 62
     3
 10
-35.12444464712615
 20
-8.531307208487757
 30
0.0
 11
-34.85930586523892
 21
-8.354548020558124
 31
0.0
  0
LINE
  5
262
  8
0
  6
CONTINUOUS
 62
     3
 10
-34.85930586523892
 20
-8.354548020558124
 30
0.0
 11
-34.59416708335147
 21
-8.17778883262849
 31
0.0
  0
LINE
  5
263
  8
0
  6
CONTINUOUS
 62
     3
 10
-34.59416708335147
 20
-8.17778883262849
 30
0.0
 11
-34.32902830146412
 21
-8.001029644698857
 31
0.0
  0
LINE
  5
264
  8
0
  6
CONTINUOUS
 62
     3
 10
-34.32902830146412
 20
-8.001029644698857
 30
0.0
 11
-34.06388951957678
 21
-7.824270456769224
 31
0.0
  0
LINE
  5
265
  8
0
  6
CONTINUOUS
 62
     3
 10
-34.06388951957678
 20
-7.824270456769224
 30
0.0
 11
-33.79875073768943
 21
-7.64751126883959
 31
0.0
  0
LINE
  5
266
  8
0
  6
CONTINUOUS
 62
     3
 10
-33.79875073768943
 20
-7.64751126883959
 30
0.0
 11
-33.5336119558022
 21
-7.470752080909957
 31
0.0
  0
LINE
  5
267
  8
0
  6
CONTINUOUS
 62
     3
 10
-33.5336119558022
 20
-7.470752080909957
 30
0.0
 11
-33.26847317391486
 21
-7.293992892980324
 31
0.0
  0
LINE
  5
268
  8
0
  6
CONTINUOUS
 62
     3
 10
-33.26847317391486
 20
-7.293992892980324
 30
0.0
 11
-33.00333439202751
 21
-7.11723370505069
 31
0.0
  0
LINE
  5
269
  8
0
  6
CONTINUOUS
 62
     3
 10
-33.00333439202751
 20
-7.11723370505069
 30
0.0
 11
-32.73819561014017
 21
-6.940474517121057
 31
0.0
  0
ENDBLK
  5
9F
  8
0
  0
BLOCK
  8
0
  2
DC_GROUP_22
 70
     0
 10
0.0
 20
0.0
 30
0.0
  3
DC_GROUP_22
  1

  0
LINE
  5
26A
  8
0
  6
CONTINUOUS
 62
     3
 10
-32.51554570827324
 20
39.73159481687605
 30
0.0
 11
-32.50170792372211
 21
39.73159481687605
 31
0.0
  0
LINE
  5
26B
  8
0
  6
CONTINUOUS
 62
     3
 10
-32.50170792372211
 20
39.73159481687605
 30
0.0
 11
-32.48787013917109
 21
39.73159481687605
 31
0.0
  0
LINE
  5
26C
  8
0
  6
CONTINUOUS
 62
     3
 10
-32.48787013917109
 20
39.73159481687605
 30
0.0
 11
-32.47403235461997
 21
39.73159481687605
 31
0.0
  0
LINE
  5
26D
  8
0
  6
CONTINUOUS
 62
     3
 10
-32.47403235461997
 20
39.73159481687605
 30
0.0
 11
-32.46019457006895
 21
39.73159481687605
 31
0.0
  0
LINE
  5
26E
  8
0
  6
CONTINUOUS
 62
     3
 10
-32.46019457006895
 20
39.73159481687605
 30
0.0
 11
-32.44635678551782
 21
39.73159481687605
 31
0.0
  0
LINE
  5
26F
  8
0
  6
CONTINUOUS
 62
     3
 10
-32.44635678551782
 20
39.73159481687605
 30
0.0
 11
-32.43251900096669
 21
39.73159481687605
 31
0.0
  0
LINE
  5
270
  8
0
  6
CONTINUOUS
 62
     3
 10
-32.43251900096669
 20
39.73159481687605
 30
0.0
 11
-32.41868121641568
 21
39.73159481687605
 31
0.0
  0
LINE
  5
271
  8
0
  6
CONTINUOUS
 62
     3
 10
-32.41868121641568
 20
39.73159481687605
 30
0.0
 11
-32.40484343186455
 21
39.73159481687605
 31
0.0
  0
LINE
  5
272
  8
0
  6
CONTINUOUS
 62
     3
 10
-32.40484343186455
 20
39.73159481687605
 30
0.0
 11
-32.39100564731353
 21
39.73159481687605
 31
0.0
  0
LINE
  5
273
  8
0
  6
CONTINUOUS
 62
     3
 10
-32.39100564731353
 20
39.73159481687605
 30
0.0
 11
-32.38157111215213
 21
39.73159481687605
 31
0.0
  0
ENDBLK
  5
A2
  8
0
  0
BLOCK
  8
0
  2
DC_GROUP_23
 70
     0
 10
0.0
 20
0.0
 30
0.0
  3
DC_GROUP_23
  1

  0
LINE
  5
274
  8
0
  6
CONTINUOUS
 62
     3
 10
-31.76554570825789
 20
-5.360014882668107
 30
0.0
 11
-32.38538443782028
 21
-5.717878940035117
 31
0.0
  0
ENDBLK
  5
A5
  8
0
  0
BLOCK
  8
0
  2
DC_GROUP_24
 70
     0
 10
0.0
 20
0.0
 30
0.0
  3
DC_GROUP_24
  1

  0
LINE
  5
275
  8
0
  6
CONTINUOUS
 62
     3
 10
-31.76554570825789
 20
39.37593238411
 30
0.0
 11
-32.38157111215213
 21
39.73159481687605
 31
0.0
  0
ENDBLK
  5
A8
  8
0
  0
BLOCK
  8
0
  2
DC_GROUP_25
 70
     0
 10
0.0
 20
0.0
 30
0.0
  3
DC_GROUP_25
  1

  0
LINE
  5
276
  8
LAYER0016
  6
CONTINUOUS
 62
     3
 10
-49.01554570825783
 20
-17.29204124927912
 30
0.0
 11
-45.2764790987659
 21
-49.59949076996382
 31
0.0
  0
CIRCLE
  5
277
  8
LAYER0016
  6
CONTINUOUS
 62
     3
 10
-44.70164662253658
 20
-54.5663376192508
 30
0.0
 40
5.0
  0
TEXT
  5
278
  8
LAYER0016
 62
     3
 10
-46.20164662253658
 20
-56.0663376192508
 30
0.0
 40
3.0
  1
1
  7
FDASTYLE0
 72
     5
 11
-43.20164662253658
 21
-56.0663376192508
 31
0.0
  0
ENDBLK
  5
AB
  8
0
  0
BLOCK
  8
0
  2
DC_GROUP_26
 70
     0
 10
0.0
 20
0.0
 30
0.0
  3
DC_GROUP_26
  1

  0
LINE
  5
279
  8
LAYER0016
  6
CONTINUOUS
 62
     3
 10
-48.31554551481366
 20
42.90795773387509
 30
0.0
 11
-66.06881534263891
 21
81.45197647664671
 31
0.0
  0
CIRCLE
  5
27A
  8
LAYER0016
  6
CONTINUOUS
 62
     3
 10
-68.16058187005541
 20
85.99339836794682
 30
0.0
 40
5.0
  0
TEXT
  5
27B
  8
LAYER0016
 62
     3
 10
-69.66058187005541
 20
84.49339836794682
 30
0.0
 40
3.0
  1
2
  7
FDASTYLE0
 72
     5
 11
-66.66058187005541
 21
84.49339836794682
 31
0.0
  0
ENDBLK
  5
AE
  8
0
  0
BLOCK
  8
0
  2
DC_GROUP_27
 70
     0
 10
0.0
 20
0.0
 30
0.0
  3
DC_GROUP_27
  1

  0
LINE
  5
27C
  8
LAYER0016
  6
CONTINUOUS
 62
     3
 10
-34.02812229708379
 20
-3.932121160096326
 30
0.0
 11
-23.44271096825104
 21
-49.78172255533103
 31
0.0
  0
CIRCLE
  5
27D
  8
LAYER0016
  6
CONTINUOUS
 62
     3
 10
-22.31793584424182
 20
-54.65356829595235
 30
0.0
 40
5.0
  0
TEXT
  5
27E
  8
LAYER0016
 62
     3
 10
-23.81793584424182
 20
-56.15356829595235
 30
0.0
 40
3.0
  1
3
  7
FDASTYLE0
 72
     5
 11
-20.81793584424182
 21
-56.15356829595235
 31
0.0
  0
ENDBLK
  5
B1
  8
0
  0
BLOCK
  8
0
  2
DC_GROUP_28
 70
     0
 10
0.0
 20
0.0
 30
0.0
  3
DC_GROUP_28
  1

  0
LINE
  5
27F
  8
LAYER0016
  6
CONTINUOUS
 62
     3
 10
-8.02215860428646
 20
0.7879362874526557
 30
0.0
 11
-0.3330207648147484
 21
-49.57467848280079
 31
0.0
  0
CIRCLE
  5
280
  8
LAYER0016
  6
CONTINUOUS
 62
     3
 10
0.4216122676721492
 20
-54.51740333719837
 30
0.0
 40
5.0
  0
TEXT
  5
281
  8
LAYER0016
 62
     3
 10
-1.078387732327851
 20
-56.01740333719837
 30
0.0
 40
3.0
  1
4
  7
FDASTYLE0
 72
     5
 11
1.921612267672149
 21
-56.01740333719837
 31
0.0
  0
ENDBLK
  5
B4
  8
0
  0
BLOCK
  8
0
  2
_OPEN30
 70
     0
 10
0.0
 20
0.0
 30
0.0
  3
_OPEN30
  1

  0
LINE
  5
22C
  8
0
  6
BYBLOCK
 62
     0
 10
-1.0
 20
0.267949
 30
0.0
 11
0.0
 21
0.0
 31
0.0
  0
LINE
  5
22D
  8
0
  6
BYBLOCK
 62
     0
 10
0.0
 20
0.0
 30
0.0
 11
-1.0
 21
-0.267949
 31
0.0
  0
LINE
  5
22E
  8
0
  6
BYBLOCK
 62
     0
 10
0.0
 20
0.0
 30
0.0
 11
-1.0
 21
0.0
 31
0.0
  0
ENDBLK
  5
22B
  8
0
  0
ENDSEC
  0
SECTION
  2
ENTITIES
  0
LINE
  5
282
  8
ZUWAKU
  6
CONTINUOUS
 62
     7
 10
-192.5
 20
-138.5
 30
0.0
 11
192.5
 21
-138.5
 31
0.0
  0
LINE
  5
283
  8
ZUWAKU
  6
CONTINUOUS
 62
     7
 10
7.5
 20
-96.50000000000003
 30
0.0
 11
7.5
 21
-128.5000000000001
 31
0.0
  0
LINE
  5
284
  8
ZUWAKU
  6
CONTINUOUS
 62
     7
 10
-192.5
 20
138.5
 30
0.0
 11
192.5
 21
138.5
 31
0.0
  0
LINE
  5
285
  8
ZUWAKU
  6
CONTINUOUS
 62
     7
 10
-192.5
 20
-138.5
 30
0.0
 11
-192.5
 21
138.5
 31
0.0
  0
LINE
  5
286
  8
ZUWAKU
  6
CONTINUOUS
 62
     7
 10
192.5
 20
-138.5
 30
0.0
 11
192.5
 21
138.5
 31
0.0
  0
LINE
  5
287
  8
ZUWAKU
  6
CONTINUOUS
 62
     7
 10
0.0
 20
-148.5
 30
0.0
 11
0.0
 21
-138.5
 31
0.0
  0
LINE
  5
288
  8
ZUWAKU
  6
CONTINUOUS
 62
     7
 10
-210.0
 20
0.0
 30
0.0
 11
-192.5
 21
0.0
 31
0.0
  0
LINE
  5
289
  8
ZUWAKU
  6
CONTINUOUS
 62
     7
 10
0.0
 20
138.5
 30
0.0
 11
0.0
 21
148.5
 31
0.0
  0
LINE
  5
28A
  8
ZUWAKU
  6
CONTINUOUS
 62
     7
 10
192.5
 20
0.0
 30
0.0
 11
210.0
 21
0.0
 31
0.0
  0
LINE
  5
28B
  8
ZUWAKU
  6
CONTINUOUS
 62
     7
 10
-9.5
 20
-96.50000000000003
 30
0.0
 11
-9.5
 21
-138.5
 31
0.0
  0
LINE
  5
28C
  8
ZUWAKU
  6
CONTINUOUS
 62
     7
 10
-26.5
 20
-96.50000000000003
 30
0.0
 11
-26.5
 21
-138.5
 31
0.0
  0
LINE
  5
28D
  8
ZUWAKU
  6
CONTINUOUS
 62
     7
 10
-43.5
 20
-96.50000000000003
 30
0.0
 11
-43.5
 21
-138.5
 31
0.0
  0
LINE
  5
28E
  8
ZUWAKU
  6
CONTINUOUS
 62
     7
 10
-60.5
 20
-96.50000000000003
 30
0.0
 11
-60.5
 21
-138.5
 31
0.0
  0
LINE
  5
28F
  8
ZUWAKU
  6
CONTINUOUS
 62
     7
 10
-192.5
 20
-96.50000000000003
 30
0.0
 11
7.5
 21
-96.50000000000003
 31
0.0
  0
LINE
  5
290
  8
ZUWAKU
  6
CONTINUOUS
 62
     7
 10
-192.5
 20
-103.5
 30
0.0
 11
7.5
 21
-103.5
 31
0.0
  0
LINE
  5
291
  8
ZUWAKU
  6
CONTINUOUS
 62
     7
 10
-192.5
 20
-110.5
 30
0.0
 11
7.5
 21
-110.5
 31
0.0
  0
LINE
  5
292
  8
ZUWAKU
  6
CONTINUOUS
 62
     7
 10
-185.5
 20
-96.50000000000003
 30
0.0
 11
-185.5
 21
-138.5
 31
0.0
  0
LINE
  5
293
  8
ZUWAKU
  6
CONTINUOUS
 62
     7
 10
-192.5
 20
-131.5
 30
0.0
 11
7.5
 21
-131.5
 31
0.0
  0
LINE
  5
294
  8
ZUWAKU
  6
CONTINUOUS
 62
     7
 10
-192.5
 20
-124.5
 30
0.0
 11
7.5
 21
-124.5
 31
0.0
  0
LINE
  5
295
  8
ZUWAKU
  6
CONTINUOUS
 62
     7
 10
-192.0
 20
-117.5
 30
0.0
 11
7.5
 21
-117.5
 31
0.0
  0
LINE
  5
296
  8
ZUWAKU
  6
CONTINUOUS
 62
     7
 10
-155.5
 20
-96.50000000000003
 30
0.0
 11
-155.5
 21
-138.5
 31
0.0
  0
LINE
  5
297
  8
ZUWAKU
  6
CONTINUOUS
 62
     7
 10
7.5
 20
-96.50000000000003
 30
0.0
 11
7.5
 21
-138.5
 31
0.0
  0
LINE
  5
298
  8
ZUWAKU
  6
CONTINUOUS
 62
     7
 10
70.5
 20
-79.5
 30
0.0
 11
192.5
 21
-79.5
 31
0.0
  0
LINE
  5
299
  8
ZUWAKU
  6
CONTINUOUS
 62
     7
 10
70.5
 20
-79.5
 30
0.0
 11
70.5
 21
-138.5
 31
0.0
  0
LINE
  5
29A
  8
ZUWAKU
  6
CONTINUOUS
 62
     7
 10
70.5
 20
-101.5
 30
0.0
 11
192.5
 21
-101.5
 31
0.0
  0
LINE
  5
29B
  8
ZUWAKU
  6
CONTINUOUS
 62
     7
 10
70.5
 20
-90.5
 30
0.0
 11
192.5
 21
-90.5
 31
0.0
  0
LINE
  5
29C
  8
ZUWAKU
  6
CONTINUOUS
 62
     7
 10
70.5
 20
-112.5
 30
0.0
 11
192.5
 21
-112.5
 31
0.0
  0
LINE
  5
29D
  8
ZUWAKU
  6
CONTINUOUS
 62
     7
 10
70.5
 20
-123.5
 30
0.0
 11
192.5
 21
-123.5
 31
0.0
  0
LINE
  5
29E
  8
ZUWAKU
  6
CONTINUOUS
 62
     7
 10
158.5
 20
-79.5
 30
0.0
 11
158.5
 21
-123.5
 31
0.0
  0
LINE
  5
29F
  8
ZUWAKU
  6
CONTINUOUS
 62
     7
 10
114.5
 20
-112.5
 30
0.0
 11
114.5
 21
-123.5
 31
0.0
  0
LINE
  5
2A0
  8
ZUWAKU
  6
CONTINUOUS
 62
     7
 10
136.5
 20
-112.5
 30
0.0
 11
136.5
 21
-123.5
 31
0.0
  0
LINE
  5
2A1
  8
ZUWAKU
  6
CONTINUOUS
 62
     7
 10
92.5
 20
-112.5
 30
0.0
 11
92.5
 21
-123.5
 31
0.0
  0
LINE
  5
2A2
  8
ZUWAKU
  6
CENTER
 62
     7
 10
180.7113630049175
 20
-140.9999737700873
 30
0.0
 11
191.8113538549173
 21
-140.9999737700873
 31
0.0
  0
LINE
  5
2A3
  8
ZUWAKU
  6
CENTER
 62
     7
 10
183.0113431749173
 20
-138.6999859800873
 30
0.0
 11
183.0113431749173
 21
-143.2999768300873
 31
0.0
  0
TEXT
  5
2A4
  8
ZUWAKU
 62
     7
 10
-39.34299945831299
 20
-136.6000000238419
 30
0.0
 40
3.200000047683716
  1
確 認
 41
0.7364760850881585
  7
FDASTYLE0
 72
     5
 11
-30.65700054168701
 21
-136.6000000238419
 31
0.0
  0
TEXT
  5
2A5
  8
ZUWAKU
 62
     7
 10
-124.0859980583191
 20
-136.6000000238419
 30
0.0
 40
3.200000047683716
  1
変  更  履  歴
 41
0.742405348260007
  7
FDASTYLE0
 72
     5
 11
-93.00000214576721
 21
-136.6000000238419
 31
0.0
  0
TEXT
  5
2A6
  8
ZUWAKU
 62
     7
 10
-5.342999458312988
 20
-136.6000000238419
 30
0.0
 40
3.200000047683716
  1
承 認
 41
0.7364760850881585
  7
FDASTYLE0
 72
     5
 11
3.342999458312988
 21
-136.6000000238419
 31
0.0
  0
TEXT
  5
2A7
  8
ZUWAKU
 62
     7
 10
-181.2429986000061
 20
-136.6000000238419
 30
0.0
 40
3.200000047683716
  1
年  月  日
 41
0.7437174693459515
  7
FDASTYLE0
 72
     5
 11
-159.7570013999939
 21
-136.6000000238419
 31
0.0
  0
TEXT
  5
2A8
  8
ZUWAKU
 62
     7
 10
-22.34299945831299
 20
-136.6000000238419
 30
0.0
 40
3.200000047683716
  1
検　図
 41
0.6507341227548625
  7
FDASTYLE0
 72
     5
 11
-13.65700054168701
 21
-136.6000000238419
 31
0.0
  0
TEXT
  5
2A9
  8
ZUWAKU
 62
     7
 10
158.6520598751473
 20
-82.43445270859417
 30
0.0
 40
2.299999952316284
  1
設計図番
 41
0.8404558677421614
  7
FDASTYLE0
 72
     5
 11
170.4520600658822
 21
-82.43445270859417
 31
0.0
  0
TEXT
  5
2AA
  8
ZUWAKU
 62
     7
 10
158.7325933361632
 20
-93.22593648471417
 30
0.0
 40
2.299999952316284
  1
図面番号
 41
0.8404558677421614
  7
FDASTYLE0
 72
     5
 11
170.532593526898
 21
-93.22593648471417
 31
0.0
  0
TEXT
  5
2AB
  8
ZUWAKU
 62
     7
 10
158.6520598751473
 20
-104.1784871828658
 30
0.0
 40
2.299999952316284
  1
尺　　度
 41
0.8404558677421614
  7
FDASTYLE0
 72
     5
 11
170.4520600658822
 21
-104.1784871828658
 31
0.0
  0
TEXT
  5
2AC
  8
ZUWAKU
 62
     7
 10
158.813126797179
 20
-115.2921048030491
 30
0.0
 40
2.299999952316284
  1
設計年月日
 41
0.8426966561525857
  7
FDASTYLE0
 72
     5
 11
173.8131270355976
 21
-115.2921048030491
 31
0.0
  0
TEXT
  5
2AD
  8
ZUWAKU
 62
     7
 10
149.2318473015103
 20
-142.5
 30
0.0
 40
3.0
  1
Ａ３　　単位：ｍｍ
 41
0.8333333333333334
  7
FDASTYLE0
 72
     5
 11
176.2318473015103
 21
-142.5
 31
0.0
  0
TEXT
  5
2AE
  8
ZUWAKU
 62
     7
 10
136.8245420290309
 20
-115.3968693113115
 30
0.0
 40
2.299999952316284
  1
製図
 41
0.8282208880597839
  7
FDASTYLE0
 72
     5
 11
142.2245421243984
 21
-115.3968693113115
 31
0.0
  0
TEXT
  5
2AF
  8
ZUWAKU
 62
     7
 10
92.80004210336084
 20
-115.3122068114545
 30
0.0
 40
2.299999952316284
  1
検図
 41
0.8282208880597839
  7
FDASTYLE0
 72
     5
 11
98.20004219872827
 21
-115.3122068114545
 31
0.0
  0
TEXT
  5
2B0
  8
ZUWAKU
 62
     7
 10
71.66392216239117
 20
-115.3615687050939
 30
0.0
 40
2.299999952316284
  1
承認
 41
0.8282208880597839
  7
FDASTYLE0
 72
     5
 11
77.06392225775861
 21
-115.3615687050939
 31
0.0
  0
TEXT
  5
2B1
  8
ZUWAKU
 62
     7
 10
114.8000421033608
 20
-115.3122068114545
 30
0.0
 40
2.299999952316284
  1
確認
 41
0.8282208880597839
  7
FDASTYLE0
 72
     5
 11
120.2000421987283
 21
-115.3122068114545
 31
0.0
  0
TEXT
  5
2B2
  8
ZUWAKU
 62
     7
 10
-56.34299945831299
 20
-136.6000000238419
 30
0.0
 40
3.200000047683716
  1
変 更
 41
0.7364760850881585
  7
FDASTYLE0
 72
     5
 11
-47.65700054168701
 21
-136.6000000238419
 31
0.0
  0
LINE
  5
2B3
  8
ZUWAKU
  6
CONTINUOUS
 62
     7
 10
187.0113889449171
 20
-140.2499966600873
 30
0.0
 11
191.0113889449171
 21
-139.4999814000873
 31
0.0
  0
LINE
  5
2B4
  8
ZUWAKU
  6
CONTINUOUS
 62
     7
 10
191.0113660549173
 20
-142.5000042900873
 30
0.0
 11
187.0113660549172
 21
-141.7499890300873
 31
0.0
  0
CIRCLE
  5
2B5
  8
ZUWAKU
  6
CONTINUOUS
 62
     7
 10
183.0113431749173
 20
-140.9999737700873
 30
0.0
 40
1.5
  0
CIRCLE
  5
2B6
  8
ZUWAKU
  6
CONTINUOUS
 62
     7
 10
183.0113431749173
 20
-140.9999737700873
 30
0.0
 40
0.75
  0
LINE
  5
2B7
  8
ZUWAKU
  6
CONTINUOUS
 62
     7
 10
187.0113431749173
 20
-140.2499737700873
 30
0.0
 11
187.0113431749173
 21
-141.7499890300873
 31
0.0
  0
LINE
  5
2B8
  8
ZUWAKU
  6
CONTINUOUS
 62
     7
 10
191.0113431749173
 20
-139.4999737700873
 30
0.0
 11
191.0113431749173
 21
-142.4999890300873
 31
0.0
  0
INSERT
  5
2B9
  8
ZUWAKU
  6
CONTINUOUS
  2
DC_GROUP_1
 10
0.0
 20
0.0
 30
0.0
  0
INSERT
  5
2BA
  8
ZUWAKU
  6
CONTINUOUS
  2
DC_GROUP_2
 10
0.0
 20
0.0
 30
0.0
  0
INSERT
  5
2BB
  8
ZUWAKU
  6
CONTINUOUS
  2
DC_GROUP_3
 10
0.0
 20
0.0
 30
0.0
  0
INSERT
  5
2BC
  8
ZUWAKU
  6
CONTINUOUS
  2
DC_GROUP_4
 10
0.0
 20
0.0
 30
0.0
  0
INSERT
  5
2BD
  8
ZUWAKU
  6
CONTINUOUS
  2
DC_GROUP_5
 10
0.0
 20
0.0
 30
0.0
  0
INSERT
  5
2BE
  8
ZUWAKU
  6
CONTINUOUS
  2
DC_GROUP_18
 10
0.0
 20
0.0
 30
0.0
  0
INSERT
  5
2BF
  8
0
  6
CONTINUOUS
  2
DC_GROUP_6
 10
0.0
 20
0.0
 30
0.0
  0
INSERT
  5
2C0
  8
0
  6
CONTINUOUS
  2
DC_GROUP_19
 10
0.0
 20
0.0
 30
0.0
  0
INSERT
  5
2C1
  8
0
  6
CONTINUOUS
  2
DC_GROUP_20
 10
0.0
 20
0.0
 30
0.0
  0
INSERT
  5
2C2
  8
0
  6
CONTINUOUS
  2
DC_GROUP_21
 10
0.0
 20
0.0
 30
0.0
  0
INSERT
  5
2C3
  8
0
  6
CONTINUOUS
  2
DC_GROUP_22
 10
0.0
 20
0.0
 30
0.0
  0
INSERT
  5
2C4
  8
0
  6
CONTINUOUS
  2
DC_GROUP_23
 10
0.0
 20
0.0
 30
0.0
  0
INSERT
  5
2C5
  8
0
  6
CONTINUOUS
  2
DC_GROUP_24
 10
0.0
 20
0.0
 30
0.0
  0
TEXT
  5
2C6
  8
LAYER0015
 62
     7
 10
159.5006765899865
 20
-99.57239512855193
 30
0.0
 40
5.0
  1
55452
  7
FDASTYLE0
 72
     5
 11
184.5006765899865
 21
-99.57239512855193
 31
0.0
  0
TEXT
  5
2C7
  8
LAYER0015
 62
     7
 10
71.01148249217911
 20
-87.11387747558086
 30
0.0
 40
3.0
  1
ＹＢ800　2”手締めナットリブ付き（2”三角PK付き）
 41
0.8695652173913044
  7
FDASTYLE0
 72
     5
 11
155.0114824921791
 21
-87.11387747558086
 31
0.0
  0
TEXT
  5
2C8
  8
LAYER0015
 62
     7
 10
139.9853351955303
 20
-122.3443513345745
 30
0.0
 40
5.0
  1
宇野
 41
0.8333333333333334
  7
FDASTYLE0
 72
     5
 11
149.9853351955303
 21
-122.3443513345745
 31
0.0
  0
TEXT
  5
2C9
  8
LAYER0015
 62
     7
 10
160.645474507651
 20
-120.9080450954827
 30
0.0
 40
3.0
  1
2012.11.19
  7
FDASTYLE0
 72
     5
 11
190.645474507651
 21
-120.9080450954827
 31
0.0
  0
TEXT
  5
2CA
  8
LAYER0015
 62
     7
 10
166.5941648737996
 20
-110.7969250144304
 30
0.0
 40
5.0
  1
1：1
 41
0.9375
  7
FDASTYLE0
 72
     5
 11
181.5941648737996
 21
-110.7969250144304
 31
0.0
  0
TEXT
  5
2CB
  8
LAYER0015
 62
     7
 10
117.9853351955303
 20
-122.3443513345745
 30
0.0
 40
5.0
  1
笹川
 41
0.8333333333333334
  7
FDASTYLE0
 72
     5
 11
127.9853351955303
 21
-122.3443513345745
 31
0.0
  0
TEXT
  5
2CC
  8
LAYER0015
 62
     7
 10
78.09828496042216
 20
-120.1042216358839
 30
0.0
 40
5.0
  1
木村
 41
0.8333333333333334
  7
FDASTYLE0
 72
     5
 11
88.09828496042216
 21
-120.1042216358839
 31
0.0
  0
TEXT
  5
2CD
  8
LAYER0015
 62
     7
 10
71.75233466596222
 20
-122.7299448316305
 30
0.0
 40
2.0
  1
2012.11.19
  7
FDASTYLE0
 72
     5
 11
91.75233466596222
 21
-122.7299448316305
 31
0.0
  0
TEXT
  5
2CE
  8
0
 62
     7
 10
154.4569999277592
 20
-56.5
 30
0.0
 40
3.0
  1
ABS
  7
FDASTYLE0
 72
     5
 11
163.4569999277592
 21
-56.5
 31
0.0
  0
TEXT
  5
2CF
  8
0
 62
     7
 10
112.9569999277592
 20
-56.0
 30
0.0
 40
2.0
  1
３０φ　２”インナー（リブ付）
 41
0.8333333333333334
  7
FDASTYLE0
 72
     5
 11
142.9569999277592
 21
-56.0
 31
0.0
  0
TEXT
  5
2D0
  8
0
 62
     7
 10
155.9569999277592
 20
-70.5
 30
0.0
 40
3.0
  1
ＰＰ
 41
0.8333333333333334
  7
FDASTYLE0
 72
     5
 11
161.9569999277592
 21
-70.5
 31
0.0
  0
TEXT
  5
2D1
  8
0
 62
     7
 10
115.9569999873638
 20
-63.5
 30
0.0
 40
3.0
  1
2"ｻﾝｶｸPK
  7
FDASTYLE0
 72
     5
 11
139.9569999873638
 21
-63.5
 31
0.0
  0
TEXT
  5
2D2
  8
0
 62
     7
 10
155.9569999873638
 20
-63.5
 30
0.0
 40
3.0
  1
ＣＲ
 41
0.8333333333333334
  7
FDASTYLE0
 72
     5
 11
161.9569999873638
 21
-63.5
 31
0.0
  0
TEXT
  5
2D3
  8
0
 62
     7
 10
115.8998716473579
 20
-70.5
 30
0.0
 40
3.0
  1
２”手締めﾅｯﾄ
 41
0.8888888888888888
  7
FDASTYLE0
 72
     5
 11
139.8998716473579
 21
-70.5
 31
0.0
  0
TEXT
  5
2D4
  8
0
 62
     7
 10
102.4710000753403
 20
-64.40000009536743
 30
0.0
 40
4.800000190734863
  1
2
 41
0.714374901279811
  7
FDASTYLE0
 72
     5
 11
105.8999997377396
 21
-64.40000009536743
 31
0.0
  0
TEXT
  5
2D5
  8
0
 62
     7
 10
102.4710000753403
 20
-57.40000009536743
 30
0.0
 40
4.800000190734863
  1
３
 41
0.5953124177331759
  7
FDASTYLE0
 72
     5
 11
105.8999997377396
 21
-57.40000009536743
 31
0.0
  0
TEXT
  5
2D6
  8
0
 62
     7
 10
102.4710000753403
 20
-71.40000009536743
 30
0.0
 40
4.800000190734863
  1
1
 41
0.714374901279811
  7
FDASTYLE0
 72
     5
 11
105.8999997377396
 21
-71.40000009536743
 31
0.0
  0
TEXT
  5
2D7
  8
0
 62
     7
 10
175.7069999277592
 20
-56.5
 30
0.0
 40
3.0
  1
55446
  7
FDASTYLE0
 72
     5
 11
190.7069999277592
 21
-56.5
 31
0.0
  0
TEXT
  5
2D8
  8
0
 62
     7
 10
175.7069999277592
 20
-70.5
 30
0.0
 40
3.0
  1
55380
  7
FDASTYLE0
 72
     5
 11
190.7069999277592
 21
-70.5
 31
0.0
  0
TEXT
  5
2D9
  8
0
 62
     7
 10
175.7069999873638
 20
-63.5
 30
0.0
 40
3.0
  1
55167
  7
FDASTYLE0
 72
     5
 11
190.7069999873638
 21
-63.5
 31
0.0
  0
TEXT
  5
2DA
  8
0
 62
     7
 10
179.3210003376007
 20
-78.40000009536743
 30
0.0
 40
4.800000190734863
  1
備考
 41
0.6383522585513036
  7
FDASTYLE0
 72
     5
 11
187.5499994754791
 21
-78.40000009536743
 31
0.0
  0
TEXT
  5
2DB
  8
0
 62
     7
 10
155.0710003376007
 20
-78.40000009536743
 30
0.0
 40
4.800000190734863
  1
材質
 41
0.6383522585513036
  7
FDASTYLE0
 72
     5
 11
163.2999994754791
 21
-78.40000009536743
 31
0.0
  0
TEXT
  5
2DC
  8
0
 62
     7
 10
124.0710003376007
 20
-78.40000009536743
 30
0.0
 40
4.800000190734863
  1
品名
 41
0.6383522585513036
  7
FDASTYLE0
 72
     5
 11
132.2999994754791
 21
-78.40000009536743
 31
0.0
  0
TEXT
  5
2DD
  8
0
 62
     7
 10
100.0710003376007
 20
-78.40000009536743
 30
0.0
 40
4.800000190734863
  1
図番
 41
0.6383522585513036
  7
FDASTYLE0
 72
     5
 11
108.2999994754791
 21
-78.40000009536743
 31
0.0
  0
TEXT
  5
2DE
  8
0
 62
     7
 10
-111.583135999454
 20
66.78860811594326
 30
0.0
 40
3.200000047683716
  1
2"ネジ（Ｐ＝２．３０９）
 41
0.693188393372171
  7
FDASTYLE0
 72
     5
 11
-70.89713612915369
 21
66.78860811594326
 31
0.0
  0
TEXT
  5
2DF
  8
0
 62
     7
 10
115.441627789977
 20
-49.28903019371782
 30
0.0
 40
3.0
  1
３０φＹＢホース
 41
0.8333333333333334
  7
FDASTYLE0
 72
     5
 11
139.441627789977
 21
-49.28903019371782
 31
0.0
  0
TEXT
  5
2E0
  8
0
 62
     7
 10
146.9373001935702
 20
-49.5518179588959
 30
0.0
 40
3.0
  1
軟質ＰＶＣ、鉄線
 41
0.8333333333333334
  7
FDASTYLE0
 72
     5
 11
170.9373001935702
 21
-49.5518179588959
 31
0.0
  0
TEXT
  5
2E1
  8
0
 62
     7
 10
175.6663337566377
 20
-49.63915810810397
 30
0.0
 40
3.0
  1
５５４２１
 41
0.8333333333333334
  7
FDASTYLE0
 72
     5
 11
190.6663337566377
 21
-49.63915810810397
 31
0.0
  0
TEXT
  5
2E2
  8
0
 62
     7
 10
102.4710000753403
 20
-50.40000009536743
 30
0.0
 40
4.800000190734863
  1
4
 41
0.714374901279811
  7
FDASTYLE0
 72
     5
 11
105.8999997377396
 21
-50.40000009536743
 31
0.0
  0
LINE
  5
2E3
  8
0
  6
CONTINUOUS
 62
     7
 10
111.0
 20
-44.5
 30
0.0
 11
111.0
 21
-79.5
 31
0.0
  0
LINE
  5
2E4
  8
0
  6
CONTINUOUS
 62
     7
 10
173.0
 20
-44.5
 30
0.0
 11
173.0
 21
-79.5
 31
0.0
  0
LINE
  5
2E5
  8
0
  6
CONTINUOUS
 62
     7
 10
144.0
 20
-44.5
 30
0.0
 11
144.0
 21
-79.5
 31
0.0
  0
LINE
  5
2E6
  8
0
  6
CONTINUOUS
 62
     7
 10
96.0
 20
-51.5
 30
0.0
 11
192.5
 21
-51.5
 31
0.0
  0
LINE
  5
2E7
  8
0
  6
CONTINUOUS
 62
     7
 10
96.0
 20
-44.5
 30
0.0
 11
96.0
 21
-79.5
 31
0.0
  0
LINE
  5
2E8
  8
0
  6
CONTINUOUS
 62
     7
 10
96.0
 20
-72.5
 30
0.0
 11
192.5
 21
-72.5
 31
0.0
  0
LINE
  5
2E9
  8
0
  6
CONTINUOUS
 62
     7
 10
96.0
 20
-58.5
 30
0.0
 11
192.5
 21
-58.5
 31
0.0
  0
LINE
  5
2EA
  8
0
  6
CONTINUOUS
 62
     7
 10
96.0
 20
-65.5
 30
0.0
 11
192.5
 21
-65.5
 31
0.0
  0
LINE
  5
2EB
  8
0
  6
CONTINUOUS
 62
     7
 10
-70.30545970304979
 20
65.98860810402243
 30
0.0
 11
-112.2077035153856
 21
65.98860810402243
 31
0.0
  0
LINE
  5
2EC
  8
0
  6
CONTINUOUS
 62
     7
 10
96.0
 20
-44.5
 30
0.0
 11
192.5
 21
-44.5
 31
0.0
  0
LINE
  5
2ED
  8
0
  6
CONTINUOUS
 62
     7
 10
92.5
 20
-123.5
 30
0.0
 11
114.5
 21
-112.5
 31
0.0
  0
LINE
  5
2EE
  8
0
  6
CONTINUOUS
 62
     7
 10
-51.24152316157421
 20
46.15557441383001
 30
0.0
 11
-70.30545970304979
 21
65.98860810402243
 31
0.0
  0
INSERT
  5
2EF
  8
0
 62
     7
  2
_OPEN30
 10
-51.24152316157421
 20
46.15557441383001
 30
0.0
 41
3.000002787824364
 42
2.999989273978464
 50
313.867256779205
  0
LINE
  5
2F0
  8
0
  6
CENTER
 62
     7
 10
-142.2544533196687
 20
17.00795875072098
 30
0.0
 11
-102.5155454698393
 21
17.00795875072098
 31
0.0
  0
LINE
  5
2F1
  8
0
  6
CENTER
 62
     7
 10
-102.5155454698393
 20
56.49942632751279
 30
0.0
 11
-102.5155454698393
 21
-22.48350882607083
 31
0.0
  0
LINE
  5
2F2
  8
0
  6
CENTER
 62
     7
 10
20.06841063559955
 20
-4.654056890594912
 30
0.0
 11
8.44978868620359
 21
38.70723053848558
 31
0.0
  0
LINE
  5
2F3
  8
0
  6
CENTER
 62
     7
 10
23.19063153357382
 20
-4.715233998819354
 30
0.0
 11
11.56698991745498
 21
38.66478708150804
 31
0.0
  0
LINE
  5
2F4
  8
0
  6
CENTER
 62
     7
 10
-61.02336993540865
 20
17.00795875072098
 30
0.0
 11
130.1306937641348
 21
17.00795875072098
 31
0.0
  0
LINE
  5
2F5
  8
0
  6
PHANTOM
 62
     7
 10
-32.51687373115789
 20
39.23159481692096
 30
0.0
 11
-32.51554570825789
 21
39.23159481692096
 31
0.0
  0
LINE
  5
2F6
  8
0
  6
CONTINUOUS
 62
   151
 10
-57.51554570825795
 20
50.30795875072097
 30
0.0
 11
-57.51554570825795
 21
-16.29204124927901
 31
0.0
  0
LINE
  5
2F7
  8
0
  6
CONTINUOUS
 62
   151
 10
-40.51554570825795
 20
45.40795875072095
 30
0.0
 11
-42.21554570825794
 21
47.10795875072097
 31
0.0
  0
LINE
  5
2F8
  8
0
  6
CONTINUOUS
 62
   151
 10
-54.81554570825801
 20
45.40795875072095
 30
0.0
 11
-56.515545708258
 21
47.10795875072094
 31
0.0
  0
LINE
  5
2F9
  8
0
  6
CONTINUOUS
 62
   151
 10
-42.21554570825794
 20
47.10795875072097
 30
0.0
 11
-42.21554570825794
 21
44.75795821427917
 31
0.0
  0
LINE
  5
2FA
  8
0
  6
CONTINUOUS
 62
   151
 10
-40.51554570825795
 20
45.40795875072098
 30
0.0
 11
-54.81554570825796
 21
45.40795875072098
 31
0.0
  0
LINE
  5
2FB
  8
0
  6
CONTINUOUS
 62
   151
 10
-37.51554570825789
 20
41.20795875072096
 30
0.0
 11
-40.51554570825795
 21
41.20795875072096
 31
0.0
  0
LINE
  5
2FC
  8
0
  6
CONTINUOUS
 62
   151
 10
-37.51554570825789
 20
-13.29204124927901
 30
0.0
 11
-37.51554570825789
 21
17.00795875072098
 31
0.0
  0
LINE
  5
2FD
  8
0
  6
CONTINUOUS
 62
   151
 10
-41.51554570825795
 20
51.30795875072097
 30
0.0
 11
-56.51554570825795
 21
51.30795875072097
 31
0.0
  0
LINE
  5
2FE
  8
0
  6
CONTINUOUS
 62
   151
 10
-41.01554570825795
 20
-14.58791751941828
 30
0.0
 11
-56.71554570825794
 21
-14.58791751941828
 31
0.0
  0
LINE
  5
2FF
  8
0
  6
CONTINUOUS
 62
   151
 10
-41.01554570825795
 20
-13.95071650247922
 30
0.0
 11
-56.71554570825794
 21
-13.95071650247922
 31
0.0
  0
LINE
  5
300
  8
0
  6
CONTINUOUS
 62
   151
 10
-41.51554570825795
 20
-13.04813121812936
 30
0.0
 11
-56.51554570825795
 21
-13.04813121812936
 31
0.0
  0
LINE
  5
301
  8
0
  6
CONTINUOUS
 62
   151
 10
-41.01554570825795
 20
-11.14131901486954
 30
0.0
 11
-56.71554570825794
 21
-11.14131901486954
 31
0.0
  0
LINE
  5
302
  8
0
  6
CONTINUOUS
 62
   151
 10
-41.01554570825795
 20
-10.20406082126837
 30
0.0
 11
-56.71554570825794
 21
-10.20406082126837
 31
0.0
  0
LINE
  5
303
  8
0
  6
CONTINUOUS
 62
   151
 10
-39.51554570825795
 20
12.56767443226835
 30
0.0
 11
-56.71554570825794
 21
12.56767443226835
 31
0.0
  0
LINE
  5
304
  8
0
  6
CONTINUOUS
 62
   151
 10
-41.51554570825795
 20
-9.410707480977152
 30
0.0
 11
-56.51554570825795
 21
-9.410707480977152
 31
0.0
  0
LINE
  5
305
  8
0
  6
CONTINUOUS
 62
   151
 10
-40.51554570825795
 20
7.550247772080354
 30
0.0
 11
-56.51554570825795
 21
7.550247772080354
 31
0.0
  0
LINE
  5
306
  8
0
  6
CONTINUOUS
 62
   151
 10
-40.51554570825795
 20
-6.477573436303089
 30
0.0
 11
-56.71554570825794
 21
-6.477573436303089
 31
0.0
  0
LINE
  5
307
  8
0
  6
CONTINUOUS
 62
   151
 10
-40.51554570825795
 20
-5.268109307004295
 30
0.0
 11
-56.71554570825794
 21
-5.268109307004295
 31
0.0
  0
LINE
  5
308
  8
0
  6
CONTINUOUS
 62
   151
 10
-41.01554570825795
 20
-4.618661258674138
 30
0.0
 11
-56.51554570825795
 21
-4.618661258674138
 31
0.0
  0
LINE
  5
309
  8
0
  6
CONTINUOUS
 62
   151
 10
-40.01554570825795
 20
-0.8005088446365676
 30
0.0
 11
-56.71554570825794
 21
-0.8005088446365676
 31
0.0
  0
LINE
  5
30A
  8
0
  6
CONTINUOUS
 62
   151
 10
-40.01554570825795
 20
0.6414132738163971
 30
0.0
 11
-56.71554570825794
 21
0.6414132738163971
 31
0.0
  0
LINE
  5
30B
  8
0
  6
CONTINUOUS
 62
   151
 10
-40.51554570825795
 20
1.11857203407601
 30
0.0
 11
-56.51554570825795
 21
1.11857203407601
 31
0.0
  0
LINE
  5
30C
  8
0
  6
CONTINUOUS
 62
   151
 10
-40.01554570825795
 20
5.641759795895908
 30
0.0
 11
-56.71554570825794
 21
5.641759795895908
 31
0.0
  0
LINE
  5
30D
  8
0
  6
CONTINUOUS
 62
   151
 10
-40.01554570825795
 20
7.266232427376437
 30
0.0
 11
-56.71554570825794
 21
7.266232427376437
 31
0.0
  0
LINE
  5
30E
  8
0
  6
CONTINUOUS
 62
   151
 10
-40.01554570825795
 20
14.39527086298373
 30
0.0
 11
-56.51554570825795
 21
14.39527086298373
 31
0.0
  0
LINE
  5
30F
  8
0
  6
CONTINUOUS
 62
   151
 10
-39.51554570825795
 20
14.31681176725589
 30
0.0
 11
-56.71554570825794
 21
14.31681176725589
 31
0.0
  0
LINE
  5
310
  8
0
  6
CONTINUOUS
 62
   151
 10
-41.51554570825795
 20
-17.29204124927901
 30
0.0
 11
-56.51554570825795
 21
-17.29204124927901
 31
0.0
  0
LINE
  5
311
  8
0
  6
CONTINUOUS
 62
   151
 10
-41.01554570825795
 20
-16.66673605668606
 30
0.0
 11
-56.51554570825795
 21
-16.66673605668606
 31
0.0
  0
LINE
  5
312
  8
0
  6
CONTINUOUS
 62
   151
 10
-41.51554570825795
 20
-15.37195959852164
 30
0.0
 11
-56.51554570825795
 21
-15.37195959852164
 31
0.0
  0
LINE
  5
313
  8
0
  6
CONTINUOUS
 62
   151
 10
-41.01554570825795
 20
-16.34432951891932
 30
0.0
 11
-56.51554570825795
 21
-16.34432951891932
 31
0.0
  0
LINE
  5
314
  8
0
  6
CONTINUOUS
 62
   151
 10
-110.3589970391252
 20
-15.66236826754235
 30
0.0
 11
-110.4523788631207
 21
-16.0513315575614
 31
0.0
  0
LINE
  5
315
  8
0
  6
CONTINUOUS
 62
   151
 10
-108.6384150259585
 20
-16.0280890954363
 30
0.0
 11
-108.7113121377997
 21
-16.42140671433376
 31
0.0
  0
LINE
  5
316
  8
0
  6
CONTINUOUS
 62
   151
 10
-134.730604286722
 20
26.55049391327874
 30
0.0
 11
-135.1141474045373
 21
26.66410456067545
 31
0.0
  0
LINE
  5
317
  8
0
  6
CONTINUOUS
 62
   151
 10
-131.1631130405859
 20
34.56321073636642
 30
0.0
 11
-131.5041825415778
 21
34.77221839538476
 31
0.0
  0
LINE
  5
318
  8
0
  6
CONTINUOUS
 62
   151
 10
-132.0426234446187
 20
33.03985403079622
 30
0.0
 11
-132.39416413741
 21
33.23072505360211
 31
0.0
  0
LINE
  5
319
  8
0
  6
CONTINUOUS
 62
   151
 10
-128.0641672329386
 20
38.82854313879541
 30
0.0
 11
-128.3683418609908
 21
39.08833281362283
 31
0.0
  0
LINE
  5
31A
  8
0
  6
CONTINUOUS
 62
   151
 10
-126.8871525209227
 20
40.13575027609797
 30
0.0
 11
-127.1773140112554
 21
40.41110324904891
 31
0.0
  0
LINE
  5
31B
  8
0
  6
CONTINUOUS
 62
   151
 10
-121.5460364356133
 20
44.69749492599121
 30
0.0
 11
-121.7726078553786
 21
45.02715838738887
 31
0.0
  0
LINE
  5
31C
  8
0
  6
CONTINUOUS
 62
   151
 10
-116.9801417337447
 20
47.33361546120653
 30
0.0
 11
-117.1523529561319
 21
47.69466379719358
 31
0.0
  0
LINE
  5
31D
  8
0
  6
CONTINUOUS
 62
   151
 10
-115.373196105805
 20
48.04907329632523
 30
0.0
 11
-115.5262756676153
 21
48.41864005056988
 31
0.0
  0
LINE
  5
31E
  8
0
  6
CONTINUOUS
 62
   151
 10
-115.3731961840306
 20
-14.03315598373596
 30
0.0
 11
-115.5262756676156
 21
-14.40272254912784
 31
0.0
  0
LINE
  5
31F
  8
0
  6
CONTINUOUS
 62
   151
 10
-122.9691141627973
 20
43.66356843653476
 30
0.0
 11
-123.2126283267969
 21
43.98092227370519
 31
0.0
  0
LINE
  5
320
  8
0
  6
CONTINUOUS
 62
   151
 10
-108.6384150560752
 20
50.04400675937282
 30
0.0
 11
-108.7113121377998
 21
50.43732421577565
 31
0.0
  0
LINE
  5
321
  8
0
  6
CONTINUOUS
 62
   151
 10
-110.3589969550749
 20
49.67828541888729
 30
0.0
 11
-110.4523788631212
 21
50.06724905900323
 31
0.0
  0
LINE
  5
322
  8
0
  6
CONTINUOUS
 62
   151
 10
-103.8346226981856
 20
50.58071608856346
 30
0.0
 11
-103.8423820429255
 21
50.77820459981605
 31
0.0
  0
LINE
  5
323
  8
0
  6
CONTINUOUS
 62
   151
 10
-116.9801417337446
 20
-13.31769795976456
 30
0.0
 11
-117.1523529561319
 21
-13.67874629575165
 31
0.0
  0
LINE
  5
324
  8
0
  6
CONTINUOUS
 62
   151
 10
-122.9691141627973
 20
-9.647650935092745
 30
0.0
 11
-123.2126283267969
 21
-9.965004772263139
 31
0.0
  0
LINE
  5
325
  8
0
  6
CONTINUOUS
 62
   151
 10
-121.5460364120223
 20
-10.68157739022447
 30
0.0
 11
-121.7726078553784
 21
-11.01124088594693
 31
0.0
  0
LINE
  5
326
  8
0
  6
CONTINUOUS
 62
   151
 10
-126.8871528329573
 20
-6.119833070765434
 30
0.0
 11
-127.1773140112557
 21
-6.395185747606814
 31
0.0
  0
LINE
  5
327
  8
0
  6
CONTINUOUS
 62
   151
 10
-128.0641674928561
 20
-4.812625859344383
 30
0.0
 11
-128.3683418609905
 21
-5.072415312181075
 31
0.0
  0
LINE
  5
328
  8
0
  6
CONTINUOUS
 62
   151
 10
-132.042623408016
 20
0.9760634905195609
 30
0.0
 11
-132.3941641374101
 21
0.7851924478399575
 31
0.0
  0
LINE
  5
329
  8
0
  6
CONTINUOUS
 62
   151
 10
-131.1631130405859
 20
-0.5472932349244353
 30
0.0
 11
-131.5041825415779
 21
-0.7563008939427967
 31
0.0
  0
LINE
  5
32A
  8
0
  6
CONTINUOUS
 62
   151
 10
-134.187037079092
 20
5.792495352134427
 30
0.0
 11
-134.5641085289511
 21
5.658967348568257
 31
0.0
  0
LINE
  5
32B
  8
0
  6
CONTINUOUS
 62
   151
 10
-134.7306044022435
 20
7.465423553944117
 30
0.0
 11
-135.1141474045374
 21
7.351812940766411
 31
0.0
  0
LINE
  5
32C
  8
0
  6
CONTINUOUS
 62
   151
 10
-136.0106325629129
 20
14.37183822625685
 30
0.0
 11
-136.409415341671
 21
14.34045334091632
 31
0.0
  0
LINE
  5
32D
  8
0
  6
CONTINUOUS
 62
   151
 10
-135.8267647937475
 20
12.62245352904688
 30
0.0
 11
-136.2233585245733
 21
12.57024097385616
 31
0.0
  0
LINE
  5
32E
  8
0
  6
CONTINUOUS
 62
   151
 10
-136.0106324999036
 20
19.64407927022611
 30
0.0
 11
-136.4094153416709
 21
19.67546416052558
 31
0.0
  0
LINE
  5
32F
  8
0
  6
CONTINUOUS
 62
   151
 10
-103.3950558738721
 20
-16.57918851499955
 30
0.0
 11
-103.4055270656716
 21
-16.97906719682374
 31
0.0
  0
LINE
  5
330
  8
0
  6
CONTINUOUS
 62
   151
 10
-135.8267649575956
 20
21.39346399396601
 30
0.0
 11
-136.2233585245733
 21
21.44567652758572
 31
0.0
  0
LINE
  5
331
  8
0
  6
CONTINUOUS
 62
   151
 10
-134.187037079092
 20
28.22342214930749
 30
0.0
 11
-134.564108528951
 21
28.35695015287363
 31
0.0
  0
ARC
  5
332
  8
0
  6
CONTINUOUS
 62
   151
 10
-56.71554570825794
 20
-5.677573436303106
 30
0.0
 40
0.8
 50
180.0000000000001
 51
270.0000000000001
  0
ARC
  5
333
  8
0
  6
CONTINUOUS
 62
   151
 10
-41.51554570825795
 20
47.30795875072097
 30
0.0
 40
4.0
 50
0.0000000000000509
 51
90.00000000000003
  0
ARC
  5
334
  8
0
  6
CONTINUOUS
 62
   151
 10
-41.51554570825795
 20
-13.29204124927901
 30
0.0
 40
4.0
 50
270.0000000000001
 51
360.0000000000001
  0
ARC
  5
335
  8
0
  6
CONTINUOUS
 62
   151
 10
-39.51554570825795
 20
14.56767443226835
 30
0.0
 40
2.0
 50
270.0000000000001
 51
360.0000000000001
  0
ARC
  5
336
  8
0
  6
CONTINUOUS
 62
   151
 10
-40.01554570825795
 20
9.766232427376437
 30
0.0
 40
2.5
 50
270.0000000000001
 51
360.0000000000001
  0
ARC
  5
337
  8
0
  6
CONTINUOUS
 62
   151
 10
-56.71554570825794
 20
-9.404060821268388
 30
0.0
 40
0.8
 50
180.0000000000001
 51
270.0000000000001
  0
ARC
  5
338
  8
0
  6
CONTINUOUS
 62
   151
 10
-56.71554570825794
 20
-4.468109307004312
 30
0.0
 40
0.8
 50
180.0000000000001
 51
270.0000000000001
  0
ARC
  5
339
  8
0
  6
CONTINUOUS
 62
   151
 10
-56.71554570825794
 20
-0.0005088446365846
 30
0.0
 40
0.8
 50
180.0000000000001
 51
270.0000000000001
  0
ARC
  5
33A
  8
0
  6
CONTINUOUS
 62
   151
 10
-56.51554570825795
 20
2.11857203407601
 30
0.0
 40
1.0
 50
180.0000000000001
 51
270.0000000000001
  0
ARC
  5
33B
  8
0
  6
CONTINUOUS
 62
   151
 10
-56.51554570825795
 20
8.550247772080354
 30
0.0
 40
1.0
 50
180.0000000000001
 51
270.0000000000001
  0
ARC
  5
33C
  8
0
  6
CONTINUOUS
 62
   151
 10
-56.71554570825794
 20
13.36767443226836
 30
0.0
 40
0.8
 50
180.0000000000001
 51
270.0000000000001
  0
ARC
  5
33D
  8
0
  6
CONTINUOUS
 62
   151
 10
-56.51554570825795
 20
15.39527086298373
 30
0.0
 40
1.0
 50
180.0000000000001
 51
270.0000000000001
  0
ARC
  5
33E
  8
0
  6
CONTINUOUS
 62
   151
 10
-56.71554570825794
 20
6.441759795895905
 30
0.0
 40
0.8
 50
180.0000000000001
 51
270.0000000000001
  0
ARC
  5
33F
  8
0
  6
CONTINUOUS
 62
   151
 10
-56.71554570825794
 20
1.441413273816409
 30
0.0
 40
0.8
 50
180.0000000000001
 51
270.0000000000001
  0
ARC
  5
340
  8
0
  6
CONTINUOUS
 62
   151
 10
-56.71554570825794
 20
15.11681176725589
 30
0.0
 40
0.8
 50
180.0000000000001
 51
270.0000000000001
  0
ARC
  5
341
  8
0
  6
CONTINUOUS
 62
   151
 10
-56.71554570825794
 20
8.066232427376434
 30
0.0
 40
0.8
 50
180.0000000000001
 51
270.0000000000001
  0
ARC
  5
342
  8
0
  6
CONTINUOUS
 62
   151
 10
-40.51554570825795
 20
10.55024777208035
 30
0.0
 40
3.0
 50
270.0000000000001
 51
360.0000000000001
  0
ARC
  5
343
  8
0
  6
CONTINUOUS
 62
   151
 10
-40.01554570825795
 20
8.141759795895908
 30
0.0
 40
2.5
 50
270.0000000000001
 51
360.0000000000001
  0
ARC
  5
344
  8
0
  6
CONTINUOUS
 62
   151
 10
-40.51554570825795
 20
4.11857203407601
 30
0.0
 40
3.0
 50
270.0000000000001
 51
360.0000000000001
  0
ARC
  5
345
  8
0
  6
CONTINUOUS
 62
   151
 10
-40.01554570825795
 20
3.141413273816397
 30
0.0
 40
2.5
 50
270.0000000000001
 51
360.0000000000001
  0
ARC
  5
346
  8
0
  6
CONTINUOUS
 62
   151
 10
-41.01554570825795
 20
-1.118661258674138
 30
0.0
 40
3.5
 50
270.0000000000001
 51
360.0000000000001
  0
ARC
  5
347
  8
0
  6
CONTINUOUS
 62
   151
 10
-40.01554570825795
 20
1.699491155363432
 30
0.0
 40
2.5
 50
270.0000000000001
 51
360.0000000000001
  0
ARC
  5
348
  8
0
  6
CONTINUOUS
 62
   151
 10
-41.01554570825795
 20
-12.84432951891932
 30
0.0
 40
3.5
 50
270.0000000000001
 51
360.0000000000001
  0
ARC
  5
349
  8
0
  6
CONTINUOUS
 62
   151
 10
-41.51554570825795
 20
-9.048131218129356
 30
0.0
 40
4.0
 50
270.0000000000001
 51
360.0000000000001
  0
ARC
  5
34A
  8
0
  6
CONTINUOUS
 62
   151
 10
-56.51554570825795
 20
-16.29204124927901
 30
0.0
 40
1.0
 50
180.0000000000001
 51
270.0000000000001
  0
ARC
  5
34B
  8
0
  6
CONTINUOUS
 62
   151
 10
-41.51554570825795
 20
-5.410707480977152
 30
0.0
 40
4.0
 50
270.0000000000001
 51
360.0000000000001
  0
ARC
  5
34C
  8
0
  6
CONTINUOUS
 62
   151
 10
-41.51554570825795
 20
-11.37195959852164
 30
0.0
 40
4.0
 50
270.0000000000001
 51
360.0000000000001
  0
ARC
  5
34D
  8
0
  6
CONTINUOUS
 62
   151
 10
-41.01554570825795
 20
-13.16673605668606
 30
0.0
 40
3.5
 50
270.0000000000001
 51
360.0000000000001
  0
ARC
  5
34E
  8
0
  6
CONTINUOUS
 62
   151
 10
-41.01554570825795
 20
-7.641319014869538
 30
0.0
 40
3.5
 50
270.0000000000001
 51
360.0000000000001
  0
ARC
  5
34F
  8
0
  6
CONTINUOUS
 62
   151
 10
-41.01554570825795
 20
-10.45071650247922
 30
0.0
 40
3.5
 50
270.0000000000001
 51
360.0000000000001
  0
ARC
  5
350
  8
0
  6
CONTINUOUS
 62
   151
 10
-41.01554570825795
 20
-6.704060821268371
 30
0.0
 40
3.5
 50
270.0000000000001
 51
360.0000000000001
  0
ARC
  5
351
  8
0
  6
CONTINUOUS
 62
   151
 10
-40.51554570825795
 20
-3.477573436303089
 30
0.0
 40
3.0
 50
270.0000000000001
 51
360.0000000000001
  0
ARC
  5
352
  8
0
  6
CONTINUOUS
 62
   151
 10
-40.51554570825795
 20
-2.268109307004295
 30
0.0
 40
3.0
 50
270.0000000000001
 51
360.0000000000001
  0
ARC
  5
353
  8
0
  6
CONTINUOUS
 62
   151
 10
-56.51554570825795
 20
-3.618661258674138
 30
0.0
 40
1.0
 50
180.0000000000001
 51
270.0000000000001
  0
ARC
  5
354
  8
0
  6
CONTINUOUS
 62
   151
 10
-41.01554570825795
 20
-11.08791751941828
 30
0.0
 40
3.5
 50
270.0000000000001
 51
360.0000000000001
  0
ARC
  5
355
  8
0
  6
CONTINUOUS
 62
   151
 10
-39.51554570825795
 20
16.31681176725589
 30
0.0
 40
2.0
 50
270.0000000000001
 51
360.0000000000001
  0
ARC
  5
356
  8
0
  6
CONTINUOUS
 62
   151
 10
-56.51554570825795
 20
-8.410707480977152
 30
0.0
 40
1.0
 50
180.0000000000001
 51
270.0000000000001
  0
ARC
  5
357
  8
0
  6
CONTINUOUS
 62
   151
 10
-56.71554570825794
 20
-10.34131901486953
 30
0.0
 40
0.8
 50
180.0000000000001
 51
270.0000000000001
  0
ARC
  5
358
  8
0
  6
CONTINUOUS
 62
   151
 10
-40.01554570825795
 20
16.89527086298373
 30
0.0
 40
2.5
 50
270.0000000000001
 51
360.0000000000001
  0
ARC
  5
359
  8
0
  6
CONTINUOUS
 62
   151
 10
-56.51554570825795
 20
-12.04813121812936
 30
0.0
 40
1.0
 50
180.0000000000001
 51
270.0000000000001
  0
ARC
  5
35A
  8
0
  6
CONTINUOUS
 62
   151
 10
-56.71554570825794
 20
-13.15071650247924
 30
0.0
 40
0.8
 50
180.0000000000001
 51
270.0000000000001
  0
ARC
  5
35B
  8
0
  6
CONTINUOUS
 62
   151
 10
-56.71554570825794
 20
-13.7879175194183
 30
0.0
 40
0.8
 50
180.0000000000001
 51
270.0000000000001
  0
ARC
  5
35C
  8
0
  6
CONTINUOUS
 62
   151
 10
-56.51554570825795
 20
-14.37195959852164
 30
0.0
 40
1.0
 50
180.0000000000001
 51
270.0000000000001
  0
ARC
  5
35D
  8
0
  6
CONTINUOUS
 62
   151
 10
-56.51554570825795
 20
-15.34432951891932
 30
0.0
 40
1.0
 50
180.0000000000001
 51
270.0000000000001
  0
ARC
  5
35E
  8
0
  6
CONTINUOUS
 62
   151
 10
-56.51554570825795
 20
-15.66673605668606
 30
0.0
 40
1.0
 50
180.0000000000001
 51
270.0000000000001
  0
ARC
  5
35F
  8
0
  6
CONTINUOUS
 62
   151
 10
-109.0062886100689
 20
-16.36673605668608
 30
0.0
 40
0.3
 50
258.9944424441489
 51
349.5000000000003
  0
ARC
  5
360
  8
0
  6
CONTINUOUS
 62
   151
 10
-115.803439527369
 20
-14.28791751941833
 30
0.0
 40
0.3
 50
246.9944424441478
 51
337.4999999999999
  0
ARC
  5
361
  8
0
  6
CONTINUOUS
 62
   151
 10
-122.0198457119649
 20
-10.84131901486955
 30
0.0
 40
0.3
 50
234.9944424441489
 51
325.5000000000008
  0
ARC
  5
362
  8
0
  6
CONTINUOUS
 62
   151
 10
-127.3838203839637
 20
-6.177573436303131
 30
0.0
 40
0.3
 50
222.9944424441491
 51
313.5000000000008
  0
ARC
  5
363
  8
0
  6
CONTINUOUS
 62
   151
 10
-136.2625163822393
 20
12.86767443226833
 30
0.0
 40
0.3
 50
186.994442444149
 51
277.5000000000002
  0
ARC
  5
364
  8
0
  6
CONTINUOUS
 62
   151
 10
-131.6609321109925
 20
-0.5005088446366095
 30
0.0
 40
0.3
 50
210.9944424441484
 51
301.4999999999993
  0
ARC
  5
365
  8
0
  6
CONTINUOUS
 62
   151
 10
-134.6642505867212
 20
5.941759795895894
 30
0.0
 40
0.3
 50
198.9944424441485
 51
289.5000000000006
  0
ARC
  5
366
  8
0
  6
CONTINUOUS
 62
   151
 10
-128.1735074464916
 20
39.3164546033029
 30
0.0
 40
0.3
 50
138.9944424441481
 51
229.5
  0
ARC
  5
367
  8
0
  6
CONTINUOUS
 62
   151
 10
-136.3858776129527
 20
19.97453936064554
 30
0.0
 40
0.3
 50
174.9944424441485
 51
265.4999999999994
  0
ARC
  5
368
  8
0
  6
CONTINUOUS
 62
   151
 10
-135.0289428011261
 20
26.95175048113594
 30
0.0
 40
0.3
 50
162.9944424441477
 51
253.5000000000006
  0
ARC
  5
369
  8
0
  6
CONTINUOUS
 62
   151
 10
-132.2510165093322
 20
33.49437018740049
 30
0.0
 40
0.3
 50
150.9944424441487
 51
241.500000000001
  0
ARC
  5
36A
  8
0
  6
CONTINUOUS
 62
   151
 10
-122.9746223247096
 20
44.16355070240761
 30
0.0
 40
0.3
 50
126.9944424441501
 51
217.4999999999997
  0
ARC
  5
36B
  8
0
  6
CONTINUOUS
 62
   151
 10
-116.881577370827
 20
47.82381712623607
 30
0.0
 40
0.3
 50
114.9944424441499
 51
205.5000000000003
  0
ARC
  5
36C
  8
0
  6
CONTINUOUS
 62
   151
 10
-110.1606678870018
 20
50.13728266816003
 30
0.0
 40
0.3
 50
102.9944424441488
 51
193.4999999999997
  0
ARC
  5
36D
  8
0
  6
CONTINUOUS
 62
   151
 10
-102.5155454698393
 20
17.00795875072098
 30
0.0
 40
34.3
 50
257.0055575558512
 51
258.9944424441488
  0
ARC
  5
36E
  8
0
  6
CONTINUOUS
 62
   151
 10
-108.343438583806
 20
-16.08275991557849
 30
0.0
 40
0.3
 50
80.01157625718243
 51
169.5
  0
ARC
  5
36F
  8
0
  6
CONTINUOUS
 62
   151
 10
-102.5155454698393
 20
17.00795875072098
 30
0.0
 40
33.3
 50
260.011576157884
 51
267.9884237428173
  0
ARC
  5
370
  8
0
  6
CONTINUOUS
 62
   151
 10
-110.1606678870017
 20
-16.1213651667181
 30
0.0
 40
0.3
 50
166.4999999999997
 51
257.0055575558512
  0
ARC
  5
371
  8
0
  6
CONTINUOUS
 62
   151
 10
-103.6949530713649
 20
-16.57133543050719
 30
0.0
 40
0.3
 50
358.4999999999998
 51
447.9884237428174
  0
ARC
  5
372
  8
0
  6
CONTINUOUS
 62
   151
 10
-110.6507080152448
 20
-15.59233465838551
 30
0.0
 40
0.3
 50
346.4999999999998
 51
435.9884237428174
  0
ARC
  5
373
  8
0
  6
CONTINUOUS
 62
   151
 10
-135.7876070999295
 20
21.69089745237816
 30
0.0
 40
0.3
 50
262.4999999999998
 51
351.9884237428174
  0
ARC
  5
374
  8
0
  6
CONTINUOUS
 62
   151
 10
-131.6609321109925
 20
34.5164263460785
 30
0.0
 40
0.3
 50
58.49999999999971
 51
149.0055575558513
  0
ARC
  5
375
  8
0
  6
CONTINUOUS
 62
   151
 10
-102.5155454698393
 20
17.00795875072098
 30
0.0
 40
33.3
 50
152.011576157884
 51
159.9884237428173
  0
ARC
  5
376
  8
0
  6
CONTINUOUS
 62
   151
 10
-132.1857710726967
 20
32.77620889699745
 30
0.0
 40
0.3
 50
332.0115762571824
 51
421.5
  0
ARC
  5
377
  8
0
  6
CONTINUOUS
 62
   151
 10
-102.5155454698393
 20
17.00795875072098
 30
0.0
 40
34.3
 50
149.0055575558513
 51
150.9944424441488
  0
ARC
  5
378
  8
0
  6
CONTINUOUS
 62
   151
 10
-134.0868950213218
 20
28.50621459663518
 30
0.0
 40
0.3
 50
250.4999999999998
 51
339.9884237428174
  0
ARC
  5
379
  8
0
  6
CONTINUOUS
 62
   151
 10
-131.006363471171
 20
34.81900278567267
 30
0.0
 40
0.3
 50
238.4999999999998
 51
327.9884237428174
  0
ARC
  5
37A
  8
0
  6
CONTINUOUS
 62
   151
 10
-102.5155454698393
 20
17.00795875072098
 30
0.0
 40
34.3
 50
137.0055575558513
 51
138.9944424441488
  0
ARC
  5
37B
  8
0
  6
CONTINUOUS
 62
   151
 10
-128.2590019073552
 20
38.60042157110624
 30
0.0
 40
0.3
 50
320.0115762571824
 51
409.5
  0
ARC
  5
37C
  8
0
  6
CONTINUOUS
 62
   151
 10
-102.5155454698393
 20
17.00795875072098
 30
0.0
 40
33.3
 50
140.011576157884
 51
147.9884237428173
  0
ARC
  5
37D
  8
0
  6
CONTINUOUS
 62
   151
 10
-127.3838203839637
 20
40.19349093774504
 30
0.0
 40
0.3
 50
46.4999999999997
 51
137.0055575558513
  0
ARC
  5
37E
  8
0
  6
CONTINUOUS
 62
   151
 10
-122.0198457119651
 20
44.85723651631147
 30
0.0
 40
0.3
 50
34.4999999999997
 51
125.0055575558513
  0
ARC
  5
37F
  8
0
  6
CONTINUOUS
 62
   151
 10
-102.5155454698393
 20
17.00795875072098
 30
0.0
 40
33.3
 50
128.011576157884
 51
135.9884237428173
  0
ARC
  5
380
  8
0
  6
CONTINUOUS
 62
   151
 10
-123.2071201648849
 20
43.480940007832
 30
0.0
 40
0.3
 50
308.0115762571825
 51
397.5
  0
ARC
  5
381
  8
0
  6
CONTINUOUS
 62
   151
 10
-102.5155454698393
 20
17.00795875072098
 30
0.0
 40
34.3
 50
125.0055575558513
 51
126.9944424441488
  0
ARC
  5
382
  8
0
  6
CONTINUOUS
 62
   151
 10
-126.6806464602492
 20
40.35336288351108
 30
0.0
 40
0.3
 50
226.4999999999998
 51
315.9884237428174
  0
ARC
  5
383
  8
0
  6
CONTINUOUS
 62
   151
 10
-121.2987985790265
 20
44.86741679706871
 30
0.0
 40
0.3
 50
214.4999999999998
 51
303.9884237428174
  0
ARC
  5
384
  8
0
  6
CONTINUOUS
 62
   151
 10
-102.5155454698393
 20
17.00795875072098
 30
0.0
 40
34.3
 50
113.0055575558513
 51
114.9944424441488
  0
ARC
  5
385
  8
0
  6
CONTINUOUS
 62
   151
 10
-117.2509173190496
 20
47.20446213216403
 30
0.0
 40
0.3
 50
296.0115762571824
 51
385.5
  0
ARC
  5
386
  8
0
  6
CONTINUOUS
 62
   151
 10
-102.5155454698393
 20
17.00795875072098
 30
0.0
 40
33.3
 50
116.011576157884
 51
123.9884237428173
  0
ARC
  5
387
  8
0
  6
CONTINUOUS
 62
   151
 10
-115.803439527369
 20
48.30383502086025
 30
0.0
 40
0.3
 50
22.49999999999971
 51
113.0055575558513
  0
ARC
  5
388
  8
0
  6
CONTINUOUS
 62
   151
 10
-116.8815773708269
 20
-13.80789962479414
 30
0.0
 40
0.3
 50
154.4999999999997
 51
245.0055575558511
  0
ARC
  5
389
  8
0
  6
CONTINUOUS
 62
   151
 10
-109.006288610069
 20
50.38265355812803
 30
0.0
 40
0.3
 50
10.49999999999971
 51
101.0055575558513
  0
ARC
  5
38A
  8
0
  6
CONTINUOUS
 62
   151
 10
-102.5155454698393
 20
17.00795875072098
 30
0.0
 40
33.3
 50
248.0115761578839
 51
255.9884237428172
  0
ARC
  5
38B
  8
0
  6
CONTINUOUS
 62
   151
 10
-102.5155454698393
 20
17.00795875072098
 30
0.0
 40
33.3
 50
104.011576157884
 51
111.9884237428173
  0
ARC
  5
38C
  8
0
  6
CONTINUOUS
 62
   151
 10
-110.6507080152448
 20
49.60825215982749
 30
0.0
 40
0.3
 50
284.0115762571824
 51
373.5
  0
ARC
  5
38D
  8
0
  6
CONTINUOUS
 62
   151
 10
-115.0960324048839
 20
-14.14796120804723
 30
0.0
 40
0.3
 50
68.01157625718243
 51
157.5
  0
ARC
  5
38E
  8
0
  6
CONTINUOUS
 62
   151
 10
-102.5155454698393
 20
17.00795875072098
 30
0.0
 40
34.3
 50
101.0055575558513
 51
102.9944424441488
  0
ARC
  5
38F
  8
0
  6
CONTINUOUS
 62
   151
 10
-115.0960324048839
 20
48.16387870948918
 30
0.0
 40
0.3
 50
202.4999999999998
 51
291.9884237428174
  0
ARC
  5
390
  8
0
  6
CONTINUOUS
 62
   151
 10
-104.1343914090579
 20
50.56893814383575
 30
0.0
 40
0.3
 50
272.7615762571829
 51
362.250000000001
  0
ARC
  5
391
  8
0
  6
CONTINUOUS
 62
   151
 10
-108.343438583806
 20
50.09867741702047
 30
0.0
 40
0.3
 50
190.4999999999998
 51
279.9884237428174
  0
ARC
  5
392
  8
0
  6
CONTINUOUS
 62
   151
 10
-103.3427675248052
 20
50.79783450769556
 30
0.0
 40
0.5
 50
91.40239838180121
 51
182.2499999999999
  0
ARC
  5
393
  8
0
  6
CONTINUOUS
 62
   151
 10
-102.5155454698393
 20
17.00795875072098
 30
0.0
 40
34.3
 50
90.00000000000003
 51
91.40239838180114
  0
ARC
  5
394
  8
0
  6
CONTINUOUS
 62
   151
 10
-102.5155454698393
 20
17.00795875072098
 30
0.0
 40
33.3
 50
92.76157610962012
 51
99.98842374281729
  0
ARC
  5
395
  8
0
  6
CONTINUOUS
 62
   151
 10
-102.5155454698393
 20
17.00795875072098
 30
0.0
 40
34.3
 50
245.0055575558512
 51
246.9944424441488
  0
ARC
  5
396
  8
0
  6
CONTINUOUS
 62
   151
 10
-102.5155454698393
 20
17.00795875072098
 30
0.0
 40
34.3
 50
233.0055575558513
 51
234.9944424441488
  0
ARC
  5
397
  8
0
  6
CONTINUOUS
 62
   151
 10
-121.2987985790265
 20
-10.85149929562678
 30
0.0
 40
0.3
 50
56.01157625718243
 51
145.5
  0
ARC
  5
398
  8
0
  6
CONTINUOUS
 62
   151
 10
-102.5155454698393
 20
17.00795875072098
 30
0.0
 40
33.3
 50
236.0115761578839
 51
243.9884237428172
  0
ARC
  5
399
  8
0
  6
CONTINUOUS
 62
   151
 10
-122.9746223247096
 20
-10.14763320096568
 30
0.0
 40
0.3
 50
142.4999999999997
 51
233.0055575558512
  0
ARC
  5
39A
  8
0
  6
CONTINUOUS
 62
   151
 10
-117.2509173190496
 20
-13.18854463072205
 30
0.0
 40
0.3
 50
334.4999999999998
 51
423.9884237428174
  0
ARC
  5
39B
  8
0
  6
CONTINUOUS
 62
   151
 10
-123.2071201648848
 20
-9.465022506390053
 30
0.0
 40
0.3
 50
322.4999999999998
 51
411.9884237428174
  0
ARC
  5
39C
  8
0
  6
CONTINUOUS
 62
   151
 10
-128.1735074464916
 20
-5.300537101861007
 30
0.0
 40
0.3
 50
130.4999999999997
 51
221.0055575558512
  0
ARC
  5
39D
  8
0
  6
CONTINUOUS
 62
   151
 10
-102.5155454698393
 20
17.00795875072098
 30
0.0
 40
33.3
 50
224.011576157884
 51
231.9884237428173
  0
ARC
  5
39E
  8
0
  6
CONTINUOUS
 62
   151
 10
-126.6806464602491
 20
-6.337445382069145
 30
0.0
 40
0.3
 50
44.01157625718243
 51
133.5
  0
ARC
  5
39F
  8
0
  6
CONTINUOUS
 62
   151
 10
-102.5155454698393
 20
17.00795875072098
 30
0.0
 40
34.3
 50
221.0055575558513
 51
222.9944424441488
  0
ARC
  5
3A0
  8
0
  6
CONTINUOUS
 62
   151
 10
-102.5155454698393
 20
17.00795875072098
 30
0.0
 40
34.3
 50
209.0055575558513
 51
210.9944424441488
  0
ARC
  5
3A1
  8
0
  6
CONTINUOUS
 62
   151
 10
-131.006363471171
 20
-0.8030852842307148
 30
0.0
 40
0.3
 50
32.01157625718243
 51
121.5
  0
ARC
  5
3A2
  8
0
  6
CONTINUOUS
 62
   151
 10
-102.5155454698393
 20
17.00795875072098
 30
0.0
 40
33.3
 50
212.011576157884
 51
219.9884237428172
  0
ARC
  5
3A3
  8
0
  6
CONTINUOUS
 62
   151
 10
-132.2510165093322
 20
0.5215473140413884
 30
0.0
 40
0.3
 50
118.4999999999997
 51
209.0055575558512
  0
ARC
  5
3A4
  8
0
  6
CONTINUOUS
 62
   151
 10
-128.2590019073552
 20
-4.584504069664316
 30
0.0
 40
0.3
 50
310.4999999999998
 51
399.9884237428174
  0
ARC
  5
3A5
  8
0
  6
CONTINUOUS
 62
   151
 10
-132.1857710726966
 20
1.239708604444477
 30
0.0
 40
0.3
 50
298.4999999999998
 51
387.9884237428174
  0
ARC
  5
3A6
  8
0
  6
CONTINUOUS
 62
   151
 10
-135.0289428011261
 20
7.064167020305963
 30
0.0
 40
0.3
 50
106.4999999999997
 51
197.0055575558512
  0
ARC
  5
3A7
  8
0
  6
CONTINUOUS
 62
   151
 10
-102.5155454698393
 20
17.00795875072098
 30
0.0
 40
33.3
 50
200.011576157884
 51
207.9884237428173
  0
ARC
  5
3A8
  8
0
  6
CONTINUOUS
 62
   151
 10
-134.0868950213218
 20
5.509702904806762
 30
0.0
 40
0.3
 50
20.01153732041401
 51
109.5000000000012
  0
ARC
  5
3A9
  8
0
  6
CONTINUOUS
 62
   151
 10
-102.5155454698393
 20
17.00795875072098
 30
0.0
 40
34.3
 50
197.0055575558513
 51
198.9944424441488
  0
ARC
  5
3AA
  8
0
  6
CONTINUOUS
 62
   151
 10
-102.5155454698393
 20
17.00795875072098
 30
0.0
 40
34.3
 50
185.0055575558513
 51
186.9944424441488
  0
ARC
  5
3AB
  8
0
  6
CONTINUOUS
 62
   151
 10
-135.7876070999295
 20
12.32502004906378
 30
0.0
 40
0.3
 50
8.011576257182441
 51
97.49999999999999
  0
ARC
  5
3AC
  8
0
  6
CONTINUOUS
 62
   151
 10
-102.5155454698393
 20
17.00795875072098
 30
0.0
 40
33.3
 50
188.011576157884
 51
195.9884237428173
  0
ARC
  5
3AD
  8
0
  6
CONTINUOUS
 62
   151
 10
-136.3858776129527
 20
14.04137814079634
 30
0.0
 40
0.3
 50
94.4999999999997
 51
185.0055575558512
  0
ARC
  5
3AE
  8
0
  6
CONTINUOUS
 62
   151
 10
-134.8158090056547
 20
7.753069474404587
 30
0.0
 40
0.3
 50
286.4999999999998
 51
375.9884237428174
  0
ARC
  5
3AF
  8
0
  6
CONTINUOUS
 62
   151
 10
-136.0341704282368
 20
14.67091341562567
 30
0.0
 40
0.3
 50
274.4999999999998
 51
363.9884237428174
  0
ARC
  5
3B0
  8
0
  6
CONTINUOUS
 62
   151
 10
-136.2625163822393
 20
21.14824306917356
 30
0.0
 40
0.3
 50
82.4999999999997
 51
173.0055575558513
  0
ARC
  5
3B1
  8
0
  6
CONTINUOUS
 62
   151
 10
-102.5155454698393
 20
17.00795875072098
 30
0.0
 40
33.3
 50
176.011576157884
 51
183.9884237428172
  0
ARC
  5
3B2
  8
0
  6
CONTINUOUS
 62
   151
 10
-136.0341704282368
 20
19.34500408581627
 30
0.0
 40
0.3
 50
356.0115762571824
 51
445.5
  0
ARC
  5
3B3
  8
0
  6
CONTINUOUS
 62
   151
 10
-103.1056298681789
 20
-16.98692028131614
 30
0.0
 40
0.3
 50
178.4999999999997
 51
269.0055575558512
  0
ARC
  5
3B4
  8
0
  6
CONTINUOUS
 62
   151
 10
-102.5155454698393
 20
17.00795875072098
 30
0.0
 40
34.3
 50
269.0055575558513
 51
270.0
  0
ARC
  5
3B5
  8
0
  6
CONTINUOUS
 62
   151
 10
-102.5155454698393
 20
17.00795875072098
 30
0.0
 40
34.3
 50
173.0055575558513
 51
174.9944424441488
  0
ARC
  5
3B6
  8
0
  6
CONTINUOUS
 62
   151
 10
-102.5155454698393
 20
17.00795875072098
 30
0.0
 40
34.3
 50
161.0055575558513
 51
162.9944424441488
  0
ARC
  5
3B7
  8
0
  6
CONTINUOUS
 62
   151
 10
-134.8158090056547
 20
26.26284802703734
 30
0.0
 40
0.3
 50
344.0115762571825
 51
433.5
  0
ARC
  5
3B8
  8
0
  6
CONTINUOUS
 62
   151
 10
-102.5155454698393
 20
17.00795875072098
 30
0.0
 40
33.3
 50
164.011576157884
 51
171.9884237428173
  0
ARC
  5
3B9
  8
0
  6
CONTINUOUS
 62
   151
 10
-134.6642505867212
 20
28.07415770554602
 30
0.0
 40
0.3
 50
70.4999999999997
 51
161.0055575558513
  0
LINE
  5
3BA
  8
0
  6
DASHED2
 62
   151
 10
-42.51554570825795
 20
50.30795875072097
 30
0.0
 11
-56.51554570825795
 21
50.30795875072097
 31
0.0
  0
ARC
  5
3BB
  8
0
  6
DASHED2
 62
   151
 10
-42.51554570825795
 20
45.30795875072097
 30
0.0
 40
5.0
 50
0.0000000000000509
 51
90.00000000000003
  0
ARC
  5
3BC
  8
0
  6
CONTINUOUS
 62
     7
 10
-102.5155454698393
 20
17.00795875072098
 30
0.0
 40
27.2344
 50
90.00000000000003
 51
270.0
  0
ARC
  5
3BD
  8
0
  6
CONTINUOUS
 62
     7
 10
-102.5155454698393
 20
17.00795875072098
 30
0.0
 40
28.40000000000001
 50
90.00000000000003
 51
270.0
  0
ARC
  5
3BE
  8
0
  6
CONTINUOUS
 62
     7
 10
-102.5155454698393
 20
17.00795875072098
 30
0.0
 40
30.09999999999999
 50
90.00000000000003
 51
270.0
  0
LINE
  5
3BF
  8
0
  6
CONTINUOUS
 62
     7
 10
10.17786585350399
 20
32.25795875072097
 30
0.0
 11
-25.6155457085315
 21
32.25795875072097
 31
0.0
  0
LINE
  5
3C0
  8
0
  6
CONTINUOUS
 62
     7
 10
127.776134134744
 20
33.32349827252342
 30
0.0
 11
127.776134134744
 21
0.7266847470401707
 31
0.0
  0
LINE
  5
3C1
  8
0
  6
CONTINUOUS
 62
     7
 10
127.776134134744
 20
32.25795875072097
 30
0.0
 11
13.2836943947342
 21
32.25795875072097
 31
0.0
  0
LINE
  5
3C2
  8
0
  6
CONTINUOUS
 62
     7
 10
-57.51554570825778
 20
50.8079587507209
 30
0.0
 11
-57.51554570825778
 21
-16.29204124927912
 31
0.0
  0
LINE
  5
3C3
  8
0
  6
CONTINUOUS
 62
     7
 10
-40.51554570825789
 20
45.40795875072092
 30
0.0
 11
-40.51554570825789
 21
40.80795875071453
 31
0.0
  0
LINE
  5
3C4
  8
0
  6
CONTINUOUS
 62
     7
 10
-56.51554570825778
 20
47.20795875072088
 30
0.0
 11
-56.51554570825778
 21
40.79276272498294
 31
0.0
  0
LINE
  5
3C5
  8
0
  6
CONTINUOUS
 62
     7
 10
-42.21554570825782
 20
47.10795875072085
 30
0.0
 11
-56.51554570825778
 21
47.10795875072085
 31
0.0
  0
LINE
  5
3C6
  8
0
  6
CONTINUOUS
 62
     7
 10
-40.51554570825789
 20
45.40795875072092
 30
0.0
 11
-42.21554570825782
 21
47.10795875072085
 31
0.0
  0
LINE
  5
3C7
  8
0
  6
CONTINUOUS
 62
     7
 10
-54.81554570825784
 20
45.40795875072081
 30
0.0
 11
-56.51554570825789
 21
47.10795875072085
 31
0.0
  0
LINE
  5
3C8
  8
0
  6
CONTINUOUS
 62
     7
 10
-42.21554570825782
 20
47.10795875072085
 30
0.0
 11
-42.21554570825782
 21
44.75795875072095
 31
0.0
  0
LINE
  5
3C9
  8
0
  6
CONTINUOUS
 62
     7
 10
-54.81554570825784
 20
47.10795875072085
 30
0.0
 11
-54.81554570825784
 21
40.80759840022711
 31
0.0
  0
LINE
  5
3CA
  8
0
  6
CONTINUOUS
 62
     7
 10
-40.51554570825789
 20
45.40795875072092
 30
0.0
 11
-54.81554570825784
 21
45.40795875072092
 31
0.0
  0
LINE
  5
3CB
  8
0
  6
CONTINUOUS
 62
     7
 10
-37.51554570825789
 20
41.20795875072088
 30
0.0
 11
-40.51554570825778
 21
41.20795875072088
 31
0.0
  0
LINE
  5
3CC
  8
0
  6
CONTINUOUS
 62
     7
 10
-37.51554570825789
 20
47.3079587507209
 30
0.0
 11
-37.51554570825789
 21
40.8079587507209
 31
0.0
  0
LINE
  5
3CD
  8
0
  6
CONTINUOUS
 62
     7
 10
-37.51554570825789
 20
-13.29204124927912
 30
0.0
 11
-37.51554570825789
 21
17.00795875072095
 31
0.0
  0
LINE
  5
3CE
  8
0
  6
CONTINUOUS
 62
     7
 10
-41.51554570825789
 20
51.3079587507209
 30
0.0
 11
-57.01554570825778
 21
51.3079587507209
 31
0.0
  0
LINE
  5
3CF
  8
0
  6
CONTINUOUS
 62
     7
 10
-41.01554570825789
 20
-14.58791751941839
 30
0.0
 11
-56.71554570825782
 21
-14.58791751941839
 31
0.0
  0
LINE
  5
3D0
  8
0
  6
CONTINUOUS
 62
     7
 10
-41.01554570825789
 20
-13.95071650247928
 30
0.0
 11
-56.71554570825782
 21
-13.95071650247928
 31
0.0
  0
LINE
  5
3D1
  8
0
  6
CONTINUOUS
 62
     7
 10
-41.51554570825789
 20
-13.04813121812947
 30
0.0
 11
-56.51554570825778
 21
-13.04813121812947
 31
0.0
  0
LINE
  5
3D2
  8
0
  6
CONTINUOUS
 62
     7
 10
-41.01554570825789
 20
-11.14131901486962
 30
0.0
 11
-56.71554570825782
 21
-11.14131901486962
 31
0.0
  0
LINE
  5
3D3
  8
0
  6
CONTINUOUS
 62
     7
 10
-41.01554570825789
 20
-10.20406082126851
 30
0.0
 11
-56.71554570825782
 21
-10.20406082126851
 31
0.0
  0
LINE
  5
3D4
  8
0
  6
CONTINUOUS
 62
     7
 10
-39.51554570825789
 20
12.56767443226829
 30
0.0
 11
-56.71554570825782
 21
12.56767443226829
 31
0.0
  0
LINE
  5
3D5
  8
0
  6
CONTINUOUS
 62
     7
 10
-41.51554570825789
 20
-9.410707480977177
 30
0.0
 11
-56.51554570825778
 21
-9.410707480977177
 31
0.0
  0
LINE
  5
3D6
  8
0
  6
CONTINUOUS
 62
     7
 10
-40.51554570825789
 20
7.550247772080301
 30
0.0
 11
-56.51554570825778
 21
7.550247772080301
 31
0.0
  0
LINE
  5
3D7
  8
0
  6
CONTINUOUS
 62
     7
 10
-40.51554570825789
 20
-6.477573436303143
 30
0.0
 11
-56.71554570825782
 21
-6.477573436303143
 31
0.0
  0
LINE
  5
3D8
  8
0
  6
CONTINUOUS
 62
     7
 10
-40.51554570825789
 20
-5.268109307004348
 30
0.0
 11
-56.71554570825782
 21
-5.268109307004348
 31
0.0
  0
LINE
  5
3D9
  8
0
  6
CONTINUOUS
 62
     7
 10
-41.01554570825789
 20
-4.618661258674248
 30
0.0
 11
-56.51554570825778
 21
-4.618661258674248
 31
0.0
  0
LINE
  5
3DA
  8
0
  6
CONTINUOUS
 62
     7
 10
-40.01554570825789
 20
-0.8005088446366209
 30
0.0
 11
-56.71554570825782
 21
-0.8005088446366209
 31
0.0
  0
LINE
  5
3DB
  8
0
  6
CONTINUOUS
 62
     7
 10
-40.01554570825789
 20
0.641413273816287
 30
0.0
 11
-56.71554570825782
 21
0.641413273816287
 31
0.0
  0
LINE
  5
3DC
  8
0
  6
CONTINUOUS
 62
     7
 10
-40.51554570825789
 20
1.1185720340759
 30
0.0
 11
-56.51554570825778
 21
1.1185720340759
 31
0.0
  0
LINE
  5
3DD
  8
0
  6
CONTINUOUS
 62
     7
 10
-40.01554570825789
 20
5.64175979589584
 30
0.0
 11
-56.71554570825782
 21
5.64175979589584
 31
0.0
  0
LINE
  5
3DE
  8
0
  6
CONTINUOUS
 62
     7
 10
-40.01554570825789
 20
7.266232427376398
 30
0.0
 11
-56.71554570825782
 21
7.266232427376398
 31
0.0
  0
LINE
  5
3DF
  8
0
  6
CONTINUOUS
 62
     7
 10
-40.01554570825789
 20
14.3952708629837
 30
0.0
 11
-56.51554570825778
 21
14.3952708629837
 31
0.0
  0
LINE
  5
3E0
  8
0
  6
CONTINUOUS
 62
     7
 10
-39.51554570825789
 20
14.31681176725579
 30
0.0
 11
-56.71554570825782
 21
14.31681176725579
 31
0.0
  0
LINE
  5
3E1
  8
0
  6
CONTINUOUS
 62
     7
 10
-41.51554570825789
 20
-17.29204124927912
 30
0.0
 11
-56.51554570825778
 21
-17.29204124927912
 31
0.0
  0
LINE
  5
3E2
  8
0
  6
CONTINUOUS
 62
     7
 10
-41.01554570825789
 20
-16.6667360566862
 30
0.0
 11
-56.51554570825778
 21
-16.6667360566862
 31
0.0
  0
LINE
  5
3E3
  8
0
  6
CONTINUOUS
 62
     7
 10
-41.51554570825789
 20
-15.3719595985217
 30
0.0
 11
-56.51554570825778
 21
-15.3719595985217
 31
0.0
  0
LINE
  5
3E4
  8
0
  6
CONTINUOUS
 62
     7
 10
-41.01554570825789
 20
-16.34432951891938
 30
0.0
 11
-56.51554570825778
 21
-16.34432951891938
 31
0.0
  0
LINE
  5
3E5
  8
0
  6
CONTINUOUS
 62
     7
 10
-56.51554570825778
 20
47.20795875072088
 30
0.0
 11
-57.01554570825778
 21
47.20795875072088
 31
0.0
  0
ARC
  5
3E6
  8
0
  6
CONTINUOUS
 62
     7
 10
-56.71554570825782
 20
-5.677573436303188
 30
0.0
 40
0.8
 50
180.0
 51
270.0
  0
ARC
  5
3E7
  8
0
  6
CONTINUOUS
 62
     7
 10
-41.51554570825789
 20
47.3079587507209
 30
0.0
 40
4.0
 50
0.000000000000007
 51
89.99999999999999
  0
ARC
  5
3E8
  8
0
  6
CONTINUOUS
 62
     7
 10
-41.51554570825789
 20
-13.29204124927912
 30
0.0
 40
4.0
 50
270.0
 51
360.0
  0
ARC
  5
3E9
  8
0
  6
CONTINUOUS
 62
     7
 10
-39.51554570825789
 20
14.56767443226829
 30
0.0
 40
2.0
 50
270.0
 51
360.0
  0
ARC
  5
3EA
  8
0
  6
CONTINUOUS
 62
     7
 10
-40.01554570825789
 20
9.766232427376398
 30
0.0
 40
2.5
 50
270.0
 51
360.0
  0
ARC
  5
3EB
  8
0
  6
CONTINUOUS
 62
     7
 10
-56.71554570825782
 20
-9.404060821268441
 30
0.0
 40
0.8
 50
180.0
 51
270.0
  0
ARC
  5
3EC
  8
0
  6
CONTINUOUS
 62
     7
 10
-56.71554570825782
 20
-4.468109307004394
 30
0.0
 40
0.8
 50
180.0
 51
270.0
  0
ARC
  5
3ED
  8
0
  6
CONTINUOUS
 62
     7
 10
-56.71554570825782
 20
-0.0005088446366663
 30
0.0
 40
0.8
 50
180.0
 51
270.0
  0
ARC
  5
3EE
  8
0
  6
CONTINUOUS
 62
     7
 10
-56.51554570825778
 20
2.1185720340759
 30
0.0
 40
1.0
 50
180.0
 51
270.0
  0
ARC
  5
3EF
  8
0
  6
CONTINUOUS
 62
     7
 10
-56.51554570825778
 20
8.550247772080301
 30
0.0
 40
1.0
 50
180.0
 51
270.0
  0
ARC
  5
3F0
  8
0
  6
CONTINUOUS
 62
     7
 10
-56.71554570825782
 20
13.36767443226825
 30
0.0
 40
0.8
 50
180.0
 51
270.0
  0
ARC
  5
3F1
  8
0
  6
CONTINUOUS
 62
     7
 10
-56.51554570825778
 20
15.3952708629837
 30
0.0
 40
1.0
 50
180.0
 51
270.0
  0
ARC
  5
3F2
  8
0
  6
CONTINUOUS
 62
     7
 10
-56.71554570825782
 20
6.441759795895795
 30
0.0
 40
0.8
 50
180.0
 51
270.0
  0
ARC
  5
3F3
  8
0
  6
CONTINUOUS
 62
     7
 10
-56.71554570825782
 20
1.441413273816355
 30
0.0
 40
0.8
 50
180.0
 51
270.0
  0
ARC
  5
3F4
  8
0
  6
CONTINUOUS
 62
     7
 10
-56.71554570825782
 20
15.11681176725574
 30
0.0
 40
0.8
 50
180.0
 51
270.0
  0
ARC
  5
3F5
  8
0
  6
CONTINUOUS
 62
     7
 10
-56.71554570825782
 20
8.066232427376352
 30
0.0
 40
0.8
 50
180.0
 51
270.0
  0
ARC
  5
3F6
  8
0
  6
CONTINUOUS
 62
     7
 10
-40.51554570825789
 20
10.5502477720803
 30
0.0
 40
3.0
 50
270.0
 51
360.0
  0
ARC
  5
3F7
  8
0
  6
CONTINUOUS
 62
     7
 10
-40.01554570825789
 20
8.14175979589584
 30
0.0
 40
2.5
 50
270.0
 51
360.0
  0
ARC
  5
3F8
  8
0
  6
CONTINUOUS
 62
     7
 10
-40.51554570825789
 20
4.1185720340759
 30
0.0
 40
3.0
 50
270.0
 51
360.0
  0
ARC
  5
3F9
  8
0
  6
CONTINUOUS
 62
     7
 10
-40.01554570825789
 20
3.141413273816287
 30
0.0
 40
2.5
 50
270.0
 51
360.0
  0
ARC
  5
3FA
  8
0
  6
CONTINUOUS
 62
     7
 10
-41.01554570825789
 20
-1.118661258674248
 30
0.0
 40
3.5
 50
270.0
 51
360.0
  0
ARC
  5
3FB
  8
0
  6
CONTINUOUS
 62
     7
 10
-40.01554570825789
 20
1.699491155363379
 30
0.0
 40
2.5
 50
270.0
 51
360.0
  0
ARC
  5
3FC
  8
0
  6
CONTINUOUS
 62
     7
 10
-41.01554570825789
 20
-12.84432951891938
 30
0.0
 40
3.5
 50
270.0
 51
360.0
  0
ARC
  5
3FD
  8
0
  6
CONTINUOUS
 62
     7
 10
-41.51554570825789
 20
-9.048131218129466
 30
0.0
 40
4.0
 50
270.0
 51
360.0
  0
ARC
  5
3FE
  8
0
  6
CONTINUOUS
 62
     7
 10
-56.51554570825778
 20
-16.29204124927912
 30
0.0
 40
1.0
 50
180.0
 51
270.0
  0
ARC
  5
3FF
  8
0
  6
CONTINUOUS
 62
     7
 10
-41.51554570825789
 20
-5.410707480977177
 30
0.0
 40
4.0
 50
270.0
 51
360.0
  0
ARC
  5
400
  8
0
  6
CONTINUOUS
 62
     7
 10
-41.51554570825789
 20
-11.3719595985217
 30
0.0
 40
4.0
 50
270.0
 51
360.0
  0
ARC
  5
401
  8
0
  6
CONTINUOUS
 62
     7
 10
-41.01554570825789
 20
-13.1667360566862
 30
0.0
 40
3.5
 50
270.0
 51
360.0
  0
ARC
  5
402
  8
0
  6
CONTINUOUS
 62
     7
 10
-41.01554570825789
 20
-7.64131901486962
 30
0.0
 40
3.5
 50
270.0
 51
360.0
  0
ARC
  5
403
  8
0
  6
CONTINUOUS
 62
     7
 10
-41.01554570825789
 20
-10.45071650247928
 30
0.0
 40
3.5
 50
270.0
 51
360.0
  0
ARC
  5
404
  8
0
  6
CONTINUOUS
 62
     7
 10
-41.01554570825789
 20
-6.704060821268509
 30
0.0
 40
3.5
 50
270.0
 51
360.0
  0
ARC
  5
405
  8
0
  6
CONTINUOUS
 62
     7
 10
-40.51554570825789
 20
-3.477573436303143
 30
0.0
 40
3.0
 50
270.0
 51
360.0
  0
ARC
  5
406
  8
0
  6
CONTINUOUS
 62
     7
 10
-40.51554570825789
 20
-2.268109307004348
 30
0.0
 40
3.0
 50
270.0
 51
360.0
  0
ARC
  5
407
  8
0
  6
CONTINUOUS
 62
     7
 10
-56.51554570825778
 20
-3.618661258674248
 30
0.0
 40
1.0
 50
180.0
 51
270.0
  0
ARC
  5
408
  8
0
  6
CONTINUOUS
 62
     7
 10
-41.01554570825789
 20
-11.08791751941839
 30
0.0
 40
3.5
 50
270.0
 51
360.0
  0
ARC
  5
409
  8
0
  6
CONTINUOUS
 62
     7
 10
-39.51554570825789
 20
16.31681176725579
 30
0.0
 40
2.0
 50
270.0
 51
360.0
  0
ARC
  5
40A
  8
0
  6
CONTINUOUS
 62
     7
 10
-56.51554570825778
 20
-8.410707480977177
 30
0.0
 40
1.0
 50
180.0
 51
270.0
  0
ARC
  5
40B
  8
0
  6
CONTINUOUS
 62
     7
 10
-56.71554570825782
 20
-10.34131901486967
 30
0.0
 40
0.8
 50
180.0
 51
270.0
  0
ARC
  5
40C
  8
0
  6
CONTINUOUS
 62
     7
 10
-40.01554570825789
 20
16.8952708629837
 30
0.0
 40
2.5
 50
270.0
 51
360.0
  0
ARC
  5
40D
  8
0
  6
CONTINUOUS
 62
     7
 10
-56.51554570825778
 20
-12.04813121812947
 30
0.0
 40
1.0
 50
180.0
 51
270.0
  0
ARC
  5
40E
  8
0
  6
CONTINUOUS
 62
     7
 10
-56.71554570825782
 20
-13.15071650247932
 30
0.0
 40
0.8
 50
180.0
 51
270.0
  0
ARC
  5
40F
  8
0
  6
CONTINUOUS
 62
     7
 10
-56.71554570825782
 20
-13.78791751941844
 30
0.0
 40
0.8
 50
180.0
 51
270.0
  0
ARC
  5
410
  8
0
  6
CONTINUOUS
 62
     7
 10
-56.51554570825778
 20
-14.3719595985217
 30
0.0
 40
1.0
 50
180.0
 51
270.0
  0
ARC
  5
411
  8
0
  6
CONTINUOUS
 62
     7
 10
-56.51554570825778
 20
-15.34432951891938
 30
0.0
 40
1.0
 50
180.0
 51
270.0
  0
ARC
  5
412
  8
0
  6
CONTINUOUS
 62
     7
 10
-56.51554570825778
 20
-15.6667360566862
 30
0.0
 40
1.0
 50
180.0
 51
270.0
  0
ARC
  5
413
  8
0
  6
CONTINUOUS
 62
     7
 10
-57.01554570825778
 20
47.70795875072088
 30
0.0
 40
0.5
 50
180.0
 51
270.0
  0
ARC
  5
414
  8
0
  6
CONTINUOUS
 62
     7
 10
-57.01554570825778
 20
50.8079587507209
 30
0.0
 40
0.5
 50
89.99999999999999
 51
180.0
  0
LINE
  5
415
  8
0
  6
CONTINUOUS
 62
     7
 10
-51.31554532082765
 20
40.90795737982103
 30
0.0
 11
-51.31554532082765
 21
41.40795737982103
 31
0.0
  0
LINE
  5
416
  8
0
  6
CONTINUOUS
 62
     7
 10
-43.31554570825784
 20
40.90795737982103
 30
0.0
 11
-43.31554570825784
 21
44.40795737982103
 31
0.0
  0
LINE
  5
417
  8
0
  6
CONTINUOUS
 62
     7
 10
-51.31554532082765
 20
40.90795737982103
 30
0.0
 11
-43.31554570825784
 21
40.90795737982103
 31
0.0
  0
LINE
  5
418
  8
0
  6
CONTINUOUS
 62
     7
 10
-51.31554523898814
 20
41.40795787178786
 30
0.0
 11
-45.31554579063919
 21
44.40795759596233
 31
0.0
  0
LINE
  5
419
  8
0
  6
CONTINUOUS
 62
     7
 10
-45.31554579766481
 20
44.40795737982103
 30
0.0
 11
-43.31554570825784
 21
44.40795737982103
 31
0.0
  0
LINE
  5
41A
  8
0
  6
DASHED2
 62
     7
 10
-42.51554570825789
 20
50.3079587507209
 30
0.0
 11
-57.01554570825778
 21
50.3079587507209
 31
0.0
  0
ARC
  5
41B
  8
0
  6
DASHED2
 62
     7
 10
-42.51554570825789
 20
45.3079587507209
 30
0.0
 40
5.0
 50
0.000000000000007
 51
89.99999999999999
  0
ARC
  5
41C
  8
0
  6
DASHED2
 62
     7
 10
-57.01554570825778
 20
49.8079587507209
 30
0.0
 40
0.5
 50
89.99999999999999
 51
180.0
  0
ARC
  5
41D
  8
LAYER0014
  6
CONTINUOUS
 62
     7
 10
-22.52426135305092
 20
0.308958750720965
 30
0.0
 40
0.202
 50
0.2839999999983307
 51
89.71600000000167
  0
ARC
  5
41E
  8
LAYER0014
  6
CONTINUOUS
 62
     7
 10
-20.52226135305097
 20
0.308958750720965
 30
0.0
 40
0.202
 50
90.28399999999833
 51
179.7160000000017
  0
ARC
  5
41F
  8
LAYER0014
  6
CONTINUOUS
 62
     7
 10
-31.51825742394084
 20
0.308958750720965
 30
0.0
 40
0.202
 50
0.2839999999983307
 51
89.23108336612063
  0
ARC
  5
420
  8
LAYER0014
  6
CONTINUOUS
 62
     7
 10
-29.51625742394089
 20
0.308958750720965
 30
0.0
 40
0.202
 50
90.28399999999833
 51
179.7160000000017
  0
ARC
  5
421
  8
LAYER0014
  6
CONTINUOUS
 62
     7
 10
48.98174257605911
 20
0.308958750720965
 30
0.0
 40
0.202
 50
0.2839999999982907
 51
89.71599999999361
  0
ARC
  5
422
  8
LAYER0014
  6
CONTINUOUS
 62
     7
 10
50.98374257605912
 20
0.308958750720965
 30
0.0
 40
0.202
 50
90.2840000000064
 51
179.7160000000017
  0
ARC
  5
423
  8
LAYER0014
  6
CONTINUOUS
 62
     7
 10
39.98174257605916
 20
0.308958750720965
 30
0.0
 40
0.202
 50
0.2839999999982907
 51
89.71599999999361
  0
ARC
  5
424
  8
LAYER0014
  6
CONTINUOUS
 62
     7
 10
41.98374257605912
 20
0.308958750720965
 30
0.0
 40
0.202
 50
90.2840000000064
 51
179.7160000000017
  0
ARC
  5
425
  8
LAYER0014
  6
CONTINUOUS
 62
     7
 10
31.48174257605916
 20
0.308958750720965
 30
0.0
 40
0.202
 50
0.2839999999982907
 51
89.71599999999361
  0
ARC
  5
426
  8
LAYER0014
  6
CONTINUOUS
 62
     7
 10
33.48374257605912
 20
0.308958750720965
 30
0.0
 40
0.202
 50
90.2840000000064
 51
179.7160000000017
  0
ARC
  5
427
  8
LAYER0014
  6
CONTINUOUS
 62
     7
 10
32.48174257605916
 20
0.3079587507209887
 30
0.0
 40
0.8
 50
180.0720000000003
 51
360.1430000000001
  0
ARC
  5
428
  8
LAYER0014
  6
CONTINUOUS
 62
     7
 10
22.47573864694908
 20
0.308958750720965
 30
0.0
 40
0.202
 50
0.2839999999982907
 51
89.71599999999361
  0
ARC
  5
429
  8
LAYER0014
  6
CONTINUOUS
 62
     7
 10
24.47773864694904
 20
0.308958750720965
 30
0.0
 40
0.202
 50
90.2840000000064
 51
179.7160000000017
  0
ARC
  5
42A
  8
LAYER0014
  6
CONTINUOUS
 62
     7
 10
23.47573864694908
 20
0.3079587507209887
 30
0.0
 40
0.8
 50
180.0720000000003
 51
360.1430000000001
  0
ARC
  5
42B
  8
LAYER0014
  6
CONTINUOUS
 62
     7
 10
13.48474454061085
 20
0.308958750720965
 30
0.0
 40
0.202
 50
0.2839999999983307
 51
89.71600000000167
  0
ARC
  5
42C
  8
LAYER0014
  6
CONTINUOUS
 62
     7
 10
15.48674454061086
 20
0.308958750720965
 30
0.0
 40
0.202
 50
90.28399999999833
 51
179.7160000000017
  0
ARC
  5
42D
  8
LAYER0014
  6
CONTINUOUS
 62
     7
 10
14.48474454061085
 20
0.3079587507209887
 30
0.0
 40
0.8
 50
180.0720000000004
 51
360.1430000000001
  0
ARC
  5
42E
  8
LAYER0014
  6
CONTINUOUS
 62
     7
 10
4.481742576059162
 20
0.308958750720965
 30
0.0
 40
0.202
 50
0.2839999999983307
 51
89.71600000000167
  0
ARC
  5
42F
  8
LAYER0014
  6
CONTINUOUS
 62
     7
 10
6.483742576059115
 20
0.308958750720965
 30
0.0
 40
0.202
 50
90.28399999999833
 51
179.7160000000017
  0
ARC
  5
430
  8
LAYER0014
  6
CONTINUOUS
 62
     7
 10
5.481742576059162
 20
0.3079587507209887
 30
0.0
 40
0.8
 50
180.0720000000004
 51
360.1430000000001
  0
ARC
  5
431
  8
LAYER0014
  6
CONTINUOUS
 62
     7
 10
-4.524261353050918
 20
0.308958750720965
 30
0.0
 40
0.202
 50
0.2839999999983307
 51
89.71600000000167
  0
ARC
  5
432
  8
LAYER0014
  6
CONTINUOUS
 62
     7
 10
-2.522261353050965
 20
0.308958750720965
 30
0.0
 40
0.202
 50
90.28399999999833
 51
179.7160000000017
  0
ARC
  5
433
  8
LAYER0014
  6
CONTINUOUS
 62
     7
 10
-3.524261353050918
 20
0.3079587507209887
 30
0.0
 40
0.8
 50
180.0720000000004
 51
360.1430000000001
  0
ARC
  5
434
  8
LAYER0014
  6
CONTINUOUS
 62
     7
 10
-13.51825742394419
 20
0.308958750720965
 30
0.0
 40
0.202
 50
0.2839999999983307
 51
89.71600000000167
  0
ARC
  5
435
  8
LAYER0014
  6
CONTINUOUS
 62
     7
 10
-11.51625742394418
 20
0.308958750720965
 30
0.0
 40
0.202
 50
90.28399999999833
 51
179.7160000000017
  0
ARC
  5
436
  8
LAYER0014
  6
CONTINUOUS
 62
     7
 10
-12.51825742394419
 20
0.3079587507209887
 30
0.0
 40
0.8
 50
180.0720000000004
 51
360.1430000000001
  0
ARC
  5
437
  8
LAYER0014
  6
CONTINUOUS
 62
     7
 10
-21.52426135305092
 20
0.3079587507209887
 30
0.0
 40
0.8
 50
180.0720000000004
 51
360.1430000000001
  0
ARC
  5
438
  8
LAYER0014
  6
CONTINUOUS
 62
     7
 10
-30.51825742394084
 20
0.3079587507209887
 30
0.0
 40
0.8
 50
180.0720000000004
 51
360.1430000000001
  0
ARC
  5
439
  8
LAYER0014
  6
CONTINUOUS
 62
     7
 10
49.98174257605768
 20
0.3079587507209602
 30
0.0
 40
0.8
 50
180.0720000000003
 51
360.1430000000001
  0
ARC
  5
43A
  8
LAYER0014
  6
CONTINUOUS
 62
     7
 10
40.98174257605768
 20
0.3079587507209602
 30
0.0
 40
0.8
 50
180.0720000000003
 51
360.1430000000001
  0
ARC
  5
43B
  8
LAYER0014
  6
CONTINUOUS
 62
     7
 10
32.48174257605768
 20
0.3079587507209602
 30
0.0
 40
0.8
 50
180.0720000000003
 51
360.1430000000001
  0
ARC
  5
43C
  8
LAYER0014
  6
CONTINUOUS
 62
     7
 10
23.47874061150264
 20
0.3079587507209602
 30
0.0
 40
0.8
 50
180.0720000000003
 51
360.1430000000001
  0
ARC
  5
43D
  8
LAYER0014
  6
CONTINUOUS
 62
     7
 10
14.48174257605768
 20
0.3079587507209602
 30
0.0
 40
0.8
 50
180.0720000000004
 51
360.1430000000001
  0
ARC
  5
43E
  8
LAYER0014
  6
CONTINUOUS
 62
     7
 10
5.481742576057684
 20
0.3079587507209602
 30
0.0
 40
0.8
 50
180.0720000000004
 51
360.1430000000001
  0
ARC
  5
43F
  8
LAYER0014
  6
CONTINUOUS
 62
     7
 10
-3.521259388497356
 20
0.3079587507209602
 30
0.0
 40
0.8
 50
180.0720000000004
 51
360.1430000000001
  0
ARC
  5
440
  8
LAYER0014
  6
CONTINUOUS
 62
     7
 10
-12.51825742394232
 20
0.3079587507209602
 30
0.0
 40
0.8
 50
180.0720000000004
 51
360.1430000000001
  0
ARC
  5
441
  8
LAYER0014
  6
CONTINUOUS
 62
     7
 10
-21.52125938849736
 20
0.3079587507209602
 30
0.0
 40
0.8
 50
180.0720000000004
 51
360.1430000000001
  0
ARC
  5
442
  8
LAYER0014
  6
CONTINUOUS
 62
     7
 10
-30.51825742394232
 20
0.3079587507209602
 30
0.0
 40
0.8
 50
180.0720000000004
 51
360.1430000000001
  0
ARC
  5
443
  8
LAYER0014
  6
CONTINUOUS
 62
     7
 10
-22.52426135305092
 20
0.308958750720965
 30
0.0
 40
0.202
 50
0.2839999999983307
 51
89.71600000000167
  0
ARC
  5
444
  8
LAYER0014
  6
CONTINUOUS
 62
     7
 10
-20.52226135305097
 20
0.308958750720965
 30
0.0
 40
0.202
 50
90.28399999999833
 51
179.7160000000017
  0
ARC
  5
445
  8
LAYER0014
  6
CONTINUOUS
 62
     7
 10
-31.51825742394084
 20
0.308958750720965
 30
0.0
 40
0.202
 50
0.2839999999983307
 51
89.23108336612063
  0
ARC
  5
446
  8
LAYER0014
  6
CONTINUOUS
 62
     7
 10
-29.51625742394089
 20
0.308958750720965
 30
0.0
 40
0.202
 50
90.28399999999833
 51
179.7160000000017
  0
ARC
  5
447
  8
LAYER0014
  6
CONTINUOUS
 62
     7
 10
48.98174257605911
 20
0.308958750720965
 30
0.0
 40
0.202
 50
0.2839999999982907
 51
89.71599999999361
  0
ARC
  5
448
  8
LAYER0014
  6
CONTINUOUS
 62
     7
 10
50.98374257605912
 20
0.308958750720965
 30
0.0
 40
0.202
 50
90.2840000000064
 51
179.7160000000017
  0
ARC
  5
449
  8
LAYER0014
  6
CONTINUOUS
 62
     7
 10
49.98174257605916
 20
0.3079587507209887
 30
0.0
 40
0.8
 50
180.0720000000003
 51
360.1430000000001
  0
ARC
  5
44A
  8
LAYER0014
  6
CONTINUOUS
 62
     7
 10
39.98174257605916
 20
0.308958750720965
 30
0.0
 40
0.202
 50
0.2839999999982907
 51
89.71599999999361
  0
ARC
  5
44B
  8
LAYER0014
  6
CONTINUOUS
 62
     7
 10
41.98374257605912
 20
0.308958750720965
 30
0.0
 40
0.202
 50
90.2840000000064
 51
179.7160000000017
  0
ARC
  5
44C
  8
LAYER0014
  6
CONTINUOUS
 62
     7
 10
40.98174257605916
 20
0.3079587507209887
 30
0.0
 40
0.8
 50
180.0720000000003
 51
360.1430000000001
  0
ARC
  5
44D
  8
LAYER0014
  6
CONTINUOUS
 62
     7
 10
31.48174257605916
 20
0.308958750720965
 30
0.0
 40
0.202
 50
0.2839999999982907
 51
89.71599999999361
  0
ARC
  5
44E
  8
LAYER0014
  6
CONTINUOUS
 62
     7
 10
33.48374257605912
 20
0.308958750720965
 30
0.0
 40
0.202
 50
90.2840000000064
 51
179.7160000000017
  0
ARC
  5
44F
  8
LAYER0014
  6
CONTINUOUS
 62
     7
 10
32.48174257605916
 20
0.3079587507209887
 30
0.0
 40
0.8
 50
180.0720000000003
 51
360.1430000000001
  0
ARC
  5
450
  8
LAYER0014
  6
CONTINUOUS
 62
     7
 10
22.47573864694908
 20
0.308958750720965
 30
0.0
 40
0.202
 50
0.2839999999982907
 51
89.71599999999361
  0
ARC
  5
451
  8
LAYER0014
  6
CONTINUOUS
 62
     7
 10
24.47773864694904
 20
0.308958750720965
 30
0.0
 40
0.202
 50
90.2840000000064
 51
179.7160000000017
  0
ARC
  5
452
  8
LAYER0014
  6
CONTINUOUS
 62
     7
 10
23.47573864694908
 20
0.3079587507209887
 30
0.0
 40
0.8
 50
180.0720000000003
 51
360.1430000000001
  0
ARC
  5
453
  8
LAYER0014
  6
CONTINUOUS
 62
     7
 10
13.48474454061085
 20
0.308958750720965
 30
0.0
 40
0.202
 50
0.2839999999983307
 51
89.71600000000167
  0
ARC
  5
454
  8
LAYER0014
  6
CONTINUOUS
 62
     7
 10
15.48674454061086
 20
0.308958750720965
 30
0.0
 40
0.202
 50
90.28399999999833
 51
179.7160000000017
  0
ARC
  5
455
  8
LAYER0014
  6
CONTINUOUS
 62
     7
 10
14.48474454061085
 20
0.3079587507209887
 30
0.0
 40
0.8
 50
180.0720000000004
 51
360.1430000000001
  0
ARC
  5
456
  8
LAYER0014
  6
CONTINUOUS
 62
     7
 10
4.481742576059162
 20
0.308958750720965
 30
0.0
 40
0.202
 50
0.2839999999983307
 51
89.71600000000167
  0
ARC
  5
457
  8
LAYER0014
  6
CONTINUOUS
 62
     7
 10
6.483742576059115
 20
0.308958750720965
 30
0.0
 40
0.202
 50
90.28399999999833
 51
179.7160000000017
  0
ARC
  5
458
  8
LAYER0014
  6
CONTINUOUS
 62
     7
 10
5.481742576059162
 20
0.3079587507209887
 30
0.0
 40
0.8
 50
180.0720000000004
 51
360.1430000000001
  0
ARC
  5
459
  8
LAYER0014
  6
CONTINUOUS
 62
     7
 10
-4.524261353050918
 20
0.308958750720965
 30
0.0
 40
0.202
 50
0.2839999999983307
 51
89.71600000000167
  0
ARC
  5
45A
  8
LAYER0014
  6
CONTINUOUS
 62
     7
 10
-2.522261353050965
 20
0.308958750720965
 30
0.0
 40
0.202
 50
90.28399999999833
 51
179.7160000000017
  0
ARC
  5
45B
  8
LAYER0014
  6
CONTINUOUS
 62
     7
 10
-3.524261353050918
 20
0.3079587507209887
 30
0.0
 40
0.8
 50
180.0720000000004
 51
360.1430000000001
  0
ARC
  5
45C
  8
LAYER0014
  6
CONTINUOUS
 62
     7
 10
-13.51825742394419
 20
0.308958750720965
 30
0.0
 40
0.202
 50
0.2839999999983307
 51
89.71600000000167
  0
ARC
  5
45D
  8
LAYER0014
  6
CONTINUOUS
 62
     7
 10
-11.51625742394418
 20
0.308958750720965
 30
0.0
 40
0.202
 50
90.28399999999833
 51
179.7160000000017
  0
ARC
  5
45E
  8
LAYER0014
  6
CONTINUOUS
 62
     7
 10
-12.51825742394419
 20
0.3079587507209887
 30
0.0
 40
0.8
 50
180.0720000000004
 51
360.1430000000001
  0
ARC
  5
45F
  8
LAYER0014
  6
CONTINUOUS
 62
     7
 10
-21.52426135305092
 20
0.3079587507209887
 30
0.0
 40
0.8
 50
180.0720000000004
 51
360.1430000000001
  0
ARC
  5
460
  8
LAYER0014
  6
CONTINUOUS
 62
     7
 10
-30.51825742394084
 20
0.3079587507209887
 30
0.0
 40
0.8
 50
180.0720000000004
 51
360.1430000000001
  0
ARC
  5
461
  8
LAYER0014
  6
CONTINUOUS
 62
     7
 10
49.98174257605768
 20
0.3079587507209602
 30
0.0
 40
0.8
 50
180.0720000000003
 51
360.1430000000001
  0
ARC
  5
462
  8
LAYER0014
  6
CONTINUOUS
 62
     7
 10
40.98174257605768
 20
0.3079587507209602
 30
0.0
 40
0.8
 50
180.0720000000003
 51
360.1430000000001
  0
ARC
  5
463
  8
LAYER0014
  6
CONTINUOUS
 62
     7
 10
32.48174257605768
 20
0.3079587507209602
 30
0.0
 40
0.8
 50
180.0720000000003
 51
360.1430000000001
  0
ARC
  5
464
  8
LAYER0014
  6
CONTINUOUS
 62
     7
 10
23.47874061150264
 20
0.3079587507209602
 30
0.0
 40
0.8
 50
180.0720000000003
 51
360.1430000000001
  0
ARC
  5
465
  8
LAYER0014
  6
CONTINUOUS
 62
     7
 10
14.48174257605768
 20
0.3079587507209602
 30
0.0
 40
0.8
 50
180.0720000000004
 51
360.1430000000001
  0
ARC
  5
466
  8
LAYER0014
  6
CONTINUOUS
 62
     7
 10
5.481742576057684
 20
0.3079587507209602
 30
0.0
 40
0.8
 50
180.0720000000004
 51
360.1430000000001
  0
ARC
  5
467
  8
LAYER0014
  6
CONTINUOUS
 62
     7
 10
-3.521259388497356
 20
0.3079587507209602
 30
0.0
 40
0.8
 50
180.0720000000004
 51
360.1430000000001
  0
ARC
  5
468
  8
LAYER0014
  6
CONTINUOUS
 62
     7
 10
-12.51825742394232
 20
0.3079587507209602
 30
0.0
 40
0.8
 50
180.0720000000004
 51
360.1430000000001
  0
ARC
  5
469
  8
LAYER0014
  6
CONTINUOUS
 62
     7
 10
-21.52125938849736
 20
0.3079587507209602
 30
0.0
 40
0.8
 50
180.0720000000004
 51
360.1430000000001
  0
ARC
  5
46A
  8
LAYER0014
  6
CONTINUOUS
 62
     7
 10
-30.51825742394232
 20
0.3079587507209602
 30
0.0
 40
0.8
 50
180.0720000000004
 51
360.1430000000001
  0
LINE
  5
46B
  8
LAYER0014
  6
CONTINUOUS
 62
     7
 10
30.78526217240199
 20
17.00796015881457
 30
0.0
 11
33.28374257605918
 21
0.2789587507209639
 31
0.0
  0
LINE
  5
46C
  8
LAYER0014
  6
CONTINUOUS
 62
     7
 10
31.68074257605912
 20
0.3409587507209757
 30
0.0
 11
28.97801398067094
 21
17.00796015881457
 31
0.0
  0
LINE
  5
46D
  8
LAYER0014
  6
CONTINUOUS
 62
     7
 10
21.77925824329191
 20
17.00796015881457
 30
0.0
 11
24.2777386469491
 21
0.2789587507209639
 31
0.0
  0
LINE
  5
46E
  8
LAYER0014
  6
CONTINUOUS
 62
     7
 10
22.67473864694904
 20
0.3409587507209757
 30
0.0
 11
19.97201005156086
 21
17.00796015881457
 31
0.0
  0
LINE
  5
46F
  8
LAYER0014
  6
CONTINUOUS
 62
     7
 10
12.78826413695373
 20
17.00796015881457
 30
0.0
 11
15.28674454061087
 21
0.2789587507209639
 31
0.0
  0
LINE
  5
470
  8
LAYER0014
  6
CONTINUOUS
 62
     7
 10
13.68374454061086
 20
0.3409587507209757
 30
0.0
 11
10.98101594522262
 21
17.00796015881457
 31
0.0
  0
LINE
  5
471
  8
LAYER0014
  6
CONTINUOUS
 62
     7
 10
3.785262172401986
 20
17.00796015881457
 30
0.0
 11
6.283742576059183
 21
0.2789587507209639
 31
0.0
  0
LINE
  5
472
  8
LAYER0014
  6
CONTINUOUS
 62
     7
 10
4.680742576059117
 20
0.3409587507209757
 30
0.0
 11
1.978013980670937
 21
17.00796015881457
 31
0.0
  0
LINE
  5
473
  8
LAYER0014
  6
CONTINUOUS
 62
     7
 10
-5.220741756708094
 20
17.00796015881457
 30
0.0
 11
-2.722261353050897
 21
0.2789587507209639
 31
0.0
  0
LINE
  5
474
  8
LAYER0014
  6
CONTINUOUS
 62
     7
 10
-4.325261353050962
 20
0.3409587507209757
 30
0.0
 11
-7.027989948439142
 21
17.00796015881457
 31
0.0
  0
LINE
  5
475
  8
LAYER0014
  6
CONTINUOUS
 62
     7
 10
-14.21473782760131
 20
17.00796015881457
 30
0.0
 11
-11.71625742394417
 21
0.2789587507209639
 31
0.0
  0
LINE
  5
476
  8
LAYER0014
  6
CONTINUOUS
 62
     7
 10
-13.31925742394418
 20
0.3409587507209757
 30
0.0
 11
-16.02198601933242
 21
17.00796015881457
 31
0.0
  0
LINE
  5
477
  8
LAYER0014
  6
CONTINUOUS
 62
     7
 10
-23.22074175670809
 20
17.00796015881457
 30
0.0
 11
-20.7222613530509
 21
0.2789587507209639
 31
0.0
  0
LINE
  5
478
  8
LAYER0014
  6
CONTINUOUS
 62
     7
 10
-22.32526135305096
 20
0.3409587507209757
 30
0.0
 11
-25.02798994843914
 21
17.00796015881457
 31
0.0
  0
LINE
  5
479
  8
LAYER0014
  6
CONTINUOUS
 62
     7
 10
-31.31925742394088
 20
0.3409587507209757
 30
0.0
 11
-31.51554570825789
 21
1.551415885294492
 31
0.0
  0
LINE
  5
47A
  8
LAYER0014
  6
CONTINUOUS
 62
     7
 10
48.28526217240193
 20
17.00796015881457
 30
0.0
 11
50.78374257605918
 21
0.2789587507209639
 31
0.0
  0
LINE
  5
47B
  8
LAYER0014
  6
CONTINUOUS
 62
     7
 10
49.18074257605912
 20
0.3409587507209757
 30
0.0
 11
46.47801398067094
 21
17.00796015881457
 31
0.0
  0
LINE
  5
47C
  8
LAYER0014
  6
CONTINUOUS
 62
     7
 10
39.28526217240199
 20
17.00796015881457
 30
0.0
 11
41.78374257605918
 21
0.2789587507209639
 31
0.0
  0
LINE
  5
47D
  8
LAYER0014
  6
CONTINUOUS
 62
     7
 10
40.18074257605912
 20
0.3409587507209757
 30
0.0
 11
37.47801398067094
 21
17.00796015881457
 31
0.0
  0
LINE
  5
47E
  8
LAYER0014
  6
CONTINUOUS
 62
     7
 10
30.78526217240199
 20
17.00796015881457
 30
0.0
 11
33.28374257605918
 21
0.2789587507209639
 31
0.0
  0
LINE
  5
47F
  8
LAYER0014
  6
CONTINUOUS
 62
     7
 10
31.68074257605912
 20
0.3409587507209757
 30
0.0
 11
28.97801398067094
 21
17.00796015881457
 31
0.0
  0
LINE
  5
480
  8
LAYER0014
  6
CONTINUOUS
 62
     7
 10
21.77925824329191
 20
17.00796015881457
 30
0.0
 11
24.2777386469491
 21
0.2789587507209639
 31
0.0
  0
LINE
  5
481
  8
LAYER0014
  6
CONTINUOUS
 62
     7
 10
22.67473864694904
 20
0.3409587507209757
 30
0.0
 11
19.97201005156086
 21
17.00796015881457
 31
0.0
  0
LINE
  5
482
  8
LAYER0014
  6
CONTINUOUS
 62
     7
 10
12.78826413695373
 20
17.00796015881457
 30
0.0
 11
15.28674454061087
 21
0.2789587507209639
 31
0.0
  0
LINE
  5
483
  8
LAYER0014
  6
CONTINUOUS
 62
     7
 10
13.68374454061086
 20
0.3409587507209757
 30
0.0
 11
10.98101594522262
 21
17.00796015881457
 31
0.0
  0
LINE
  5
484
  8
LAYER0014
  6
CONTINUOUS
 62
     7
 10
3.785262172401986
 20
17.00796015881457
 30
0.0
 11
6.283742576059183
 21
0.2789587507209639
 31
0.0
  0
LINE
  5
485
  8
LAYER0014
  6
CONTINUOUS
 62
     7
 10
4.680742576059117
 20
0.3409587507209757
 30
0.0
 11
1.978013980670937
 21
17.00796015881457
 31
0.0
  0
LINE
  5
486
  8
LAYER0014
  6
CONTINUOUS
 62
     7
 10
-5.220741756708094
 20
17.00796015881457
 30
0.0
 11
-2.722261353050897
 21
0.2789587507209639
 31
0.0
  0
LINE
  5
487
  8
LAYER0014
  6
CONTINUOUS
 62
     7
 10
-4.325261353050962
 20
0.3409587507209757
 30
0.0
 11
-7.027989948439142
 21
17.00796015881457
 31
0.0
  0
LINE
  5
488
  8
LAYER0014
  6
CONTINUOUS
 62
     7
 10
-14.21473782760131
 20
17.00796015881457
 30
0.0
 11
-11.71625742394417
 21
0.2789587507209639
 31
0.0
  0
LINE
  5
489
  8
LAYER0014
  6
CONTINUOUS
 62
     7
 10
-13.31925742394418
 20
0.3409587507209757
 30
0.0
 11
-16.02198601933242
 21
17.00796015881457
 31
0.0
  0
LINE
  5
48A
  8
LAYER0014
  6
CONTINUOUS
 62
     7
 10
-23.22074175670809
 20
17.00796015881457
 30
0.0
 11
-20.7222613530509
 21
0.2789587507209639
 31
0.0
  0
LINE
  5
48B
  8
LAYER0014
  6
CONTINUOUS
 62
     7
 10
-22.32526135305096
 20
0.3409587507209757
 30
0.0
 11
-25.02798994843914
 21
17.00796015881457
 31
0.0
  0
LINE
  5
48C
  8
LAYER0014
  6
CONTINUOUS
 62
     7
 10
-31.51554570825789
 20
12.3264001466377
 30
0.0
 11
-29.71625742394082
 21
0.2789587507209639
 31
0.0
  0
LINE
  5
48D
  8
LAYER0014
  6
CONTINUOUS
 62
     7
 10
21.77536033043822
 20
0.5666300377717519
 30
0.0
 11
22.49173864694905
 21
0.5099587507209868
 31
0.0
  0
LINE
  5
48E
  8
LAYER0014
  6
CONTINUOUS
 62
     7
 10
9.982342548781617
 20
0.7882926486676638
 30
0.0
 11
13.50074454061087
 21
0.5099587507209868
 31
0.0
  0
LINE
  5
48F
  8
LAYER0014
  6
CONTINUOUS
 62
     7
 10
9.982342548781617
 20
0.7882926486676638
 30
0.0
 11
6.466742576059176
 21
0.5099587507209868
 31
0.0
  0
LINE
  5
490
  8
LAYER0014
  6
CONTINUOUS
 62
     7
 10
-26.02215860428481
 20
0.7879362874525242
 30
0.0
 11
-22.50826135305096
 21
0.5099587507209868
 31
0.0
  0
LINE
  5
491
  8
LAYER0014
  6
CONTINUOUS
 62
     7
 10
-26.02215860428481
 20
0.7879362874525242
 30
0.0
 11
-29.53325742394083
 21
0.5099587507209868
 31
0.0
  0
LINE
  5
492
  8
LAYER0014
  6
CONTINUOUS
 62
     7
 10
54.73074257605919
 20
0.8079587507209887
 30
0.0
 11
50.96674257605918
 21
0.5099587507209868
 31
0.0
  0
LINE
  5
493
  8
LAYER0014
  6
CONTINUOUS
 62
     7
 10
45.4808421644272
 20
0.7881738615960359
 30
0.0
 11
48.99774257605913
 21
0.5099587507209868
 31
0.0
  0
LINE
  5
494
  8
LAYER0014
  6
CONTINUOUS
 62
     7
 10
45.4808421644272
 20
0.7881738615960359
 30
0.0
 11
41.96674257605918
 21
0.5099587507209868
 31
0.0
  0
LINE
  5
495
  8
LAYER0014
  6
CONTINUOUS
 62
     7
 10
36.73094175279528
 20
0.7683889724710902
 30
0.0
 11
39.99774257605913
 21
0.5099587507209868
 31
0.0
  0
LINE
  5
496
  8
LAYER0014
  6
CONTINUOUS
 62
     7
 10
36.73094175279533
 20
0.7683889724710902
 30
0.0
 11
33.46674257605918
 21
0.5099587507209868
 31
0.0
  0
LINE
  5
497
  8
LAYER0014
  6
CONTINUOUS
 62
     7
 10
27.97783900402919
 20
0.7884114357395511
 30
0.0
 11
31.49774257605913
 21
0.5099587507209868
 31
0.0
  0
LINE
  5
498
  8
LAYER0014
  6
CONTINUOUS
 62
     7
 10
27.97783900402919
 20
0.7884114357395511
 30
0.0
 11
24.4607386469491
 21
0.5099587507209868
 31
0.0
  0
LINE
  5
499
  8
LAYER0014
  6
CONTINUOUS
 62
     7
 10
18.61793170480104
 20
0.7592041744533624
 30
0.0
 11
15.46974454061086
 21
0.5099587507209868
 31
0.0
  0
LINE
  5
49A
  8
LAYER0014
  6
CONTINUOUS
 62
     7
 10
0.9778390040291924
 20
0.7884114357395511
 30
0.0
 11
4.497742576059125
 21
0.5099587507209868
 31
0.0
  0
LINE
  5
49B
  8
LAYER0014
  6
CONTINUOUS
 62
     7
 10
0.9778390040291924
 20
0.7884114357395511
 30
0.0
 11
-2.539261353050904
 21
0.5099587507209868
 31
0.0
  0
LINE
  5
49C
  8
LAYER0014
  6
CONTINUOUS
 62
     7
 10
-8.02215860428646
 20
0.7879362874526557
 30
0.0
 11
-4.508261353050955
 21
0.5099587507209868
 31
0.0
  0
LINE
  5
49D
  8
LAYER0014
  6
CONTINUOUS
 62
     7
 10
-8.02215860428646
 20
0.7879362874526557
 30
0.0
 11
-11.53325742394418
 21
0.5099587507209868
 31
0.0
  0
LINE
  5
49E
  8
LAYER0014
  6
CONTINUOUS
 62
     7
 10
-17.02216099597246
 20
0.7884114357394196
 30
0.0
 11
-13.50225742394417
 21
0.5099587507209868
 31
0.0
  0
LINE
  5
49F
  8
LAYER0014
  6
CONTINUOUS
 62
     7
 10
-17.02216099597246
 20
0.7884114357394196
 30
0.0
 11
-20.5392613530509
 21
0.5099587507209868
 31
0.0
  0
LINE
  5
4A0
  8
LAYER0014
  6
CONTINUOUS
 62
     7
 10
-31.51554570825789
 20
0.5110099608952545
 30
0.0
 11
-31.50225742394088
 21
0.5099587507209868
 31
0.0
  0
ARC
  5
4A1
  8
LAYER0014
  6
CONTINUOUS
 62
     7
 10
-39.52125938849736
 20
33.70795875072099
 30
0.0
 40
0.8
 50
359.8569999999999
 51
539.9279999999997
  0
ARC
  5
4A2
  8
LAYER0014
  6
CONTINUOUS
 62
     7
 10
-29.51825742394232
 20
33.70495875072101
 30
0.0
 40
0.499
 50
179.4259999999998
 51
264.826000000001
  0
LINE
  5
4A3
  8
LAYER0014
  6
CONTINUOUS
 62
     7
 10
-31.47125742394229
 20
33.20795875072099
 30
0.0
 11
-29.56325742394228
 21
33.20795875072099
 31
0.0
  0
ARC
  5
4A4
  8
LAYER0014
  6
CONTINUOUS
 62
     7
 10
-31.51625742394231
 20
33.70495875072101
 30
0.0
 40
0.499
 50
275.173999999999
 51
360.5740000000002
  0
ARC
  5
4A5
  8
LAYER0014
  6
CONTINUOUS
 62
     7
 10
-31.51825742394232
 20
33.70695875072096
 30
0.0
 40
0.202
 50
270.2839999999983
 51
359.7160000000017
  0
ARC
  5
4A6
  8
LAYER0014
  6
CONTINUOUS
 62
     7
 10
-29.51625742394231
 20
33.70695875072096
 30
0.0
 40
0.202
 50
180.2839999999983
 51
269.7160000000017
  0
ARC
  5
4A7
  8
LAYER0014
  6
CONTINUOUS
 62
     7
 10
-38.52125938849736
 20
33.70495875072101
 30
0.0
 40
0.499
 50
179.4259999999998
 51
264.826000000001
  0
ARC
  5
4A8
  8
LAYER0014
  6
CONTINUOUS
 62
     7
 10
-38.51925938849735
 20
33.70695875072096
 30
0.0
 40
0.202
 50
180.2839999999983
 51
269.7160000000017
  0
ARC
  5
4A9
  8
LAYER0014
  6
CONTINUOUS
 62
     7
 10
-20.52125938849736
 20
33.70495875072101
 30
0.0
 40
0.499
 50
179.4259999999998
 51
264.826000000001
  0
LINE
  5
4AA
  8
LAYER0014
  6
CONTINUOUS
 62
     7
 10
-22.47425938849733
 20
33.20795875072099
 30
0.0
 11
-20.56625938849732
 21
33.20795875072099
 31
0.0
  0
ARC
  5
4AB
  8
LAYER0014
  6
CONTINUOUS
 62
     7
 10
-22.51925938849735
 20
33.70495875072101
 30
0.0
 40
0.499
 50
275.173999999999
 51
360.5740000000002
  0
ARC
  5
4AC
  8
LAYER0014
  6
CONTINUOUS
 62
     7
 10
-22.52125938849736
 20
33.70695875072096
 30
0.0
 40
0.202
 50
270.2839999999983
 51
359.7160000000017
  0
ARC
  5
4AD
  8
LAYER0014
  6
CONTINUOUS
 62
     7
 10
-20.51925938849735
 20
33.70695875072096
 30
0.0
 40
0.202
 50
180.2839999999983
 51
269.7160000000017
  0
ARC
  5
4AE
  8
LAYER0014
  6
CONTINUOUS
 62
     7
 10
-21.52125938849736
 20
33.70795875072099
 30
0.0
 40
0.8
 50
359.8569999999999
 51
539.9279999999997
  0
CIRCLE
  5
4AF
  8
LAYER0014
  6
CONTINUOUS
 62
     7
 10
-21.52025938849732
 20
33.70795875072099
 30
0.0
 40
0.5
  0
ARC
  5
4B0
  8
LAYER0014
  6
CONTINUOUS
 62
     7
 10
-30.51825742394232
 20
33.70795875072099
 30
0.0
 40
0.8
 50
359.8569999999999
 51
539.9279999999997
  0
CIRCLE
  5
4B1
  8
LAYER0014
  6
CONTINUOUS
 62
     7
 10
-30.51725742394228
 20
33.70795875072099
 30
0.0
 40
0.5
  0
LINE
  5
4B2
  8
LAYER0014
  6
CONTINUOUS
 62
     7
 10
-40.47425938849733
 20
33.20795875072099
 30
0.0
 11
-38.56625938849732
 21
33.20795875072099
 31
0.0
  0
ARC
  5
4B3
  8
LAYER0014
  6
CONTINUOUS
 62
     7
 10
-40.51925938849735
 20
33.70495875072101
 30
0.0
 40
0.499
 50
275.173999999999
 51
360.5740000000002
  0
ARC
  5
4B4
  8
LAYER0014
  6
CONTINUOUS
 62
     7
 10
-40.52125938849736
 20
33.70695875072096
 30
0.0
 40
0.202
 50
271.6208585750787
 51
359.7160000000017
  0
ARC
  5
4B5
  8
LAYER0014
  6
CONTINUOUS
 62
     7
 10
-39.52125938849736
 20
33.70795875072099
 30
0.0
 40
0.8
 50
359.8569999999999
 51
539.9279999999997
  0
CIRCLE
  5
4B6
  8
LAYER0014
  6
CONTINUOUS
 62
     7
 10
-39.52025938849732
 20
33.70795875072099
 30
0.0
 40
0.5
  0
ARC
  5
4B7
  8
LAYER0014
  6
CONTINUOUS
 62
     7
 10
-29.51825742394232
 20
33.70495875072101
 30
0.0
 40
0.499
 50
179.4259999999998
 51
264.826000000001
  0
LINE
  5
4B8
  8
LAYER0014
  6
CONTINUOUS
 62
     7
 10
-31.47125742394229
 20
33.20795875072099
 30
0.0
 11
-29.56325742394228
 21
33.20795875072099
 31
0.0
  0
ARC
  5
4B9
  8
LAYER0014
  6
CONTINUOUS
 62
     7
 10
-31.51625742394231
 20
33.70495875072101
 30
0.0
 40
0.499
 50
275.173999999999
 51
360.5740000000002
  0
ARC
  5
4BA
  8
LAYER0014
  6
CONTINUOUS
 62
     7
 10
-31.51825742394232
 20
33.70695875072096
 30
0.0
 40
0.202
 50
270.2839999999983
 51
359.7160000000017
  0
ARC
  5
4BB
  8
LAYER0014
  6
CONTINUOUS
 62
     7
 10
-29.51625742394231
 20
33.70695875072096
 30
0.0
 40
0.202
 50
180.2839999999983
 51
269.7160000000017
  0
ARC
  5
4BC
  8
LAYER0014
  6
CONTINUOUS
 62
     7
 10
-38.52125938849736
 20
33.70495875072101
 30
0.0
 40
0.499
 50
179.4259999999998
 51
264.826000000001
  0
LINE
  5
4BD
  8
LAYER0014
  6
CONTINUOUS
 62
     7
 10
-35.02065941577325
 20
33.22762485277418
 30
0.0
 11
-31.5022574239423
 21
33.50595875072099
 31
0.0
  0
LINE
  5
4BE
  8
LAYER0014
  6
CONTINUOUS
 62
     7
 10
-35.02065941577325
 20
33.22762485277418
 30
0.0
 11
-38.53625938849734
 21
33.50595875072099
 31
0.0
  0
ARC
  5
4BF
  8
LAYER0014
  6
CONTINUOUS
 62
     7
 10
-38.51925938849735
 20
33.70695875072096
 30
0.0
 40
0.202
 50
180.2839999999983
 51
269.7160000000017
  0
ARC
  5
4C0
  8
LAYER0014
  6
CONTINUOUS
 62
     7
 10
-20.52125938849736
 20
33.70495875072101
 30
0.0
 40
0.499
 50
179.4259999999998
 51
264.826000000001
  0
LINE
  5
4C1
  8
LAYER0014
  6
CONTINUOUS
 62
     7
 10
-22.47425938849733
 20
33.20795875072099
 30
0.0
 11
-20.56625938849732
 21
33.20795875072099
 31
0.0
  0
ARC
  5
4C2
  8
LAYER0014
  6
CONTINUOUS
 62
     7
 10
-22.51925938849735
 20
33.70495875072101
 30
0.0
 40
0.499
 50
275.173999999999
 51
360.5740000000002
  0
LINE
  5
4C3
  8
LAYER0014
  6
CONTINUOUS
 62
     7
 10
-17.02065941577325
 20
33.22762485277418
 30
0.0
 11
-20.53625938849734
 21
33.50595875072099
 31
0.0
  0
ARC
  5
4C4
  8
LAYER0014
  6
CONTINUOUS
 62
     7
 10
-22.52125938849736
 20
33.70695875072096
 30
0.0
 40
0.202
 50
270.2839999999983
 51
359.7160000000017
  0
ARC
  5
4C5
  8
LAYER0014
  6
CONTINUOUS
 62
     7
 10
-20.51925938849735
 20
33.70695875072096
 30
0.0
 40
0.202
 50
180.2839999999983
 51
269.7160000000017
  0
ARC
  5
4C6
  8
LAYER0014
  6
CONTINUOUS
 62
     7
 10
-21.52125938849736
 20
33.70795875072099
 30
0.0
 40
0.8
 50
359.8569999999999
 51
539.9279999999997
  0
CIRCLE
  5
4C7
  8
LAYER0014
  6
CONTINUOUS
 62
     7
 10
-21.52025938849732
 20
33.70795875072099
 30
0.0
 40
0.5
  0
LINE
  5
4C8
  8
LAYER0014
  6
CONTINUOUS
 62
     7
 10
-26.02065821993023
 20
33.2278624269177
 30
0.0
 11
-29.5332574239423
 21
33.50595875072099
 31
0.0
  0
ARC
  5
4C9
  8
LAYER0014
  6
CONTINUOUS
 62
     7
 10
-30.51825742394232
 20
33.70795875072099
 30
0.0
 40
0.8
 50
359.8569999999999
 51
539.9279999999997
  0
CIRCLE
  5
4CA
  8
LAYER0014
  6
CONTINUOUS
 62
     7
 10
-30.51725742394228
 20
33.70795875072099
 30
0.0
 40
0.5
  0
LINE
  5
4CB
  8
LAYER0014
  6
CONTINUOUS
 62
     7
 10
-40.47425938849733
 20
33.20795875072099
 30
0.0
 11
-38.56625938849732
 21
33.20795875072099
 31
0.0
  0
ARC
  5
4CC
  8
LAYER0014
  6
CONTINUOUS
 62
     7
 10
-40.51925938849735
 20
33.70495875072101
 30
0.0
 40
0.499
 50
275.173999999999
 51
360.5740000000002
  0
ARC
  5
4CD
  8
LAYER0014
  6
CONTINUOUS
 62
     7
 10
-40.52125938849736
 20
33.70695875072096
 30
0.0
 40
0.202
 50
271.6208585750787
 51
359.7160000000017
  0
ARC
  5
4CE
  8
LAYER0014
  6
CONTINUOUS
 62
     7
 10
-39.52125938849736
 20
33.70795875072099
 30
0.0
 40
0.8
 50
359.8569999999999
 51
539.9279999999997
  0
CIRCLE
  5
4CF
  8
LAYER0014
  6
CONTINUOUS
 62
     7
 10
-39.52025938849732
 20
33.70795875072099
 30
0.0
 40
0.5
  0
LINE
  5
4D0
  8
LAYER0014
  6
CONTINUOUS
 62
     7
 10
-26.02065821993023
 20
33.2278624269177
 30
0.0
 11
-22.50525938849734
 21
33.50595875072099
 31
0.0
  0
ARC
  5
4D1
  8
LAYER0014
  6
CONTINUOUS
 62
     7
 10
6.481742576057684
 20
33.70495875072101
 30
0.0
 40
0.499
 50
179.4259999999998
 51
264.826000000001
  0
LINE
  5
4D2
  8
LAYER0014
  6
CONTINUOUS
 62
     7
 10
4.528742576057709
 20
33.20795875072099
 30
0.0
 11
6.436742576057725
 21
33.20795875072099
 31
0.0
  0
ARC
  5
4D3
  8
LAYER0014
  6
CONTINUOUS
 62
     7
 10
4.483742576057693
 20
33.70495875072101
 30
0.0
 40
0.499
 50
275.173999999999
 51
360.5740000000002
  0
ARC
  5
4D4
  8
LAYER0014
  6
CONTINUOUS
 62
     7
 10
4.481742576057684
 20
33.70695875072096
 30
0.0
 40
0.202
 50
270.2839999999983
 51
359.7160000000017
  0
ARC
  5
4D5
  8
LAYER0014
  6
CONTINUOUS
 62
     7
 10
5.481742576057684
 20
33.70795875072099
 30
0.0
 40
0.8
 50
359.8569999999999
 51
539.9279999999997
  0
CIRCLE
  5
4D6
  8
LAYER0014
  6
CONTINUOUS
 62
     7
 10
5.482742576057717
 20
33.70795875072099
 30
0.0
 40
0.5
  0
ARC
  5
4D7
  8
LAYER0014
  6
CONTINUOUS
 62
     7
 10
-2.521259388497356
 20
33.70495875072101
 30
0.0
 40
0.499
 50
179.4259999999998
 51
264.826000000001
  0
LINE
  5
4D8
  8
LAYER0014
  6
CONTINUOUS
 62
     7
 10
-4.47425938849733
 20
33.20795875072099
 30
0.0
 11
-2.566259388497315
 21
33.20795875072099
 31
0.0
  0
ARC
  5
4D9
  8
LAYER0014
  6
CONTINUOUS
 62
     7
 10
-4.519259388497346
 20
33.70495875072101
 30
0.0
 40
0.499
 50
275.173999999999
 51
360.5740000000002
  0
ARC
  5
4DA
  8
LAYER0014
  6
CONTINUOUS
 62
     7
 10
-4.521259388497356
 20
33.70695875072096
 30
0.0
 40
0.202
 50
270.2839999999983
 51
359.7160000000017
  0
ARC
  5
4DB
  8
LAYER0014
  6
CONTINUOUS
 62
     7
 10
-2.519259388497346
 20
33.70695875072096
 30
0.0
 40
0.202
 50
180.2839999999983
 51
269.7160000000017
  0
ARC
  5
4DC
  8
LAYER0014
  6
CONTINUOUS
 62
     7
 10
-3.521259388497356
 20
33.70795875072099
 30
0.0
 40
0.8
 50
359.8569999999999
 51
539.9279999999997
  0
CIRCLE
  5
4DD
  8
LAYER0014
  6
CONTINUOUS
 62
     7
 10
-3.520259388497323
 20
33.70795875072099
 30
0.0
 40
0.5
  0
ARC
  5
4DE
  8
LAYER0014
  6
CONTINUOUS
 62
     7
 10
-11.51825742394232
 20
33.70495875072101
 30
0.0
 40
0.499
 50
179.4259999999998
 51
264.826000000001
  0
LINE
  5
4DF
  8
LAYER0014
  6
CONTINUOUS
 62
     7
 10
-13.47125742394229
 20
33.20795875072099
 30
0.0
 11
-11.56325742394228
 21
33.20795875072099
 31
0.0
  0
ARC
  5
4E0
  8
LAYER0014
  6
CONTINUOUS
 62
     7
 10
-13.51625742394231
 20
33.70495875072101
 30
0.0
 40
0.499
 50
275.173999999999
 51
360.5740000000002
  0
ARC
  5
4E1
  8
LAYER0014
  6
CONTINUOUS
 62
     7
 10
-13.51825742394232
 20
33.70695875072096
 30
0.0
 40
0.202
 50
270.2839999999983
 51
359.7160000000017
  0
ARC
  5
4E2
  8
LAYER0014
  6
CONTINUOUS
 62
     7
 10
-11.51625742394231
 20
33.70695875072096
 30
0.0
 40
0.202
 50
180.2839999999983
 51
269.7160000000017
  0
ARC
  5
4E3
  8
LAYER0014
  6
CONTINUOUS
 62
     7
 10
-12.51825742394232
 20
33.70795875072099
 30
0.0
 40
0.8
 50
359.8569999999999
 51
539.9279999999997
  0
CIRCLE
  5
4E4
  8
LAYER0014
  6
CONTINUOUS
 62
     7
 10
-12.51725742394228
 20
33.70795875072099
 30
0.0
 40
0.5
  0
ARC
  5
4E5
  8
LAYER0014
  6
CONTINUOUS
 62
     7
 10
6.481742576057684
 20
33.70495875072101
 30
0.0
 40
0.499
 50
179.4259999999998
 51
264.826000000001
  0
LINE
  5
4E6
  8
LAYER0014
  6
CONTINUOUS
 62
     7
 10
4.528742576057709
 20
33.20795875072099
 30
0.0
 11
6.436742576057725
 21
33.20795875072099
 31
0.0
  0
ARC
  5
4E7
  8
LAYER0014
  6
CONTINUOUS
 62
     7
 10
4.483742576057693
 20
33.70495875072101
 30
0.0
 40
0.499
 50
275.173999999999
 51
360.5740000000002
  0
ARC
  5
4E8
  8
LAYER0014
  6
CONTINUOUS
 62
     7
 10
4.481742576057684
 20
33.70695875072096
 30
0.0
 40
0.202
 50
270.2839999999983
 51
359.7160000000017
  0
ARC
  5
4E9
  8
LAYER0014
  6
CONTINUOUS
 62
     7
 10
5.481742576057684
 20
33.70795875072099
 30
0.0
 40
0.8
 50
359.8569999999999
 51
539.9279999999997
  0
CIRCLE
  5
4EA
  8
LAYER0014
  6
CONTINUOUS
 62
     7
 10
5.482742576057717
 20
33.70795875072099
 30
0.0
 40
0.5
  0
ARC
  5
4EB
  8
LAYER0014
  6
CONTINUOUS
 62
     7
 10
-2.521259388497356
 20
33.70495875072101
 30
0.0
 40
0.499
 50
179.4259999999998
 51
264.826000000001
  0
LINE
  5
4EC
  8
LAYER0014
  6
CONTINUOUS
 62
     7
 10
-4.47425938849733
 20
33.20795875072099
 30
0.0
 11
-2.566259388497315
 21
33.20795875072099
 31
0.0
  0
ARC
  5
4ED
  8
LAYER0014
  6
CONTINUOUS
 62
     7
 10
-4.519259388497346
 20
33.70495875072101
 30
0.0
 40
0.499
 50
275.173999999999
 51
360.5740000000002
  0
LINE
  5
4EE
  8
LAYER0014
  6
CONTINUOUS
 62
     7
 10
0.9793405842267475
 20
33.22762485277418
 30
0.0
 11
4.497742576057703
 21
33.50595875072099
 31
0.0
  0
LINE
  5
4EF
  8
LAYER0014
  6
CONTINUOUS
 62
     7
 10
0.9793405842267475
 20
33.22762485277418
 30
0.0
 11
-2.536259388497342
 21
33.50595875072099
 31
0.0
  0
ARC
  5
4F0
  8
LAYER0014
  6
CONTINUOUS
 62
     7
 10
-4.521259388497356
 20
33.70695875072096
 30
0.0
 40
0.202
 50
270.2839999999983
 51
359.7160000000017
  0
ARC
  5
4F1
  8
LAYER0014
  6
CONTINUOUS
 62
     7
 10
-2.519259388497346
 20
33.70695875072096
 30
0.0
 40
0.202
 50
180.2839999999983
 51
269.7160000000017
  0
ARC
  5
4F2
  8
LAYER0014
  6
CONTINUOUS
 62
     7
 10
-3.521259388497356
 20
33.70795875072099
 30
0.0
 40
0.8
 50
359.8569999999999
 51
539.9279999999997
  0
CIRCLE
  5
4F3
  8
LAYER0014
  6
CONTINUOUS
 62
     7
 10
-3.520259388497323
 20
33.70795875072099
 30
0.0
 40
0.5
  0
ARC
  5
4F4
  8
LAYER0014
  6
CONTINUOUS
 62
     7
 10
-11.51825742394232
 20
33.70495875072101
 30
0.0
 40
0.499
 50
179.4259999999998
 51
264.826000000001
  0
LINE
  5
4F5
  8
LAYER0014
  6
CONTINUOUS
 62
     7
 10
-13.47125742394229
 20
33.20795875072099
 30
0.0
 11
-11.56325742394228
 21
33.20795875072099
 31
0.0
  0
ARC
  5
4F6
  8
LAYER0014
  6
CONTINUOUS
 62
     7
 10
-13.51625742394231
 20
33.70495875072101
 30
0.0
 40
0.499
 50
275.173999999999
 51
360.5740000000002
  0
LINE
  5
4F7
  8
LAYER0014
  6
CONTINUOUS
 62
     7
 10
-8.020658219930226
 20
33.2278624269177
 30
0.0
 11
-4.505259388497336
 21
33.50595875072099
 31
0.0
  0
LINE
  5
4F8
  8
LAYER0014
  6
CONTINUOUS
 62
     7
 10
-8.020658219930226
 20
33.2278624269177
 30
0.0
 11
-11.5332574239423
 21
33.50595875072099
 31
0.0
  0
ARC
  5
4F9
  8
LAYER0014
  6
CONTINUOUS
 62
     7
 10
-13.51825742394232
 20
33.70695875072096
 30
0.0
 40
0.202
 50
270.2839999999983
 51
359.7160000000017
  0
ARC
  5
4FA
  8
LAYER0014
  6
CONTINUOUS
 62
     7
 10
-11.51625742394231
 20
33.70695875072096
 30
0.0
 40
0.202
 50
180.2839999999983
 51
269.7160000000017
  0
ARC
  5
4FB
  8
LAYER0014
  6
CONTINUOUS
 62
     7
 10
-12.51825742394232
 20
33.70795875072099
 30
0.0
 40
0.8
 50
359.8569999999999
 51
539.9279999999997
  0
CIRCLE
  5
4FC
  8
LAYER0014
  6
CONTINUOUS
 62
     7
 10
-12.51725742394228
 20
33.70795875072099
 30
0.0
 40
0.5
  0
LINE
  5
4FD
  8
LAYER0014
  6
CONTINUOUS
 62
     7
 10
-17.02065941577325
 20
33.22762485277418
 30
0.0
 11
-13.5022574239423
 21
33.50595875072099
 31
0.0
  0
ARC
  5
4FE
  8
LAYER0014
  6
CONTINUOUS
 62
     7
 10
6.483742576057693
 20
33.70695875072096
 30
0.0
 40
0.202
 50
180.2839999999983
 51
269.7160000000017
  0
ARC
  5
4FF
  8
LAYER0014
  6
CONTINUOUS
 62
     7
 10
6.483742576057693
 20
33.70695875072096
 30
0.0
 40
0.202
 50
180.2839999999983
 51
269.7160000000017
  0
ARC
  5
500
  8
LAYER0014
  6
CONTINUOUS
 62
     7
 10
41.98174257605768
 20
33.70495875072101
 30
0.0
 40
0.499
 50
179.4259999999998
 51
264.826000000001
  0
LINE
  5
501
  8
LAYER0014
  6
CONTINUOUS
 62
     7
 10
40.02874257605771
 20
33.20795875072099
 30
0.0
 11
41.93674257605767
 21
33.20795875072099
 31
0.0
  0
ARC
  5
502
  8
LAYER0014
  6
CONTINUOUS
 62
     7
 10
39.98374257605769
 20
33.70495875072101
 30
0.0
 40
0.499
 50
275.173999999999
 51
360.5740000000002
  0
ARC
  5
503
  8
LAYER0014
  6
CONTINUOUS
 62
     7
 10
39.98174257605768
 20
33.70695875072096
 30
0.0
 40
0.202
 50
270.2840000000064
 51
359.7160000000017
  0
ARC
  5
504
  8
LAYER0014
  6
CONTINUOUS
 62
     7
 10
41.98374257605769
 20
33.70695875072096
 30
0.0
 40
0.202
 50
180.2839999999983
 51
269.7159999999936
  0
ARC
  5
505
  8
LAYER0014
  6
CONTINUOUS
 62
     7
 10
40.98174257605768
 20
33.70795875072099
 30
0.0
 40
0.8
 50
359.8569999999999
 51
539.9279999999997
  0
CIRCLE
  5
506
  8
LAYER0014
  6
CONTINUOUS
 62
     7
 10
40.98274257605772
 20
33.70795875072099
 30
0.0
 40
0.5
  0
ARC
  5
507
  8
LAYER0014
  6
CONTINUOUS
 62
     7
 10
33.48174257605768
 20
33.70495875072101
 30
0.0
 40
0.499
 50
179.4259999999998
 51
264.826000000001
  0
LINE
  5
508
  8
LAYER0014
  6
CONTINUOUS
 62
     7
 10
31.52874257605771
 20
33.20795875072099
 30
0.0
 11
33.43674257605767
 21
33.20795875072099
 31
0.0
  0
ARC
  5
509
  8
LAYER0014
  6
CONTINUOUS
 62
     7
 10
31.48374257605769
 20
33.70495875072101
 30
0.0
 40
0.499
 50
275.173999999999
 51
360.5740000000002
  0
ARC
  5
50A
  8
LAYER0014
  6
CONTINUOUS
 62
     7
 10
31.48174257605768
 20
33.70695875072096
 30
0.0
 40
0.202
 50
270.2840000000064
 51
359.7160000000017
  0
ARC
  5
50B
  8
LAYER0014
  6
CONTINUOUS
 62
     7
 10
33.48374257605769
 20
33.70695875072096
 30
0.0
 40
0.202
 50
180.2839999999983
 51
269.7159999999936
  0
ARC
  5
50C
  8
LAYER0014
  6
CONTINUOUS
 62
     7
 10
32.48174257605768
 20
33.70795875072099
 30
0.0
 40
0.8
 50
359.8569999999999
 51
539.9279999999997
  0
CIRCLE
  5
50D
  8
LAYER0014
  6
CONTINUOUS
 62
     7
 10
32.48274257605772
 20
33.70795875072099
 30
0.0
 40
0.5
  0
ARC
  5
50E
  8
LAYER0014
  6
CONTINUOUS
 62
     7
 10
24.47874061150264
 20
33.70495875072101
 30
0.0
 40
0.499
 50
179.4259999999998
 51
264.826000000001
  0
LINE
  5
50F
  8
LAYER0014
  6
CONTINUOUS
 62
     7
 10
22.52574061150267
 20
33.20795875072099
 30
0.0
 11
24.43374061150263
 21
33.20795875072099
 31
0.0
  0
ARC
  5
510
  8
LAYER0014
  6
CONTINUOUS
 62
     7
 10
22.48074061150265
 20
33.70495875072101
 30
0.0
 40
0.499
 50
275.173999999999
 51
360.5740000000002
  0
ARC
  5
511
  8
LAYER0014
  6
CONTINUOUS
 62
     7
 10
22.47874061150264
 20
33.70695875072096
 30
0.0
 40
0.202
 50
270.2840000000064
 51
359.7160000000017
  0
ARC
  5
512
  8
LAYER0014
  6
CONTINUOUS
 62
     7
 10
24.48074061150265
 20
33.70695875072096
 30
0.0
 40
0.202
 50
180.2839999999983
 51
269.7159999999936
  0
ARC
  5
513
  8
LAYER0014
  6
CONTINUOUS
 62
     7
 10
23.47874061150264
 20
33.70795875072099
 30
0.0
 40
0.8
 50
359.8569999999999
 51
539.9279999999997
  0
CIRCLE
  5
514
  8
LAYER0014
  6
CONTINUOUS
 62
     7
 10
23.47974061150268
 20
33.70795875072099
 30
0.0
 40
0.5
  0
ARC
  5
515
  8
LAYER0014
  6
CONTINUOUS
 62
     7
 10
15.48174257605768
 20
33.70495875072101
 30
0.0
 40
0.499
 50
179.4259999999998
 51
264.826000000001
  0
LINE
  5
516
  8
LAYER0014
  6
CONTINUOUS
 62
     7
 10
13.52874257605771
 20
33.20795875072099
 30
0.0
 11
15.43674257605773
 21
33.20795875072099
 31
0.0
  0
ARC
  5
517
  8
LAYER0014
  6
CONTINUOUS
 62
     7
 10
13.48374257605769
 20
33.70495875072101
 30
0.0
 40
0.499
 50
275.173999999999
 51
360.5740000000002
  0
ARC
  5
518
  8
LAYER0014
  6
CONTINUOUS
 62
     7
 10
13.48174257605768
 20
33.70695875072096
 30
0.0
 40
0.202
 50
270.2839999999983
 51
359.7160000000017
  0
ARC
  5
519
  8
LAYER0014
  6
CONTINUOUS
 62
     7
 10
15.48374257605769
 20
33.70695875072096
 30
0.0
 40
0.202
 50
180.2839999999983
 51
269.7160000000017
  0
ARC
  5
51A
  8
LAYER0014
  6
CONTINUOUS
 62
     7
 10
14.48174257605768
 20
33.70795875072099
 30
0.0
 40
0.8
 50
359.8569999999999
 51
539.9279999999997
  0
CIRCLE
  5
51B
  8
LAYER0014
  6
CONTINUOUS
 62
     7
 10
14.48274257605772
 20
33.70795875072099
 30
0.0
 40
0.5
  0
ARC
  5
51C
  8
LAYER0014
  6
CONTINUOUS
 62
     7
 10
41.98174257605768
 20
33.70495875072101
 30
0.0
 40
0.499
 50
179.4259999999998
 51
264.826000000001
  0
LINE
  5
51D
  8
LAYER0014
  6
CONTINUOUS
 62
     7
 10
40.02874257605771
 20
33.20795875072099
 30
0.0
 11
41.93674257605767
 21
33.20795875072099
 31
0.0
  0
ARC
  5
51E
  8
LAYER0014
  6
CONTINUOUS
 62
     7
 10
39.98374257605769
 20
33.70495875072101
 30
0.0
 40
0.499
 50
275.173999999999
 51
360.5740000000002
  0
ARC
  5
51F
  8
LAYER0014
  6
CONTINUOUS
 62
     7
 10
39.98174257605768
 20
33.70695875072096
 30
0.0
 40
0.202
 50
270.2840000000064
 51
359.7160000000017
  0
ARC
  5
520
  8
LAYER0014
  6
CONTINUOUS
 62
     7
 10
41.98374257605769
 20
33.70695875072096
 30
0.0
 40
0.202
 50
180.2839999999983
 51
269.7159999999936
  0
ARC
  5
521
  8
LAYER0014
  6
CONTINUOUS
 62
     7
 10
40.98174257605768
 20
33.70795875072099
 30
0.0
 40
0.8
 50
359.8569999999999
 51
539.9279999999997
  0
CIRCLE
  5
522
  8
LAYER0014
  6
CONTINUOUS
 62
     7
 10
40.98274257605772
 20
33.70795875072099
 30
0.0
 40
0.5
  0
ARC
  5
523
  8
LAYER0014
  6
CONTINUOUS
 62
     7
 10
33.48174257605768
 20
33.70495875072101
 30
0.0
 40
0.499
 50
179.4259999999998
 51
264.826000000001
  0
LINE
  5
524
  8
LAYER0014
  6
CONTINUOUS
 62
     7
 10
31.52874257605771
 20
33.20795875072099
 30
0.0
 11
33.43674257605767
 21
33.20795875072099
 31
0.0
  0
ARC
  5
525
  8
LAYER0014
  6
CONTINUOUS
 62
     7
 10
31.48374257605769
 20
33.70495875072101
 30
0.0
 40
0.499
 50
275.173999999999
 51
360.5740000000002
  0
LINE
  5
526
  8
LAYER0014
  6
CONTINUOUS
 62
     7
 10
36.73094175279385
 20
33.24752852897089
 30
0.0
 11
39.9977425760577
 21
33.50595875072099
 31
0.0
  0
LINE
  5
527
  8
LAYER0014
  6
CONTINUOUS
 62
     7
 10
36.73094175279385
 20
33.24752852897089
 30
0.0
 11
33.4667425760577
 21
33.50595875072099
 31
0.0
  0
ARC
  5
528
  8
LAYER0014
  6
CONTINUOUS
 62
     7
 10
31.48174257605768
 20
33.70695875072096
 30
0.0
 40
0.202
 50
270.2840000000064
 51
359.7160000000017
  0
ARC
  5
529
  8
LAYER0014
  6
CONTINUOUS
 62
     7
 10
33.48374257605769
 20
33.70695875072096
 30
0.0
 40
0.202
 50
180.2839999999983
 51
269.7159999999936
  0
ARC
  5
52A
  8
LAYER0014
  6
CONTINUOUS
 62
     7
 10
32.48174257605768
 20
33.70795875072099
 30
0.0
 40
0.8
 50
359.8569999999999
 51
539.9279999999997
  0
CIRCLE
  5
52B
  8
LAYER0014
  6
CONTINUOUS
 62
     7
 10
32.48274257605772
 20
33.70795875072099
 30
0.0
 40
0.5
  0
ARC
  5
52C
  8
LAYER0014
  6
CONTINUOUS
 62
     7
 10
24.47874061150264
 20
33.70495875072101
 30
0.0
 40
0.499
 50
179.4259999999998
 51
264.826000000001
  0
LINE
  5
52D
  8
LAYER0014
  6
CONTINUOUS
 62
     7
 10
22.52574061150267
 20
33.20795875072099
 30
0.0
 11
24.43374061150263
 21
33.20795875072099
 31
0.0
  0
ARC
  5
52E
  8
LAYER0014
  6
CONTINUOUS
 62
     7
 10
22.48074061150265
 20
33.70495875072101
 30
0.0
 40
0.499
 50
275.173999999999
 51
360.5740000000002
  0
LINE
  5
52F
  8
LAYER0014
  6
CONTINUOUS
 62
     7
 10
27.97934058422675
 20
33.22762485277418
 30
0.0
 11
31.4977425760577
 21
33.50595875072099
 31
0.0
  0
LINE
  5
530
  8
LAYER0014
  6
CONTINUOUS
 62
     7
 10
27.97934058422675
 20
33.22762485277418
 30
0.0
 11
24.46374061150266
 21
33.50595875072099
 31
0.0
  0
ARC
  5
531
  8
LAYER0014
  6
CONTINUOUS
 62
     7
 10
22.47874061150264
 20
33.70695875072096
 30
0.0
 40
0.202
 50
270.2840000000064
 51
359.7160000000017
  0
ARC
  5
532
  8
LAYER0014
  6
CONTINUOUS
 62
     7
 10
24.48074061150265
 20
33.70695875072096
 30
0.0
 40
0.202
 50
180.2839999999983
 51
269.7159999999936
  0
ARC
  5
533
  8
LAYER0014
  6
CONTINUOUS
 62
     7
 10
23.47874061150264
 20
33.70795875072099
 30
0.0
 40
0.8
 50
359.8569999999999
 51
539.9279999999997
  0
CIRCLE
  5
534
  8
LAYER0014
  6
CONTINUOUS
 62
     7
 10
23.47974061150268
 20
33.70795875072099
 30
0.0
 40
0.5
  0
ARC
  5
535
  8
LAYER0014
  6
CONTINUOUS
 62
     7
 10
15.48174257605768
 20
33.70495875072101
 30
0.0
 40
0.499
 50
179.4259999999998
 51
264.826000000001
  0
LINE
  5
536
  8
LAYER0014
  6
CONTINUOUS
 62
     7
 10
13.52874257605771
 20
33.20795875072099
 30
0.0
 11
15.43674257605773
 21
33.20795875072099
 31
0.0
  0
ARC
  5
537
  8
LAYER0014
  6
CONTINUOUS
 62
     7
 10
13.48374257605769
 20
33.70495875072101
 30
0.0
 40
0.499
 50
275.173999999999
 51
360.5740000000002
  0
LINE
  5
538
  8
LAYER0014
  6
CONTINUOUS
 62
     7
 10
18.97934178006977
 20
33.2278624269177
 30
0.0
 11
22.49474061150266
 21
33.50595875072099
 31
0.0
  0
LINE
  5
539
  8
LAYER0014
  6
CONTINUOUS
 62
     7
 10
18.97934178006977
 20
33.2278624269177
 30
0.0
 11
15.4667425760577
 21
33.50595875072099
 31
0.0
  0
ARC
  5
53A
  8
LAYER0014
  6
CONTINUOUS
 62
     7
 10
13.48174257605768
 20
33.70695875072096
 30
0.0
 40
0.202
 50
270.2839999999983
 51
359.7160000000017
  0
ARC
  5
53B
  8
LAYER0014
  6
CONTINUOUS
 62
     7
 10
15.48374257605769
 20
33.70695875072096
 30
0.0
 40
0.202
 50
180.2839999999983
 51
269.7160000000017
  0
ARC
  5
53C
  8
LAYER0014
  6
CONTINUOUS
 62
     7
 10
14.48174257605768
 20
33.70795875072099
 30
0.0
 40
0.8
 50
359.8569999999999
 51
539.9279999999997
  0
CIRCLE
  5
53D
  8
LAYER0014
  6
CONTINUOUS
 62
     7
 10
14.48274257605772
 20
33.70795875072099
 30
0.0
 40
0.5
  0
LINE
  5
53E
  8
LAYER0014
  6
CONTINUOUS
 62
     7
 10
12.96067792776222
 20
33.463472617142
 30
0.0
 11
13.4977425760577
 21
33.50595875072099
 31
0.0
  0
LINE
  5
53F
  8
LAYER0014
  6
CONTINUOUS
 62
     7
 10
9.916651035887696
 20
33.23282572175464
 30
0.0
 11
6.466742576057698
 21
33.50595875072099
 31
0.0
  0
ARC
  5
540
  8
LAYER0014
  6
CONTINUOUS
 62
     7
 10
58.22863982729302
 20
0.3289812139894295
 30
0.0
 40
0.202
 50
0.2839999999983307
 51
89.71600000000167
  0
ARC
  5
541
  8
LAYER0014
  6
CONTINUOUS
 62
     7
 10
60.23063982729303
 20
0.3289812139894295
 30
0.0
 40
0.202
 50
90.28399999999833
 51
179.7160000000017
  0
ARC
  5
542
  8
LAYER0014
  6
CONTINUOUS
 62
     7
 10
67.23464375639975
 20
0.3289812139894295
 30
0.0
 40
0.202
 50
0.2839999999983307
 51
89.71600000000167
  0
ARC
  5
543
  8
LAYER0014
  6
CONTINUOUS
 62
     7
 10
69.23664375639976
 20
0.3289812139894295
 30
0.0
 40
0.202
 50
90.28399999999833
 51
179.7160000000017
  0
ARC
  5
544
  8
LAYER0014
  6
CONTINUOUS
 62
     7
 10
68.23464375639975
 20
0.3279812139894531
 30
0.0
 40
0.8
 50
180.0720000000004
 51
360.1430000000001
  0
ARC
  5
545
  8
LAYER0014
  6
CONTINUOUS
 62
     7
 10
59.22863982729302
 20
0.3279812139894531
 30
0.0
 40
0.8
 50
180.0720000000004
 51
360.1430000000001
  0
ARC
  5
546
  8
LAYER0014
  6
CONTINUOUS
 62
     7
 10
68.23464375640162
 20
0.3279812139894247
 30
0.0
 40
0.8
 50
180.0720000000004
 51
360.1430000000001
  0
ARC
  5
547
  8
LAYER0014
  6
CONTINUOUS
 62
     7
 10
59.23164179184659
 20
0.3279812139894247
 30
0.0
 40
0.8
 50
180.0720000000004
 51
360.1430000000001
  0
ARC
  5
548
  8
LAYER0014
  6
CONTINUOUS
 62
     7
 10
58.22863982729302
 20
0.3289812139894295
 30
0.0
 40
0.202
 50
0.2839999999983307
 51
89.71600000000167
  0
ARC
  5
549
  8
LAYER0014
  6
CONTINUOUS
 62
     7
 10
60.23063982729303
 20
0.3289812139894295
 30
0.0
 40
0.202
 50
90.28399999999833
 51
179.7160000000017
  0
ARC
  5
54A
  8
LAYER0014
  6
CONTINUOUS
 62
     7
 10
67.23464375639975
 20
0.3289812139894295
 30
0.0
 40
0.202
 50
0.2839999999983307
 51
89.71600000000167
  0
ARC
  5
54B
  8
LAYER0014
  6
CONTINUOUS
 62
     7
 10
69.23664375639976
 20
0.3289812139894295
 30
0.0
 40
0.202
 50
90.28399999999833
 51
179.7160000000017
  0
ARC
  5
54C
  8
LAYER0014
  6
CONTINUOUS
 62
     7
 10
68.23464375639975
 20
0.3279812139894531
 30
0.0
 40
0.8
 50
180.0720000000004
 51
360.1430000000001
  0
ARC
  5
54D
  8
LAYER0014
  6
CONTINUOUS
 62
     7
 10
59.22863982729302
 20
0.3279812139894531
 30
0.0
 40
0.8
 50
180.0720000000004
 51
360.1430000000001
  0
ARC
  5
54E
  8
LAYER0014
  6
CONTINUOUS
 62
     7
 10
68.23464375640162
 20
0.3279812139894247
 30
0.0
 40
0.8
 50
180.0720000000004
 51
360.1430000000001
  0
ARC
  5
54F
  8
LAYER0014
  6
CONTINUOUS
 62
     7
 10
59.23164179184659
 20
0.3279812139894247
 30
0.0
 40
0.8
 50
180.0720000000004
 51
360.1430000000001
  0
LINE
  5
550
  8
LAYER0014
  6
CONTINUOUS
 62
     7
 10
72.73074257605748
 20
0.8079587507211201
 30
0.0
 11
76.24463982729304
 21
0.5299812139894513
 31
0.0
  0
LINE
  5
551
  8
LAYER0014
  6
CONTINUOUS
 62
     7
 10
72.73074257605748
 20
0.8079587507211201
 30
0.0
 11
69.21964375639976
 21
0.5299812139894513
 31
0.0
  0
LINE
  5
552
  8
LAYER0014
  6
CONTINUOUS
 62
     7
 10
63.73074018437148
 20
0.8084338990078841
 30
0.0
 11
67.25064375639977
 21
0.5299812139894513
 31
0.0
  0
LINE
  5
553
  8
LAYER0014
  6
CONTINUOUS
 62
     7
 10
63.73074018437148
 20
0.8084338990078841
 30
0.0
 11
60.21363982729304
 21
0.5299812139894513
 31
0.0
  0
LINE
  5
554
  8
LAYER0014
  6
CONTINUOUS
 62
     7
 10
66.53816335274263
 20
17.02798262208303
 30
0.0
 11
69.03664375639977
 21
0.2989812139894283
 31
0.0
  0
LINE
  5
555
  8
LAYER0014
  6
CONTINUOUS
 62
     7
 10
67.43364375639976
 20
0.3609812139894402
 30
0.0
 11
64.73091516101152
 21
17.02798262208303
 31
0.0
  0
LINE
  5
556
  8
LAYER0014
  6
CONTINUOUS
 62
     7
 10
57.53215942363585
 20
17.02798262208303
 30
0.0
 11
60.03063982729304
 21
0.2989812139894283
 31
0.0
  0
LINE
  5
557
  8
LAYER0014
  6
CONTINUOUS
 62
     7
 10
58.42763982729304
 20
0.3609812139894402
 30
0.0
 11
55.7249112319048
 21
17.02798262208303
 31
0.0
  0
LINE
  5
558
  8
LAYER0014
  6
CONTINUOUS
 62
     7
 10
66.53816335274263
 20
17.02798262208303
 30
0.0
 11
69.03664375639977
 21
0.2989812139894283
 31
0.0
  0
LINE
  5
559
  8
LAYER0014
  6
CONTINUOUS
 62
     7
 10
67.43364375639976
 20
0.3609812139894402
 30
0.0
 11
64.73091516101152
 21
17.02798262208303
 31
0.0
  0
LINE
  5
55A
  8
LAYER0014
  6
CONTINUOUS
 62
     7
 10
57.53215942363585
 20
17.02798262208303
 30
0.0
 11
60.03063982729304
 21
0.2989812139894283
 31
0.0
  0
LINE
  5
55B
  8
LAYER0014
  6
CONTINUOUS
 62
     7
 10
58.42763982729304
 20
0.3609812139894402
 30
0.0
 11
55.7249112319048
 21
17.02798262208303
 31
0.0
  0
LINE
  5
55C
  8
LAYER0014
  6
CONTINUOUS
 62
     7
 10
54.73074257605919
 20
0.8079587507209887
 30
0.0
 11
58.24463982729304
 21
0.5299812139894513
 31
0.0
  0
ARC
  5
55D
  8
LAYER0014
  6
CONTINUOUS
 62
     7
 10
68.98296110490304
 20
33.70489372916909
 30
0.0
 40
0.499
 50
179.4259999999998
 51
264.826000000001
  0
LINE
  5
55E
  8
LAYER0014
  6
CONTINUOUS
 62
     7
 10
67.02996110490307
 20
33.20789372916907
 30
0.0
 11
68.93796110490308
 21
33.20789372916907
 31
0.0
  0
ARC
  5
55F
  8
LAYER0014
  6
CONTINUOUS
 62
     7
 10
66.98496110490299
 20
33.70489372916909
 30
0.0
 40
0.499
 50
275.173999999999
 51
360.5740000000002
  0
ARC
  5
560
  8
LAYER0014
  6
CONTINUOUS
 62
     7
 10
66.98296110490304
 20
33.70689372916904
 30
0.0
 40
0.202
 50
270.2839999999983
 51
359.7160000000017
  0
ARC
  5
561
  8
LAYER0014
  6
CONTINUOUS
 62
     7
 10
68.98496110490299
 20
33.70689372916904
 30
0.0
 40
0.202
 50
180.2839999999983
 51
269.7160000000017
  0
ARC
  5
562
  8
LAYER0014
  6
CONTINUOUS
 62
     7
 10
67.98296110490304
 20
33.70789372916907
 30
0.0
 40
0.8
 50
359.8569999999999
 51
539.9279999999997
  0
CIRCLE
  5
563
  8
LAYER0014
  6
CONTINUOUS
 62
     7
 10
67.98396110490302
 20
33.70789372916907
 30
0.0
 40
0.5
  0
ARC
  5
564
  8
LAYER0014
  6
CONTINUOUS
 62
     7
 10
59.98596306945802
 20
33.70489372916909
 30
0.0
 40
0.499
 50
179.4259999999998
 51
264.826000000001
  0
LINE
  5
565
  8
LAYER0014
  6
CONTINUOUS
 62
     7
 10
58.03296306945805
 20
33.20789372916907
 30
0.0
 11
59.94096306945806
 21
33.20789372916907
 31
0.0
  0
ARC
  5
566
  8
LAYER0014
  6
CONTINUOUS
 62
     7
 10
57.98796306945809
 20
33.70489372916909
 30
0.0
 40
0.499
 50
275.173999999999
 51
360.5740000000002
  0
ARC
  5
567
  8
LAYER0014
  6
CONTINUOUS
 62
     7
 10
57.98596306945802
 20
33.70689372916904
 30
0.0
 40
0.202
 50
270.2839999999983
 51
359.7160000000017
  0
ARC
  5
568
  8
LAYER0014
  6
CONTINUOUS
 62
     7
 10
59.98796306945809
 20
33.70689372916904
 30
0.0
 40
0.202
 50
180.2839999999983
 51
269.7160000000017
  0
ARC
  5
569
  8
LAYER0014
  6
CONTINUOUS
 62
     7
 10
58.98596306945802
 20
33.70789372916907
 30
0.0
 40
0.8
 50
359.8569999999999
 51
539.9279999999997
  0
CIRCLE
  5
56A
  8
LAYER0014
  6
CONTINUOUS
 62
     7
 10
58.98696306945811
 20
33.70789372916907
 30
0.0
 40
0.5
  0
ARC
  5
56B
  8
LAYER0014
  6
CONTINUOUS
 62
     7
 10
68.98296110490304
 20
33.70489372916909
 30
0.0
 40
0.499
 50
179.4259999999998
 51
264.826000000001
  0
LINE
  5
56C
  8
LAYER0014
  6
CONTINUOUS
 62
     7
 10
67.02996110490307
 20
33.20789372916907
 30
0.0
 11
68.93796110490308
 21
33.20789372916907
 31
0.0
  0
ARC
  5
56D
  8
LAYER0014
  6
CONTINUOUS
 62
     7
 10
66.98496110490299
 20
33.70489372916909
 30
0.0
 40
0.499
 50
275.173999999999
 51
360.5740000000002
  0
ARC
  5
56E
  8
LAYER0014
  6
CONTINUOUS
 62
     7
 10
66.98296110490304
 20
33.70689372916904
 30
0.0
 40
0.202
 50
270.2839999999983
 51
359.7160000000017
  0
ARC
  5
56F
  8
LAYER0014
  6
CONTINUOUS
 62
     7
 10
68.98496110490299
 20
33.70689372916904
 30
0.0
 40
0.202
 50
180.2839999999983
 51
269.7160000000017
  0
ARC
  5
570
  8
LAYER0014
  6
CONTINUOUS
 62
     7
 10
67.98296110490304
 20
33.70789372916907
 30
0.0
 40
0.8
 50
359.8569999999999
 51
539.9279999999997
  0
CIRCLE
  5
571
  8
LAYER0014
  6
CONTINUOUS
 62
     7
 10
67.98396110490302
 20
33.70789372916907
 30
0.0
 40
0.5
  0
ARC
  5
572
  8
LAYER0014
  6
CONTINUOUS
 62
     7
 10
59.98596306945802
 20
33.70489372916909
 30
0.0
 40
0.499
 50
179.4259999999998
 51
264.826000000001
  0
LINE
  5
573
  8
LAYER0014
  6
CONTINUOUS
 62
     7
 10
58.03296306945805
 20
33.20789372916907
 30
0.0
 11
59.94096306945806
 21
33.20789372916907
 31
0.0
  0
ARC
  5
574
  8
LAYER0014
  6
CONTINUOUS
 62
     7
 10
57.98796306945809
 20
33.70489372916909
 30
0.0
 40
0.499
 50
275.173999999999
 51
360.5740000000002
  0
LINE
  5
575
  8
LAYER0014
  6
CONTINUOUS
 62
     7
 10
63.48356227347011
 20
33.22779740536578
 30
0.0
 11
66.998961104903
 21
33.50589372916907
 31
0.0
  0
LINE
  5
576
  8
LAYER0014
  6
CONTINUOUS
 62
     7
 10
63.48356227347011
 20
33.22779740536578
 30
0.0
 11
59.97096306945804
 21
33.50589372916907
 31
0.0
  0
ARC
  5
577
  8
LAYER0014
  6
CONTINUOUS
 62
     7
 10
57.98596306945802
 20
33.70689372916904
 30
0.0
 40
0.202
 50
270.2839999999983
 51
359.7160000000017
  0
ARC
  5
578
  8
LAYER0014
  6
CONTINUOUS
 62
     7
 10
59.98796306945809
 20
33.70689372916904
 30
0.0
 40
0.202
 50
180.2839999999983
 51
269.7160000000017
  0
ARC
  5
579
  8
LAYER0014
  6
CONTINUOUS
 62
     7
 10
58.98596306945802
 20
33.70789372916907
 30
0.0
 40
0.8
 50
359.8569999999999
 51
539.9279999999997
  0
CIRCLE
  5
57A
  8
LAYER0014
  6
CONTINUOUS
 62
     7
 10
58.98696306945811
 20
33.70789372916907
 30
0.0
 40
0.5
  0
ARC
  5
57B
  8
LAYER0014
  6
CONTINUOUS
 62
     7
 10
50.98296110490304
 20
33.70489372916909
 30
0.0
 40
0.499
 50
179.4259999999998
 51
264.826000000001
  0
LINE
  5
57C
  8
LAYER0014
  6
CONTINUOUS
 62
     7
 10
49.02996110490307
 20
33.20789372916907
 30
0.0
 11
50.93796110490308
 21
33.20789372916907
 31
0.0
  0
ARC
  5
57D
  8
LAYER0014
  6
CONTINUOUS
 62
     7
 10
48.98496110490299
 20
33.70489372916909
 30
0.0
 40
0.499
 50
275.173999999999
 51
360.5740000000002
  0
ARC
  5
57E
  8
LAYER0014
  6
CONTINUOUS
 62
     7
 10
48.98296110490304
 20
33.70689372916904
 30
0.0
 40
0.202
 50
270.2839999999983
 51
359.7160000000017
  0
ARC
  5
57F
  8
LAYER0014
  6
CONTINUOUS
 62
     7
 10
50.98496110490299
 20
33.70689372916904
 30
0.0
 40
0.202
 50
180.2839999999983
 51
269.7160000000017
  0
ARC
  5
580
  8
LAYER0014
  6
CONTINUOUS
 62
     7
 10
50.98296110490304
 20
33.70489372916909
 30
0.0
 40
0.499
 50
179.4259999999998
 51
264.826000000001
  0
LINE
  5
581
  8
LAYER0014
  6
CONTINUOUS
 62
     7
 10
49.02996110490307
 20
33.20789372916907
 30
0.0
 11
50.93796110490308
 21
33.20789372916907
 31
0.0
  0
ARC
  5
582
  8
LAYER0014
  6
CONTINUOUS
 62
     7
 10
48.98496110490299
 20
33.70489372916909
 30
0.0
 40
0.499
 50
275.173999999999
 51
360.5740000000002
  0
LINE
  5
583
  8
LAYER0014
  6
CONTINUOUS
 62
     7
 10
54.48356107762714
 20
33.22755983122227
 30
0.0
 11
50.96796110490305
 21
33.50589372916907
 31
0.0
  0
ARC
  5
584
  8
LAYER0014
  6
CONTINUOUS
 62
     7
 10
48.98296110490304
 20
33.70689372916904
 30
0.0
 40
0.202
 50
270.2839999999983
 51
359.7160000000017
  0
ARC
  5
585
  8
LAYER0014
  6
CONTINUOUS
 62
     7
 10
50.98496110490299
 20
33.70689372916904
 30
0.0
 40
0.202
 50
180.2839999999983
 51
269.7160000000017
  0
LINE
  5
586
  8
LAYER0014
  6
CONTINUOUS
 62
     7
 10
45.48356227347011
 20
33.22779740536578
 30
0.0
 11
48.998961104903
 21
33.50589372916907
 31
0.0
  0
LINE
  5
587
  8
LAYER0014
  6
CONTINUOUS
 62
     7
 10
72.48356107762714
 20
33.22755983122227
 30
0.0
 11
76.0019630694581
 21
33.50589372916907
 31
0.0
  0
LINE
  5
588
  8
LAYER0014
  6
CONTINUOUS
 62
     7
 10
54.48356107762714
 20
33.22755983122227
 30
0.0
 11
58.0019630694581
 21
33.50589372916907
 31
0.0
  0
ARC
  5
589
  8
LAYER0014
  6
CONTINUOUS
 62
     7
 10
49.98296110490304
 20
33.70789372916907
 30
0.0
 40
0.8
 50
359.8569999999999
 51
539.9279999999997
  0
CIRCLE
  5
58A
  8
LAYER0014
  6
CONTINUOUS
 62
     7
 10
49.98396110490302
 20
33.70789372916907
 30
0.0
 40
0.5
  0
ARC
  5
58B
  8
LAYER0014
  6
CONTINUOUS
 62
     7
 10
49.98296110490304
 20
33.70789372916907
 30
0.0
 40
0.8
 50
359.8569999999999
 51
539.9279999999997
  0
CIRCLE
  5
58C
  8
LAYER0014
  6
CONTINUOUS
 62
     7
 10
49.98396110490302
 20
33.70789372916907
 30
0.0
 40
0.5
  0
LINE
  5
58D
  8
LAYER0014
  6
CONTINUOUS
 62
     7
 10
45.48356227347011
 20
33.22779740536578
 30
0.0
 11
41.97096306945804
 21
33.50589372916907
 31
0.0
  0
ARC
  5
58E
  8
LAYER0014
  6
CONTINUOUS
 62
     7
 10
75.99595788396272
 20
33.7058962106554
 30
0.0
 40
0.202
 50
270.2839999999983
 51
359.7160000000017
  0
ARC
  5
58F
  8
LAYER0014
  6
CONTINUOUS
 62
     7
 10
75.99595788396272
 20
33.7058962106554
 30
0.0
 40
0.202
 50
270.2839999999983
 51
359.7160000000017
  0
LINE
  5
590
  8
LAYER0014
  6
CONTINUOUS
 62
     7
 10
72.49655905252985
 20
33.22679988685214
 30
0.0
 11
76.01195788396274
 21
33.50489621065543
 31
0.0
  0
LINE
  5
591
  8
LAYER0014
  6
CONTINUOUS
 62
     7
 10
72.49655905252985
 20
33.22679988685214
 30
0.0
 11
68.98395984851777
 21
33.50489621065543
 31
0.0
  0
ARC
  5
592
  8
LAYER0014
  6
CONTINUOUS
 62
     7
 10
78.23063982729303
 20
0.3289812139894295
 30
0.0
 40
0.202
 50
90.28399999999833
 51
179.7160000000017
  0
ARC
  5
593
  8
LAYER0014
  6
CONTINUOUS
 62
     7
 10
77.22863982729302
 20
0.3279812139894531
 30
0.0
 40
0.8
 50
180.0720000000004
 51
360.1430000000001
  0
ARC
  5
594
  8
LAYER0014
  6
CONTINUOUS
 62
     7
 10
77.23164179184659
 20
0.3279812139894247
 30
0.0
 40
0.8
 50
180.0720000000004
 51
360.1430000000001
  0
ARC
  5
595
  8
LAYER0014
  6
CONTINUOUS
 62
     7
 10
78.23063982729303
 20
0.3289812139894295
 30
0.0
 40
0.202
 50
90.28399999999833
 51
179.7160000000017
  0
ARC
  5
596
  8
LAYER0014
  6
CONTINUOUS
 62
     7
 10
77.22863982729302
 20
0.3279812139894531
 30
0.0
 40
0.8
 50
180.0720000000004
 51
360.1430000000001
  0
ARC
  5
597
  8
LAYER0014
  6
CONTINUOUS
 62
     7
 10
77.23164179184659
 20
0.3279812139894247
 30
0.0
 40
0.8
 50
180.0720000000004
 51
360.1430000000001
  0
LINE
  5
598
  8
LAYER0014
  6
CONTINUOUS
 62
     7
 10
81.73074018437313
 20
0.8084338990080155
 30
0.0
 11
78.21363982729304
 21
0.5299812139894513
 31
0.0
  0
ARC
  5
599
  8
LAYER0014
  6
CONTINUOUS
 62
     7
 10
85.2346437564031
 20
0.3289812139894295
 30
0.0
 40
0.202
 50
0.2839999999983307
 51
89.71600000000167
  0
ARC
  5
59A
  8
LAYER0014
  6
CONTINUOUS
 62
     7
 10
85.2346437564031
 20
0.3289812139894295
 30
0.0
 40
0.202
 50
0.2839999999983307
 51
89.71600000000167
  0
LINE
  5
59B
  8
LAYER0014
  6
CONTINUOUS
 62
     7
 10
84.53816335274593
 20
17.02798262208303
 30
0.0
 11
87.03664375640312
 21
0.2989812139894283
 31
0.0
  0
LINE
  5
59C
  8
LAYER0014
  6
CONTINUOUS
 62
     7
 10
85.43364375640311
 20
0.3609812139894402
 30
0.0
 11
82.73091516101488
 21
17.02798262208303
 31
0.0
  0
LINE
  5
59D
  8
LAYER0014
  6
CONTINUOUS
 62
     7
 10
84.53816335274593
 20
17.02798262208303
 30
0.0
 11
87.03664375640312
 21
0.2989812139894283
 31
0.0
  0
LINE
  5
59E
  8
LAYER0014
  6
CONTINUOUS
 62
     7
 10
85.43364375640311
 20
0.3609812139894402
 30
0.0
 11
82.73091516101488
 21
17.02798262208303
 31
0.0
  0
LINE
  5
59F
  8
LAYER0014
  6
CONTINUOUS
 62
     7
 10
81.73074018437313
 20
0.8084338990080155
 30
0.0
 11
85.25064375640312
 21
0.5299812139894513
 31
0.0
  0
ARC
  5
5A0
  8
LAYER0014
  6
CONTINUOUS
 62
     7
 10
86.2346437564031
 20
0.3279812139894531
 30
0.0
 40
0.8
 50
180.0720000000004
 51
360.1430000000001
  0
ARC
  5
5A1
  8
LAYER0014
  6
CONTINUOUS
 62
     7
 10
86.23464375640162
 20
0.3279812139894247
 30
0.0
 40
0.8
 50
180.0720000000004
 51
360.1430000000001
  0
ARC
  5
5A2
  8
LAYER0014
  6
CONTINUOUS
 62
     7
 10
86.2346437564031
 20
0.3279812139894531
 30
0.0
 40
0.8
 50
180.0720000000004
 51
360.1430000000001
  0
ARC
  5
5A3
  8
LAYER0014
  6
CONTINUOUS
 62
     7
 10
86.23464375640162
 20
0.3279812139894247
 30
0.0
 40
0.8
 50
180.0720000000004
 51
360.1430000000001
  0
ARC
  5
5A4
  8
LAYER0014
  6
CONTINUOUS
 62
     7
 10
87.23664375640311
 20
0.3289812139894295
 30
0.0
 40
0.202
 50
90.28399999999833
 51
179.7160000000017
  0
ARC
  5
5A5
  8
LAYER0014
  6
CONTINUOUS
 62
     7
 10
87.23664375640311
 20
0.3289812139894295
 30
0.0
 40
0.202
 50
90.28399999999833
 51
179.7160000000017
  0
LINE
  5
5A6
  8
LAYER0014
  6
CONTINUOUS
 62
     7
 10
90.73524372912556
 20
0.8083151119361283
 30
0.0
 11
87.21964375640312
 21
0.5299812139894513
 31
0.0
  0
ARC
  5
5A7
  8
LAYER0014
  6
CONTINUOUS
 62
     7
 10
94.23314098035939
 20
0.3293375752045691
 30
0.0
 40
0.202
 50
0.2839999999983307
 51
89.71600000000167
  0
ARC
  5
5A8
  8
LAYER0014
  6
CONTINUOUS
 62
     7
 10
96.2351409803594
 20
0.3293375752045691
 30
0.0
 40
0.202
 50
90.28399999999833
 51
179.7160000000017
  0
ARC
  5
5A9
  8
LAYER0014
  6
CONTINUOUS
 62
     7
 10
112.2331409803594
 20
0.3293375752045691
 30
0.0
 40
0.202
 50
0.2839999999983307
 51
89.71600000000167
  0
ARC
  5
5AA
  8
LAYER0014
  6
CONTINUOUS
 62
     7
 10
114.2351409803594
 20
0.3293375752045691
 30
0.0
 40
0.202
 50
90.28399999999833
 51
179.7160000000017
  0
ARC
  5
5AB
  8
LAYER0014
  6
CONTINUOUS
 62
     7
 10
113.2331409803594
 20
0.3283375752045927
 30
0.0
 40
0.8
 50
180.0720000000004
 51
360.1430000000001
  0
ARC
  5
5AC
  8
LAYER0014
  6
CONTINUOUS
 62
     7
 10
103.2391449094661
 20
0.3293375752045691
 30
0.0
 40
0.202
 50
0.2839999999983307
 51
89.71600000000167
  0
ARC
  5
5AD
  8
LAYER0014
  6
CONTINUOUS
 62
     7
 10
105.2411449094662
 20
0.3293375752045691
 30
0.0
 40
0.202
 50
90.28399999999833
 51
179.7160000000017
  0
ARC
  5
5AE
  8
LAYER0014
  6
CONTINUOUS
 62
     7
 10
104.2391449094661
 20
0.3283375752045927
 30
0.0
 40
0.8
 50
180.0720000000004
 51
360.1430000000001
  0
ARC
  5
5AF
  8
LAYER0014
  6
CONTINUOUS
 62
     7
 10
95.23314098035939
 20
0.3283375752045927
 30
0.0
 40
0.8
 50
180.0720000000004
 51
360.1430000000001
  0
ARC
  5
5B0
  8
LAYER0014
  6
CONTINUOUS
 62
     7
 10
113.236142944913
 20
0.3283375752045643
 30
0.0
 40
0.8
 50
180.0720000000004
 51
360.1430000000001
  0
ARC
  5
5B1
  8
LAYER0014
  6
CONTINUOUS
 62
     7
 10
104.2391449094681
 20
0.3283375752045643
 30
0.0
 40
0.8
 50
180.0720000000004
 51
360.1430000000001
  0
ARC
  5
5B2
  8
LAYER0014
  6
CONTINUOUS
 62
     7
 10
95.23614294491296
 20
0.3283375752045643
 30
0.0
 40
0.8
 50
180.0720000000004
 51
360.1430000000001
  0
ARC
  5
5B3
  8
LAYER0014
  6
CONTINUOUS
 62
     7
 10
94.23314098035939
 20
0.3293375752045691
 30
0.0
 40
0.202
 50
0.2839999999983307
 51
89.71600000000167
  0
ARC
  5
5B4
  8
LAYER0014
  6
CONTINUOUS
 62
     7
 10
96.2351409803594
 20
0.3293375752045691
 30
0.0
 40
0.202
 50
90.28399999999833
 51
179.7160000000017
  0
ARC
  5
5B5
  8
LAYER0014
  6
CONTINUOUS
 62
     7
 10
112.2331409803594
 20
0.3293375752045691
 30
0.0
 40
0.202
 50
0.2839999999983307
 51
89.71600000000167
  0
ARC
  5
5B6
  8
LAYER0014
  6
CONTINUOUS
 62
     7
 10
114.2351409803594
 20
0.3293375752045691
 30
0.0
 40
0.202
 50
90.28399999999833
 51
179.7160000000017
  0
ARC
  5
5B7
  8
LAYER0014
  6
CONTINUOUS
 62
     7
 10
113.2331409803594
 20
0.3283375752045927
 30
0.0
 40
0.8
 50
180.0720000000004
 51
360.1430000000001
  0
ARC
  5
5B8
  8
LAYER0014
  6
CONTINUOUS
 62
     7
 10
103.2391449094661
 20
0.3293375752045691
 30
0.0
 40
0.202
 50
0.2839999999983307
 51
89.71600000000167
  0
ARC
  5
5B9
  8
LAYER0014
  6
CONTINUOUS
 62
     7
 10
105.2411449094662
 20
0.3293375752045691
 30
0.0
 40
0.202
 50
90.28399999999833
 51
179.7160000000017
  0
ARC
  5
5BA
  8
LAYER0014
  6
CONTINUOUS
 62
     7
 10
104.2391449094661
 20
0.3283375752045927
 30
0.0
 40
0.8
 50
180.0720000000004
 51
360.1430000000001
  0
ARC
  5
5BB
  8
LAYER0014
  6
CONTINUOUS
 62
     7
 10
95.23314098035939
 20
0.3283375752045927
 30
0.0
 40
0.8
 50
180.0720000000004
 51
360.1430000000001
  0
ARC
  5
5BC
  8
LAYER0014
  6
CONTINUOUS
 62
     7
 10
113.236142944913
 20
0.3283375752045643
 30
0.0
 40
0.8
 50
180.0720000000004
 51
360.1430000000001
  0
ARC
  5
5BD
  8
LAYER0014
  6
CONTINUOUS
 62
     7
 10
104.2391449094681
 20
0.3283375752045643
 30
0.0
 40
0.8
 50
180.0720000000004
 51
360.1430000000001
  0
ARC
  5
5BE
  8
LAYER0014
  6
CONTINUOUS
 62
     7
 10
95.23614294491296
 20
0.3283375752045643
 30
0.0
 40
0.8
 50
180.0720000000004
 51
360.1430000000001
  0
LINE
  5
5BF
  8
LAYER0014
  6
CONTINUOUS
 62
     7
 10
117.7352413374395
 20
0.8087902602231551
 30
0.0
 11
114.2181409803594
 21
0.5303375752045909
 31
0.0
  0
LINE
  5
5C0
  8
LAYER0014
  6
CONTINUOUS
 62
     7
 10
108.7352437291239
 20
0.8083151119362597
 30
0.0
 11
112.2491409803594
 21
0.5303375752045909
 31
0.0
  0
LINE
  5
5C1
  8
LAYER0014
  6
CONTINUOUS
 62
     7
 10
108.7352437291239
 20
0.8083151119362597
 30
0.0
 11
105.2241449094661
 21
0.5303375752045909
 31
0.0
  0
LINE
  5
5C2
  8
LAYER0014
  6
CONTINUOUS
 62
     7
 10
99.73524133743786
 20
0.8087902602230237
 30
0.0
 11
103.2551449094662
 21
0.5303375752045909
 31
0.0
  0
LINE
  5
5C3
  8
LAYER0014
  6
CONTINUOUS
 62
     7
 10
99.73524133743786
 20
0.8087902602230237
 30
0.0
 11
96.21814098035941
 21
0.5303375752045909
 31
0.0
  0
ARC
  5
5C4
  8
LAYER0014
  6
CONTINUOUS
 62
     7
 10
121.2391449094695
 20
0.3293375752045691
 30
0.0
 40
0.202
 50
0.2839999999983307
 51
89.71600000000167
  0
ARC
  5
5C5
  8
LAYER0014
  6
CONTINUOUS
 62
     7
 10
121.2391449094695
 20
0.3293375752045691
 30
0.0
 40
0.202
 50
0.2839999999983307
 51
89.71600000000167
  0
LINE
  5
5C6
  8
LAYER0014
  6
CONTINUOUS
 62
     7
 10
120.5426645058123
 20
17.02833898329817
 30
0.0
 11
123.0411449094695
 21
0.2993375752045679
 31
0.0
  0
LINE
  5
5C7
  8
LAYER0014
  6
CONTINUOUS
 62
     7
 10
121.4381449094695
 20
0.3613375752045798
 30
0.0
 11
118.7354163140813
 21
17.02833898329817
 31
0.0
  0
LINE
  5
5C8
  8
LAYER0014
  6
CONTINUOUS
 62
     7
 10
111.5366605767022
 20
17.02833898329817
 30
0.0
 11
114.0351409803594
 21
0.2993375752045679
 31
0.0
  0
LINE
  5
5C9
  8
LAYER0014
  6
CONTINUOUS
 62
     7
 10
112.4321409803594
 20
0.3613375752045798
 30
0.0
 11
109.7294123849712
 21
17.02833898329817
 31
0.0
  0
LINE
  5
5CA
  8
LAYER0014
  6
CONTINUOUS
 62
     7
 10
102.542664505809
 20
17.02833898329817
 30
0.0
 11
105.0411449094661
 21
0.2993375752045679
 31
0.0
  0
LINE
  5
5CB
  8
LAYER0014
  6
CONTINUOUS
 62
     7
 10
103.4381449094662
 20
0.3613375752045798
 30
0.0
 11
100.7354163140779
 21
17.02833898329817
 31
0.0
  0
LINE
  5
5CC
  8
LAYER0014
  6
CONTINUOUS
 62
     7
 10
93.53666057670222
 20
17.02833898329817
 30
0.0
 11
96.03514098035942
 21
0.2993375752045679
 31
0.0
  0
LINE
  5
5CD
  8
LAYER0014
  6
CONTINUOUS
 62
     7
 10
94.43214098035941
 20
0.3613375752045798
 30
0.0
 11
91.72941238497117
 21
17.02833898329817
 31
0.0
  0
LINE
  5
5CE
  8
LAYER0014
  6
CONTINUOUS
 62
     7
 10
120.5426645058123
 20
17.02833898329817
 30
0.0
 11
123.0411449094695
 21
0.2993375752045679
 31
0.0
  0
LINE
  5
5CF
  8
LAYER0014
  6
CONTINUOUS
 62
     7
 10
121.4381449094695
 20
0.3613375752045798
 30
0.0
 11
118.7354163140813
 21
17.02833898329817
 31
0.0
  0
LINE
  5
5D0
  8
LAYER0014
  6
CONTINUOUS
 62
     7
 10
111.5366605767022
 20
17.02833898329817
 30
0.0
 11
114.0351409803594
 21
0.2993375752045679
 31
0.0
  0
LINE
  5
5D1
  8
LAYER0014
  6
CONTINUOUS
 62
     7
 10
112.4321409803594
 20
0.3613375752045798
 30
0.0
 11
109.7294123849712
 21
17.02833898329817
 31
0.0
  0
LINE
  5
5D2
  8
LAYER0014
  6
CONTINUOUS
 62
     7
 10
102.542664505809
 20
17.02833898329817
 30
0.0
 11
105.0411449094661
 21
0.2993375752045679
 31
0.0
  0
LINE
  5
5D3
  8
LAYER0014
  6
CONTINUOUS
 62
     7
 10
103.4381449094662
 20
0.3613375752045798
 30
0.0
 11
100.7354163140779
 21
17.02833898329817
 31
0.0
  0
LINE
  5
5D4
  8
LAYER0014
  6
CONTINUOUS
 62
     7
 10
93.53666057670222
 20
17.02833898329817
 30
0.0
 11
96.03514098035942
 21
0.2993375752045679
 31
0.0
  0
LINE
  5
5D5
  8
LAYER0014
  6
CONTINUOUS
 62
     7
 10
94.43214098035941
 20
0.3613375752045798
 30
0.0
 11
91.72941238497117
 21
17.02833898329817
 31
0.0
  0
LINE
  5
5D6
  8
LAYER0014
  6
CONTINUOUS
 62
     7
 10
90.73524372912556
 20
0.8083151119361283
 30
0.0
 11
94.24914098035941
 21
0.5303375752045909
 31
0.0
  0
LINE
  5
5D7
  8
LAYER0014
  6
CONTINUOUS
 62
     7
 10
117.7352413374395
 20
0.8087902602231551
 30
0.0
 11
121.2551449094695
 21
0.5303375752045909
 31
0.0
  0
ARC
  5
5D8
  8
LAYER0014
  6
CONTINUOUS
 62
     7
 10
122.2391449094695
 20
0.3283375752045927
 30
0.0
 40
0.8
 50
180.0720000000004
 51
360.1430000000001
  0
ARC
  5
5D9
  8
LAYER0014
  6
CONTINUOUS
 62
     7
 10
122.2391449094681
 20
0.3283375752045643
 30
0.0
 40
0.8
 50
180.0720000000004
 51
360.1430000000001
  0
ARC
  5
5DA
  8
LAYER0014
  6
CONTINUOUS
 62
     7
 10
122.2391449094695
 20
0.3283375752045927
 30
0.0
 40
0.8
 50
180.0720000000004
 51
360.1430000000001
  0
ARC
  5
5DB
  8
LAYER0014
  6
CONTINUOUS
 62
     7
 10
122.2391449094681
 20
0.3283375752045643
 30
0.0
 40
0.8
 50
180.0720000000004
 51
360.1430000000001
  0
ARC
  5
5DC
  8
LAYER0014
  6
CONTINUOUS
 62
     7
 10
123.2411449094695
 20
0.3293375752045691
 30
0.0
 40
0.202
 50
90.28399999999833
 51
179.7160000000017
  0
ARC
  5
5DD
  8
LAYER0014
  6
CONTINUOUS
 62
     7
 10
123.2411449094695
 20
0.3293375752045691
 30
0.0
 40
0.202
 50
90.28399999999833
 51
179.7160000000017
  0
LINE
  5
5DE
  8
LAYER0014
  6
CONTINUOUS
 62
     7
 10
126.7397448821919
 20
0.8086714731512679
 30
0.0
 11
123.2241449094695
 21
0.5303375752045909
 31
0.0
  0
LINE
  5
5DF
  8
LAYER0014
  6
CONTINUOUS
 62
     7
 10
126.7397448821919
 20
0.8086714731512679
 30
0.0
 11
127.776134134744
 21
0.7266847470401707
 31
0.0
  0
ARC
  5
5E0
  8
LAYER0014
  6
CONTINUOUS
 62
     7
 10
95.99595788396272
 20
33.70389621065544
 30
0.0
 40
0.499
 50
179.4259999999998
 51
264.826000000001
  0
LINE
  5
5E1
  8
LAYER0014
  6
CONTINUOUS
 62
     7
 10
94.04295788396274
 20
33.20689621065543
 30
0.0
 11
95.95095788396276
 21
33.20689621065543
 31
0.0
  0
ARC
  5
5E2
  8
LAYER0014
  6
CONTINUOUS
 62
     7
 10
93.99795788396273
 20
33.70389621065544
 30
0.0
 40
0.499
 50
275.173999999999
 51
360.5740000000002
  0
ARC
  5
5E3
  8
LAYER0014
  6
CONTINUOUS
 62
     7
 10
93.99595788396272
 20
33.7058962106554
 30
0.0
 40
0.202
 50
270.2839999999983
 51
359.7160000000017
  0
ARC
  5
5E4
  8
LAYER0014
  6
CONTINUOUS
 62
     7
 10
95.99795788396273
 20
33.7058962106554
 30
0.0
 40
0.202
 50
180.2839999999983
 51
269.7160000000017
  0
ARC
  5
5E5
  8
LAYER0014
  6
CONTINUOUS
 62
     7
 10
94.99595788396272
 20
33.70689621065543
 30
0.0
 40
0.8
 50
359.8569999999999
 51
539.9279999999997
  0
CIRCLE
  5
5E6
  8
LAYER0014
  6
CONTINUOUS
 62
     7
 10
94.99695788396275
 20
33.70689621065543
 30
0.0
 40
0.5
  0
ARC
  5
5E7
  8
LAYER0014
  6
CONTINUOUS
 62
     7
 10
86.99895984851776
 20
33.70389621065544
 30
0.0
 40
0.499
 50
179.4259999999998
 51
264.826000000001
  0
LINE
  5
5E8
  8
LAYER0014
  6
CONTINUOUS
 62
     7
 10
85.04595984851778
 20
33.20689621065543
 30
0.0
 11
86.9539598485178
 21
33.20689621065543
 31
0.0
  0
ARC
  5
5E9
  8
LAYER0014
  6
CONTINUOUS
 62
     7
 10
85.00095984851777
 20
33.70389621065544
 30
0.0
 40
0.499
 50
275.173999999999
 51
360.5740000000002
  0
ARC
  5
5EA
  8
LAYER0014
  6
CONTINUOUS
 62
     7
 10
84.99895984851776
 20
33.7058962106554
 30
0.0
 40
0.202
 50
270.2839999999983
 51
359.7160000000017
  0
ARC
  5
5EB
  8
LAYER0014
  6
CONTINUOUS
 62
     7
 10
87.00095984851777
 20
33.7058962106554
 30
0.0
 40
0.202
 50
180.2839999999983
 51
269.7160000000017
  0
ARC
  5
5EC
  8
LAYER0014
  6
CONTINUOUS
 62
     7
 10
85.99895984851776
 20
33.70689621065543
 30
0.0
 40
0.8
 50
359.8569999999999
 51
539.9279999999997
  0
CIRCLE
  5
5ED
  8
LAYER0014
  6
CONTINUOUS
 62
     7
 10
85.99995984851779
 20
33.70689621065543
 30
0.0
 40
0.5
  0
ARC
  5
5EE
  8
LAYER0014
  6
CONTINUOUS
 62
     7
 10
95.99595788396272
 20
33.70389621065544
 30
0.0
 40
0.499
 50
179.4259999999998
 51
264.826000000001
  0
LINE
  5
5EF
  8
LAYER0014
  6
CONTINUOUS
 62
     7
 10
94.04295788396274
 20
33.20689621065543
 30
0.0
 11
95.95095788396276
 21
33.20689621065543
 31
0.0
  0
ARC
  5
5F0
  8
LAYER0014
  6
CONTINUOUS
 62
     7
 10
93.99795788396273
 20
33.70389621065544
 30
0.0
 40
0.499
 50
275.173999999999
 51
360.5740000000002
  0
ARC
  5
5F1
  8
LAYER0014
  6
CONTINUOUS
 62
     7
 10
93.99595788396272
 20
33.7058962106554
 30
0.0
 40
0.202
 50
270.2839999999983
 51
359.7160000000017
  0
ARC
  5
5F2
  8
LAYER0014
  6
CONTINUOUS
 62
     7
 10
95.99795788396273
 20
33.7058962106554
 30
0.0
 40
0.202
 50
180.2839999999983
 51
269.7160000000017
  0
ARC
  5
5F3
  8
LAYER0014
  6
CONTINUOUS
 62
     7
 10
94.99595788396272
 20
33.70689621065543
 30
0.0
 40
0.8
 50
359.8569999999999
 51
539.9279999999997
  0
CIRCLE
  5
5F4
  8
LAYER0014
  6
CONTINUOUS
 62
     7
 10
94.99695788396275
 20
33.70689621065543
 30
0.0
 40
0.5
  0
ARC
  5
5F5
  8
LAYER0014
  6
CONTINUOUS
 62
     7
 10
86.99895984851776
 20
33.70389621065544
 30
0.0
 40
0.499
 50
179.4259999999998
 51
264.826000000001
  0
LINE
  5
5F6
  8
LAYER0014
  6
CONTINUOUS
 62
     7
 10
85.04595984851778
 20
33.20689621065543
 30
0.0
 11
86.9539598485178
 21
33.20689621065543
 31
0.0
  0
ARC
  5
5F7
  8
LAYER0014
  6
CONTINUOUS
 62
     7
 10
85.00095984851777
 20
33.70389621065544
 30
0.0
 40
0.499
 50
275.173999999999
 51
360.5740000000002
  0
LINE
  5
5F8
  8
LAYER0014
  6
CONTINUOUS
 62
     7
 10
90.49655905252985
 20
33.22679988685214
 30
0.0
 11
94.01195788396274
 21
33.50489621065543
 31
0.0
  0
LINE
  5
5F9
  8
LAYER0014
  6
CONTINUOUS
 62
     7
 10
90.49655905252985
 20
33.22679988685214
 30
0.0
 11
86.98395984851777
 21
33.50489621065543
 31
0.0
  0
ARC
  5
5FA
  8
LAYER0014
  6
CONTINUOUS
 62
     7
 10
84.99895984851776
 20
33.7058962106554
 30
0.0
 40
0.202
 50
270.2839999999983
 51
359.7160000000017
  0
ARC
  5
5FB
  8
LAYER0014
  6
CONTINUOUS
 62
     7
 10
87.00095984851777
 20
33.7058962106554
 30
0.0
 40
0.202
 50
180.2839999999983
 51
269.7160000000017
  0
ARC
  5
5FC
  8
LAYER0014
  6
CONTINUOUS
 62
     7
 10
85.99895984851776
 20
33.70689621065543
 30
0.0
 40
0.8
 50
359.8569999999999
 51
539.9279999999997
  0
CIRCLE
  5
5FD
  8
LAYER0014
  6
CONTINUOUS
 62
     7
 10
85.99995984851779
 20
33.70689621065543
 30
0.0
 40
0.5
  0
ARC
  5
5FE
  8
LAYER0014
  6
CONTINUOUS
 62
     7
 10
77.99595788396272
 20
33.70389621065544
 30
0.0
 40
0.499
 50
179.4259999999998
 51
264.826000000001
  0
ARC
  5
5FF
  8
LAYER0014
  6
CONTINUOUS
 62
     7
 10
77.99795788396273
 20
33.7058962106554
 30
0.0
 40
0.202
 50
180.2839999999983
 51
269.7160000000017
  0
ARC
  5
600
  8
LAYER0014
  6
CONTINUOUS
 62
     7
 10
77.99595788396272
 20
33.70389621065544
 30
0.0
 40
0.499
 50
179.4259999999998
 51
264.826000000001
  0
LINE
  5
601
  8
LAYER0014
  6
CONTINUOUS
 62
     7
 10
81.49655785668682
 20
33.22656231270862
 30
0.0
 11
77.98095788396273
 21
33.50489621065543
 31
0.0
  0
ARC
  5
602
  8
LAYER0014
  6
CONTINUOUS
 62
     7
 10
77.99795788396273
 20
33.7058962106554
 30
0.0
 40
0.202
 50
180.2839999999983
 51
269.7160000000017
  0
LINE
  5
603
  8
LAYER0014
  6
CONTINUOUS
 62
     7
 10
81.49655785668682
 20
33.22656231270862
 30
0.0
 11
85.01495984851778
 21
33.50489621065543
 31
0.0
  0
CIRCLE
  5
604
  8
LAYER0014
  6
CONTINUOUS
 62
     7
 10
76.99695788396275
 20
33.70689621065543
 30
0.0
 40
0.5
  0
CIRCLE
  5
605
  8
LAYER0014
  6
CONTINUOUS
 62
     7
 10
76.99695788396275
 20
33.70689621065543
 30
0.0
 40
0.5
  0
ARC
  5
606
  8
LAYER0014
  6
CONTINUOUS
 62
     7
 10
105.0089546630224
 20
33.70289869214182
 30
0.0
 40
0.499
 50
179.4259999999998
 51
264.826000000001
  0
LINE
  5
607
  8
LAYER0014
  6
CONTINUOUS
 62
     7
 10
103.0559546630224
 20
33.2058986921418
 30
0.0
 11
104.9639546630224
 21
33.2058986921418
 31
0.0
  0
ARC
  5
608
  8
LAYER0014
  6
CONTINUOUS
 62
     7
 10
103.0109546630225
 20
33.70289869214182
 30
0.0
 40
0.499
 50
275.173999999999
 51
360.5740000000002
  0
ARC
  5
609
  8
LAYER0014
  6
CONTINUOUS
 62
     7
 10
103.0089546630224
 20
33.70489869214177
 30
0.0
 40
0.202
 50
270.2839999999983
 51
359.7160000000017
  0
ARC
  5
60A
  8
LAYER0014
  6
CONTINUOUS
 62
     7
 10
105.0109546630225
 20
33.70489869214177
 30
0.0
 40
0.202
 50
180.2839999999983
 51
269.7160000000017
  0
ARC
  5
60B
  8
LAYER0014
  6
CONTINUOUS
 62
     7
 10
104.0089546630224
 20
33.7058986921418
 30
0.0
 40
0.8
 50
359.8569999999999
 51
539.9279999999997
  0
CIRCLE
  5
60C
  8
LAYER0014
  6
CONTINUOUS
 62
     7
 10
104.0099546630225
 20
33.7058986921418
 30
0.0
 40
0.5
  0
ARC
  5
60D
  8
LAYER0014
  6
CONTINUOUS
 62
     7
 10
105.0089546630224
 20
33.70289869214182
 30
0.0
 40
0.499
 50
179.4259999999998
 51
264.826000000001
  0
LINE
  5
60E
  8
LAYER0014
  6
CONTINUOUS
 62
     7
 10
103.0559546630224
 20
33.2058986921418
 30
0.0
 11
104.9639546630224
 21
33.2058986921418
 31
0.0
  0
ARC
  5
60F
  8
LAYER0014
  6
CONTINUOUS
 62
     7
 10
103.0109546630225
 20
33.70289869214182
 30
0.0
 40
0.499
 50
275.173999999999
 51
360.5740000000002
  0
LINE
  5
610
  8
LAYER0014
  6
CONTINUOUS
 62
     7
 10
108.5095546357466
 20
33.225564794195
 30
0.0
 11
104.9939546630224
 21
33.5038986921418
 31
0.0
  0
ARC
  5
611
  8
LAYER0014
  6
CONTINUOUS
 62
     7
 10
103.0089546630224
 20
33.70489869214177
 30
0.0
 40
0.202
 50
270.2839999999983
 51
359.7160000000017
  0
ARC
  5
612
  8
LAYER0014
  6
CONTINUOUS
 62
     7
 10
105.0109546630225
 20
33.70489869214177
 30
0.0
 40
0.202
 50
180.2839999999983
 51
269.7160000000017
  0
ARC
  5
613
  8
LAYER0014
  6
CONTINUOUS
 62
     7
 10
104.0089546630224
 20
33.7058986921418
 30
0.0
 40
0.8
 50
359.8569999999999
 51
539.9279999999997
  0
CIRCLE
  5
614
  8
LAYER0014
  6
CONTINUOUS
 62
     7
 10
104.0099546630225
 20
33.7058986921418
 30
0.0
 40
0.5
  0
ARC
  5
615
  8
LAYER0014
  6
CONTINUOUS
 62
     7
 10
121.0109546630225
 20
33.70289869214182
 30
0.0
 40
0.499
 50
275.173999999999
 51
360.5740000000002
  0
ARC
  5
616
  8
LAYER0014
  6
CONTINUOUS
 62
     7
 10
121.0089546630224
 20
33.70489869214177
 30
0.0
 40
0.202
 50
270.2839999999983
 51
359.7160000000017
  0
CIRCLE
  5
617
  8
LAYER0014
  6
CONTINUOUS
 62
     7
 10
122.0099546630225
 20
33.7058986921418
 30
0.0
 40
0.5
  0
ARC
  5
618
  8
LAYER0014
  6
CONTINUOUS
 62
     7
 10
114.0119566275775
 20
33.70289869214182
 30
0.0
 40
0.499
 50
179.4259999999998
 51
264.826000000001
  0
LINE
  5
619
  8
LAYER0014
  6
CONTINUOUS
 62
     7
 10
112.0589566275775
 20
33.2058986921418
 30
0.0
 11
113.9669566275775
 21
33.2058986921418
 31
0.0
  0
ARC
  5
61A
  8
LAYER0014
  6
CONTINUOUS
 62
     7
 10
112.0139566275774
 20
33.70289869214182
 30
0.0
 40
0.499
 50
275.173999999999
 51
360.5740000000002
  0
ARC
  5
61B
  8
LAYER0014
  6
CONTINUOUS
 62
     7
 10
112.0119566275775
 20
33.70489869214177
 30
0.0
 40
0.202
 50
270.2839999999983
 51
359.7160000000017
  0
ARC
  5
61C
  8
LAYER0014
  6
CONTINUOUS
 62
     7
 10
114.0139566275774
 20
33.70489869214177
 30
0.0
 40
0.202
 50
180.2839999999983
 51
269.7160000000017
  0
ARC
  5
61D
  8
LAYER0014
  6
CONTINUOUS
 62
     7
 10
113.0119566275775
 20
33.7058986921418
 30
0.0
 40
0.8
 50
359.8569999999999
 51
539.9279999999997
  0
CIRCLE
  5
61E
  8
LAYER0014
  6
CONTINUOUS
 62
     7
 10
113.0129566275775
 20
33.7058986921418
 30
0.0
 40
0.5
  0
ARC
  5
61F
  8
LAYER0014
  6
CONTINUOUS
 62
     7
 10
121.0109546630225
 20
33.70289869214182
 30
0.0
 40
0.499
 50
275.173999999999
 51
360.5740000000002
  0
ARC
  5
620
  8
LAYER0014
  6
CONTINUOUS
 62
     7
 10
121.0089546630224
 20
33.70489869214177
 30
0.0
 40
0.202
 50
270.2839999999983
 51
359.7160000000017
  0
CIRCLE
  5
621
  8
LAYER0014
  6
CONTINUOUS
 62
     7
 10
122.0099546630225
 20
33.7058986921418
 30
0.0
 40
0.5
  0
ARC
  5
622
  8
LAYER0014
  6
CONTINUOUS
 62
     7
 10
114.0119566275775
 20
33.70289869214182
 30
0.0
 40
0.499
 50
179.4259999999998
 51
264.826000000001
  0
LINE
  5
623
  8
LAYER0014
  6
CONTINUOUS
 62
     7
 10
112.0589566275775
 20
33.2058986921418
 30
0.0
 11
113.9669566275775
 21
33.2058986921418
 31
0.0
  0
ARC
  5
624
  8
LAYER0014
  6
CONTINUOUS
 62
     7
 10
112.0139566275774
 20
33.70289869214182
 30
0.0
 40
0.499
 50
275.173999999999
 51
360.5740000000002
  0
LINE
  5
625
  8
LAYER0014
  6
CONTINUOUS
 62
     7
 10
117.5095558315896
 20
33.22580236833851
 30
0.0
 11
121.0249546630225
 21
33.5038986921418
 31
0.0
  0
LINE
  5
626
  8
LAYER0014
  6
CONTINUOUS
 62
     7
 10
117.5095558315896
 20
33.22580236833851
 30
0.0
 11
113.9969566275775
 21
33.5038986921418
 31
0.0
  0
ARC
  5
627
  8
LAYER0014
  6
CONTINUOUS
 62
     7
 10
112.0119566275775
 20
33.70489869214177
 30
0.0
 40
0.202
 50
270.2839999999983
 51
359.7160000000017
  0
ARC
  5
628
  8
LAYER0014
  6
CONTINUOUS
 62
     7
 10
114.0139566275774
 20
33.70489869214177
 30
0.0
 40
0.202
 50
180.2839999999983
 51
269.7160000000017
  0
ARC
  5
629
  8
LAYER0014
  6
CONTINUOUS
 62
     7
 10
113.0119566275775
 20
33.7058986921418
 30
0.0
 40
0.8
 50
359.8569999999999
 51
539.9279999999997
  0
CIRCLE
  5
62A
  8
LAYER0014
  6
CONTINUOUS
 62
     7
 10
113.0129566275775
 20
33.7058986921418
 30
0.0
 40
0.5
  0
LINE
  5
62B
  8
LAYER0014
  6
CONTINUOUS
 62
     7
 10
108.5095546357466
 20
33.225564794195
 30
0.0
 11
112.0279566275775
 21
33.5038986921418
 31
0.0
  0
LINE
  5
62C
  8
LAYER0014
  6
CONTINUOUS
 62
     7
 10
99.50955583158958
 20
33.22580236833851
 30
0.0
 11
103.0249546630225
 21
33.5038986921418
 31
0.0
  0
ARC
  5
62D
  8
LAYER0014
  6
CONTINUOUS
 62
     7
 10
123.0089546630224
 20
33.70289869214182
 30
0.0
 40
0.499
 50
179.4259999999998
 51
264.826000000001
  0
LINE
  5
62E
  8
LAYER0014
  6
CONTINUOUS
 62
     7
 10
121.0559546630224
 20
33.2058986921418
 30
0.0
 11
122.9639546630225
 21
33.2058986921418
 31
0.0
  0
ARC
  5
62F
  8
LAYER0014
  6
CONTINUOUS
 62
     7
 10
122.0089546630224
 20
33.7058986921418
 30
0.0
 40
0.8
 50
359.8569999999999
 51
539.9279999999997
  0
ARC
  5
630
  8
LAYER0014
  6
CONTINUOUS
 62
     7
 10
123.0089546630224
 20
33.70289869214182
 30
0.0
 40
0.499
 50
179.4259999999998
 51
264.826000000001
  0
LINE
  5
631
  8
LAYER0014
  6
CONTINUOUS
 62
     7
 10
121.0559546630224
 20
33.2058986921418
 30
0.0
 11
122.9639546630225
 21
33.2058986921418
 31
0.0
  0
ARC
  5
632
  8
LAYER0014
  6
CONTINUOUS
 62
     7
 10
122.0089546630224
 20
33.7058986921418
 30
0.0
 40
0.8
 50
359.8569999999999
 51
539.9279999999997
  0
ARC
  5
633
  8
LAYER0014
  6
CONTINUOUS
 62
     7
 10
123.0109546630224
 20
33.70489869214177
 30
0.0
 40
0.202
 50
180.2839999999983
 51
269.7160000000017
  0
ARC
  5
634
  8
LAYER0014
  6
CONTINUOUS
 62
     7
 10
123.0109546630224
 20
33.70489869214177
 30
0.0
 40
0.202
 50
180.2839999999983
 51
269.7160000000017
  0
LINE
  5
635
  8
LAYER0014
  6
CONTINUOUS
 62
     7
 10
99.50955583158958
 20
33.22580236833851
 30
0.0
 11
95.9969566275775
 21
33.5038986921418
 31
0.0
  0
LINE
  5
636
  8
LAYER0014
  6
CONTINUOUS
 62
     7
 10
126.5255533793613
 20
33.22456727568135
 30
0.0
 11
127.776134134744
 21
33.32349827252342
 31
0.0
  0
LINE
  5
637
  8
LAYER0014
  6
CONTINUOUS
 62
     7
 10
126.5255533793613
 20
33.22456727568135
 30
0.0
 11
123.0099534066372
 21
33.50290117362816
 31
0.0
  0
ARC
  5
638
  8
LAYER0014
  6
CONTINUOUS
 62
     7
 10
76.22863982729302
 20
0.3289812139894295
 30
0.0
 40
0.202
 50
0.2839999999983307
 51
89.71600000000167
  0
ARC
  5
639
  8
LAYER0014
  6
CONTINUOUS
 62
     7
 10
76.22863982729302
 20
0.3289812139894295
 30
0.0
 40
0.202
 50
0.2839999999983307
 51
89.71600000000167
  0
LINE
  5
63A
  8
LAYER0014
  6
CONTINUOUS
 62
     7
 10
75.53215942363585
 20
17.02798262208303
 30
0.0
 11
78.03063982729304
 21
0.2989812139894283
 31
0.0
  0
LINE
  5
63B
  8
LAYER0014
  6
CONTINUOUS
 62
     7
 10
76.42763982729304
 20
0.3609812139894402
 30
0.0
 11
73.7249112319048
 21
17.02798262208303
 31
0.0
  0
LINE
  5
63C
  8
LAYER0014
  6
CONTINUOUS
 62
     7
 10
75.53215942363585
 20
17.02798262208303
 30
0.0
 11
78.03063982729304
 21
0.2989812139894283
 31
0.0
  0
LINE
  5
63D
  8
LAYER0014
  6
CONTINUOUS
 62
     7
 10
76.42763982729304
 20
0.3609812139894402
 30
0.0
 11
73.7249112319048
 21
17.02798262208303
 31
0.0
  0
LINE
  5
63E
  8
LAYER0014
  6
CONTINUOUS
 62
     7
 10
76.04295788396274
 20
33.20689621065543
 30
0.0
 11
77.95095788396276
 21
33.20689621065543
 31
0.0
  0
ARC
  5
63F
  8
LAYER0014
  6
CONTINUOUS
 62
     7
 10
75.99795788396273
 20
33.70389621065544
 30
0.0
 40
0.499
 50
275.173999999999
 51
360.5740000000002
  0
LINE
  5
640
  8
LAYER0014
  6
CONTINUOUS
 62
     7
 10
76.04295788396274
 20
33.20689621065543
 30
0.0
 11
77.95095788396276
 21
33.20689621065543
 31
0.0
  0
ARC
  5
641
  8
LAYER0014
  6
CONTINUOUS
 62
     7
 10
75.99795788396273
 20
33.70389621065544
 30
0.0
 40
0.499
 50
275.173999999999
 51
360.5740000000002
  0
ARC
  5
642
  8
LAYER0014
  6
CONTINUOUS
 62
     7
 10
76.99595788396272
 20
33.70689621065543
 30
0.0
 40
0.8
 50
359.8569999999999
 51
539.9279999999997
  0
ARC
  5
643
  8
LAYER0014
  6
CONTINUOUS
 62
     7
 10
76.99595788396272
 20
33.70689621065543
 30
0.0
 40
0.8
 50
359.8569999999999
 51
539.9279999999997
  0
LINE
  5
644
  8
LAYER0014
  6
CONTINUOUS
 62
     7
 10
-44.02176203640545
 20
33.2276696602386
 30
0.0
 11
-40.50336004457449
 21
33.50600355818541
 31
0.0
  0
LINE
  5
645
  8
LAYER0014
  6
CONTINUOUS
 62
     7
 10
-44.02176203640545
 20
33.2276696602386
 30
0.0
 11
-46.91554570825787
 21
33.45677368101757
 31
0.0
  0
INSERT
  5
646
  8
LAYER0014
  6
CONTINUOUS
  2
DA_IMAGEDIMGROUP_1
 10
0.0
 20
0.0
 30
0.0
  0
INSERT
  5
647
  8
LAYER0014
  6
CONTINUOUS
  2
DA_IMAGEDIMGROUP_4
 10
0.0
 20
0.0
 30
0.0
  0
INSERT
  5
648
  8
LAYER0014
  6
CONTINUOUS
  2
DA_IMAGEDIMGROUP_5
 10
0.0
 20
0.0
 30
0.0
  0
INSERT
  5
649
  8
LAYER0224
  6
CONTINUOUS
  2
DA_IMAGEDIMGROUP_2
 10
0.0
 20
0.0
 30
0.0
  0
INSERT
  5
64A
  8
LAYER0224
  6
CONTINUOUS
  2
DA_IMAGEDIMGROUP_3
 10
0.0
 20
0.0
 30
0.0
  0
INSERT
  5
64B
  8
LAYER0224
  6
CONTINUOUS
  2
DA_IMAGEDIMGROUP_6
 10
0.0
 20
0.0
 30
0.0
  0
POINT
  5
64C
  8
0
  6
CONTINUOUS
 62
     5
 10
127.0965061831456
 20
-2.303339850310206
 30
0.0
  0
LINE
  5
64D
  8
0
  6
CONTINUOUS
 62
     3
 10
-22.11554570825791
 20
17.00795875072098
 30
0.0
 11
-22.11554570825791
 21
30.69954296049423
 31
0.0
  0
LINE
  5
64E
  8
0
  6
CONTINUOUS
 62
     3
 10
-22.11554570825791
 20
17.00795875072098
 30
0.0
 11
-22.1155457082578
 21
30.69954296049423
 31
0.0
  0
LINE
  5
64F
  8
0
  6
CONTINUOUS
 62
     3
 10
-43.31554570825784
 20
40.90795737982103
 30
0.0
 11
-43.31554570825784
 21
44.5579587507209
 31
0.0
  0
LINE
  5
650
  8
0
  6
CONTINUOUS
 62
     3
 10
-40.51554570825789
 20
40.80795875071453
 30
0.0
 11
-40.51554570825789
 21
44.5579587507209
 31
0.0
  0
LINE
  5
651
  8
0
  6
CONTINUOUS
 62
     3
 10
-40.71554570825782
 20
44.75795875072095
 30
0.0
 11
-43.1155457082578
 21
44.75795875072095
 31
0.0
  0
LINE
  5
652
  8
0
  6
CONTINUOUS
 62
     3
 10
-46.91554570825787
 20
35.75795875072095
 30
0.0
 11
-46.91554570825787
 21
33.24635940180315
 31
0.0
  0
LINE
  5
653
  8
0
  6
CONTINUOUS
 62
     3
 10
-46.91554570825787
 20
35.75795875072095
 30
0.0
 11
-50.57627282940331
 21
35.75795875072095
 31
0.0
  0
ARC
  5
654
  8
0
  6
CONTINUOUS
 62
     3
 10
-23.1155457082578
 20
30.69954296049423
 30
0.0
 40
1.0
 50
360.0
 51
437.9052429229899
  0
LINE
  5
655
  8
0
  6
CONTINUOUS
 62
     3
 10
-25.61554570825382
 20
32.25795875072731
 30
0.0
 11
-22.90601661952707
 21
31.67734537457182
 31
0.0
  0
LINE
  5
656
  8
0
  6
CONTINUOUS
 62
     3
 10
-46.42727956501
 20
32.7464971041594
 30
0.0
 11
-25.6155457081864
 21
32.25795875071287
 31
0.0
  0
ARC
  5
657
  8
0
  6
CONTINUOUS
 62
     3
 10
-46.41554570825787
 20
33.24635940180315
 30
0.0
 40
0.5
 50
180.0
 51
268.6552756112977
  0
LINE
  5
658
  8
0
  6
CONTINUOUS
 62
     3
 10
-37.51554570825789
 20
-6.7920412492856
 30
0.0
 11
-36.3155457082616
 21
-6.7920412492856
 31
0.0
  0
ARC
  5
659
  8
0
  6
CONTINUOUS
 62
     3
 10
-35.81554570825784
 20
-8.292041249279006
 30
0.0
 40
0.5000000000000568
 50
180.0
 51
270.0
  0
ARC
  5
65A
  8
0
  6
CONTINUOUS
 62
     3
 10
-35.66693352715782
 20
-8.292041249279006
 30
0.0
 40
0.5000000000000087
 50
270.0
 51
303.6900675266988
  0
LINE
  5
65B
  8
0
  6
CONTINUOUS
 62
     3
 10
-36.31554570825784
 20
-8.292041249279006
 30
0.0
 11
-36.31554570825784
 21
-8.168220466879117
 31
0.0
  0
LINE
  5
65C
  8
0
  6
CONTINUOUS
 62
     3
 10
-32.51554570825789
 20
-5.715677315379022
 30
0.0
 11
-32.51554570825789
 21
-6.391276962379035
 31
0.0
  0
LINE
  5
65D
  8
0
  6
CONTINUOUS
 62
     3
 10
-32.51554570825789
 20
-6.391276962379035
 30
0.0
 11
-32.51554570825789
 21
-6.524449369979035
 31
0.0
  0
LINE
  5
65E
  8
0
  6
CONTINUOUS
 62
     3
 10
-36.31554570825784
 20
-8.168220466879117
 30
0.0
 11
-36.31554570825784
 21
-6.602071962441979
 31
0.0
  0
ARC
  5
65F
  8
0
  6
CONTINUOUS
 62
     3
 10
-33.01554570825789
 20
-6.524449369979035
 30
0.0
 40
0.5000000000000165
 50
303.6900675266988
 51
360.0
  0
LINE
  5
660
  8
0
  6
CONTINUOUS
 62
     3
 10
-32.38157111205788
 20
-5.715677315379704
 30
0.0
 11
-32.38157111205788
 21
17.00795875072095
 31
0.0
  0
LINE
  5
661
  8
0
  6
CONTINUOUS
 62
     3
 10
-31.51554570825789
 20
17.00795875072095
 30
0.0
 11
-31.51554570825789
 21
-4.92700218077584
 31
0.0
  0
ARC
  5
662
  8
0
  6
CONTINUOUS
 62
     3
 10
-33.01554570825789
 20
39.40795875072092
 30
0.0
 40
0.5
 50
270.0
 51
360.0
  0
LINE
  5
663
  8
0
  6
CONTINUOUS
 62
     3
 10
-32.51554570825789
 20
40.54036687142093
 30
0.0
 11
-32.51554570825789
 21
39.40795875072092
 31
0.0
  0
ARC
  5
664
  8
0
  6
CONTINUOUS
 62
     3
 10
-33.01554570825789
 20
40.54036687142093
 30
0.0
 40
0.5
 50
0.0
 51
56.30993247329984
  0
LINE
  5
665
  8
0
  6
CONTINUOUS
 62
     3
 10
-32.73819561015779
 20
40.95639201862093
 30
0.0
 11
-35.38958342905784
 21
42.7239838979209
 31
0.0
  0
ARC
  5
666
  8
0
  6
CONTINUOUS
 62
     3
 10
-35.66693352715782
 20
42.3079587507209
 30
0.0
 40
0.5000000000000008
 50
56.30993247329984
 51
90.0
  0
LINE
  5
667
  8
0
  6
CONTINUOUS
 62
     3
 10
-35.66693352715782
 20
42.8079587507209
 30
0.0
 11
-35.81554570825784
 21
42.8079587507209
 31
0.0
  0
ARC
  5
668
  8
0
  6
CONTINUOUS
 62
     3
 10
-35.81554570825784
 20
42.3079587507209
 30
0.0
 40
0.5000000000000142
 50
90.0
 51
180.0
  0
LINE
  5
669
  8
0
  6
CONTINUOUS
 62
     3
 10
-36.31554570825784
 20
42.3079587507209
 30
0.0
 11
-36.31554570825784
 21
40.8079587507209
 31
0.0
  0
LINE
  5
66A
  8
0
  6
CONTINUOUS
 62
     3
 10
-32.51554570825789
 20
39.268012659021
 30
0.0
 11
-32.51554570825789
 21
39.40795875072092
 31
0.0
  0
LINE
  5
66B
  8
0
  6
CONTINUOUS
 62
     3
 10
-36.31554570825784
 20
40.8079587507209
 30
0.0
 11
-40.51554570825789
 21
40.8079587507209
 31
0.0
  0
LINE
  5
66C
  8
0
  6
CONTINUOUS
 62
     3
 10
-31.51554570825778
 20
33.50496123220736
 30
0.0
 11
-31.51554570825778
 21
38.92874961382097
 31
0.0
  0
LINE
  5
66D
  8
0
  6
CONTINUOUS
 62
     3
 10
-46.91554570825787
 20
35.75795875072095
 30
0.0
 11
-50.57627282940331
 21
35.75795875072095
 31
0.0
  0
LINE
  5
66E
  8
0
  6
CONTINUOUS
 62
     3
 10
-53.32750084809726
 20
38.90795875072092
 30
0.0
 11
-33.01554570825789
 21
38.90795875072092
 31
0.0
  0
ARC
  5
66F
  8
0
  6
CONTINUOUS
 62
     3
 10
-43.1155457082578
 20
44.5579587507209
 30
0.0
 40
0.2
 50
90.0
 51
180.0
  0
ARC
  5
670
  8
0
  6
CONTINUOUS
 62
     3
 10
-40.71554570825782
 20
44.5579587507209
 30
0.0
 40
0.2
 50
360.0
 51
450.0
  0
ARC
  5
671
  8
0
  6
CONTINUOUS
 62
     3
 10
-32.01554570825789
 20
-4.92700218077584
 30
0.0
 40
0.5
 50
300.0000000000001
 51
360.0
  0
ARC
  5
672
  8
0
  6
CONTINUOUS
 62
     3
 10
-32.01554570825789
 20
38.94291968221774
 30
0.0
 40
0.5
 50
360.0
 51
419.9999999999999
  0
LINE
  5
673
  8
0
  6
CONTINUOUS
 62
     3
 10
-22.11649001626637
 20
30.00796699157207
 30
0.0
 11
-45.21802123122399
 21
30.20957100024907
 31
0.0
  0
LINE
  5
674
  8
0
  6
CONTINUOUS
 62
     3
 10
-43.31554570825784
 20
40.90795737982091
 30
0.0
 11
-56.52427224375623
 21
40.79268656966133
 31
0.0
  0
ARC
  5
675
  8
0
  6
CONTINUOUS
 62
     3
 10
-56.51554570825789
 20
39.79272464659721
 30
0.0
 40
1.0
 50
90.4999999999997
 51
180.0
  0
ARC
  5
676
  8
0
  6
CONTINUOUS
 62
     3
 10
-102.5155454698393
 20
17.00795875072098
 30
0.0
 40
23.9
 50
90.0
 51
270.0
  0
ARC
  5
677
  8
0
  6
CONTINUOUS
 62
     3
 10
-102.5155454698393
 20
17.00795875072098
 30
0.0
 40
21.5
 50
90.0
 51
270.0
  0
ARC
  5
678
  8
0
  6
CONTINUOUS
 62
     3
 10
-102.5155454698393
 20
17.00795875072098
 30
0.0
 40
21.5
 50
90.0
 51
270.0
  0
ARC
  5
679
  8
0
  6
CONTINUOUS
 62
     3
 10
-102.5155454698393
 20
17.00795875072098
 30
0.0
 40
27.75
 50
90.0
 51
270.0
  0
ARC
  5
67A
  8
0
  6
CONTINUOUS
 62
     3
 10
-102.5155454698393
 20
17.00795875072098
 30
0.0
 40
13.0
 50
90.0
 51
270.0
  0
LINE
  5
67B
  8
LAYER0014
  6
CONTINUOUS
 62
     7
 10
-32.01554570825778
 20
37.92165053774352
 30
0.0
 11
-38.01554570825789
 21
37.92165053774352
 31
0.0
  0
LINE
  5
67C
  8
LAYER0014
  6
CONTINUOUS
 62
     7
 10
-38.51554570825789
 20
38.21029931166891
 30
0.0
 11
-38.51554570825789
 21
38.4810091188649
 31
0.0
  0
ARC
  5
67D
  8
LAYER0014
  6
CONTINUOUS
 62
     7
 10
-32.01554570825778
 20
38.42165053774352
 30
0.0
 40
0.5
 50
270.0
 51
360.0
  0
LINE
  5
67E
  8
LAYER0014
  6
CONTINUOUS
 62
     7
 10
-37.51554570825789
 20
-6.602071962441979
 30
0.0
 11
-36.31554570825784
 21
-6.602071962441979
 31
0.0
  0
ARC
  5
67F
  8
LAYER0014
  6
CONTINUOUS
 62
     7
 10
-33.01554570825789
 20
39.268012659021
 30
0.0
 40
0.5
 50
270.0
 51
360.0
  0
ARC
  5
680
  8
LAYER0014
  6
CONTINUOUS
 62
     7
 10
-38.31554570825784
 20
38.21029931166891
 30
0.0
 40
0.2
 50
180.0
 51
233.2356662820332
  0
ARC
  5
681
  8
LAYER0014
  6
CONTINUOUS
 62
     7
 10
-38.31554570825784
 20
38.4810091188649
 30
0.0
 40
0.2
 50
127.6613228866182
 51
180.0
  0
ARC
  5
682
  8
LAYER0014
  6
CONTINUOUS
 62
     7
 10
-38.05648068514284
 20
38.14535010123359
 30
0.0
 40
0.6240066772101993
 50
86.23868308220085
 51
127.6613228866183
  0
ARC
  5
683
  8
LAYER0014
  6
CONTINUOUS
 62
     7
 10
-38.04655184120662
 20
38.57033787220621
 30
0.0
 40
0.6494279314695287
 50
233.2356662820331
 51
272.7205786662115
  0
LINE
  5
684
  8
LAYER0014
  6
CONTINUOUS
 62
     7
 10
-38.01554570825789
 20
38.768012659021
 30
0.0
 11
-33.01554570825789
 21
38.768012659021
 31
0.0
  0
LINE
  5
685
  8
LAYER0014
  6
CONTINUOUS
 62
     3
 10
-46.91554570825787
 20
17.00795875072095
 30
0.0
 11
-46.91554570825787
 21
30.52233764977121
 31
0.0
  0
ARC
  5
686
  8
LAYER0014
  6
CONTINUOUS
 62
     3
 10
-45.17438855373217
 20
35.2093806155699
 30
0.0
 40
5.0
 50
231.9934687899768
 51
269.5
  0
LINE
  5
687
  8
LAYER0014
  6
CONTINUOUS
 62
     3
 10
-57.13129700581095
 20
38.20768021886261
 30
0.0
 11
-48.25314504149782
 21
31.26967777283676
 31
0.0
  0
ARC
  5
688
  8
LAYER0014
  6
CONTINUOUS
 62
     3
 10
-56.51554570825789
 20
38.99562078740928
 30
0.0
 40
1.0
 50
180.0
 51
231.9934687899766
  0
LINE
  5
689
  8
LAYER0014
  6
CONTINUOUS
 62
     3
 10
-53.63537649687379
 20
38.0139884664477
 30
0.0
 11
-50.88414847817995
 21
35.86398846644761
 31
0.0
  0
ARC
  5
68A
  8
LAYER0014
  6
CONTINUOUS
 62
     3
 10
-53.32750084809726
 20
38.40795875072092
 30
0.0
 40
0.5
 50
90.0
 51
231.9934687899766
  0
ARC
  5
68B
  8
LAYER0014
  6
CONTINUOUS
 62
     3
 10
-50.57627282940331
 20
36.25795875072095
 30
0.0
 40
0.5
 50
231.9934687899779
 51
270.0
  0
LINE
  5
68C
  8
0
  6
DASHED2
 62
     3
 10
-45.45581812957784
 20
30.2116462223421
 30
0.0
 11
-46.91554570825787
 21
30.2243850719317
 31
0.0
  0
LINE
  5
68D
  8
LAYER0014
  6
DASHED2
 62
     3
 10
-48.25314504149782
 20
31.26967777283676
 30
0.0
 11
-46.91554570825787
 21
30.2243850719317
 31
0.0
  0
INSERT
  5
68E
  8
LAYER0016
  6
CONTINUOUS
  2
DC_GROUP_25
 10
0.0
 20
0.0
 30
0.0
  0
INSERT
  5
68F
  8
LAYER0016
  6
CONTINUOUS
  2
DC_GROUP_26
 10
0.0
 20
0.0
 30
0.0
  0
INSERT
  5
690
  8
LAYER0016
  6
CONTINUOUS
  2
DC_GROUP_27
 10
0.0
 20
0.0
 30
0.0
  0
INSERT
  5
691
  8
LAYER0016
  6
CONTINUOUS
  2
DC_GROUP_28
 10
0.0
 20
0.0
 30
0.0
  0
VIEWPORT
  5
4B
 67
     1
  8
0
 10
0.0
 20
0.0
 30
0.0
 40
1260.0
 41
891.0
 68
     1
 69
     1
1001
ACAD
1000
MVIEW
1002
{
1070
    16
1010
0.0
1020
0.0
1030
0.0
1020
0.0
1030
0.0
1010
0.0
1020
0.0
1030
1.0
1020
0.0
1030
1.0
1040
0.0
1040
891.0
1040
0.0
1040
0.0
1040
50.0
1040
0.0
1040
0.0
1070
     0
1070
   100
1070
     0
1070
     1
1070
     0
1070
     0
1070
     0
1070
     0
1040
0.0
1040
0.0
1040
0.0
1040
0.5
1040
0.5
1040
0.0
1040
0.0
1070
     0
1002
{
1002
}
1002
}
  0
ENDSEC
  0
EOF
