  0
SECTION
  2
HEADER
  9
$ACADVER
  1
AC1014
  9
$ACADMAINTVER
 70
     9
  9
$DWGCODEPAGE
  3
ANSI_932
  9
$INSBASE
 10
0.0
 20
0.0
 30
0.0
  9
$EXTMIN
 10
-578.0
 20
-413.5
 30
0.0
  9
$EXTMAX
 10
577.0
 20
411.5
 30
0.0
  9
$LIMMIN
 10
-210.0
 20
-148.5
  9
$LIMMAX
 10
210.0
 20
148.5
  9
$ORTHOMODE
 70
     0
  9
$REGENMODE
 70
     1
  9
$FILLMODE
 70
     1
  9
$QTEXTMODE
 70
     0
  9
$MIRRTEXT
 70
     1
  9
$DRAGMODE
 70
     2
  9
$LTSCALE
 40
1.0
  9
$OSMODE
 70
    37
  9
$ATTMODE
 70
     1
  9
$TEXTSIZE
 40
0.2
  9
$TRACEWID
 40
0.05
  9
$TEXTSTYLE
  7
STANDARD
  9
$CLAYER
  8
0
  9
$CELTYPE
  6
BYLAYER
  9
$CECOLOR
 62
   256
  9
$CELTSCALE
 40
1.0
  9
$DELOBJ
 70
     1
  9
$DISPSILH
 70
     0
  9
$DIMSCALE
 40
1.0
  9
$DIMASZ
 40
2.5
  9
$DIMEXO
 40
0.0625
  9
$DIMDLI
 40
0.38
  9
$DIMRND
 40
0.0
  9
$DIMDLE
 40
0.0
  9
$DIMEXE
 40
0.18
  9
$DIMTP
 40
0.0
  9
$DIMTM
 40
0.0
  9
$DIMTXT
 40
0.18
  9
$DIMCEN
 40
0.09
  9
$DIMTSZ
 40
0.0
  9
$DIMTOL
 70
     0
  9
$DIMLIM
 70
     0
  9
$DIMTIH
 70
     1
  9
$DIMTOH
 70
     1
  9
$DIMSE1
 70
     0
  9
$DIMSE2
 70
     0
  9
$DIMTAD
 70
     3
  9
$DIMZIN
 70
     0
  9
$DIMBLK
  1

  9
$DIMASO
 70
     1
  9
$DIMSHO
 70
     1
  9
$DIMPOST
  1

  9
$DIMAPOST
  1

  9
$DIMALT
 70
     0
  9
$DIMALTD
 70
     2
  9
$DIMALTF
 40
25.4
  9
$DIMLFAC
 40
1.0
  9
$DIMTOFL
 70
     0
  9
$DIMTVP
 40
0.0
  9
$DIMTIX
 70
     0
  9
$DIMSOXD
 70
     0
  9
$DIMSAH
 70
     0
  9
$DIMBLK1
  1

  9
$DIMBLK2
  1

  9
$DIMSTYLE
  2
STANDARD
  9
$DIMCLRD
 70
     0
  9
$DIMCLRE
 70
     0
  9
$DIMCLRT
 70
     0
  9
$DIMTFAC
 40
1.0
  9
$DIMGAP
 40
0.09
  9
$DIMJUST
 70
     0
  9
$DIMSD1
 70
     0
  9
$DIMSD2
 70
     0
  9
$DIMTOLJ
 70
     1
  9
$DIMTZIN
 70
     0
  9
$DIMALTZ
 70
     0
  9
$DIMALTTZ
 70
     0
  9
$DIMFIT
 70
     3
  9
$DIMUPT
 70
     0
  9
$DIMUNIT
 70
     2
  9
$DIMDEC
 70
     4
  9
$DIMTDEC
 70
     4
  9
$DIMALTU
 70
     2
  9
$DIMALTTD
 70
     2
  9
$DIMTXSTY
  7
STANDARD
  9
$DIMAUNIT
 70
     0
  9
$LUNITS
 70
     2
  9
$LUPREC
 70
     4
  9
$SKETCHINC
 40
0.1
  9
$FILLETRAD
 40
0.5
  9
$AUNITS
 70
     0
  9
$AUPREC
 70
     0
  9
$MENU
  1
.
  9
$ELEVATION
 40
0.0
  9
$PELEVATION
 40
0.0
  9
$THICKNESS
 40
0.0
  9
$LIMCHECK
 70
     0
  9
$CHAMFERA
 40
0.5
  9
$CHAMFERB
 40
0.5
  9
$CHAMFERC
 40
1.0
  9
$CHAMFERD
 40
0.0
  9
$SKPOLY
 70
     0
  9
$TDCREATE
 40
2455329.485410961
  9
$TDUPDATE
 40
2455329.485410972
  9
$TDINDWG
 40
0.0000000116
  9
$TDUSRTIMER
 40
0.0000000116
  9
$USRTIMER
 70
     1
  9
$ANGBASE
 50
0.0
  9
$ANGDIR
 70
     0
  9
$PDMODE
 70
     0
  9
$PDSIZE
 40
1.0
  9
$PLINEWID
 40
0.0
  9
$COORDS
 70
     1
  9
$SPLFRAME
 70
     0
  9
$SPLINETYPE
 70
     6
  9
$SPLINESEGS
 70
     8
  9
$ATTDIA
 70
     0
  9
$ATTREQ
 70
     1
  9
$HANDLING
 70
     1
  9
$HANDSEED
  5
2BD
  9
$SURFTAB1
 70
     6
  9
$SURFTAB2
 70
     6
  9
$SURFTYPE
 70
     6
  9
$SURFU
 70
     6
  9
$SURFV
 70
     6
  9
$UCSNAME
  2

  9
$UCSORG
 10
0.0
 20
0.0
 30
0.0
  9
$UCSXDIR
 10
1.0
 20
0.0
 30
0.0
  9
$UCSYDIR
 10
0.0
 20
1.0
 30
0.0
  9
$PUCSNAME
  2

  9
$PUCSORG
 10
0.0
 20
0.0
 30
0.0
  9
$PUCSXDIR
 10
1.0
 20
0.0
 30
0.0
  9
$PUCSYDIR
 10
0.0
 20
1.0
 30
0.0
  9
$USERI1
 70
     0
  9
$USERI2
 70
     0
  9
$USERI3
 70
     0
  9
$USERI4
 70
     0
  9
$USERI5
 70
     0
  9
$USERR1
 40
0.0
  9
$USERR2
 40
0.0
  9
$USERR3
 40
0.0
  9
$USERR4
 40
0.0
  9
$USERR5
 40
0.0
  9
$WORLDVIEW
 70
     1
  9
$SHADEDGE
 70
     3
  9
$SHADEDIF
 70
    70
  9
$TILEMODE
 70
     1
  9
$MAXACTVP
 70
    64
  9
$PINSBASE
 10
0.0
 20
0.0
 30
0.0
  9
$PLIMCHECK
 70
     0
  9
$PEXTMIN
 10
1.000000000000000E+20
 20
1.000000000000000E+20
 30
1.000000000000000E+20
  9
$PEXTMAX
 10
-1.000000000000000E+20
 20
-1.000000000000000E+20
 30
-1.000000000000000E+20
  9
$PLIMMIN
 10
0.0
 20
0.0
  9
$PLIMMAX
 10
12.0
 20
9.0
  9
$UNITMODE
 70
     0
  9
$VISRETAIN
 70
     0
  9
$PLINEGEN
 70
     1
  9
$PSLTSCALE
 70
     0
  9
$TREEDEPTH
 70
  3020
  9
$PICKSTYLE
 70
     1
  9
$CMLSTYLE
  2
STANDARD
  9
$CMLJUST
 70
     0
  9
$CMLSCALE
 40
1.0
  9
$PROXYGRAPHICS
 70
     0
  9
$MEASUREMENT
 70
     1
  0
ENDSEC
  0
SECTION
  2
CLASSES
  0
CLASS
  1
ACDBDICTIONARYWDFLT
  2
AcDbDictionaryWithDefault
  3
ObjectDBX Classes
 90
        0
280
     0
281
     0
  0
CLASS
  1
XRECORD
  2
AcDbXrecord
  3
AutoCAD 2000
 90
        0
280
     0
281
     0
  0
CLASS
  1
LWPOLYLINE
  2
AcDbPolyline
  3
AutoCAD 2000
 90
        0
280
     0
281
     1
  0
CLASS
  1
HATCH
  2
AcDbHatch
  3
AutoCAD 2000
 90
        0
280
     0
281
     1
  0
CLASS
  1
ACDBPLACEHOLDER
  2
AcDbPlaceHolder
  3
ObjectDBX Classes
 90
        0
280
     0
281
     0
  0
CLASS
  1
LAYOUT
  2
AcDbLayout
  3
ObjectDBX Classes
 90
        0
280
     0
281
     0
  0
ENDSEC
  0
SECTION
  2
TABLES
  0
TABLE
  2
VPORT
  5
8
330
0
100
AcDbSymbolTable
 70
     1
  0
VPORT
  5
29
330
8
100
AcDbSymbolTableRecord
100
AcDbViewportTableRecord
  2
*ACTIVE
 70
     0
 10
0.0
 20
0.0
 11
1.0
 21
1.0
 12
0.0
 22
0.0
 13
0.0
 23
0.0
 14
0.5
 24
0.5
 15
0.5
 25
0.5
 16
0.0
 26
0.0
 36
1.0
 17
-0.5000000000000036
 27
-1.0
 37
0.0
 40
280.5
 41
1.4
 42
50.0
 43
0.0
 44
0.0
 50
0.0
 51
0.0
 71
     0
 72
  1000
 73
     1
 74
     1
 75
     0
 76
     0
 77
     0
 78
     0
  0
ENDTAB
  0
TABLE
  2
LTYPE
  5
5
330
0
100
AcDbSymbolTable
 70
    28
  0
LTYPE
  5
14
330
5
100
AcDbSymbolTableRecord
100
AcDbLinetypeTableRecord
  2
BYBLOCK
 70
     0
  3

 72
    65
 73
     0
 40
0.0
  0
LTYPE
  5
15
330
5
100
AcDbSymbolTableRecord
100
AcDbLinetypeTableRecord
  2
BYLAYER
 70
     0
  3

 72
    65
 73
     0
 40
0.0
  0
LTYPE
  5
16
330
5
100
AcDbSymbolTableRecord
100
AcDbLinetypeTableRecord
  2
CONTINUOUS
 70
     0
  3
Solid line
 72
    65
 73
     0
 40
0.0
  0
LTYPE
  5
2B
330
5
100
AcDbSymbolTableRecord
100
AcDbLinetypeTableRecord
  2
HIDDENX2
 70
     0
  3
CADPAC LINETYPE
 72
    65
 73
     2
 40
8.911765071550292
 49
6.683823803662719
 74
     0
 49
-2.227941267887573
 74
     0
  0
LTYPE
  5
2C
330
5
100
AcDbSymbolTableRecord
100
AcDbLinetypeTableRecord
  2
HIDDEN
 70
     0
  3
CADPAC LINETYPE
 72
    65
 73
     2
 40
6.683823803662719
 49
4.455882535775146
 74
     0
 49
-2.227941267887573
 74
     0
  0
LTYPE
  5
2D
330
5
100
AcDbSymbolTableRecord
100
AcDbLinetypeTableRecord
  2
HIDDEN2
 70
     0
  3
CADPAC LINETYPE
 72
    65
 73
     2
 40
5.569853169718932
 49
3.341911901831359
 74
     0
 49
-2.227941267887573
 74
     0
  0
LTYPE
  5
2E
330
5
100
AcDbSymbolTableRecord
100
AcDbLinetypeTableRecord
  2
DASHED
 70
     0
  3
CADPAC LINETYPE
 72
    65
 73
     2
 40
6.238235550085221
 49
4.455882535775146
 74
     0
 49
-1.782353014310075
 74
     0
  0
LTYPE
  5
2F
330
5
100
AcDbSymbolTableRecord
100
AcDbLinetypeTableRecord
  2
DASHED2
 70
     0
  3
CADPAC LINETYPE
 72
    65
 73
     2
 40
4.010294282197606
 49
2.673529521465071
 74
     0
 49
-1.336764760732535
 74
     0
  0
LTYPE
  5
30
330
5
100
AcDbSymbolTableRecord
100
AcDbLinetypeTableRecord
  2
DASHEDX2
 70
     0
  3
CADPAC LINETYPE
 72
    65
 73
     2
 40
10.69411808586034
 49
8.911765071550263
 74
     0
 49
-1.782353014310075
 74
     0
  0
LTYPE
  5
31
330
5
100
AcDbSymbolTableRecord
100
AcDbLinetypeTableRecord
  2
DOTX2
 70
     0
  3
CADPAC LINETYPE
 72
    65
 73
     2
 40
3.898897218803263
 49
0.0
 74
     0
 49
-3.898897218803263
 74
     0
  0
LTYPE
  5
32
330
5
100
AcDbSymbolTableRecord
100
AcDbLinetypeTableRecord
  2
DOT
 70
     0
  3
CADPAC LINETYPE
 72
    65
 73
     2
 40
3.119117775042611
 49
0.0
 74
     0
 49
-3.119117775042611
 74
     0
  0
LTYPE
  5
33
330
5
100
AcDbSymbolTableRecord
100
AcDbLinetypeTableRecord
  2
DOT2
 70
     0
  3
CADPAC LINETYPE
 72
    65
 73
     2
 40
2.339338331281958
 49
0.0
 74
     0
 49
-2.339338331281958
 74
     0
  0
LTYPE
  5
34
330
5
100
AcDbSymbolTableRecord
100
AcDbLinetypeTableRecord
  2
CENTERX2
 70
     0
  3
CADPAC LINETYPE
 72
    65
 73
     4
 40
13.36764760732544
 49
5.569853169718932
 74
     0
 49
-2.784926584859466
 74
     0
 49
2.227941267887573
 74
     0
 49
-2.784926584859466
 74
     0
  0
LTYPE
  5
35
330
5
100
AcDbSymbolTableRecord
100
AcDbLinetypeTableRecord
  2
CENTER
 70
     0
  3
CADPAC LINETYPE
 72
    65
 73
     4
 40
10.24852983228284
 49
4.455882535775146
 74
     0
 49
-2.227941267887573
 74
     0
 49
1.336764760732544
 74
     0
 49
-2.227941267887573
 74
     0
  0
LTYPE
  5
36
330
5
100
AcDbSymbolTableRecord
100
AcDbLinetypeTableRecord
  2
CENTER2
 70
     0
  3
CADPAC LINETYPE
 72
    65
 73
     4
 40
7.129412057240233
 49
3.341911901831359
 74
     0
 49
-1.67095595091568
 74
     0
 49
0.4455882535775146
 74
     0
 49
-1.67095595091568
 74
     0
  0
LTYPE
  5
37
330
5
100
AcDbSymbolTableRecord
100
AcDbLinetypeTableRecord
  2
DASHDOTX2
 70
     0
  3
CADPAC LINETYPE
 72
    65
 73
     4
 40
21.38823617172068
 49
10.69411808586031
 74
     0
 49
-3.564706028620122
 74
     0
 49
3.564706028620122
 74
     0
 49
-3.564706028620122
 74
     0
  0
LTYPE
  5
38
330
5
100
AcDbSymbolTableRecord
100
AcDbLinetypeTableRecord
  2
DASHDOT
 70
     0
  3
CADPAC LINETYPE
 72
    65
 73
     4
 40
10.69411808586037
 49
5.347059042930141
 74
     0
 49
-1.782353014310075
 74
     0
 49
1.782353014310075
 74
     0
 49
-1.782353014310075
 74
     0
  0
LTYPE
  5
39
330
5
100
AcDbSymbolTableRecord
100
AcDbLinetypeTableRecord
  2
DASHDOT2
 70
     0
  3
CADPAC LINETYPE
 72
    65
 73
     4
 40
6.862059105093726
 49
4.010294282197606
 74
     0
 49
-1.336764760732557
 74
     0
 49
0.1782353014310076
 74
     0
 49
-1.336764760732557
 74
     0
  0
LTYPE
  5
3A
330
5
100
AcDbSymbolTableRecord
100
AcDbLinetypeTableRecord
  2
DIVIDEX2
 70
     0
  3
CADPAC LINETYPE
 72
    65
 73
     6
 40
28.51764822896092
 49
10.69411808586031
 74
     0
 49
-3.564706028620122
 74
     0
 49
3.564706028620122
 74
     0
 49
-3.564706028620122
 74
     0
 49
3.564706028620122
 74
     0
 49
-3.564706028620122
 74
     0
  0
LTYPE
  5
3B
330
5
100
AcDbSymbolTableRecord
100
AcDbLinetypeTableRecord
  2
DIVIDE
 70
     0
  3
CADPAC LINETYPE
 72
    65
 73
     6
 40
14.25882411448052
 49
5.347059042930141
 74
     0
 49
-1.782353014310075
 74
     0
 49
1.782353014310075
 74
     0
 49
-1.782353014310075
 74
     0
 49
1.782353014310075
 74
     0
 49
-1.782353014310075
 74
     0
  0
LTYPE
  5
3C
330
5
100
AcDbSymbolTableRecord
100
AcDbLinetypeTableRecord
  2
DIVIDE2
 70
     0
  3
CADPAC LINETYPE
 72
    65
 73
     6
 40
10.69411808586039
 49
4.010294282197606
 74
     0
 49
-1.336764760732557
 74
     0
 49
1.336764760732557
 74
     0
 49
-1.336764760732557
 74
     0
 49
1.336764760732557
 74
     0
 49
-1.336764760732557
 74
     0
  0
LTYPE
  5
3D
330
5
100
AcDbSymbolTableRecord
100
AcDbLinetypeTableRecord
  2
BORDERX2
 70
     0
  3
CADPAC LINETYPE
 72
    65
 73
     6
 40
19.49448609401626
 49
5.569853169718932
 74
     0
 49
-2.784926584859466
 74
     0
 49
5.569853169718932
 74
     0
 49
-2.784926584859466
 74
     0
 49
0.0
 74
     0
 49
-2.784926584859466
 74
     0
  0
LTYPE
  5
3E
330
5
100
AcDbSymbolTableRecord
100
AcDbLinetypeTableRecord
  2
BORDER
 70
     0
  3
CADPAC LINETYPE
 72
    65
 73
     6
 40
15.59558887521301
 49
4.455882535775146
 74
     0
 49
-2.227941267887573
 74
     0
 49
4.455882535775146
 74
     0
 49
-2.227941267887573
 74
     0
 49
0.0
 74
     0
 49
-2.227941267887573
 74
     0
  0
LTYPE
  5
3F
330
5
100
AcDbSymbolTableRecord
100
AcDbLinetypeTableRecord
  2
BORDER2
 70
     0
  3
CADPAC LINETYPE
 72
    65
 73
     6
 40
11.58529459301541
 49
3.564706028620122
 74
     0
 49
-2.227941267887587
 74
     0
 49
1.336764760732535
 74
     0
 49
-2.227941267887587
 74
     0
 49
0.0
 74
     0
 49
-2.227941267887573
 74
     0
  0
LTYPE
  5
40
330
5
100
AcDbSymbolTableRecord
100
AcDbLinetypeTableRecord
  2
PHANTOMX2
 70
     0
  3
CADPAC LINETYPE
 72
    65
 73
     6
 40
16.7095595091568
 49
5.569853169718932
 74
     0
 49
-2.227941267887573
 74
     0
 49
2.227941267887573
 74
     0
 49
-2.227941267887573
 74
     0
 49
2.227941267887573
 74
     0
 49
-2.227941267887573
 74
     0
  0
LTYPE
  5
41
330
5
100
AcDbSymbolTableRecord
100
AcDbLinetypeTableRecord
  2
PHANTOM
 70
     0
  3
CADPAC LINETYPE
 72
    65
 73
     6
 40
13.81323586090295
 49
4.455882535775146
 74
     0
 49
-2.227941267887573
 74
     0
 49
1.336764760732544
 74
     0
 49
-2.227941267887573
 74
     0
 49
1.336764760732544
 74
     0
 49
-2.227941267887573
 74
     0
  0
LTYPE
  5
42
330
5
100
AcDbSymbolTableRecord
100
AcDbLinetypeTableRecord
  2
PHANTOM2
 70
     0
  3
CADPAC LINETYPE
 72
    65
 73
     6
 40
11.80808871980414
 49
3.341911901831359
 74
     0
 49
-2.227941267887573
 74
     0
 49
0.8911765071550293
 74
     0
 49
-2.227941267887573
 74
     0
 49
0.8911765071550293
 74
     0
 49
-2.227941267887573
 74
     0
  0
LTYPE
  5
43
330
5
100
AcDbSymbolTableRecord
100
AcDbLinetypeTableRecord
  2
ACAD_ISO06W100
 70
     0
  3
CADPAC LINETYPE
 72
    65
 73
     8
 40
23.61617743960827
 49
10.69411808586031
 74
     0
 49
-2.227941267887587
 74
     0
 49
1.336764760732535
 74
     0
 49
-2.227941267887587
 74
     0
 49
1.336764760732535
 74
     0
 49
-2.227941267887587
 74
     0
 49
1.336764760732535
 74
     0
 49
-2.227941267887587
 74
     0
  0
LTYPE
  5
44
330
5
100
AcDbSymbolTableRecord
100
AcDbLinetypeTableRecord
  2
ACAD_ISO13W100
 70
     0
  3
CADPAC LINETYPE
 72
    65
 73
     8
 40
17.82353014310058
 49
4.455882535775146
 74
     0
 49
-2.227941267887573
 74
     0
 49
4.455882535775146
 74
     0
 49
-2.227941267887573
 74
     0
 49
0.0
 74
     0
 49
-2.227941267887573
 74
     0
 49
0.0
 74
     0
 49
-2.227941267887573
 74
     0
  0
LTYPE
  5
45
330
5
100
AcDbSymbolTableRecord
100
AcDbLinetypeTableRecord
  2
ACAD_ISO14W100
 70
     0
  3
CADPAC LINETYPE
 72
    65
 73
     8
 40
13.36764760732544
 49
4.455882535775146
 74
     0
 49
-2.227941267887573
 74
     0
 49
0.0
 74
     0
 49
-2.227941267887573
 74
     0
 49
0.0
 74
     0
 49
-2.227941267887573
 74
     0
 49
0.0
 74
     0
 49
-2.227941267887573
 74
     0
  0
ENDTAB
  0
TABLE
  2
LAYER
  5
2
330
0
100
AcDbSymbolTable
 70
     3
  0
LAYER
  5
10
330
2
100
AcDbSymbolTableRecord
100
AcDbLayerTableRecord
  2
0
 70
     0
 62
     7
  6
CONTINUOUS
  0
LAYER
  5
46
330
2
100
AcDbSymbolTableRecord
100
AcDbLayerTableRecord
  2
LAYER0014
 70
     0
 62
     7
  6
CONTINUOUS
  0
LAYER
  5
47
330
2
100
AcDbSymbolTableRecord
100
AcDbLayerTableRecord
  2
ZUWAKU
 70
     0
 62
     7
  6
CONTINUOUS
  0
ENDTAB
  0
TABLE
  2
STYLE
  5
3
330
0
100
AcDbSymbolTable
 70
     3
  0
STYLE
  5
11
330
3
100
AcDbSymbolTableRecord
100
AcDbTextStyleTableRecord
  2
STANDARD
 70
     0
 40
0.0
 41
1.0
 50
0.0
 71
     0
 42
0.2
  3
txt
  4

  0
STYLE
  5
9B
330
3
100
AcDbSymbolTableRecord
100
AcDbTextStyleTableRecord
  2
FDASTYLE0
 70
     0
 40
1.600000023839999
 41
0.6638419652256984
 50
0.0
 71
     0
 42
0.2
  3
txt.shx
  4
bigfont
  0
STYLE
  5
B7
330
3
100
AcDbSymbolTableRecord
100
AcDbTextStyleTableRecord
  2
FDASTYLE1
 70
     4
 40
2.498999999999999
 41
1.0
 50
0.0
 71
     0
 42
0.2
  3
txt.shx
  4
bigfont
  0
ENDTAB
  0
TABLE
  2
VIEW
  5
6
330
0
100
AcDbSymbolTable
 70
     0
  0
ENDTAB
  0
TABLE
  2
UCS
  5
7
330
0
100
AcDbSymbolTable
 70
     0
  0
ENDTAB
  0
TABLE
  2
APPID
  5
9
330
0
100
AcDbSymbolTable
 70
     2
  0
APPID
  5
12
330
9
100
AcDbSymbolTableRecord
100
AcDbRegAppTableRecord
  2
ACAD
 70
     0
  0
APPID
  5
2A
330
9
100
AcDbSymbolTableRecord
100
AcDbRegAppTableRecord
  2
DAFUSIONOUT
 70
     0
  0
ENDTAB
  0
TABLE
  2
DIMSTYLE
  5
A
330
0
100
AcDbSymbolTable
 70
     1
  0
DIMSTYLE
105
27
330
A
100
AcDbSymbolTableRecord
100
AcDbDimStyleTableRecord
  2
STANDARD
 70
     0
  3

  4

  5

  6

  7

 40
1.0
 41
0.18
 42
0.0625
 43
0.38
 44
0.18
 45
0.0
 46
0.0
 47
0.0
 48
0.0
140
0.18
141
0.09
142
0.0
143
25.4
144
1.0
145
0.0
146
1.0
147
0.09
 71
     0
 72
     0
 73
     1
 74
     1
 75
     0
 76
     0
 77
     0
 78
     0
170
     0
171
     2
172
     0
173
     0
174
     0
175
     0
176
     0
177
     0
178
     0
270
     2
271
     4
272
     4
273
     2
274
     2
340
11
275
     0
280
     0
281
     0
282
     0
283
     1
284
     0
285
     0
286
     0
287
     3
288
     0
  0
ENDTAB
  0
TABLE
  2
BLOCK_RECORD
  5
1
330
0
100
AcDbSymbolTable
 70
    24
  0
BLOCK_RECORD
  5
1F
330
1
100
AcDbSymbolTableRecord
100
AcDbBlockTableRecord
  2
*MODEL_SPACE
  0
BLOCK_RECORD
  5
1B
330
1
100
AcDbSymbolTableRecord
100
AcDbBlockTableRecord
  2
*PAPER_SPACE
  0
BLOCK_RECORD
  5
49
330
1
100
AcDbSymbolTableRecord
100
AcDbBlockTableRecord
  2
SYMGROUP_1
  0
BLOCK_RECORD
  5
4C
330
1
100
AcDbSymbolTableRecord
100
AcDbBlockTableRecord
  2
DC_GROUP_1
  0
BLOCK_RECORD
  5
4F
330
1
100
AcDbSymbolTableRecord
100
AcDbBlockTableRecord
  2
DC_GROUP_2
  0
BLOCK_RECORD
  5
52
330
1
100
AcDbSymbolTableRecord
100
AcDbBlockTableRecord
  2
DC_GROUP_3
  0
BLOCK_RECORD
  5
55
330
1
100
AcDbSymbolTableRecord
100
AcDbBlockTableRecord
  2
DC_GROUP_4
  0
BLOCK_RECORD
  5
58
330
1
100
AcDbSymbolTableRecord
100
AcDbBlockTableRecord
  2
DC_GROUP_5
  0
BLOCK_RECORD
  5
5B
330
1
100
AcDbSymbolTableRecord
100
AcDbBlockTableRecord
  2
DC_GROUP_6
  0
BLOCK_RECORD
  5
5E
330
1
100
AcDbSymbolTableRecord
100
AcDbBlockTableRecord
  2
DC_GROUP_7
  0
BLOCK_RECORD
  5
61
330
1
100
AcDbSymbolTableRecord
100
AcDbBlockTableRecord
  2
DC_GROUP_8
  0
BLOCK_RECORD
  5
64
330
1
100
AcDbSymbolTableRecord
100
AcDbBlockTableRecord
  2
DC_GROUP_9
  0
BLOCK_RECORD
  5
67
330
1
100
AcDbSymbolTableRecord
100
AcDbBlockTableRecord
  2
DC_GROUP_10
  0
BLOCK_RECORD
  5
6A
330
1
100
AcDbSymbolTableRecord
100
AcDbBlockTableRecord
  2
DC_GROUP_11
  0
BLOCK_RECORD
  5
6D
330
1
100
AcDbSymbolTableRecord
100
AcDbBlockTableRecord
  2
DC_GROUP_12
  0
BLOCK_RECORD
  5
70
330
1
100
AcDbSymbolTableRecord
100
AcDbBlockTableRecord
  2
DC_GROUP_13
  0
BLOCK_RECORD
  5
73
330
1
100
AcDbSymbolTableRecord
100
AcDbBlockTableRecord
  2
DC_GROUP_14
  0
BLOCK_RECORD
  5
76
330
1
100
AcDbSymbolTableRecord
100
AcDbBlockTableRecord
  2
DC_GROUP_15
  0
BLOCK_RECORD
  5
79
330
1
100
AcDbSymbolTableRecord
100
AcDbBlockTableRecord
  2
DC_GROUP_16
  0
BLOCK_RECORD
  5
7C
330
1
100
AcDbSymbolTableRecord
100
AcDbBlockTableRecord
  2
DC_GROUP_17
  0
BLOCK_RECORD
  5
7F
330
1
100
AcDbSymbolTableRecord
100
AcDbBlockTableRecord
  2
DC_GROUP_18
  0
BLOCK_RECORD
  5
82
330
1
100
AcDbSymbolTableRecord
100
AcDbBlockTableRecord
  2
DA_IMAGEDIMGROUP_1
  0
BLOCK_RECORD
  5
85
330
1
100
AcDbSymbolTableRecord
100
AcDbBlockTableRecord
  2
DA_IMAGEDIMGROUP_2
  0
BLOCK_RECORD
  5
88
330
1
100
AcDbSymbolTableRecord
100
AcDbBlockTableRecord
  2
DA_IMAGEDIMGROUP_3
  0
BLOCK_RECORD
  5
231
330
1
100
AcDbSymbolTableRecord
100
AcDbBlockTableRecord
  2
_OPEN30
  0
ENDTAB
  0
ENDSEC
  0
SECTION
  2
BLOCKS
  0
BLOCK
  5
20
330
1F
100
AcDbEntity
  8
0
100
AcDbBlockBegin
  2
*MODEL_SPACE
 70
     0
 71
     0
 10
0.0
 20
0.0
 30
0.0
  3
*MODEL_SPACE
  1

  0
ENDBLK
  5
21
330
1F
100
AcDbEntity
  8
0
100
AcDbBlockEnd
  0
BLOCK
  5
1C
330
1B
100
AcDbEntity
 67
     1
  8
0
100
AcDbBlockBegin
  2
*PAPER_SPACE
 70
     0
 71
     0
 10
0.0
 20
0.0
 30
0.0
  3
*PAPER_SPACE
  1

  0
ENDBLK
  5
1D
330
1B
100
AcDbEntity
 67
     1
  8
0
100
AcDbBlockEnd
  0
BLOCK
  5
4A
330
49
100
AcDbEntity
  8
0
100
AcDbBlockBegin
  2
SYMGROUP_1
 70
     0
 71
     0
 10
0.0
 20
0.0
 30
0.0
  3
SYMGROUP_1
  1

  0
LINE
  5
8B
330
49
100
AcDbEntity
  8
ZUWAKU
  6
CONTINUOUS
 62
     7
100
AcDbLine
 10
5.00000047684
 20
-27.99999999999999
 30
0.0
 11
63.0
 21
-27.99999999999999
 31
0.0
  0
LINE
  5
8C
330
49
100
AcDbEntity
  8
ZUWAKU
  6
CONTINUOUS
 62
     7
100
AcDbLine
 10
0.0000000000000036
 20
-31.99999999999999
 30
0.0
 11
63.0
 21
-31.99999999999999
 31
0.0
  0
LINE
  5
8D
330
49
100
AcDbEntity
  8
ZUWAKU
  6
CONTINUOUS
 62
     7
100
AcDbLine
 10
5.00000047684
 20
-12.0000002384
 30
0.0
 11
63.0
 21
-12.0000002384
 31
0.0
  0
LINE
  5
8E
330
49
100
AcDbEntity
  8
ZUWAKU
  6
CONTINUOUS
 62
     7
100
AcDbLine
 10
5.00000047684
 20
-16.00000047679999
 30
0.0
 11
63.0
 21
-16.00000047679999
 31
0.0
  0
LINE
  5
8F
330
49
100
AcDbEntity
  8
ZUWAKU
  6
CONTINUOUS
 62
     7
100
AcDbLine
 10
5.00000047684
 20
0.0
 30
0.0
 11
5.00000047684
 21
-31.99999999999999
 31
0.0
  0
LINE
  5
90
330
49
100
AcDbEntity
  8
ZUWAKU
  6
CONTINUOUS
 62
     7
100
AcDbLine
 10
30.0
 20
-4.000000476839999
 30
0.0
 11
30.0
 21
-31.99999999999999
 31
0.0
  0
LINE
  5
91
330
49
100
AcDbEntity
  8
ZUWAKU
  6
CONTINUOUS
 62
     7
100
AcDbLine
 10
0.0000000000000036
 20
0.0000000000000142
 30
0.0
 11
62.8964118958
 21
0.0000000000000142
 31
0.0
  0
LINE
  5
92
330
49
100
AcDbEntity
  8
ZUWAKU
  6
CONTINUOUS
 62
     7
100
AcDbLine
 10
63.0
 20
0.0
 30
0.0
 11
63.0
 21
-31.99999999999999
 31
0.0
  0
LINE
  5
93
330
49
100
AcDbEntity
  8
ZUWAKU
  6
CONTINUOUS
 62
     7
100
AcDbLine
 10
52.0
 20
-4.000000476839999
 30
0.0
 11
52.0
 21
-31.99999999999999
 31
0.0
  0
LINE
  5
94
330
49
100
AcDbEntity
  8
ZUWAKU
  6
CONTINUOUS
 62
     7
100
AcDbLine
 10
5.00000047684
 20
-23.99999999999999
 30
0.0
 11
63.0
 21
-23.99999999999999
 31
0.0
  0
LINE
  5
95
330
49
100
AcDbEntity
  8
ZUWAKU
  6
CONTINUOUS
 62
     7
100
AcDbLine
 10
41.0
 20
-4.000000476839999
 30
0.0
 11
41.0
 21
-31.99999999999999
 31
0.0
  0
LINE
  5
96
330
49
100
AcDbEntity
  8
ZUWAKU
  6
CONTINUOUS
 62
     7
100
AcDbLine
 10
0.0
 20
0.0
 30
0.0
 11
0.0
 21
-31.99999999999999
 31
0.0
  0
LINE
  5
97
330
49
100
AcDbEntity
  8
ZUWAKU
  6
CONTINUOUS
 62
     7
100
AcDbLine
 10
5.00000047684
 20
-8.000000357629997
 30
0.0
 11
63.0
 21
-8.000000357629997
 31
0.0
  0
LINE
  5
98
330
49
100
AcDbEntity
  8
ZUWAKU
  6
CONTINUOUS
 62
     7
100
AcDbLine
 10
5.00000047684
 20
-19.99999999999999
 30
0.0
 11
63.0
 21
-19.99999999999999
 31
0.0
  0
LINE
  5
99
330
49
100
AcDbEntity
  8
ZUWAKU
  6
CONTINUOUS
 62
     7
100
AcDbLine
 10
4.94043970108
 20
-4.000000476839999
 30
0.0
 11
63.0
 21
-4.000000476839999
 31
0.0
  0
LINE
  5
9A
330
49
100
AcDbEntity
  8
ZUWAKU
  6
CONTINUOUS
 62
     7
100
AcDbLine
 10
5.00000014947
 20
-4.000000319099998
 30
0.0
 11
30.0000002629
 21
-8.000000261789996
 31
0.0
  0
TEXT
  5
9C
330
49
100
AcDbEntity
  8
ZUWAKU
 62
     7
100
AcDbText
 10
5.46710532903891
 20
-7.598942220209997
 30
0.0
 40
1.600000023839999
  1
呼び寸法の区分
 41
0.6638419652256984
  7
FDASTYLE0
 72
     5
 11
16.20996314286217
 21
-7.598942220209997
 31
0.0
100
AcDbText
  0
TEXT
  5
9D
330
49
100
AcDbEntity
  8
ZUWAKU
 62
     7
100
AcDbText
 10
23.35905784370891
 20
-6.167586147779997
 30
0.0
 40
1.600000023839999
  1
等　級
 41
0.6506851076698226
  7
FDASTYLE0
 72
     5
 11
27.70191556217145
 21
-6.167586147779997
 31
0.0
100
AcDbText
  0
TEXT
  5
9E
330
49
100
AcDbEntity
  8
ZUWAKU
 62
     7
100
AcDbText
 10
5.128294706342278
 20
-31.15449404711498
 30
0.0
 40
2.099999904629999
  1
６００を越え１２００以下
 41
0.6677525546184248
  7
FDASTYLE0
 72
     5
 11
29.72829282281364
 21
-31.15449404711498
 31
0.0
100
AcDbText
  0
TEXT
  5
9F
330
49
100
AcDbEntity
  8
ZUWAKU
 62
     7
100
AcDbText
 10
31.35077750681782
 20
-31.46756136413999
 30
0.0
 40
3.200000047679999
  1
２．０
 41
0.6506851076698226
  7
FDASTYLE0
 72
     5
 11
40.03649294374289
 21
-31.46756136413999
 31
0.0
100
AcDbText
  0
TEXT
  5
A0
330
49
100
AcDbEntity
  8
ZUWAKU
 62
     7
100
AcDbText
 10
42.24964034561782
 20
-31.46756136413999
 30
0.0
 40
3.200000047679999
  1
４．０
 41
0.6506851076698226
  7
FDASTYLE0
 72
     5
 11
50.93535578254289
 21
-31.46756136413999
 31
0.0
100
AcDbText
  0
TEXT
  5
A1
330
49
100
AcDbEntity
  8
ZUWAKU
 62
     7
100
AcDbText
 10
53.30646026131782
 20
-31.46756136413999
 30
0.0
 40
3.200000047679999
  1
８．０
 41
0.6506851076698226
  7
FDASTYLE0
 72
     5
 11
61.9921756982429
 21
-31.46756136413999
 31
0.0
100
AcDbText
  0
TEXT
  5
A2
330
49
100
AcDbEntity
  8
ZUWAKU
 62
     7
100
AcDbText
 10
7.181703925132631
 20
-27.04767489431499
 30
0.0
 40
2.099999904629999
  1
３００を越え６００以下
 41
0.6672599764885501
  7
FDASTYLE0
 72
     5
 11
29.68170487879473
 21
-27.04767489431499
 31
0.0
100
AcDbText
  0
TEXT
  5
A3
330
49
100
AcDbEntity
  8
ZUWAKU
 62
     7
100
AcDbText
 10
7.181703925132631
 20
-23.09881186481499
 30
0.0
 40
2.099999904629999
  1
１２０を越え３００以下
 41
0.6672599764885501
  7
FDASTYLE0
 72
     5
 11
29.68170487879473
 21
-23.09881186481499
 31
0.0
100
AcDbText
  0
TEXT
  5
A4
330
49
100
AcDbEntity
  8
ZUWAKU
 62
     7
100
AcDbText
 10
9.314090232372632
 20
-19.07097125051499
 30
0.0
 40
2.099999904629999
  1
３０を越え１２０以下
 41
0.6666668575577376
  7
FDASTYLE0
 72
     5
 11
29.71409116219399
 21
-19.07097125051499
 31
0.0
100
AcDbText
  0
TEXT
  5
A5
330
49
100
AcDbEntity
  8
ZUWAKU
 62
     7
100
AcDbText
 10
13.49988567827263
 20
-15.12210774421499
 30
0.0
 40
2.099999904629999
  1
６を越え３０以下
 41
0.6650248238775458
  7
FDASTYLE0
 72
     5
 11
29.69988656041252
 21
-15.12210774421499
 31
0.0
100
AcDbText
  0
TEXT
  5
A6
330
49
100
AcDbEntity
  8
ZUWAKU
 62
     7
100
AcDbText
 10
24.00386297707263
 20
-11.25222122671499
 30
0.0
 40
2.099999904629999
  1
６以下
 41
0.6506851468176804
  7
FDASTYLE0
 72
     5
 11
29.70386374000884
 21
-11.25222122671499
 31
0.0
100
AcDbText
  0
TEXT
  5
A7
330
49
100
AcDbEntity
  8
ZUWAKU
 62
     7
100
AcDbText
 10
53.30646026131782
 20
-27.43972170353999
 30
0.0
 40
3.200000047679999
  1
４．０
 41
0.6506851076698226
  7
FDASTYLE0
 72
     5
 11
61.9921756982429
 21
-27.43972170353999
 31
0.0
100
AcDbText
  0
TEXT
  5
A8
330
49
100
AcDbEntity
  8
ZUWAKU
 62
     7
100
AcDbText
 10
53.30646026131782
 20
-23.49085772033999
 30
0.0
 40
3.200000047679999
  1
２．０
 41
0.6506851076698226
  7
FDASTYLE0
 72
     5
 11
61.9921756982429
 21
-23.49085772033999
 31
0.0
100
AcDbText
  0
TEXT
  5
A9
330
49
100
AcDbEntity
  8
ZUWAKU
 62
     7
100
AcDbText
 10
53.30646026131782
 20
-19.54199373723999
 30
0.0
 40
3.200000047679999
  1
０．８
 41
0.6506851076698226
  7
FDASTYLE0
 72
     5
 11
61.9921756982429
 21
-19.54199373723999
 31
0.0
100
AcDbText
  0
TEXT
  5
AA
330
49
100
AcDbEntity
  8
ZUWAKU
 62
     7
100
AcDbText
 10
53.28546798231783
 20
-15.50261604784
 30
0.0
 40
3.200000047679999
  1
０．４
 41
0.6506851076698226
  7
FDASTYLE0
 72
     5
 11
61.9711834192429
 21
-15.50261604784
 31
0.0
100
AcDbText
  0
TEXT
  5
AB
330
49
100
AcDbEntity
  8
ZUWAKU
 62
     7
100
AcDbText
 10
53.28546798231783
 20
-11.54744803905
 30
0.0
 40
3.200000047679999
  1
０．２
 41
0.6506851076698226
  7
FDASTYLE0
 72
     5
 11
61.9711834192429
 21
-11.54744803905
 31
0.0
100
AcDbText
  0
TEXT
  5
AC
330
49
100
AcDbEntity
  8
ZUWAKU
 62
     7
100
AcDbText
 10
42.24964034561782
 20
-27.51869928833999
 30
0.0
 40
3.200000047679999
  1
２．０
 41
0.6506851076698226
  7
FDASTYLE0
 72
     5
 11
50.93535578254289
 21
-27.51869928833999
 31
0.0
100
AcDbText
  0
TEXT
  5
AD
330
49
100
AcDbEntity
  8
ZUWAKU
 62
     7
100
AcDbText
 10
42.24964034561782
 20
-23.56983530523999
 30
0.0
 40
3.200000047679999
  1
０．８
 41
0.6506851076698226
  7
FDASTYLE0
 72
     5
 11
50.93535578254289
 21
-23.56983530523999
 31
0.0
100
AcDbText
  0
TEXT
  5
AE
330
49
100
AcDbEntity
  8
ZUWAKU
 62
     7
100
AcDbText
 10
42.24927413461782
 20
-19.52157747743999
 30
0.0
 40
3.200000047679999
  1
０．４
 41
0.6506851076698226
  7
FDASTYLE0
 72
     5
 11
50.93498957154289
 21
-19.52157747743999
 31
0.0
100
AcDbText
  0
TEXT
  5
AF
330
49
100
AcDbEntity
  8
ZUWAKU
 62
     7
100
AcDbText
 10
42.24927413461782
 20
-15.56640923023999
 30
0.0
 40
3.200000047679999
  1
０．２
 41
0.6506851076698226
  7
FDASTYLE0
 72
     5
 11
50.93498957154289
 21
-15.56640923023999
 31
0.0
100
AcDbText
  0
TEXT
  5
B0
330
49
100
AcDbEntity
  8
ZUWAKU
 62
     7
100
AcDbText
 10
42.24964034561782
 20
-11.64426672453999
 30
0.0
 40
3.200000047679999
  1
０．１
 41
0.6506851076698226
  7
FDASTYLE0
 72
     5
 11
50.93535578254289
 21
-11.64426672453999
 31
0.0
100
AcDbText
  0
TEXT
  5
B1
330
49
100
AcDbEntity
  8
ZUWAKU
 62
     7
100
AcDbText
 10
31.35077750681782
 20
-27.43972170353999
 30
0.0
 40
3.200000047679999
  1
０．８
 41
0.6506851076698226
  7
FDASTYLE0
 72
     5
 11
40.03649294374289
 21
-27.43972170353999
 31
0.0
100
AcDbText
  0
TEXT
  5
B2
330
49
100
AcDbEntity
  8
ZUWAKU
 62
     7
100
AcDbText
 10
31.35077750681782
 20
-23.49085772033999
 30
0.0
 40
3.200000047679999
  1
０．４
 41
0.6506851076698226
  7
FDASTYLE0
 72
     5
 11
40.03649294374289
 21
-23.49085772033999
 31
0.0
100
AcDbText
  0
TEXT
  5
B3
330
49
100
AcDbEntity
  8
ZUWAKU
 62
     7
100
AcDbText
 10
31.34066665171783
 20
-19.58536970613999
 30
0.0
 40
3.200000047679999
  1
０．２
 41
0.6506851076698226
  7
FDASTYLE0
 72
     5
 11
40.0263820886429
 21
-19.58536970613999
 31
0.0
100
AcDbText
  0
TEXT
  5
B4
330
49
100
AcDbEntity
  8
ZUWAKU
 62
     7
100
AcDbText
 10
31.34066665171783
 20
-15.75778830053999
 30
0.0
 40
3.200000047679999
  1
０．１
 41
0.6506851076698226
  7
FDASTYLE0
 72
     5
 11
40.0263820886429
 21
-15.75778830053999
 31
0.0
100
AcDbText
  0
TEXT
  5
B5
330
49
100
AcDbEntity
  8
ZUWAKU
 62
     7
100
AcDbText
 10
30.80168396237255
 20
-11.61949360374
 30
0.0
 40
3.200000047679999
  1
０．０５
 41
0.5403784689700353
  7
FDASTYLE0
 72
     5
 11
40.28441882135412
 21
-11.61949360374
 31
0.0
100
AcDbText
  0
TEXT
  5
B6
330
49
100
AcDbEntity
  8
ZUWAKU
 62
     7
100
AcDbText
 10
8.032129228113
 20
-3.480296134949998
 30
0.0
 40
2.999999999999999
  1
普　通　寸　法　規　格：単位（ｍｍ）
 41
0.6695465203666609
  7
FDASTYLE0
 72
     5
 11
61.174982965001
 21
-3.480296134949998
 31
0.0
100
AcDbText
  0
TEXT
  5
B8
330
49
100
AcDbEntity
  8
ZUWAKU
 62
     7
100
AcDbText
 10
1.00000023842
 20
-4.499999999999998
 30
0.0
 40
2.498999999999999
  1
樹脂成形加工
 41
1.0
  7
FDASTYLE1
100
AcDbText
  0
TEXT
  5
B9
330
49
100
AcDbEntity
  8
ZUWAKU
 62
     7
100
AcDbText
 10
51.928571
 20
-7.500000312919998
 30
0.0
 40
2.999999999999999
  1
Ｃ（±）
 41
0.6565658065503748
  7
FDASTYLE0
 72
     5
 11
63.071429
 21
-7.500000312919998
 31
0.0
100
AcDbText
  0
TEXT
  5
BA
330
49
100
AcDbEntity
  8
ZUWAKU
 62
     7
100
AcDbText
 10
41.0
 20
-7.500000312919998
 30
0.0
 40
2.999999999999999
  1
Ｂ（±）
 41
0.6536503878405074
  7
FDASTYLE0
 72
     5
 11
52.000000000001
 21
-7.500000312919998
 31
0.0
100
AcDbText
  0
TEXT
  5
BB
330
49
100
AcDbEntity
  8
ZUWAKU
 62
     7
100
AcDbText
 10
30.0000038147
 20
-7.500000312919998
 30
0.0
 40
2.999999999999999
  1
Ａ（±）
 41
0.6536503093299961
  7
FDASTYLE0
 72
     5
 11
41.000000000003
 21
-7.500000312919998
 31
0.0
100
AcDbText
  0
ENDBLK
  5
4B
330
49
100
AcDbEntity
  8
0
100
AcDbBlockEnd
  0
BLOCK
  5
4D
330
4C
100
AcDbEntity
  8
0
100
AcDbBlockBegin
  2
DC_GROUP_1
 70
     0
 71
     0
 10
0.0
 20
0.0
 30
0.0
  3
DC_GROUP_1
  1

  0
LINE
  5
BC
330
4C
100
AcDbEntity
  8
ZUWAKU
  6
CONTINUOUS
 62
     4
100
AcDbLine
 10
-193.0
 20
-131.5
 30
0.0
 11
-189.5358983848622
 21
-125.5
 31
0.0
  0
LINE
  5
BD
330
4C
100
AcDbEntity
  8
ZUWAKU
  6
CONTINUOUS
 62
     4
100
AcDbLine
 10
-189.5358983848622
 20
-125.5
 30
0.0
 11
-186.0717967697245
 21
-131.5
 31
0.0
  0
LINE
  5
BE
330
4C
100
AcDbEntity
  8
ZUWAKU
  6
CONTINUOUS
 62
     4
100
AcDbLine
 10
-193.0
 20
-131.5
 30
0.0
 11
-186.0717967697245
 21
-131.5
 31
0.0
  0
TEXT
  5
BF
330
4C
100
AcDbEntity
  8
ZUWAKU
 62
     7
100
AcDbText
 10
-190.7358983848622
 20
-131.0
 30
0.0
 40
3.0
  1
１
 41
0.6666666666666604
  7
FDASTYLE0
 72
     5
 11
-188.3358983848623
 21
-131.0
 31
0.0
100
AcDbText
  0
ENDBLK
  5
4E
330
4C
100
AcDbEntity
  8
0
100
AcDbBlockEnd
  0
BLOCK
  5
50
330
4F
100
AcDbEntity
  8
0
100
AcDbBlockBegin
  2
DC_GROUP_2
 70
     0
 71
     0
 10
0.0
 20
0.0
 30
0.0
  3
DC_GROUP_2
  1

  0
LINE
  5
C0
330
4F
100
AcDbEntity
  8
ZUWAKU
  6
CONTINUOUS
 62
     4
100
AcDbLine
 10
-193.0
 20
-124.5
 30
0.0
 11
-189.5358983848622
 21
-118.5
 31
0.0
  0
LINE
  5
C1
330
4F
100
AcDbEntity
  8
ZUWAKU
  6
CONTINUOUS
 62
     4
100
AcDbLine
 10
-189.5358983848622
 20
-118.5
 30
0.0
 11
-186.0717967697245
 21
-124.5
 31
0.0
  0
LINE
  5
C2
330
4F
100
AcDbEntity
  8
ZUWAKU
  6
CONTINUOUS
 62
     4
100
AcDbLine
 10
-193.0
 20
-124.5
 30
0.0
 11
-186.0717967697245
 21
-124.5
 31
0.0
  0
TEXT
  5
C3
330
4F
100
AcDbEntity
  8
ZUWAKU
 62
     7
100
AcDbText
 10
-190.7358983848622
 20
-124.0
 30
0.0
 40
3.0
  1
２
 41
0.6666666666666604
  7
FDASTYLE0
 72
     5
 11
-188.3358983848623
 21
-124.0
 31
0.0
100
AcDbText
  0
ENDBLK
  5
51
330
4F
100
AcDbEntity
  8
0
100
AcDbBlockEnd
  0
BLOCK
  5
53
330
52
100
AcDbEntity
  8
0
100
AcDbBlockBegin
  2
DC_GROUP_3
 70
     0
 71
     0
 10
0.0
 20
0.0
 30
0.0
  3
DC_GROUP_3
  1

  0
LINE
  5
C4
330
52
100
AcDbEntity
  8
ZUWAKU
  6
CONTINUOUS
 62
     4
100
AcDbLine
 10
-193.0
 20
-117.5
 30
0.0
 11
-189.5358983848622
 21
-111.5
 31
0.0
  0
LINE
  5
C5
330
52
100
AcDbEntity
  8
ZUWAKU
  6
CONTINUOUS
 62
     4
100
AcDbLine
 10
-189.5358983848622
 20
-111.5
 30
0.0
 11
-186.0717967697245
 21
-117.5
 31
0.0
  0
LINE
  5
C6
330
52
100
AcDbEntity
  8
ZUWAKU
  6
CONTINUOUS
 62
     4
100
AcDbLine
 10
-193.0
 20
-117.5
 30
0.0
 11
-186.0717967697245
 21
-117.5
 31
0.0
  0
TEXT
  5
C7
330
52
100
AcDbEntity
  8
ZUWAKU
 62
     7
100
AcDbText
 10
-190.7358983848622
 20
-117.0
 30
0.0
 40
3.0
  1
３
 41
0.6666666666666604
  7
FDASTYLE0
 72
     5
 11
-188.3358983848623
 21
-117.0
 31
0.0
100
AcDbText
  0
ENDBLK
  5
54
330
52
100
AcDbEntity
  8
0
100
AcDbBlockEnd
  0
BLOCK
  5
56
330
55
100
AcDbEntity
  8
0
100
AcDbBlockBegin
  2
DC_GROUP_4
 70
     0
 71
     0
 10
0.0
 20
0.0
 30
0.0
  3
DC_GROUP_4
  1

  0
LINE
  5
C8
330
55
100
AcDbEntity
  8
ZUWAKU
  6
CONTINUOUS
 62
     4
100
AcDbLine
 10
-193.0
 20
-110.5
 30
0.0
 11
-189.5358983848622
 21
-104.5
 31
0.0
  0
LINE
  5
C9
330
55
100
AcDbEntity
  8
ZUWAKU
  6
CONTINUOUS
 62
     4
100
AcDbLine
 10
-189.5358983848622
 20
-104.5
 30
0.0
 11
-186.0717967697245
 21
-110.5
 31
0.0
  0
LINE
  5
CA
330
55
100
AcDbEntity
  8
ZUWAKU
  6
CONTINUOUS
 62
     4
100
AcDbLine
 10
-193.0
 20
-110.5
 30
0.0
 11
-186.0717967697245
 21
-110.5
 31
0.0
  0
TEXT
  5
CB
330
55
100
AcDbEntity
  8
ZUWAKU
 62
     7
100
AcDbText
 10
-190.7358983848622
 20
-110.0
 30
0.0
 40
3.0
  1
４
 41
0.6666666666666604
  7
FDASTYLE0
 72
     5
 11
-188.3358983848623
 21
-110.0
 31
0.0
100
AcDbText
  0
ENDBLK
  5
57
330
55
100
AcDbEntity
  8
0
100
AcDbBlockEnd
  0
BLOCK
  5
59
330
58
100
AcDbEntity
  8
0
100
AcDbBlockBegin
  2
DC_GROUP_5
 70
     0
 71
     0
 10
0.0
 20
0.0
 30
0.0
  3
DC_GROUP_5
  1

  0
LINE
  5
CC
330
58
100
AcDbEntity
  8
ZUWAKU
  6
CONTINUOUS
 62
     4
100
AcDbLine
 10
-193.0
 20
-103.5
 30
0.0
 11
-189.5358983848622
 21
-97.50000000000003
 31
0.0
  0
LINE
  5
CD
330
58
100
AcDbEntity
  8
ZUWAKU
  6
CONTINUOUS
 62
     4
100
AcDbLine
 10
-189.5358983848622
 20
-97.50000000000003
 30
0.0
 11
-186.0717967697245
 21
-103.5
 31
0.0
  0
LINE
  5
CE
330
58
100
AcDbEntity
  8
ZUWAKU
  6
CONTINUOUS
 62
     4
100
AcDbLine
 10
-193.0
 20
-103.5
 30
0.0
 11
-186.0717967697245
 21
-103.5
 31
0.0
  0
TEXT
  5
CF
330
58
100
AcDbEntity
  8
ZUWAKU
 62
     7
100
AcDbText
 10
-190.7358983848622
 20
-103.0
 30
0.0
 40
3.0
  1
５
 41
0.6666666666666604
  7
FDASTYLE0
 72
     5
 11
-188.3358983848623
 21
-103.0
 31
0.0
100
AcDbText
  0
ENDBLK
  5
5A
330
58
100
AcDbEntity
  8
0
100
AcDbBlockEnd
  0
BLOCK
  5
5C
330
5B
100
AcDbEntity
  8
0
100
AcDbBlockBegin
  2
DC_GROUP_6
 70
     0
 71
     0
 10
0.0
 20
0.0
 30
0.0
  3
DC_GROUP_6
  1

  0
INSERT
  5
D0
330
5B
100
AcDbEntity
  8
ZUWAKU
  6
CONTINUOUS
100
AcDbBlockReference
  2
DC_GROUP_7
 10
0.0
 20
0.0
 30
0.0
  0
INSERT
  5
D1
330
5B
100
AcDbEntity
  8
ZUWAKU
  6
CONTINUOUS
100
AcDbBlockReference
  2
DC_GROUP_8
 10
0.0
 20
0.0
 30
0.0
  0
INSERT
  5
D2
330
5B
100
AcDbEntity
  8
ZUWAKU
  6
CONTINUOUS
100
AcDbBlockReference
  2
DC_GROUP_9
 10
0.0
 20
0.0
 30
0.0
  0
INSERT
  5
D3
330
5B
100
AcDbEntity
  8
ZUWAKU
  6
CONTINUOUS
100
AcDbBlockReference
  2
DC_GROUP_10
 10
0.0
 20
0.0
 30
0.0
  0
INSERT
  5
D4
330
5B
100
AcDbEntity
  8
ZUWAKU
  6
CONTINUOUS
100
AcDbBlockReference
  2
DC_GROUP_11
 10
0.0
 20
0.0
 30
0.0
  0
INSERT
  5
D5
330
5B
100
AcDbEntity
  8
ZUWAKU
  6
CONTINUOUS
100
AcDbBlockReference
  2
DC_GROUP_12
 10
0.0
 20
0.0
 30
0.0
  0
INSERT
  5
D6
330
5B
100
AcDbEntity
  8
ZUWAKU
  6
CONTINUOUS
100
AcDbBlockReference
  2
DC_GROUP_13
 10
0.0
 20
0.0
 30
0.0
  0
INSERT
  5
D7
330
5B
100
AcDbEntity
  8
ZUWAKU
  6
CONTINUOUS
100
AcDbBlockReference
  2
DC_GROUP_14
 10
0.0
 20
0.0
 30
0.0
  0
INSERT
  5
D8
330
5B
100
AcDbEntity
  8
ZUWAKU
  6
CONTINUOUS
100
AcDbBlockReference
  2
DC_GROUP_15
 10
0.0
 20
0.0
 30
0.0
  0
INSERT
  5
D9
330
5B
100
AcDbEntity
  8
ZUWAKU
  6
CONTINUOUS
100
AcDbBlockReference
  2
DC_GROUP_16
 10
0.0
 20
0.0
 30
0.0
  0
INSERT
  5
DA
330
5B
100
AcDbEntity
  8
ZUWAKU
  6
CONTINUOUS
100
AcDbBlockReference
  2
DC_GROUP_17
 10
0.0
 20
0.0
 30
0.0
  0
LINE
  5
DB
330
5B
100
AcDbEntity
  8
ZUWAKU
  6
CONTINUOUS
 62
     7
100
AcDbLine
 10
148.1163728456568
 20
-131.5305456568976
 30
0.0
 11
156.7163728456568
 21
-131.5305456568976
 31
0.0
  0
ENDBLK
  5
5D
330
5B
100
AcDbEntity
  8
0
100
AcDbBlockEnd
  0
BLOCK
  5
5F
330
5E
100
AcDbEntity
  8
0
100
AcDbBlockBegin
  2
DC_GROUP_7
 70
     0
 71
     0
 10
0.0
 20
0.0
 30
0.0
  3
DC_GROUP_7
  1

  0
LINE
  5
DC
330
5E
100
AcDbEntity
  8
ZUWAKU
  6
CONTINUOUS
 62
     7
100
AcDbLine
 10
95.3592354484195
 20
-130.8811630926134
 30
0.0
 11
97.60445716765031
 21
-130.8811630926134
 31
0.0
  0
LINE
  5
DD
330
5E
100
AcDbEntity
  8
ZUWAKU
  6
CONTINUOUS
 62
     7
100
AcDbLine
 10
101.6463728456568
 20
-130.8811630926134
 30
0.0
 11
104.0463728456568
 21
-130.8811630926134
 31
0.0
  0
LINE
  5
DE
330
5E
100
AcDbEntity
  8
ZUWAKU
  6
CONTINUOUS
 62
     7
100
AcDbLine
 10
95.47484530437535
 20
-130.3811630926134
 30
0.0
 11
97.77109928792987
 21
-130.3811630926134
 31
0.0
  0
LINE
  5
DF
330
5E
100
AcDbEntity
  8
ZUWAKU
  6
CONTINUOUS
 62
     7
100
AcDbLine
 10
101.6463728456568
 20
-130.3811630926134
 30
0.0
 11
104.0463728456568
 21
-130.3811630926134
 31
0.0
  0
LINE
  5
E0
330
5E
100
AcDbEntity
  8
ZUWAKU
  6
CONTINUOUS
 62
     7
100
AcDbLine
 10
95.53791022019186
 20
-129.8811630926134
 30
0.0
 11
97.89941093985408
 21
-129.8811630926134
 31
0.0
  0
LINE
  5
E1
330
5E
100
AcDbEntity
  8
ZUWAKU
  6
CONTINUOUS
 62
     7
100
AcDbLine
 10
101.6463728456568
 20
-129.8811630926134
 30
0.0
 11
104.0463728456568
 21
-129.8811630926134
 31
0.0
  0
LINE
  5
E2
330
5E
100
AcDbEntity
  8
ZUWAKU
  6
CONTINUOUS
 62
     7
100
AcDbLine
 10
95.55041945969171
 20
-129.3811630926134
 30
0.0
 11
97.99140820304567
 21
-129.3811630926134
 31
0.0
  0
LINE
  5
E3
330
5E
100
AcDbEntity
  8
ZUWAKU
  6
CONTINUOUS
 62
     7
100
AcDbLine
 10
101.6463728456568
 20
-129.3811630926134
 30
0.0
 11
104.0463728456568
 21
-129.3811630926134
 31
0.0
  0
LINE
  5
E4
330
5E
100
AcDbEntity
  8
ZUWAKU
  6
CONTINUOUS
 62
     7
100
AcDbLine
 10
90.08362715434316
 20
-128.8811630926134
 30
0.0
 11
104.0463728456568
 21
-128.8811630926134
 31
0.0
  0
LINE
  5
E5
330
5E
100
AcDbEntity
  8
ZUWAKU
  6
CONTINUOUS
 62
     7
100
AcDbLine
 10
90.08362715434316
 20
-128.3811630926134
 30
0.0
 11
104.0463728456568
 21
-128.3811630926134
 31
0.0
  0
LINE
  5
E6
330
5E
100
AcDbEntity
  8
ZUWAKU
  6
CONTINUOUS
 62
     7
100
AcDbLine
 10
90.08362715434316
 20
-127.8811630926134
 30
0.0
 11
104.0463728456568
 21
-127.8811630926134
 31
0.0
  0
LINE
  5
E7
330
5E
100
AcDbEntity
  8
ZUWAKU
  6
CONTINUOUS
 62
     7
100
AcDbLine
 10
95.54637284565683
 20
-127.3811630926134
 30
0.0
 11
97.94637284565681
 21
-127.3811630926134
 31
0.0
  0
LINE
  5
E8
330
5E
100
AcDbEntity
  8
ZUWAKU
  6
CONTINUOUS
 62
     7
100
AcDbLine
 10
95.54637284565683
 20
-126.8811630926134
 30
0.0
 11
97.94637284565681
 21
-126.8811630926134
 31
0.0
  0
LINE
  5
E9
330
5E
100
AcDbEntity
  8
ZUWAKU
  6
CONTINUOUS
 62
     7
100
AcDbLine
 10
95.54637284565683
 20
-126.3811630926134
 30
0.0
 11
97.94637284565681
 21
-126.3811630926134
 31
0.0
  0
LINE
  5
EA
330
5E
100
AcDbEntity
  8
ZUWAKU
  6
CONTINUOUS
 62
     7
100
AcDbLine
 10
91.94637284565681
 20
-131.3811630926134
 30
0.0
 11
99.94637284565681
 21
-131.3811630926134
 31
0.0
  0
LINE
  5
EB
330
5E
100
AcDbEntity
  8
ZUWAKU
  6
CONTINUOUS
 62
     7
100
AcDbLine
 10
101.6463728456568
 20
-131.3811630926134
 30
0.0
 11
104.0463728456568
 21
-131.3811630926134
 31
0.0
  0
LINE
  5
EC
330
5E
100
AcDbEntity
  8
ZUWAKU
  6
CONTINUOUS
 62
     7
100
AcDbLine
 10
91.94637284565681
 20
-131.8811630926134
 30
0.0
 11
99.94637284565681
 21
-131.8811630926134
 31
0.0
  0
LINE
  5
ED
330
5E
100
AcDbEntity
  8
ZUWAKU
  6
CONTINUOUS
 62
     7
100
AcDbLine
 10
101.6463728456568
 20
-131.8811630926134
 30
0.0
 11
104.0463728456568
 21
-131.8811630926134
 31
0.0
  0
LINE
  5
EE
330
5E
100
AcDbEntity
  8
ZUWAKU
  6
CONTINUOUS
 62
     7
100
AcDbLine
 10
91.94637284565681
 20
-132.3811630926134
 30
0.0
 11
99.94637284565681
 21
-132.3811630926134
 31
0.0
  0
LINE
  5
EF
330
5E
100
AcDbEntity
  8
ZUWAKU
  6
CONTINUOUS
 62
     7
100
AcDbLine
 10
101.6463728456568
 20
-132.3811630926134
 30
0.0
 11
104.0463728456568
 21
-132.3811630926134
 31
0.0
  0
LINE
  5
F0
330
5E
100
AcDbEntity
  8
ZUWAKU
  6
CONTINUOUS
 62
     7
100
AcDbLine
 10
110.104536355518
 20
-132.3811630926134
 30
0.0
 11
113.3417405120595
 21
-132.3811630926134
 31
0.0
  0
LINE
  5
F1
330
5E
100
AcDbEntity
  8
ZUWAKU
  6
CONTINUOUS
 62
     7
100
AcDbLine
 10
94.24116788281884
 20
-132.8811630926134
 30
0.0
 11
96.47769441725583
 21
-132.8811630926134
 31
0.0
  0
LINE
  5
F2
330
5E
100
AcDbEntity
  8
ZUWAKU
  6
CONTINUOUS
 62
     7
100
AcDbLine
 10
101.6463728456568
 20
-132.8811630926134
 30
0.0
 11
104.0463728456568
 21
-132.8811630926134
 31
0.0
  0
LINE
  5
F3
330
5E
100
AcDbEntity
  8
ZUWAKU
  6
CONTINUOUS
 62
     7
100
AcDbLine
 10
109.3963228939548
 20
-132.8811630926134
 30
0.0
 11
112.8333876979017
 21
-132.8811630926134
 31
0.0
  0
LINE
  5
F4
330
5E
100
AcDbEntity
  8
ZUWAKU
  6
CONTINUOUS
 62
     7
100
AcDbLine
 10
93.71191756518869
 20
-133.3811630926134
 30
0.0
 11
96.0448863676931
 21
-133.3811630926134
 31
0.0
  0
LINE
  5
F5
330
5E
100
AcDbEntity
  8
ZUWAKU
  6
CONTINUOUS
 62
     7
100
AcDbLine
 10
101.6463728456568
 20
-133.3811630926134
 30
0.0
 11
104.0463728456568
 21
-133.3811630926134
 31
0.0
  0
LINE
  5
F6
330
5E
100
AcDbEntity
  8
ZUWAKU
  6
CONTINUOUS
 62
     7
100
AcDbLine
 10
108.525375517766
 20
-133.3811630926134
 30
0.0
 11
112.2480747417856
 21
-133.3811630926134
 31
0.0
  0
LINE
  5
F7
330
5E
100
AcDbEntity
  8
ZUWAKU
  6
CONTINUOUS
 62
     7
100
AcDbLine
 10
92.97278597893467
 20
-133.8811630926134
 30
0.0
 11
95.52274748755042
 21
-133.8811630926134
 31
0.0
  0
LINE
  5
F8
330
5E
100
AcDbEntity
  8
ZUWAKU
  6
CONTINUOUS
 62
     7
100
AcDbLine
 10
101.6463728456568
 20
-133.8811630926134
 30
0.0
 11
104.0463728456568
 21
-133.8811630926134
 31
0.0
  0
LINE
  5
F9
330
5E
100
AcDbEntity
  8
ZUWAKU
  6
CONTINUOUS
 62
     7
100
AcDbLine
 10
107.3681459252262
 20
-133.8811630926134
 30
0.0
 11
111.5628740626163
 21
-133.8811630926134
 31
0.0
  0
LINE
  5
FA
330
5E
100
AcDbEntity
  8
ZUWAKU
  6
CONTINUOUS
 62
     7
100
AcDbLine
 10
91.66346202882176
 20
-134.3811630926134
 30
0.0
 11
94.87814146302139
 21
-134.3811630926134
 31
0.0
  0
LINE
  5
FB
330
5E
100
AcDbEntity
  8
ZUWAKU
  6
CONTINUOUS
 62
     7
100
AcDbLine
 10
101.6463728456568
 20
-134.3811630926134
 30
0.0
 11
104.0463728456568
 21
-134.3811630926134
 31
0.0
  0
LINE
  5
FC
330
5E
100
AcDbEntity
  8
ZUWAKU
  6
CONTINUOUS
 62
     7
100
AcDbLine
 10
105.3155311692083
 20
-134.3811630926134
 30
0.0
 11
110.7373451587009
 21
-134.3811630926134
 31
0.0
  0
LINE
  5
FD
330
5E
100
AcDbEntity
  8
ZUWAKU
  6
CONTINUOUS
 62
     7
100
AcDbLine
 10
90.08362715434316
 20
-134.8811630926134
 30
0.0
 11
94.04150297508784
 21
-134.8811630926134
 31
0.0
  0
LINE
  5
FE
330
5E
100
AcDbEntity
  8
ZUWAKU
  6
CONTINUOUS
 62
     7
100
AcDbLine
 10
101.6748475825431
 20
-134.8811630926134
 30
0.0
 11
109.6856413090584
 21
-134.8811630926134
 31
0.0
  0
LINE
  5
FF
330
5E
100
AcDbEntity
  8
ZUWAKU
  6
CONTINUOUS
 62
     7
100
AcDbLine
 10
90.08362715434316
 20
-135.3811630926134
 30
0.0
 11
92.79698933454563
 21
-135.3811630926134
 31
0.0
  0
LINE
  5
100
330
5E
100
AcDbEntity
  8
ZUWAKU
  6
CONTINUOUS
 62
     7
100
AcDbLine
 10
103.2282777975827
 20
-135.3811630926134
 30
0.0
 11
108.1322110940188
 21
-135.3811630926134
 31
0.0
  0
ENDBLK
  5
60
330
5E
100
AcDbEntity
  8
0
100
AcDbBlockEnd
  0
BLOCK
  5
62
330
61
100
AcDbEntity
  8
0
100
AcDbBlockBegin
  2
DC_GROUP_8
 70
     0
 71
     0
 10
0.0
 20
0.0
 30
0.0
  3
DC_GROUP_8
  1

  0
LINE
  5
101
330
61
100
AcDbEntity
  8
ZUWAKU
  6
CONTINUOUS
 62
     7
100
AcDbLine
 10
106.0463728456568
 20
-130.6694543431024
 30
0.0
 11
117.4463728456568
 21
-130.6694543431024
 31
0.0
  0
LINE
  5
102
330
61
100
AcDbEntity
  8
ZUWAKU
  6
CONTINUOUS
 62
     7
100
AcDbLine
 10
106.0463728456568
 20
-130.1694543431024
 30
0.0
 11
117.4463728456568
 21
-130.1694543431024
 31
0.0
  0
LINE
  5
103
330
61
100
AcDbEntity
  8
ZUWAKU
  6
CONTINUOUS
 62
     7
100
AcDbLine
 10
106.0463728456568
 20
-131.1694543431024
 30
0.0
 11
117.4463728456568
 21
-131.1694543431024
 31
0.0
  0
ENDBLK
  5
63
330
61
100
AcDbEntity
  8
0
100
AcDbBlockEnd
  0
BLOCK
  5
65
330
64
100
AcDbEntity
  8
0
100
AcDbBlockBegin
  2
DC_GROUP_9
 70
     0
 71
     0
 10
0.0
 20
0.0
 30
0.0
  3
DC_GROUP_9
  1

  0
LINE
  5
104
330
64
100
AcDbEntity
  8
ZUWAKU
  6
CONTINUOUS
 62
     7
100
AcDbLine
 10
119.8762688606991
 20
-131.55
 30
0.0
 11
122.4463728456568
 21
-131.55
 31
0.0
  0
LINE
  5
105
330
64
100
AcDbEntity
  8
ZUWAKU
  6
CONTINUOUS
 62
     7
100
AcDbLine
 10
122.9880098163495
 20
-131.55
 30
0.0
 11
123.6463728456568
 21
-131.55
 31
0.0
  0
LINE
  5
106
330
64
100
AcDbEntity
  8
ZUWAKU
  6
CONTINUOUS
 62
     7
100
AcDbLine
 10
120.0401914483943
 20
-131.05
 30
0.0
 11
123.6463728456568
 21
-131.05
 31
0.0
  0
LINE
  5
107
330
64
100
AcDbEntity
  8
ZUWAKU
  6
CONTINUOUS
 62
     7
100
AcDbLine
 10
120.1573329194075
 20
-130.55
 30
0.0
 11
123.4671913310034
 21
-130.55
 31
0.0
  0
LINE
  5
108
330
64
100
AcDbEntity
  8
ZUWAKU
  6
CONTINUOUS
 62
     7
100
AcDbLine
 10
120.2304485357685
 20
-130.05
 30
0.0
 11
122.7171913310033
 21
-130.05
 31
0.0
  0
LINE
  5
109
330
64
100
AcDbEntity
  8
ZUWAKU
  6
CONTINUOUS
 62
     7
100
AcDbLine
 10
118.9463728456568
 20
-129.55
 30
0.0
 11
123.6463728456568
 21
-129.55
 31
0.0
  0
LINE
  5
10A
330
64
100
AcDbEntity
  8
ZUWAKU
  6
CONTINUOUS
 62
     7
100
AcDbLine
 10
118.9463728456568
 20
-129.05
 30
0.0
 11
123.6463728456568
 21
-129.05
 31
0.0
  0
LINE
  5
10B
330
64
100
AcDbEntity
  8
ZUWAKU
  6
CONTINUOUS
 62
     7
100
AcDbLine
 10
121.0463728456568
 20
-128.55
 30
0.0
 11
122.4463728456568
 21
-128.55
 31
0.0
  0
LINE
  5
10C
330
64
100
AcDbEntity
  8
ZUWAKU
  6
CONTINUOUS
 62
     7
100
AcDbLine
 10
121.0463728456568
 20
-128.05
 30
0.0
 11
122.4463728456568
 21
-128.05
 31
0.0
  0
LINE
  5
10D
330
64
100
AcDbEntity
  8
ZUWAKU
  6
CONTINUOUS
 62
     7
100
AcDbLine
 10
119.6613057869596
 20
-132.05
 30
0.0
 11
122.4463728456568
 21
-132.05
 31
0.0
  0
LINE
  5
10E
330
64
100
AcDbEntity
  8
ZUWAKU
  6
CONTINUOUS
 62
     7
100
AcDbLine
 10
119.3888857047598
 20
-132.55
 30
0.0
 11
122.4463728456568
 21
-132.55
 31
0.0
  0
LINE
  5
10F
330
64
100
AcDbEntity
  8
ZUWAKU
  6
CONTINUOUS
 62
     7
100
AcDbLine
 10
119.0492091213338
 20
-133.05
 30
0.0
 11
122.4463728456568
 21
-133.05
 31
0.0
  0
LINE
  5
110
330
64
100
AcDbEntity
  8
ZUWAKU
  6
CONTINUOUS
 62
     7
100
AcDbLine
 10
118.8463728456568
 20
-133.55
 30
0.0
 11
120.0627654424019
 21
-133.55
 31
0.0
  0
LINE
  5
111
330
64
100
AcDbEntity
  8
ZUWAKU
  6
CONTINUOUS
 62
     7
100
AcDbLine
 10
120.8463728456568
 20
-133.55
 30
0.0
 11
122.4463728456568
 21
-133.55
 31
0.0
  0
LINE
  5
112
330
64
100
AcDbEntity
  8
ZUWAKU
  6
CONTINUOUS
 62
     7
100
AcDbLine
 10
118.8463728456568
 20
-134.05
 30
0.0
 11
119.5135150512066
 21
-134.05
 31
0.0
  0
LINE
  5
113
330
64
100
AcDbEntity
  8
ZUWAKU
  6
CONTINUOUS
 62
     7
100
AcDbLine
 10
120.8463728456568
 20
-134.05
 30
0.0
 11
122.4463728456568
 21
-134.05
 31
0.0
  0
LINE
  5
114
330
64
100
AcDbEntity
  8
ZUWAKU
  6
CONTINUOUS
 62
     7
100
AcDbLine
 10
120.8463728456568
 20
-134.55
 30
0.0
 11
122.4463728456568
 21
-134.55
 31
0.0
  0
LINE
  5
115
330
64
100
AcDbEntity
  8
ZUWAKU
  6
CONTINUOUS
 62
     7
100
AcDbLine
 10
120.8463728456568
 20
-135.05
 30
0.0
 11
122.4463728456568
 21
-135.05
 31
0.0
  0
ENDBLK
  5
66
330
64
100
AcDbEntity
  8
0
100
AcDbBlockEnd
  0
BLOCK
  5
68
330
67
100
AcDbEntity
  8
0
100
AcDbBlockBegin
  2
DC_GROUP_10
 70
     0
 71
     0
 10
0.0
 20
0.0
 30
0.0
  3
DC_GROUP_10
  1

  0
LINE
  5
116
330
67
100
AcDbEntity
  8
ZUWAKU
  6
CONTINUOUS
 62
     7
100
AcDbLine
 10
124.1463728456568
 20
-131.55
 30
0.0
 11
131.2463728456568
 21
-131.55
 31
0.0
  0
LINE
  5
117
330
67
100
AcDbEntity
  8
ZUWAKU
  6
CONTINUOUS
 62
     7
100
AcDbLine
 10
124.1463728456568
 20
-131.05
 30
0.0
 11
131.2463728456568
 21
-131.05
 31
0.0
  0
LINE
  5
118
330
67
100
AcDbEntity
  8
ZUWAKU
  6
CONTINUOUS
 62
     7
100
AcDbLine
 10
126.6463728456568
 20
-130.55
 30
0.0
 11
128.4463728456568
 21
-130.55
 31
0.0
  0
LINE
  5
119
330
67
100
AcDbEntity
  8
ZUWAKU
  6
CONTINUOUS
 62
     7
100
AcDbLine
 10
126.6463728456568
 20
-130.05
 30
0.0
 11
128.4463728456568
 21
-130.05
 31
0.0
  0
LINE
  5
11A
330
67
100
AcDbEntity
  8
ZUWAKU
  6
CONTINUOUS
 62
     7
100
AcDbLine
 10
124.1463728456568
 20
-129.55
 30
0.0
 11
131.0463728456568
 21
-129.55
 31
0.0
  0
LINE
  5
11B
330
67
100
AcDbEntity
  8
ZUWAKU
  6
CONTINUOUS
 62
     7
100
AcDbLine
 10
124.1463728456568
 20
-129.05
 30
0.0
 11
131.0463728456568
 21
-129.05
 31
0.0
  0
LINE
  5
11C
330
67
100
AcDbEntity
  8
ZUWAKU
  6
CONTINUOUS
 62
     7
100
AcDbLine
 10
124.1463728456568
 20
-128.55
 30
0.0
 11
125.7063728456568
 21
-128.55
 31
0.0
  0
LINE
  5
11D
330
67
100
AcDbEntity
  8
ZUWAKU
  6
CONTINUOUS
 62
     7
100
AcDbLine
 10
126.6463728456568
 20
-128.55
 30
0.0
 11
128.4463728456568
 21
-128.55
 31
0.0
  0
LINE
  5
11E
330
67
100
AcDbEntity
  8
ZUWAKU
  6
CONTINUOUS
 62
     7
100
AcDbLine
 10
124.1463728456568
 20
-128.05
 30
0.0
 11
125.7063728456568
 21
-128.05
 31
0.0
  0
LINE
  5
11F
330
67
100
AcDbEntity
  8
ZUWAKU
  6
CONTINUOUS
 62
     7
100
AcDbLine
 10
126.6463728456568
 20
-128.05
 30
0.0
 11
128.4463728456568
 21
-128.05
 31
0.0
  0
LINE
  5
120
330
67
100
AcDbEntity
  8
ZUWAKU
  6
CONTINUOUS
 62
     7
100
AcDbLine
 10
125.3786611924532
 20
-132.05
 30
0.0
 11
129.9774938194927
 21
-132.05
 31
0.0
  0
LINE
  5
121
330
67
100
AcDbEntity
  8
ZUWAKU
  6
CONTINUOUS
 62
     7
100
AcDbLine
 10
125.2022203023616
 20
-132.55
 30
0.0
 11
130.0839164239199
 21
-132.55
 31
0.0
  0
LINE
  5
122
330
67
100
AcDbEntity
  8
ZUWAKU
  6
CONTINUOUS
 62
     7
100
AcDbLine
 10
124.9444907322737
 20
-133.05
 30
0.0
 11
130.2607865985839
 21
-133.05
 31
0.0
  0
LINE
  5
123
330
67
100
AcDbEntity
  8
ZUWAKU
  6
CONTINUOUS
 62
     7
100
AcDbLine
 10
124.5849898652322
 20
-133.55
 30
0.0
 11
126.5512574302935
 21
-133.55
 31
0.0
  0
LINE
  5
124
330
67
100
AcDbEntity
  8
ZUWAKU
  6
CONTINUOUS
 62
     7
100
AcDbLine
 10
126.6463728456568
 20
-133.55
 30
0.0
 11
130.519029431235
 21
-133.55
 31
0.0
  0
LINE
  5
125
330
67
100
AcDbEntity
  8
ZUWAKU
  6
CONTINUOUS
 62
     7
100
AcDbLine
 10
124.0811039379163
 20
-134.05
 30
0.0
 11
126.0931405813734
 21
-134.05
 31
0.0
  0
LINE
  5
126
330
67
100
AcDbEntity
  8
ZUWAKU
  6
CONTINUOUS
 62
     7
100
AcDbLine
 10
126.6463728456568
 20
-134.05
 30
0.0
 11
128.4463728456568
 21
-134.05
 31
0.0
  0
LINE
  5
127
330
67
100
AcDbEntity
  8
ZUWAKU
  6
CONTINUOUS
 62
     7
100
AcDbLine
 10
128.7557665128225
 20
-134.05
 30
0.0
 11
130.8792055022369
 21
-134.05
 31
0.0
  0
LINE
  5
128
330
67
100
AcDbEntity
  8
ZUWAKU
  6
CONTINUOUS
 62
     7
100
AcDbLine
 10
123.8463728456568
 20
-134.55
 30
0.0
 11
125.5096133195874
 21
-134.55
 31
0.0
  0
LINE
  5
129
330
67
100
AcDbEntity
  8
ZUWAKU
  6
CONTINUOUS
 62
     7
100
AcDbLine
 10
126.6463728456568
 20
-134.55
 30
0.0
 11
128.4463728456568
 21
-134.55
 31
0.0
  0
LINE
  5
12A
330
67
100
AcDbEntity
  8
ZUWAKU
  6
CONTINUOUS
 62
     7
100
AcDbLine
 10
129.2599871032927
 20
-134.55
 30
0.0
 11
131.2463728456568
 21
-134.55
 31
0.0
  0
LINE
  5
12B
330
67
100
AcDbEntity
  8
ZUWAKU
  6
CONTINUOUS
 62
     7
100
AcDbLine
 10
123.8463728456568
 20
-135.05
 30
0.0
 11
124.7238286865397
 21
-135.05
 31
0.0
  0
LINE
  5
12C
330
67
100
AcDbEntity
  8
ZUWAKU
  6
CONTINUOUS
 62
     7
100
AcDbLine
 10
126.6463728456568
 20
-135.05
 30
0.0
 11
128.4463728456568
 21
-135.05
 31
0.0
  0
LINE
  5
12D
330
67
100
AcDbEntity
  8
ZUWAKU
  6
CONTINUOUS
 62
     7
100
AcDbLine
 10
130.0271619874551
 20
-135.05
 30
0.0
 11
131.2463728456568
 21
-135.05
 31
0.0
  0
ENDBLK
  5
69
330
67
100
AcDbEntity
  8
0
100
AcDbBlockEnd
  0
BLOCK
  5
6B
330
6A
100
AcDbEntity
  8
0
100
AcDbBlockBegin
  2
DC_GROUP_11
 70
     0
 71
     0
 10
0.0
 20
0.0
 30
0.0
  3
DC_GROUP_11
  1

  0
LINE
  5
12E
330
6A
100
AcDbEntity
  8
ZUWAKU
  6
CONTINUOUS
 62
     7
100
AcDbLine
 10
140.1463728456568
 20
-131.55
 30
0.0
 11
142.2963728456568
 21
-131.55
 31
0.0
  0
LINE
  5
12F
330
6A
100
AcDbEntity
  8
ZUWAKU
  6
CONTINUOUS
 62
     7
100
AcDbLine
 10
140.1463728456568
 20
-131.05
 30
0.0
 11
142.2963728456568
 21
-131.05
 31
0.0
  0
LINE
  5
130
330
6A
100
AcDbEntity
  8
ZUWAKU
  6
CONTINUOUS
 62
     7
100
AcDbLine
 10
140.1463728456568
 20
-130.55
 30
0.0
 11
142.2963728456568
 21
-130.55
 31
0.0
  0
LINE
  5
131
330
6A
100
AcDbEntity
  8
ZUWAKU
  6
CONTINUOUS
 62
     7
100
AcDbLine
 10
140.1463728456568
 20
-130.05
 30
0.0
 11
142.2963728456568
 21
-130.05
 31
0.0
  0
LINE
  5
132
330
6A
100
AcDbEntity
  8
ZUWAKU
  6
CONTINUOUS
 62
     7
100
AcDbLine
 10
132.6463728456568
 20
-129.55
 30
0.0
 11
145.2163728456568
 21
-129.55
 31
0.0
  0
LINE
  5
133
330
6A
100
AcDbEntity
  8
ZUWAKU
  6
CONTINUOUS
 62
     7
100
AcDbLine
 10
132.6463728456568
 20
-129.05
 30
0.0
 11
145.2163728456568
 21
-129.05
 31
0.0
  0
LINE
  5
134
330
6A
100
AcDbEntity
  8
ZUWAKU
  6
CONTINUOUS
 62
     7
100
AcDbLine
 10
140.1463728456568
 20
-128.55
 30
0.0
 11
142.2963728456568
 21
-128.55
 31
0.0
  0
LINE
  5
135
330
6A
100
AcDbEntity
  8
ZUWAKU
  6
CONTINUOUS
 62
     7
100
AcDbLine
 10
143.6963728456568
 20
-128.55
 30
0.0
 11
145.2163728456568
 21
-128.55
 31
0.0
  0
LINE
  5
136
330
6A
100
AcDbEntity
  8
ZUWAKU
  6
CONTINUOUS
 62
     7
100
AcDbLine
 10
140.1463728456568
 20
-128.05
 30
0.0
 11
142.2963728456568
 21
-128.05
 31
0.0
  0
LINE
  5
137
330
6A
100
AcDbEntity
  8
ZUWAKU
  6
CONTINUOUS
 62
     7
100
AcDbLine
 10
143.6963728456568
 20
-128.05
 30
0.0
 11
145.2163728456568
 21
-128.05
 31
0.0
  0
LINE
  5
138
330
6A
100
AcDbEntity
  8
ZUWAKU
  6
CONTINUOUS
 62
     7
100
AcDbLine
 10
140.1463728456568
 20
-132.05
 30
0.0
 11
142.2963728456568
 21
-132.05
 31
0.0
  0
LINE
  5
139
330
6A
100
AcDbEntity
  8
ZUWAKU
  6
CONTINUOUS
 62
     7
100
AcDbLine
 10
140.1463728456568
 20
-132.55
 30
0.0
 11
142.2963728456568
 21
-132.55
 31
0.0
  0
LINE
  5
13A
330
6A
100
AcDbEntity
  8
ZUWAKU
  6
CONTINUOUS
 62
     7
100
AcDbLine
 10
140.1463728456568
 20
-133.05
 30
0.0
 11
142.2963728456568
 21
-133.05
 31
0.0
  0
LINE
  5
13B
330
6A
100
AcDbEntity
  8
ZUWAKU
  6
CONTINUOUS
 62
     7
100
AcDbLine
 10
143.6358445034737
 20
-133.05
 30
0.0
 11
145.0814320923754
 21
-133.05
 31
0.0
  0
LINE
  5
13C
330
6A
100
AcDbEntity
  8
ZUWAKU
  6
CONTINUOUS
 62
     7
100
AcDbLine
 10
140.1463728456568
 20
-133.55
 30
0.0
 11
142.2963728456568
 21
-133.55
 31
0.0
  0
LINE
  5
13D
330
6A
100
AcDbEntity
  8
ZUWAKU
  6
CONTINUOUS
 62
     7
100
AcDbLine
 10
143.4214609952618
 20
-133.55
 30
0.0
 11
144.8352302649021
 21
-133.55
 31
0.0
  0
LINE
  5
13E
330
6A
100
AcDbEntity
  8
ZUWAKU
  6
CONTINUOUS
 62
     7
100
AcDbLine
 10
140.1463728456568
 20
-134.05
 30
0.0
 11
142.2963728456568
 21
-134.05
 31
0.0
  0
LINE
  5
13F
330
6A
100
AcDbEntity
  8
ZUWAKU
  6
CONTINUOUS
 62
     7
100
AcDbLine
 10
142.9946600818465
 20
-134.05
 30
0.0
 11
144.490775923055
 21
-134.05
 31
0.0
  0
LINE
  5
140
330
6A
100
AcDbEntity
  8
ZUWAKU
  6
CONTINUOUS
 62
     7
100
AcDbLine
 10
140.1463728456568
 20
-134.55
 30
0.0
 11
144.0097616138391
 21
-134.55
 31
0.0
  0
LINE
  5
141
330
6A
100
AcDbEntity
  8
ZUWAKU
  6
CONTINUOUS
 62
     7
100
AcDbLine
 10
140.1463728456568
 20
-135.05
 30
0.0
 11
143.2918248912179
 21
-135.05
 31
0.0
  0
ENDBLK
  5
6C
330
6A
100
AcDbEntity
  8
0
100
AcDbBlockEnd
  0
BLOCK
  5
6E
330
6D
100
AcDbEntity
  8
0
100
AcDbBlockBegin
  2
DC_GROUP_12
 70
     0
 71
     0
 10
0.0
 20
0.0
 30
0.0
  3
DC_GROUP_12
  1

  0
LINE
  5
142
330
6D
100
AcDbEntity
  8
ZUWAKU
  6
CONTINUOUS
 62
     7
100
AcDbLine
 10
135.3463728456568
 20
-133.25
 30
0.0
 11
137.4463728456568
 21
-133.25
 31
0.0
  0
LINE
  5
143
330
6D
100
AcDbEntity
  8
ZUWAKU
  6
CONTINUOUS
 62
     7
100
AcDbLine
 10
135.3463728456568
 20
-132.75
 30
0.0
 11
137.4463728456568
 21
-132.75
 31
0.0
  0
LINE
  5
144
330
6D
100
AcDbEntity
  8
ZUWAKU
  6
CONTINUOUS
 62
     7
100
AcDbLine
 10
135.3463728456568
 20
-132.25
 30
0.0
 11
137.4463728456568
 21
-132.25
 31
0.0
  0
LINE
  5
145
330
6D
100
AcDbEntity
  8
ZUWAKU
  6
CONTINUOUS
 62
     7
100
AcDbLine
 10
132.6463728456568
 20
-131.75
 30
0.0
 11
139.2463728456568
 21
-131.75
 31
0.0
  0
LINE
  5
146
330
6D
100
AcDbEntity
  8
ZUWAKU
  6
CONTINUOUS
 62
     7
100
AcDbLine
 10
132.6463728456568
 20
-131.25
 30
0.0
 11
139.2463728456568
 21
-131.25
 31
0.0
  0
LINE
  5
147
330
6D
100
AcDbEntity
  8
ZUWAKU
  6
CONTINUOUS
 62
     7
100
AcDbLine
 10
132.6463728456568
 20
-133.75
 30
0.0
 11
139.2463728456568
 21
-133.75
 31
0.0
  0
LINE
  5
148
330
6D
100
AcDbEntity
  8
ZUWAKU
  6
CONTINUOUS
 62
     7
100
AcDbLine
 10
132.6463728456568
 20
-134.25
 30
0.0
 11
139.2463728456568
 21
-134.25
 31
0.0
  0
LINE
  5
149
330
6D
100
AcDbEntity
  8
ZUWAKU
  6
CONTINUOUS
 62
     7
100
AcDbLine
 10
132.6463728456568
 20
-134.75
 30
0.0
 11
138.8256932440106
 21
-134.75
 31
0.0
  0
LINE
  5
14A
330
6D
100
AcDbEntity
  8
ZUWAKU
  6
CONTINUOUS
 62
     7
100
AcDbLine
 10
132.6463728456568
 20
-135.25
 30
0.0
 11
136.4087996408371
 21
-135.25
 31
0.0
  0
ENDBLK
  5
6F
330
6D
100
AcDbEntity
  8
0
100
AcDbBlockEnd
  0
BLOCK
  5
71
330
70
100
AcDbEntity
  8
0
100
AcDbBlockBegin
  2
DC_GROUP_13
 70
     0
 71
     0
 10
0.0
 20
0.0
 30
0.0
  3
DC_GROUP_13
  1

  0
LINE
  5
14B
330
70
100
AcDbEntity
  8
ZUWAKU
  6
CONTINUOUS
 62
     7
100
AcDbLine
 10
167.9163728456568
 20
-131.55
 30
0.0
 11
169.8163728456568
 21
-131.55
 31
0.0
  0
LINE
  5
14C
330
70
100
AcDbEntity
  8
ZUWAKU
  6
CONTINUOUS
 62
     7
100
AcDbLine
 10
167.9163728456568
 20
-131.05
 30
0.0
 11
169.8163728456568
 21
-131.05
 31
0.0
  0
LINE
  5
14D
330
70
100
AcDbEntity
  8
ZUWAKU
  6
CONTINUOUS
 62
     7
100
AcDbLine
 10
167.9163728456568
 20
-130.55
 30
0.0
 11
169.8163728456568
 21
-130.55
 31
0.0
  0
LINE
  5
14E
330
70
100
AcDbEntity
  8
ZUWAKU
  6
CONTINUOUS
 62
     7
100
AcDbLine
 10
166.1163728456568
 20
-130.05
 30
0.0
 11
171.4163728456568
 21
-130.05
 31
0.0
  0
LINE
  5
14F
330
70
100
AcDbEntity
  8
ZUWAKU
  6
CONTINUOUS
 62
     7
100
AcDbLine
 10
166.1163728456568
 20
-129.55
 30
0.0
 11
171.4163728456568
 21
-129.55
 31
0.0
  0
LINE
  5
150
330
70
100
AcDbEntity
  8
ZUWAKU
  6
CONTINUOUS
 62
     7
100
AcDbLine
 10
166.1163728456568
 20
-129.05
 30
0.0
 11
171.4163728456568
 21
-129.05
 31
0.0
  0
LINE
  5
151
330
70
100
AcDbEntity
  8
ZUWAKU
  6
CONTINUOUS
 62
     7
100
AcDbLine
 10
167.9163728456568
 20
-128.55
 30
0.0
 11
169.8163728456568
 21
-128.55
 31
0.0
  0
LINE
  5
152
330
70
100
AcDbEntity
  8
ZUWAKU
  6
CONTINUOUS
 62
     7
100
AcDbLine
 10
167.9163728456568
 20
-128.05
 30
0.0
 11
169.8163728456568
 21
-128.05
 31
0.0
  0
LINE
  5
153
330
70
100
AcDbEntity
  8
ZUWAKU
  6
CONTINUOUS
 62
     7
100
AcDbLine
 10
167.9163728456568
 20
-132.05
 30
0.0
 11
169.8163728456568
 21
-132.05
 31
0.0
  0
LINE
  5
154
330
70
100
AcDbEntity
  8
ZUWAKU
  6
CONTINUOUS
 62
     7
100
AcDbLine
 10
167.9163728456568
 20
-132.55
 30
0.0
 11
169.8163728456568
 21
-132.55
 31
0.0
  0
LINE
  5
155
330
70
100
AcDbEntity
  8
ZUWAKU
  6
CONTINUOUS
 62
     7
100
AcDbLine
 10
167.9163728456568
 20
-133.05
 30
0.0
 11
169.8163728456568
 21
-133.05
 31
0.0
  0
LINE
  5
156
330
70
100
AcDbEntity
  8
ZUWAKU
  6
CONTINUOUS
 62
     7
100
AcDbLine
 10
165.9163728456568
 20
-133.55
 30
0.0
 11
171.9163728456568
 21
-133.55
 31
0.0
  0
LINE
  5
157
330
70
100
AcDbEntity
  8
ZUWAKU
  6
CONTINUOUS
 62
     7
100
AcDbLine
 10
165.9163728456568
 20
-134.05
 30
0.0
 11
171.9163728456568
 21
-134.05
 31
0.0
  0
LINE
  5
158
330
70
100
AcDbEntity
  8
ZUWAKU
  6
CONTINUOUS
 62
     7
100
AcDbLine
 10
165.9163728456568
 20
-134.55
 30
0.0
 11
171.9163728456568
 21
-134.55
 31
0.0
  0
LINE
  5
159
330
70
100
AcDbEntity
  8
ZUWAKU
  6
CONTINUOUS
 62
     7
100
AcDbLine
 10
165.9163728456568
 20
-135.05
 30
0.0
 11
171.9163728456568
 21
-135.05
 31
0.0
  0
ENDBLK
  5
72
330
70
100
AcDbEntity
  8
0
100
AcDbBlockEnd
  0
BLOCK
  5
74
330
73
100
AcDbEntity
  8
0
100
AcDbBlockBegin
  2
DC_GROUP_14
 70
     0
 71
     0
 10
0.0
 20
0.0
 30
0.0
  3
DC_GROUP_14
  1

  0
LINE
  5
15A
330
73
100
AcDbEntity
  8
ZUWAKU
  6
CONTINUOUS
 62
     7
100
AcDbLine
 10
148.03659593608
 20
-129.1512995588781
 30
0.0
 11
152.1827745314139
 21
-129.1512995588781
 31
0.0
  0
LINE
  5
15B
330
73
100
AcDbEntity
  8
ZUWAKU
  6
CONTINUOUS
 62
     7
100
AcDbLine
 10
152.2537677038454
 20
-129.1512995588781
 30
0.0
 11
156.419704031706
 21
-129.1512995588781
 31
0.0
  0
LINE
  5
15C
330
73
100
AcDbEntity
  8
ZUWAKU
  6
CONTINUOUS
 62
     7
100
AcDbLine
 10
149.147730764762
 20
-128.6512995588781
 30
0.0
 11
155.2936103080192
 21
-128.6512995588781
 31
0.0
  0
LINE
  5
15D
330
73
100
AcDbEntity
  8
ZUWAKU
  6
CONTINUOUS
 62
     7
100
AcDbLine
 10
149.8808204717105
 20
-128.1512995588781
 30
0.0
 11
154.5550444732114
 21
-128.1512995588781
 31
0.0
  0
LINE
  5
15E
330
73
100
AcDbEntity
  8
ZUWAKU
  6
CONTINUOUS
 62
     7
100
AcDbLine
 10
146.7163728456568
 20
-129.6512995588781
 30
0.0
 11
151.2655682998408
 21
-129.6512995588781
 31
0.0
  0
LINE
  5
15F
330
73
100
AcDbEntity
  8
ZUWAKU
  6
CONTINUOUS
 62
     7
100
AcDbLine
 10
153.2687259431705
 20
-129.6512995588781
 30
0.0
 11
158.7163728456568
 21
-129.6512995588781
 31
0.0
  0
LINE
  5
160
330
73
100
AcDbEntity
  8
ZUWAKU
  6
CONTINUOUS
 62
     7
100
AcDbLine
 10
146.7163728456568
 20
-130.1512995588781
 30
0.0
 11
150.0110681543286
 21
-130.1512995588781
 31
0.0
  0
LINE
  5
161
330
73
100
AcDbEntity
  8
ZUWAKU
  6
CONTINUOUS
 62
     7
100
AcDbLine
 10
154.6396032344489
 20
-130.1512995588781
 30
0.0
 11
158.7163728456568
 21
-130.1512995588781
 31
0.0
  0
ENDBLK
  5
75
330
73
100
AcDbEntity
  8
0
100
AcDbBlockEnd
  0
BLOCK
  5
77
330
76
100
AcDbEntity
  8
0
100
AcDbBlockBegin
  2
DC_GROUP_15
 70
     0
 71
     0
 10
0.0
 20
0.0
 30
0.0
  3
DC_GROUP_15
  1

  0
LINE
  5
162
330
76
100
AcDbEntity
  8
ZUWAKU
  6
CONTINUOUS
 62
     7
100
AcDbLine
 10
161.9372031523923
 20
-131.55
 30
0.0
 11
164.5309087734352
 21
-131.55
 31
0.0
  0
LINE
  5
163
330
76
100
AcDbEntity
  8
ZUWAKU
  6
CONTINUOUS
 62
     7
100
AcDbLine
 10
162.5235540538986
 20
-131.05
 30
0.0
 11
164.7616456754909
 21
-131.05
 31
0.0
  0
LINE
  5
164
330
76
100
AcDbEntity
  8
ZUWAKU
  6
CONTINUOUS
 62
     7
100
AcDbLine
 10
162.8899766640403
 20
-130.55
 30
0.0
 11
165.0505367479891
 21
-130.55
 31
0.0
  0
LINE
  5
165
330
76
100
AcDbEntity
  8
ZUWAKU
  6
CONTINUOUS
 62
     7
100
AcDbLine
 10
160.1163728456568
 20
-130.05
 30
0.0
 11
165.2631269437853
 21
-130.05
 31
0.0
  0
LINE
  5
166
330
76
100
AcDbEntity
  8
ZUWAKU
  6
CONTINUOUS
 62
     7
100
AcDbLine
 10
160.1163728456568
 20
-129.55
 30
0.0
 11
165.4102932726119
 21
-129.55
 31
0.0
  0
LINE
  5
167
330
76
100
AcDbEntity
  8
ZUWAKU
  6
CONTINUOUS
 62
     7
100
AcDbLine
 10
160.1163728456568
 20
-129.05
 30
0.0
 11
165.4983642039967
 21
-129.05
 31
0.0
  0
LINE
  5
168
330
76
100
AcDbEntity
  8
ZUWAKU
  6
CONTINUOUS
 62
     7
100
AcDbLine
 10
162.1163728456568
 20
-128.55
 30
0.0
 11
163.7163728456568
 21
-128.55
 31
0.0
  0
LINE
  5
169
330
76
100
AcDbEntity
  8
ZUWAKU
  6
CONTINUOUS
 62
     7
100
AcDbLine
 10
162.1163728456568
 20
-128.05
 30
0.0
 11
163.7163728456568
 21
-128.05
 31
0.0
  0
LINE
  5
16A
330
76
100
AcDbEntity
  8
ZUWAKU
  6
CONTINUOUS
 62
     7
100
AcDbLine
 10
160.1163728456568
 20
-132.05
 30
0.0
 11
165.5163728456568
 21
-132.05
 31
0.0
  0
LINE
  5
16B
330
76
100
AcDbEntity
  8
ZUWAKU
  6
CONTINUOUS
 62
     7
100
AcDbLine
 10
160.1163728456568
 20
-132.55
 30
0.0
 11
163.7163728456568
 21
-132.55
 31
0.0
  0
LINE
  5
16C
330
76
100
AcDbEntity
  8
ZUWAKU
  6
CONTINUOUS
 62
     7
100
AcDbLine
 10
163.9937661375371
 20
-132.55
 30
0.0
 11
165.5163728456568
 21
-132.55
 31
0.0
  0
LINE
  5
16D
330
76
100
AcDbEntity
  8
ZUWAKU
  6
CONTINUOUS
 62
     7
100
AcDbLine
 10
160.1163728456568
 20
-133.05
 30
0.0
 11
160.7391757382088
 21
-133.05
 31
0.0
  0
LINE
  5
16E
330
76
100
AcDbEntity
  8
ZUWAKU
  6
CONTINUOUS
 62
     7
100
AcDbLine
 10
162.1163728456568
 20
-133.05
 30
0.0
 11
163.7163728456568
 21
-133.05
 31
0.0
  0
LINE
  5
16F
330
76
100
AcDbEntity
  8
ZUWAKU
  6
CONTINUOUS
 62
     7
100
AcDbLine
 10
162.1163728456568
 20
-133.55
 30
0.0
 11
163.7163728456568
 21
-133.55
 31
0.0
  0
LINE
  5
170
330
76
100
AcDbEntity
  8
ZUWAKU
  6
CONTINUOUS
 62
     7
100
AcDbLine
 10
162.1163728456568
 20
-134.05
 30
0.0
 11
163.7163728456568
 21
-134.05
 31
0.0
  0
LINE
  5
171
330
76
100
AcDbEntity
  8
ZUWAKU
  6
CONTINUOUS
 62
     7
100
AcDbLine
 10
162.1163728456568
 20
-134.55
 30
0.0
 11
163.7163728456568
 21
-134.55
 31
0.0
  0
LINE
  5
172
330
76
100
AcDbEntity
  8
ZUWAKU
  6
CONTINUOUS
 62
     7
100
AcDbLine
 10
162.1163728456568
 20
-135.05
 30
0.0
 11
163.7163728456568
 21
-135.05
 31
0.0
  0
ENDBLK
  5
78
330
76
100
AcDbEntity
  8
0
100
AcDbBlockEnd
  0
BLOCK
  5
7A
330
79
100
AcDbEntity
  8
0
100
AcDbBlockBegin
  2
DC_GROUP_16
 70
     0
 71
     0
 10
0.0
 20
0.0
 30
0.0
  3
DC_GROUP_16
  1

  0
LINE
  5
173
330
79
100
AcDbEntity
  8
ZUWAKU
  6
CONTINUOUS
 62
     7
100
AcDbLine
 10
160.1163728456568
 20
-132.0361668241051
 30
0.0
 11
160.2999359294301
 21
-132.0361668241051
 31
0.0
  0
LINE
  5
174
330
79
100
AcDbEntity
  8
ZUWAKU
  6
CONTINUOUS
 62
     7
100
AcDbLine
 10
160.1163728456568
 20
-133.0524216486367
 30
0.0
 11
160.5835787514163
 21
-133.0524216486367
 31
0.0
  0
LINE
  5
175
330
79
100
AcDbEntity
  8
ZUWAKU
  6
CONTINUOUS
 62
     7
100
AcDbLine
 10
160.1163728456568
 20
-128.8694543431024
 30
0.0
 11
160.1163728456568
 21
-130.0694543431024
 31
0.0
  0
LINE
  5
176
330
79
100
AcDbEntity
  8
ZUWAKU
  6
CONTINUOUS
 62
     7
100
AcDbLine
 10
163.7163728456568
 20
-127.6694543431024
 30
0.0
 11
163.7163728456568
 21
-128.8694543431024
 31
0.0
  0
LINE
  5
177
330
79
100
AcDbEntity
  8
ZUWAKU
  6
CONTINUOUS
 62
     7
100
AcDbLine
 10
165.9163728456568
 20
-135.4305456568976
 30
0.0
 11
171.9163728456568
 21
-135.4305456568976
 31
0.0
  0
LINE
  5
178
330
79
100
AcDbEntity
  8
ZUWAKU
  6
CONTINUOUS
 62
     7
100
AcDbLine
 10
162.1163728456568
 20
-132.8116802321412
 30
0.0
 11
162.1163728456568
 21
-135.4305456568976
 31
0.0
  0
LINE
  5
179
330
79
100
AcDbEntity
  8
ZUWAKU
  6
CONTINUOUS
 62
     7
100
AcDbLine
 10
160.1163728456568
 20
-130.0694543431024
 30
0.0
 11
163.1163728456568
 21
-130.0694543431024
 31
0.0
  0
LINE
  5
17A
330
79
100
AcDbEntity
  8
ZUWAKU
  6
CONTINUOUS
 62
     7
100
AcDbLine
 10
163.7163728456568
 20
-128.8694543431024
 30
0.0
 11
165.5163728456568
 21
-128.8694543431024
 31
0.0
  0
LINE
  5
17B
330
79
100
AcDbEntity
  8
ZUWAKU
  6
CONTINUOUS
 62
     7
100
AcDbLine
 10
160.1163728456568
 20
-128.8694543431024
 30
0.0
 11
162.1163728456568
 21
-128.8694543431024
 31
0.0
  0
LINE
  5
17C
330
79
100
AcDbEntity
  8
ZUWAKU
  6
CONTINUOUS
 62
     7
100
AcDbLine
 10
169.8163728456568
 20
-130.0694543431024
 30
0.0
 11
171.4163728456568
 21
-130.0694543431024
 31
0.0
  0
LINE
  5
17D
330
79
100
AcDbEntity
  8
ZUWAKU
  6
CONTINUOUS
 62
     7
100
AcDbLine
 10
169.8163728456568
 20
-128.8694543431024
 30
0.0
 11
171.4163728456568
 21
-128.8694543431024
 31
0.0
  0
LINE
  5
17E
330
79
100
AcDbEntity
  8
ZUWAKU
  6
CONTINUOUS
 62
     7
100
AcDbLine
 10
169.8163728456568
 20
-130.0694543431024
 30
0.0
 11
169.8163728456568
 21
-133.4694543431024
 31
0.0
  0
LINE
  5
17F
330
79
100
AcDbEntity
  8
ZUWAKU
  6
CONTINUOUS
 62
     7
100
AcDbLine
 10
169.8163728456568
 20
-133.4694543431024
 30
0.0
 11
171.9163728456568
 21
-133.4694543431024
 31
0.0
  0
LINE
  5
180
330
79
100
AcDbEntity
  8
ZUWAKU
  6
CONTINUOUS
 62
     7
100
AcDbLine
 10
162.1163728456568
 20
-127.6694543431024
 30
0.0
 11
163.7163728456568
 21
-127.6694543431024
 31
0.0
  0
LINE
  5
181
330
79
100
AcDbEntity
  8
ZUWAKU
  6
CONTINUOUS
 62
     7
100
AcDbLine
 10
165.9163728456568
 20
-133.4694543431024
 30
0.0
 11
167.9163728456568
 21
-133.4694543431024
 31
0.0
  0
LINE
  5
182
330
79
100
AcDbEntity
  8
ZUWAKU
  6
CONTINUOUS
 62
     7
100
AcDbLine
 10
167.9163728456568
 20
-130.0694543431024
 30
0.0
 11
167.9163728456568
 21
-133.4694543431024
 31
0.0
  0
LINE
  5
183
330
79
100
AcDbEntity
  8
ZUWAKU
  6
CONTINUOUS
 62
     7
100
AcDbLine
 10
166.1163728456568
 20
-130.0694543431024
 30
0.0
 11
167.9163728456568
 21
-130.0694543431024
 31
0.0
  0
LINE
  5
184
330
79
100
AcDbEntity
  8
ZUWAKU
  6
CONTINUOUS
 62
     7
100
AcDbLine
 10
167.9163728456568
 20
-127.6694543431024
 30
0.0
 11
169.8163728456568
 21
-127.6694543431024
 31
0.0
  0
LINE
  5
185
330
79
100
AcDbEntity
  8
ZUWAKU
  6
CONTINUOUS
 62
     7
100
AcDbLine
 10
166.1163728456568
 20
-128.8694543431024
 30
0.0
 11
167.9163728456568
 21
-128.8694543431024
 31
0.0
  0
LINE
  5
186
330
79
100
AcDbEntity
  8
ZUWAKU
  6
CONTINUOUS
 62
     7
100
AcDbLine
 10
162.1163728456568
 20
-135.4305456568976
 30
0.0
 11
163.7163728456568
 21
-135.4305456568976
 31
0.0
  0
LINE
  5
187
330
79
100
AcDbEntity
  8
ZUWAKU
  6
CONTINUOUS
 62
     7
100
AcDbLine
 10
171.9163728456568
 20
-133.4694543431024
 30
0.0
 11
171.9163728456568
 21
-135.4305456568976
 31
0.0
  0
LINE
  5
188
330
79
100
AcDbEntity
  8
ZUWAKU
  6
CONTINUOUS
 62
     7
100
AcDbLine
 10
154.5163728456568
 20
-133.8305456568976
 30
0.0
 11
154.3163728456569
 21
-133.6305456568977
 31
0.0
  0
LINE
  5
189
330
79
100
AcDbEntity
  8
ZUWAKU
  6
CONTINUOUS
 62
     7
100
AcDbLine
 10
169.8163728456568
 20
-127.6694543431024
 30
0.0
 11
169.8163728456568
 21
-128.8694543431024
 31
0.0
  0
LINE
  5
18A
330
79
100
AcDbEntity
  8
ZUWAKU
  6
CONTINUOUS
 62
     7
100
AcDbLine
 10
171.4163728456568
 20
-128.8694543431024
 30
0.0
 11
171.4163728456568
 21
-130.0694543431024
 31
0.0
  0
LINE
  5
18B
330
79
100
AcDbEntity
  8
ZUWAKU
  6
CONTINUOUS
 62
     7
100
AcDbLine
 10
165.9163728456568
 20
-133.4694543431024
 30
0.0
 11
165.9163728456568
 21
-135.4305456568976
 31
0.0
  0
LINE
  5
18C
330
79
100
AcDbEntity
  8
ZUWAKU
  6
CONTINUOUS
 62
     7
100
AcDbLine
 10
158.7163728456568
 20
-134.6305456568976
 30
0.0
 11
158.7163728456568
 21
-135.4305456568976
 31
0.0
  0
LINE
  5
18D
330
79
100
AcDbEntity
  8
ZUWAKU
  6
CONTINUOUS
 62
     7
100
AcDbLine
 10
167.9163728456568
 20
-127.6694543431024
 30
0.0
 11
167.9163728456568
 21
-128.8694543431024
 31
0.0
  0
LINE
  5
18E
330
79
100
AcDbEntity
  8
ZUWAKU
  6
CONTINUOUS
 62
     7
100
AcDbLine
 10
151.1163728456567
 20
-133.6305456568975
 30
0.0
 11
150.7163728456567
 21
-134.4305456568976
 31
0.0
  0
LINE
  5
18F
330
79
100
AcDbEntity
  8
ZUWAKU
  6
CONTINUOUS
 62
     7
100
AcDbLine
 10
151.1163728456568
 20
-133.6305456568976
 30
0.0
 11
154.3163728456568
 21
-133.6305456568976
 31
0.0
  0
LINE
  5
190
330
79
100
AcDbEntity
  8
ZUWAKU
  6
CONTINUOUS
 62
     7
100
AcDbLine
 10
156.9163728456568
 20
-133.6305456568976
 30
0.0
 11
158.7163728456568
 21
-133.6305456568976
 31
0.0
  0
LINE
  5
191
330
79
100
AcDbEntity
  8
ZUWAKU
  6
CONTINUOUS
 62
     7
100
AcDbLine
 10
148.7163728456567
 20
-133.6305456568975
 30
0.0
 11
147.7163728456567
 21
-135.4305456568975
 31
0.0
  0
LINE
  5
192
330
79
100
AcDbEntity
  8
ZUWAKU
  6
CONTINUOUS
 62
     7
100
AcDbLine
 10
166.1163728456568
 20
-128.8694543431024
 30
0.0
 11
166.1163728456568
 21
-130.0694543431024
 31
0.0
  0
LINE
  5
193
330
79
100
AcDbEntity
  8
ZUWAKU
  6
CONTINUOUS
 62
     7
100
AcDbLine
 10
158.7163728456568
 20
-129.4305456568976
 30
0.0
 11
158.7163728456568
 21
-130.6331447746538
 31
0.0
  0
LINE
  5
194
330
79
100
AcDbEntity
  8
ZUWAKU
  6
CONTINUOUS
 62
     7
100
AcDbLine
 10
146.7163728456568
 20
-129.4305456568976
 30
0.0
 11
146.7163728456568
 21
-130.6331447746538
 31
0.0
  0
LINE
  5
195
330
79
100
AcDbEntity
  8
ZUWAKU
  6
CONTINUOUS
 62
     7
100
AcDbLine
 10
165.5163728456568
 20
-132.0305456568976
 30
0.0
 11
165.5163728456568
 21
-133.0305456568976
 31
0.0
  0
LINE
  5
196
330
79
100
AcDbEntity
  8
ZUWAKU
  6
CONTINUOUS
 62
     7
100
AcDbLine
 10
162.1163728456568
 20
-127.6694543431024
 30
0.0
 11
162.1163728456568
 21
-128.8694543431024
 31
0.0
  0
LINE
  5
197
330
79
100
AcDbEntity
  8
ZUWAKU
  6
CONTINUOUS
 62
     7
100
AcDbLine
 10
146.7163728456568
 20
-130.6331447746538
 30
0.0
 11
146.9443544232267
 21
-130.6331447746538
 31
0.0
  0
LINE
  5
198
330
79
100
AcDbEntity
  8
ZUWAKU
  6
CONTINUOUS
 62
     7
100
AcDbLine
 10
163.7163728456568
 20
-132.5305456568976
 30
0.0
 11
163.7163728456568
 21
-135.4305456568976
 31
0.0
  0
LINE
  5
199
330
79
100
AcDbEntity
  8
ZUWAKU
  6
CONTINUOUS
 62
     7
100
AcDbLine
 10
150.7163728456568
 20
-134.4305456568976
 30
0.0
 11
152.4092420950863
 21
-134.4305456568976
 31
0.0
  0
LINE
  5
19A
330
79
100
AcDbEntity
  8
ZUWAKU
  6
CONTINUOUS
 62
     7
100
AcDbLine
 10
146.7163728456568
 20
-133.6305456568976
 30
0.0
 11
148.7163728456568
 21
-133.6305456568976
 31
0.0
  0
LINE
  5
19B
330
79
100
AcDbEntity
  8
ZUWAKU
  6
CONTINUOUS
 62
     7
100
AcDbLine
 10
146.7163728456568
 20
-132.6305456568976
 30
0.0
 11
158.7163728456568
 21
-132.6305456568976
 31
0.0
  0
LINE
  5
19C
330
79
100
AcDbEntity
  8
ZUWAKU
  6
CONTINUOUS
 62
     7
100
AcDbLine
 10
148.1163728456568
 20
-132.0305456568976
 30
0.0
 11
156.7163728456568
 21
-132.0305456568976
 31
0.0
  0
LINE
  5
19D
330
79
100
AcDbEntity
  8
ZUWAKU
  6
CONTINUOUS
 62
     7
100
AcDbLine
 10
157.4495181016829
 20
-130.6331447746538
 30
0.0
 11
158.7163728456568
 21
-130.6331447746538
 31
0.0
  0
LINE
  5
19E
330
79
100
AcDbEntity
  8
ZUWAKU
  6
CONTINUOUS
 62
     7
100
AcDbLine
 10
148.1163728456568
 20
-131.0305456568976
 30
0.0
 11
156.7163728456568
 21
-131.0305456568976
 31
0.0
  0
LINE
  5
19F
330
79
100
AcDbEntity
  8
ZUWAKU
  6
CONTINUOUS
 62
     7
100
AcDbLine
 10
156.7163728456568
 20
-131.0305456568976
 30
0.0
 11
156.7163728456568
 21
-132.0305456568976
 31
0.0
  0
LINE
  5
1A0
330
79
100
AcDbEntity
  8
ZUWAKU
  6
CONTINUOUS
 62
     7
100
AcDbLine
 10
148.1163728456568
 20
-131.0305456568976
 30
0.0
 11
148.1163728456568
 21
-132.0305456568976
 31
0.0
  0
LINE
  5
1A1
330
79
100
AcDbEntity
  8
ZUWAKU
  6
CONTINUOUS
 62
     7
100
AcDbLine
 10
158.7163728456568
 20
-132.6305456568976
 30
0.0
 11
158.7163728456568
 21
-133.6305456568976
 31
0.0
  0
LINE
  5
1A2
330
79
100
AcDbEntity
  8
ZUWAKU
  6
CONTINUOUS
 62
     7
100
AcDbLine
 10
146.7163728456568
 20
-132.6305456568976
 30
0.0
 11
146.7163728456568
 21
-133.6305456568976
 31
0.0
  0
LINE
  5
1A3
330
79
100
AcDbEntity
  8
ZUWAKU
  6
CONTINUOUS
 62
     7
100
AcDbLine
 10
158.2786428876944
 20
-129.4465342528391
 30
0.0
 11
158.7163728456568
 21
-129.4465342528391
 31
0.0
  0
LINE
  5
1A4
330
79
100
AcDbEntity
  8
ZUWAKU
  6
CONTINUOUS
 62
     7
100
AcDbLine
 10
150.4163728456568
 20
-127.6694543431024
 30
0.0
 11
154.0163728456568
 21
-127.6694543431024
 31
0.0
  0
LINE
  5
1A5
330
79
100
AcDbEntity
  8
ZUWAKU
  6
CONTINUOUS
 62
     7
100
AcDbLine
 10
120.8463728456568
 20
-135.4305456568976
 30
0.0
 11
122.4463728456568
 21
-135.4305456568976
 31
0.0
  0
LINE
  5
1A6
330
79
100
AcDbEntity
  8
ZUWAKU
  6
CONTINUOUS
 62
     7
100
AcDbLine
 10
126.6463728456568
 20
-135.4305456568976
 30
0.0
 11
128.4463728456568
 21
-135.4305456568976
 31
0.0
  0
LINE
  5
1A7
330
79
100
AcDbEntity
  8
ZUWAKU
  6
CONTINUOUS
 62
     7
100
AcDbLine
 10
143.6963728456568
 20
-132.7305456568976
 30
0.0
 11
145.1963728456568
 21
-132.7305456568976
 31
0.0
  0
LINE
  5
1A8
330
79
100
AcDbEntity
  8
ZUWAKU
  6
CONTINUOUS
 62
     7
100
AcDbLine
 10
142.2963728456568
 20
-129.8694543431024
 30
0.0
 11
145.2163728456568
 21
-129.8694543431024
 31
0.0
  0
LINE
  5
1A9
330
79
100
AcDbEntity
  8
ZUWAKU
  6
CONTINUOUS
 62
     7
100
AcDbLine
 10
143.6963728456568
 20
-127.6694543431024
 30
0.0
 11
145.2163728456568
 21
-127.6694543431024
 31
0.0
  0
LINE
  5
1AA
330
79
100
AcDbEntity
  8
ZUWAKU
  6
CONTINUOUS
 62
     7
100
AcDbLine
 10
137.4463728456568
 20
-131.9694543431024
 30
0.0
 11
139.2463728456568
 21
-131.9694543431024
 31
0.0
  0
LINE
  5
1AB
330
79
100
AcDbEntity
  8
ZUWAKU
  6
CONTINUOUS
 62
     7
100
AcDbLine
 10
132.6463728456568
 20
-131.9694543431024
 30
0.0
 11
135.3463728456568
 21
-131.9694543431024
 31
0.0
  0
LINE
  5
1AC
330
79
100
AcDbEntity
  8
ZUWAKU
  6
CONTINUOUS
 62
     7
100
AcDbLine
 10
132.6463728456568
 20
-129.8694543431024
 30
0.0
 11
132.6463728456568
 21
-128.8694543431024
 31
0.0
  0
LINE
  5
1AD
330
79
100
AcDbEntity
  8
ZUWAKU
  6
CONTINUOUS
 62
     7
100
AcDbLine
 10
140.1463728456568
 20
-135.4305456568976
 30
0.0
 11
142.2963728456568
 21
-135.4305456568976
 31
0.0
  0
LINE
  5
1AE
330
79
100
AcDbEntity
  8
ZUWAKU
  6
CONTINUOUS
 62
     7
100
AcDbLine
 10
137.4463728456568
 20
-133.3694543431024
 30
0.0
 11
139.2463728456568
 21
-133.3694543431024
 31
0.0
  0
LINE
  5
1AF
330
79
100
AcDbEntity
  8
ZUWAKU
  6
CONTINUOUS
 62
     7
100
AcDbLine
 10
132.6463728456568
 20
-133.3694543431024
 30
0.0
 11
132.6463728456568
 21
-135.4305456568976
 31
0.0
  0
LINE
  5
1B0
330
79
100
AcDbEntity
  8
ZUWAKU
  6
CONTINUOUS
 62
     7
100
AcDbLine
 10
140.1463728456568
 20
-129.8694543431024
 30
0.0
 11
140.1463728456568
 21
-135.4305456568976
 31
0.0
  0
LINE
  5
1B1
330
79
100
AcDbEntity
  8
ZUWAKU
  6
CONTINUOUS
 62
     7
100
AcDbLine
 10
132.6463728456568
 20
-133.3694543431024
 30
0.0
 11
135.3463728456568
 21
-133.3694543431024
 31
0.0
  0
LINE
  5
1B2
330
79
100
AcDbEntity
  8
ZUWAKU
  6
CONTINUOUS
 62
     7
100
AcDbLine
 10
139.2463728456568
 20
-133.3694543431024
 30
0.0
 11
139.2463728456568
 21
-134.6305456568976
 31
0.0
  0
LINE
  5
1B3
330
79
100
AcDbEntity
  8
ZUWAKU
  6
CONTINUOUS
 62
     7
100
AcDbLine
 10
142.2963728456568
 20
-129.8694543431024
 30
0.0
 11
142.2963728456568
 21
-134.4305456568976
 31
0.0
  0
LINE
  5
1B4
330
79
100
AcDbEntity
  8
ZUWAKU
  6
CONTINUOUS
 62
     7
100
AcDbLine
 10
137.4463728456568
 20
-131.9694543431024
 30
0.0
 11
137.4463728456568
 21
-133.3694543431024
 31
0.0
  0
LINE
  5
1B5
330
79
100
AcDbEntity
  8
ZUWAKU
  6
CONTINUOUS
 62
     7
100
AcDbLine
 10
135.3463728456568
 20
-131.9694543431024
 30
0.0
 11
135.3463728456568
 21
-133.3694543431024
 31
0.0
  0
LINE
  5
1B6
330
79
100
AcDbEntity
  8
ZUWAKU
  6
CONTINUOUS
 62
     7
100
AcDbLine
 10
142.2963728456568
 20
-128.8694543431024
 30
0.0
 11
143.6963728456568
 21
-128.8694543431024
 31
0.0
  0
LINE
  5
1B7
330
79
100
AcDbEntity
  8
ZUWAKU
  6
CONTINUOUS
 62
     7
100
AcDbLine
 10
131.2463728456568
 20
-130.6694543431024
 30
0.0
 11
131.2463728456568
 21
-131.7694543431024
 31
0.0
  0
LINE
  5
1B8
330
79
100
AcDbEntity
  8
ZUWAKU
  6
CONTINUOUS
 62
     7
100
AcDbLine
 10
132.6463728456568
 20
-131.0694543431024
 30
0.0
 11
132.6463728456568
 21
-131.9694543431024
 31
0.0
  0
LINE
  5
1B9
330
79
100
AcDbEntity
  8
ZUWAKU
  6
CONTINUOUS
 62
     7
100
AcDbLine
 10
147.7163728456568
 20
-135.4305456568976
 30
0.0
 11
151.1971892572037
 21
-135.4305456568976
 31
0.0
  0
LINE
  5
1BA
330
79
100
AcDbEntity
  8
ZUWAKU
  6
CONTINUOUS
 62
     7
100
AcDbLine
 10
132.6463728456568
 20
-131.0694543431024
 30
0.0
 11
139.2463728456568
 21
-131.0694543431024
 31
0.0
  0
LINE
  5
1BB
330
79
100
AcDbEntity
  8
ZUWAKU
  6
CONTINUOUS
 62
     7
100
AcDbLine
 10
120.8463728456568
 20
-133.0569023297954
 30
0.0
 11
120.8463728456568
 21
-135.4305456568976
 31
0.0
  0
LINE
  5
1BC
330
79
100
AcDbEntity
  8
ZUWAKU
  6
CONTINUOUS
 62
     7
100
AcDbLine
 10
131.2463728456568
 20
-134.4305456568976
 30
0.0
 11
131.2463728456568
 21
-135.4305456568976
 31
0.0
  0
LINE
  5
1BD
330
79
100
AcDbEntity
  8
ZUWAKU
  6
CONTINUOUS
 62
     7
100
AcDbLine
 10
123.8463728456568
 20
-134.2305456568976
 30
0.0
 11
123.8463728456568
 21
-135.4305456568976
 31
0.0
  0
LINE
  5
1BE
330
79
100
AcDbEntity
  8
ZUWAKU
  6
CONTINUOUS
 62
     7
100
AcDbLine
 10
118.8463728456568
 20
-133.3038225185832
 30
0.0
 11
118.8463728456568
 21
-134.4569023297954
 31
0.0
  0
LINE
  5
1BF
330
79
100
AcDbEntity
  8
ZUWAKU
  6
CONTINUOUS
 62
     7
100
AcDbLine
 10
122.4463728456568
 20
-129.8694543431024
 30
0.0
 11
123.6463728456568
 21
-129.8694543431024
 31
0.0
  0
LINE
  5
1C0
330
79
100
AcDbEntity
  8
ZUWAKU
  6
CONTINUOUS
 62
     7
100
AcDbLine
 10
128.4463728456568
 20
-129.8694543431024
 30
0.0
 11
131.0463728456568
 21
-129.8694543431024
 31
0.0
  0
LINE
  5
1C1
330
79
100
AcDbEntity
  8
ZUWAKU
  6
CONTINUOUS
 62
     7
100
AcDbLine
 10
129.9463728456568
 20
-131.7694543431024
 30
0.0
 11
131.2463728456568
 21
-131.7694543431024
 31
0.0
  0
LINE
  5
1C2
330
79
100
AcDbEntity
  8
ZUWAKU
  6
CONTINUOUS
 62
     7
100
AcDbLine
 10
128.4463728456568
 20
-130.6694543431024
 30
0.0
 11
131.2463728456568
 21
-130.6694543431024
 31
0.0
  0
LINE
  5
1C3
330
79
100
AcDbEntity
  8
ZUWAKU
  6
CONTINUOUS
 62
     7
100
AcDbLine
 10
128.4463728456568
 20
-133.6305456568976
 30
0.0
 11
128.4463728456568
 21
-135.4305456568976
 31
0.0
  0
LINE
  5
1C4
330
79
100
AcDbEntity
  8
ZUWAKU
  6
CONTINUOUS
 62
     7
100
AcDbLine
 10
126.6463728456568
 20
-133.4305456568976
 30
0.0
 11
126.6463728456568
 21
-135.4305456568976
 31
0.0
  0
LINE
  5
1C5
330
79
100
AcDbEntity
  8
ZUWAKU
  6
CONTINUOUS
 62
     7
100
AcDbLine
 10
124.1463728456568
 20
-130.6694543431024
 30
0.0
 11
124.1463728456568
 21
-131.7694543431024
 31
0.0
  0
LINE
  5
1C6
330
79
100
AcDbEntity
  8
ZUWAKU
  6
CONTINUOUS
 62
     7
100
AcDbLine
 10
122.4463728456568
 20
-131.3694543431024
 30
0.0
 11
122.4463728456568
 21
-135.4305456568976
 31
0.0
  0
LINE
  5
1C7
330
79
100
AcDbEntity
  8
ZUWAKU
  6
CONTINUOUS
 62
     7
100
AcDbLine
 10
120.4463728456568
 20
-133.0569023297954
 30
0.0
 11
120.8463728456568
 21
-133.0569023297954
 31
0.0
  0
LINE
  5
1C8
330
79
100
AcDbEntity
  8
ZUWAKU
  6
CONTINUOUS
 62
     7
100
AcDbLine
 10
123.6463728456568
 20
-130.6694543431024
 30
0.0
 11
123.6463728456568
 21
-131.7694543431024
 31
0.0
  0
LINE
  5
1C9
330
79
100
AcDbEntity
  8
ZUWAKU
  6
CONTINUOUS
 62
     7
100
AcDbLine
 10
124.1463728456568
 20
-129.8694543431024
 30
0.0
 11
126.6463728456568
 21
-129.8694543431024
 31
0.0
  0
LINE
  5
1CA
330
79
100
AcDbEntity
  8
ZUWAKU
  6
CONTINUOUS
 62
     7
100
AcDbLine
 10
128.4463728456568
 20
-128.8694543431024
 30
0.0
 11
131.0463728456568
 21
-128.8694543431024
 31
0.0
  0
LINE
  5
1CB
330
79
100
AcDbEntity
  8
ZUWAKU
  6
CONTINUOUS
 62
     7
100
AcDbLine
 10
125.7063728456568
 20
-128.8694543431024
 30
0.0
 11
126.6463728456568
 21
-128.8694543431024
 31
0.0
  0
LINE
  5
1CC
330
79
100
AcDbEntity
  8
ZUWAKU
  6
CONTINUOUS
 62
     7
100
AcDbLine
 10
126.6463728456568
 20
-127.6694543431024
 30
0.0
 11
128.4463728456568
 21
-127.6694543431024
 31
0.0
  0
LINE
  5
1CD
330
79
100
AcDbEntity
  8
ZUWAKU
  6
CONTINUOUS
 62
     7
100
AcDbLine
 10
122.4463728456568
 20
-128.8694543431024
 30
0.0
 11
123.6463728456568
 21
-128.8694543431024
 31
0.0
  0
LINE
  5
1CE
330
79
100
AcDbEntity
  8
ZUWAKU
  6
CONTINUOUS
 62
     7
100
AcDbLine
 10
122.4463728456568
 20
-131.3694543431025
 30
0.0
 11
123.6463728456568
 21
-131.7694543431024
 31
0.0
  0
LINE
  5
1CF
330
79
100
AcDbEntity
  8
ZUWAKU
  6
CONTINUOUS
 62
     7
100
AcDbLine
 10
122.4463728456569
 20
-129.8694543431023
 30
0.0
 11
123.6463728456568
 21
-130.6694543431023
 31
0.0
  0
LINE
  5
1D0
330
79
100
AcDbEntity
  8
ZUWAKU
  6
CONTINUOUS
 62
     7
100
AcDbLine
 10
128.4463728456568
 20
-129.8694543431024
 30
0.0
 11
128.4463728456568
 21
-130.6694543431024
 31
0.0
  0
LINE
  5
1D1
330
79
100
AcDbEntity
  8
ZUWAKU
  6
CONTINUOUS
 62
     7
100
AcDbLine
 10
124.1463728456568
 20
-127.6694543431024
 30
0.0
 11
124.1463728456568
 21
-129.8694543431024
 31
0.0
  0
LINE
  5
1D2
330
79
100
AcDbEntity
  8
ZUWAKU
  6
CONTINUOUS
 62
     7
100
AcDbLine
 10
132.6463728456568
 20
-135.4305456568976
 30
0.0
 11
134.5000668278699
 21
-135.4305456568976
 31
0.0
  0
LINE
  5
1D3
330
79
100
AcDbEntity
  8
ZUWAKU
  6
CONTINUOUS
 62
     7
100
AcDbLine
 10
140.1463728456568
 20
-127.6694543431024
 30
0.0
 11
142.2963728456568
 21
-127.6694543431024
 31
0.0
  0
LINE
  5
1D4
330
79
100
AcDbEntity
  8
ZUWAKU
  6
CONTINUOUS
 62
     7
100
AcDbLine
 10
140.1463728456568
 20
-127.6694543431024
 30
0.0
 11
140.1463728456568
 21
-128.8694543431024
 31
0.0
  0
LINE
  5
1D5
330
79
100
AcDbEntity
  8
ZUWAKU
  6
CONTINUOUS
 62
     7
100
AcDbLine
 10
124.1463728456568
 20
-131.7694543431024
 30
0.0
 11
125.4463728456568
 21
-131.7694543431024
 31
0.0
  0
LINE
  5
1D6
330
79
100
AcDbEntity
  8
ZUWAKU
  6
CONTINUOUS
 62
     7
100
AcDbLine
 10
124.1463728456568
 20
-130.6694543431024
 30
0.0
 11
126.6463728456568
 21
-130.6694543431024
 31
0.0
  0
LINE
  5
1D7
330
79
100
AcDbEntity
  8
ZUWAKU
  6
CONTINUOUS
 62
     7
100
AcDbLine
 10
126.6463728456568
 20
-129.8694543431024
 30
0.0
 11
126.6463728456568
 21
-130.6694543431024
 31
0.0
  0
LINE
  5
1D8
330
79
100
AcDbEntity
  8
ZUWAKU
  6
CONTINUOUS
 62
     7
100
AcDbLine
 10
145.2163728456568
 20
-127.6694543431024
 30
0.0
 11
145.2163728456568
 21
-129.8694543431024
 31
0.0
  0
LINE
  5
1D9
330
79
100
AcDbEntity
  8
ZUWAKU
  6
CONTINUOUS
 62
     7
100
AcDbLine
 10
143.6963728456568
 20
-127.6694543431024
 30
0.0
 11
143.6963728456568
 21
-128.8694543431024
 31
0.0
  0
LINE
  5
1DA
330
79
100
AcDbEntity
  8
ZUWAKU
  6
CONTINUOUS
 62
     7
100
AcDbLine
 10
142.2963728456568
 20
-127.6694543431024
 30
0.0
 11
142.2963728456568
 21
-128.8694543431024
 31
0.0
  0
LINE
  5
1DB
330
79
100
AcDbEntity
  8
ZUWAKU
  6
CONTINUOUS
 62
     7
100
AcDbLine
 10
132.6463728456568
 20
-128.8694543431024
 30
0.0
 11
140.1463728456568
 21
-128.8694543431024
 31
0.0
  0
LINE
  5
1DC
330
79
100
AcDbEntity
  8
ZUWAKU
  6
CONTINUOUS
 62
     7
100
AcDbLine
 10
132.6463728456568
 20
-129.8694543431024
 30
0.0
 11
140.1463728456568
 21
-129.8694543431024
 31
0.0
  0
LINE
  5
1DD
330
79
100
AcDbEntity
  8
ZUWAKU
  6
CONTINUOUS
 62
     7
100
AcDbLine
 10
132.6463728456568
 20
-131.9694543431024
 30
0.0
 11
135.3463728456568
 21
-131.9694543431024
 31
0.0
  0
LINE
  5
1DE
330
79
100
AcDbEntity
  8
ZUWAKU
  6
CONTINUOUS
 62
     7
100
AcDbLine
 10
131.0463728456568
 20
-128.8694543431024
 30
0.0
 11
131.0463728456568
 21
-129.8694543431024
 31
0.0
  0
LINE
  5
1DF
330
79
100
AcDbEntity
  8
ZUWAKU
  6
CONTINUOUS
 62
     7
100
AcDbLine
 10
160.1163728456568
 20
-132.0305456568976
 30
0.0
 11
160.1163728456568
 21
-133.0524216486367
 31
0.0
  0
LINE
  5
1E0
330
79
100
AcDbEntity
  8
ZUWAKU
  6
CONTINUOUS
 62
     7
100
AcDbLine
 10
121.0463728456568
 20
-127.6694543431024
 30
0.0
 11
122.4463728456568
 21
-127.6694543431024
 31
0.0
  0
LINE
  5
1E1
330
79
100
AcDbEntity
  8
ZUWAKU
  6
CONTINUOUS
 62
     7
100
AcDbLine
 10
125.7063728456568
 20
-127.6694543431024
 30
0.0
 11
125.7063728456568
 21
-128.8694543431024
 31
0.0
  0
LINE
  5
1E2
330
79
100
AcDbEntity
  8
ZUWAKU
  6
CONTINUOUS
 62
     7
100
AcDbLine
 10
124.1463728456568
 20
-127.6694543431024
 30
0.0
 11
125.7063728456568
 21
-127.6694543431024
 31
0.0
  0
LINE
  5
1E3
330
79
100
AcDbEntity
  8
ZUWAKU
  6
CONTINUOUS
 62
     7
100
AcDbLine
 10
126.6463728456568
 20
-127.6694543431024
 30
0.0
 11
126.6463728456568
 21
-128.8694543431024
 31
0.0
  0
LINE
  5
1E4
330
79
100
AcDbEntity
  8
ZUWAKU
  6
CONTINUOUS
 62
     7
100
AcDbLine
 10
128.4463728456568
 20
-127.6694543431024
 30
0.0
 11
128.4463728456568
 21
-128.8694543431024
 31
0.0
  0
LINE
  5
1E5
330
79
100
AcDbEntity
  8
ZUWAKU
  6
CONTINUOUS
 62
     7
100
AcDbLine
 10
123.6463728456568
 20
-128.8694543431024
 30
0.0
 11
123.6463728456568
 21
-129.8694543431024
 31
0.0
  0
LINE
  5
1E6
330
79
100
AcDbEntity
  8
ZUWAKU
  6
CONTINUOUS
 62
     7
100
AcDbLine
 10
118.9463728456568
 20
-129.8694543431024
 30
0.0
 11
120.2463728456568
 21
-129.8694543431024
 31
0.0
  0
LINE
  5
1E7
330
79
100
AcDbEntity
  8
ZUWAKU
  6
CONTINUOUS
 62
     7
100
AcDbLine
 10
91.94637284565681
 20
-131.0694543431024
 30
0.0
 11
95.30134639299502
 21
-131.0694543431024
 31
0.0
  0
LINE
  5
1E8
330
79
100
AcDbEntity
  8
ZUWAKU
  6
CONTINUOUS
 62
     7
100
AcDbLine
 10
97.94637284565681
 20
-127.6694543431024
 30
0.0
 11
104.0463728456568
 21
-127.6694543431024
 31
0.0
  0
LINE
  5
1E9
330
79
100
AcDbEntity
  8
ZUWAKU
  6
CONTINUOUS
 62
     7
100
AcDbLine
 10
91.94637284565681
 20
-131.0694543431023
 30
0.0
 11
91.94637284565681
 21
-132.8694543431024
 31
0.0
  0
LINE
  5
1EA
330
79
100
AcDbEntity
  8
ZUWAKU
  6
CONTINUOUS
 62
     7
100
AcDbLine
 10
118.9463728456568
 20
-128.8694543431024
 30
0.0
 11
121.0463728456568
 21
-128.8694543431024
 31
0.0
  0
LINE
  5
1EB
330
79
100
AcDbEntity
  8
ZUWAKU
  6
CONTINUOUS
 62
     7
100
AcDbLine
 10
91.94637284565681
 20
-132.8694543431024
 30
0.0
 11
94.25184431632226
 21
-132.8694543431024
 31
0.0
  0
LINE
  5
1EC
330
79
100
AcDbEntity
  8
ZUWAKU
  6
CONTINUOUS
 62
     7
100
AcDbLine
 10
99.94637284565681
 20
-131.0694543431024
 30
0.0
 11
99.94637284565681
 21
-132.8694543431024
 31
0.0
  0
LINE
  5
1ED
330
79
100
AcDbEntity
  8
ZUWAKU
  6
CONTINUOUS
 62
     7
100
AcDbLine
 10
98.00714767707265
 20
-129.2694543431024
 30
0.0
 11
101.6463728456568
 21
-129.2694543431024
 31
0.0
  0
LINE
  5
1EE
330
79
100
AcDbEntity
  8
ZUWAKU
  6
CONTINUOUS
 62
     7
100
AcDbLine
 10
139.2463728456568
 20
-131.0694543431024
 30
0.0
 11
139.2463728456568
 21
-131.9694543431024
 31
0.0
  0
LINE
  5
1EF
330
79
100
AcDbEntity
  8
ZUWAKU
  6
CONTINUOUS
 62
     7
100
AcDbLine
 10
122.4463728456568
 20
-127.6694543431024
 30
0.0
 11
122.4463728456568
 21
-128.8694543431024
 31
0.0
  0
LINE
  5
1F0
330
79
100
AcDbEntity
  8
ZUWAKU
  6
CONTINUOUS
 62
     7
100
AcDbLine
 10
110.2463728456568
 20
-132.2694543431024
 30
0.0
 11
113.4463728456568
 21
-132.2694543431024
 31
0.0
  0
LINE
  5
1F1
330
79
100
AcDbEntity
  8
ZUWAKU
  6
CONTINUOUS
 62
     7
100
AcDbLine
 10
106.0463728456568
 20
-131.6694543431024
 30
0.0
 11
117.4463728456568
 21
-131.6694543431024
 31
0.0
  0
LINE
  5
1F2
330
79
100
AcDbEntity
  8
ZUWAKU
  6
CONTINUOUS
 62
     7
100
AcDbLine
 10
106.0463728456568
 20
-129.6694543431024
 30
0.0
 11
117.4463728456568
 21
-129.6694543431024
 31
0.0
  0
LINE
  5
1F3
330
79
100
AcDbEntity
  8
ZUWAKU
  6
CONTINUOUS
 62
     7
100
AcDbLine
 10
117.4463728456568
 20
-129.6694543431024
 30
0.0
 11
117.4463728456568
 21
-131.6694543431024
 31
0.0
  0
LINE
  5
1F4
330
79
100
AcDbEntity
  8
ZUWAKU
  6
CONTINUOUS
 62
     7
100
AcDbLine
 10
106.0463728456568
 20
-129.6694543431024
 30
0.0
 11
106.0463728456568
 21
-131.6694543431024
 31
0.0
  0
LINE
  5
1F5
330
79
100
AcDbEntity
  8
ZUWAKU
  6
CONTINUOUS
 62
     7
100
AcDbLine
 10
104.0463728456568
 20
-127.6694543431024
 30
0.0
 11
104.0463728456568
 21
-134.4694543431024
 31
0.0
  0
LINE
  5
1F6
330
79
100
AcDbEntity
  8
ZUWAKU
  6
CONTINUOUS
 62
     7
100
AcDbLine
 10
101.6463728456568
 20
-129.2694543431024
 30
0.0
 11
101.6463728456568
 21
-134.8694543431024
 31
0.0
  0
LINE
  5
1F7
330
79
100
AcDbEntity
  8
ZUWAKU
  6
CONTINUOUS
 62
     7
100
AcDbLine
 10
90.08362715434316
 20
-129.2694543431024
 30
0.0
 11
95.54637284565683
 21
-129.2694543431024
 31
0.0
  0
LINE
  5
1F8
330
79
100
AcDbEntity
  8
ZUWAKU
  6
CONTINUOUS
 62
     7
100
AcDbLine
 10
95.54637284565683
 20
-126.0694543431023
 30
0.0
 11
95.54637284565683
 21
-127.6694543431024
 31
0.0
  0
LINE
  5
1F9
330
79
100
AcDbEntity
  8
ZUWAKU
  6
CONTINUOUS
 62
     7
100
AcDbLine
 10
97.94637284565681
 20
-126.0694543431023
 30
0.0
 11
97.94637284565681
 21
-127.6694543431024
 31
0.0
  0
LINE
  5
1FA
330
79
100
AcDbEntity
  8
ZUWAKU
  6
CONTINUOUS
 62
     7
100
AcDbLine
 10
95.54637284565683
 20
-126.0694543431024
 30
0.0
 11
97.94637284565681
 21
-126.0694543431024
 31
0.0
  0
LINE
  5
1FB
330
79
100
AcDbEntity
  8
ZUWAKU
  6
CONTINUOUS
 62
     7
100
AcDbLine
 10
90.08362715434316
 20
-127.6694543431024
 30
0.0
 11
90.08362715434316
 21
-129.2694543431024
 31
0.0
  0
LINE
  5
1FC
330
79
100
AcDbEntity
  8
ZUWAKU
  6
CONTINUOUS
 62
     7
100
AcDbLine
 10
90.08362715434316
 20
-127.6694543431024
 30
0.0
 11
95.54637284565683
 21
-127.6694543431024
 31
0.0
  0
LINE
  5
1FD
330
79
100
AcDbEntity
  8
ZUWAKU
  6
CONTINUOUS
 62
     7
100
AcDbLine
 10
97.53121405164808
 20
-131.0694543431024
 30
0.0
 11
99.94637284565681
 21
-131.0694543431024
 31
0.0
  0
LINE
  5
1FE
330
79
100
AcDbEntity
  8
ZUWAKU
  6
CONTINUOUS
 62
     7
100
AcDbLine
 10
121.0463728456568
 20
-127.6694543431024
 30
0.0
 11
121.0463728456568
 21
-128.8694543431024
 31
0.0
  0
LINE
  5
1FF
330
79
100
AcDbEntity
  8
ZUWAKU
  6
CONTINUOUS
 62
     7
100
AcDbLine
 10
118.9463728456568
 20
-128.8694543431024
 30
0.0
 11
118.9463728456568
 21
-129.8694543431024
 31
0.0
  0
LINE
  5
200
330
79
100
AcDbEntity
  8
ZUWAKU
  6
CONTINUOUS
 62
     7
100
AcDbLine
 10
96.48692822066201
 20
-132.8694543431024
 30
0.0
 11
99.94637284565681
 21
-132.8694543431024
 31
0.0
  0
LINE
  5
201
330
79
100
AcDbEntity
  8
ZUWAKU
  6
CONTINUOUS
 62
     7
100
AcDbLine
 10
156.7163728456568
 20
-135.4305456568976
 30
0.0
 11
158.7163728456568
 21
-135.4305456568976
 31
0.0
  0
LINE
  5
202
330
79
100
AcDbEntity
  8
ZUWAKU
  6
CONTINUOUS
 62
     7
100
AcDbLine
 10
90.08362715434316
 20
-134.4842821983328
 30
0.0
 11
90.08362715434316
 21
-135.6694543431024
 31
0.0
  0
ARC
  5
203
330
79
100
AcDbEntity
  8
ZUWAKU
  6
CONTINUOUS
 62
     7
100
AcDbCircle
 10
163.5753964745717
 20
-136.5280605928041
 30
0.0
 40
4.0
100
AcDbArc
 50
60.9715340609843
 51
87.98024394550768
  0
ARC
  5
204
330
79
100
AcDbEntity
  8
ZUWAKU
  6
CONTINUOUS
 62
     7
100
AcDbCircle
 10
160.9309728961217
 20
-128.5032477036166
 30
0.0
 40
4.6
100
AcDbArc
 50
318.8442436704028
 51
355.4338431265014
  0
ARC
  5
205
330
79
100
AcDbEntity
  8
ZUWAKU
  6
CONTINUOUS
 62
     7
100
AcDbCircle
 10
164.1806138811
 20
-133.5190845339868
 30
0.0
 40
2.0
100
AcDbArc
 50
48.09638755561873
 51
83.86317369123302
  0
ARC
  5
206
330
79
100
AcDbEntity
  8
ZUWAKU
  6
CONTINUOUS
 62
     7
100
AcDbCircle
 10
160.5835787514163
 20
-128.0524216486367
 30
0.0
 40
5.0
100
AcDbArc
 50
270.0
 51
287.8519707863945
  0
ARC
  5
207
330
79
100
AcDbEntity
  8
ZUWAKU
  6
CONTINUOUS
 62
     7
100
AcDbCircle
 10
160.2999359294301
 20
-129.0361668241051
 30
0.0
 40
3.0
100
AcDbArc
 50
270.0
 51
339.8530457328942
  0
ARC
  5
208
330
79
100
AcDbEntity
  8
ZUWAKU
  6
CONTINUOUS
 62
     7
100
AcDbCircle
 10
152.4092420950863
 20
-130.4305456568976
 30
0.0
 40
4.0
100
AcDbArc
 50
270.0
 51
301.7883306170518
  0
ARC
  5
209
330
79
100
AcDbEntity
  8
ZUWAKU
  6
CONTINUOUS
 62
     7
100
AcDbCircle
 10
158.6490770106609
 20
-132.6316781598903
 30
0.0
 40
2.0
100
AcDbArc
 50
209.9625441683634
 51
271.9282476334827
  0
ARC
  5
20A
330
79
100
AcDbEntity
  8
ZUWAKU
  6
CONTINUOUS
 62
     7
100
AcDbCircle
 10
151.1971892572037
 20
-125.4305456568976
 30
0.0
 40
10.0
100
AcDbArc
 50
270.0
 51
293.073918065631
  0
ARC
  5
20B
330
79
100
AcDbEntity
  8
ZUWAKU
  6
CONTINUOUS
 62
     7
100
AcDbCircle
 10
156.7163728456568
 20
-133.4305456568976
 30
0.0
 40
2.0
100
AcDbArc
 50
216.8698976458439
 51
270.0
  0
ARC
  5
20C
330
79
100
AcDbEntity
  8
ZUWAKU
  6
CONTINUOUS
 62
     7
100
AcDbCircle
 10
146.1427444155
 20
-123.4580294012382
 30
0.0
 40
6.0
100
AcDbArc
 50
275.4861271989983
 51
315.4200248778122
  0
ARC
  5
20D
330
79
100
AcDbEntity
  8
ZUWAKU
  6
CONTINUOUS
 62
     7
100
AcDbCircle
 10
158.2786428876944
 20
-123.4465342528391
 30
0.0
 40
6.0
100
AcDbArc
 50
224.7342935204538
 51
270.0
  0
ARC
  5
20E
330
79
100
AcDbEntity
  8
ZUWAKU
  6
CONTINUOUS
 62
     7
100
AcDbCircle
 10
158.0583602832044
 20
-118.6486000941914
 30
0.0
 40
12.0
100
AcDbArc
 50
240.8674112692758
 51
267.0917440539539
  0
ARC
  5
20F
330
79
100
AcDbEntity
  8
ZUWAKU
  6
CONTINUOUS
 62
     7
100
AcDbCircle
 10
146.9443544232267
 20
-120.6331447746538
 30
0.0
 40
10.0
100
AcDbArc
 50
270.0
 51
301.8165888069296
  0
ARC
  5
210
330
79
100
AcDbEntity
  8
ZUWAKU
  6
CONTINUOUS
 62
     7
100
AcDbCircle
 10
141.3785047405764
 20
-131.5372799144038
 30
0.0
 40
4.0
100
AcDbArc
 50
283.265695396094
 51
342.6434876261313
  0
ARC
  5
211
330
79
100
AcDbEntity
  8
ZUWAKU
  6
CONTINUOUS
 62
     7
100
AcDbCircle
 10
141.7075729563648
 20
-132.5191810421865
 30
0.0
 40
2.0
100
AcDbArc
 50
287.1215589227386
 51
353.9335213805733
  0
ARC
  5
212
330
79
100
AcDbEntity
  8
ZUWAKU
  6
CONTINUOUS
 62
     7
100
AcDbCircle
 10
133.5732198367634
 20
-115.4520333335269
 30
0.0
 40
20.0
100
AcDbArc
 50
272.6561723599371
 51
286.4786265979867
  0
ARC
  5
213
330
79
100
AcDbEntity
  8
ZUWAKU
  6
CONTINUOUS
 62
     7
100
AcDbCircle
 10
133.9350708718812
 20
-131.4689746339814
 30
0.0
 40
4.0
100
AcDbArc
 50
184.3081130703794
 51
227.7648830848148
  0
ARC
  5
214
330
79
100
AcDbEntity
  8
ZUWAKU
  6
CONTINUOUS
 62
     7
100
AcDbCircle
 10
131.8132740533973
 20
-131.470921555968
 30
0.0
 40
4.0
100
AcDbArc
 50
212.6772418063084
 51
261.8523056494763
  0
ARC
  5
215
330
79
100
AcDbEntity
  8
ZUWAKU
  6
CONTINUOUS
 62
     7
100
AcDbCircle
 10
121.5267019278491
 20
-130.9718454815092
 30
0.0
 40
4.0
100
AcDbArc
 50
305.4447563754824
 51
348.4979955985226
  0
ARC
  5
216
330
79
100
AcDbEntity
  8
ZUWAKU
  6
CONTINUOUS
 62
     7
100
AcDbCircle
 10
117.107071150831
 20
-130.8548432499945
 30
0.0
 40
4.0
100
AcDbArc
 50
295.7741858394136
 51
326.5976644920056
  0
ARC
  5
217
330
79
100
AcDbEntity
  8
ZUWAKU
  6
CONTINUOUS
 62
     7
100
AcDbCircle
 10
121.9053906304749
 20
-129.7531705556429
 30
0.0
 40
6.0
100
AcDbArc
 50
288.8745432034554
 51
322.2008123804935
  0
ARC
  5
218
330
79
100
AcDbEntity
  8
ZUWAKU
  6
CONTINUOUS
 62
     7
100
AcDbCircle
 10
114.2622963094578
 20
-129.4326156899224
 30
0.0
 40
6.0
100
AcDbArc
 50
319.8192422116139
 51
355.8248039544737
  0
ARC
  5
219
330
79
100
AcDbEntity
  8
ZUWAKU
  6
CONTINUOUS
 62
     7
100
AcDbCircle
 10
90.55198398637199
 20
-129.5062663407956
 30
0.0
 40
5.0
100
AcDbArc
 50
264.6251462956196
 51
317.7290360759776
  0
ARC
  5
21A
330
79
100
AcDbEntity
  8
ZUWAKU
  6
CONTINUOUS
 62
     7
100
AcDbCircle
 10
105.6802438133988
 20
-125.1000995043927
 30
0.0
 40
10.56940911068407
100
AcDbArc
 50
247.5637467185126
 51
317.2881390123424
  0
ARC
  5
21B
330
79
100
AcDbEntity
  8
ZUWAKU
  6
CONTINUOUS
 62
     7
100
AcDbCircle
 10
103.9883680238249
 20
-124.4696225724852
 30
0.0
 40
10.0
100
AcDbArc
 50
270.3323450119129
 51
308.7409648643439
  0
ARC
  5
21C
330
79
100
AcDbEntity
  8
ZUWAKU
  6
CONTINUOUS
 62
     7
100
AcDbCircle
 10
90.67187081666828
 20
-128.2928718421244
 30
0.0
 40
7.4
100
AcDbArc
 50
337.9624692219032
 51
352.416518898312
  0
ARC
  5
21D
330
79
100
AcDbEntity
  8
ZUWAKU
  6
CONTINUOUS
 62
     7
100
AcDbCircle
 10
90.55198398637199
 20
-129.5062663407956
 30
0.0
 40
5.0
100
AcDbArc
 50
341.7817433502872
 51
362.7146811743762
  0
ARC
  5
21E
330
79
100
AcDbEntity
  8
ZUWAKU
  6
CONTINUOUS
 62
     7
100
AcDbCircle
 10
90.67187081666828
 20
-128.2928718421244
 30
0.0
 40
7.4
100
AcDbArc
 50
265.4406112814197
 51
321.7964493072675
  0
ENDBLK
  5
7B
330
79
100
AcDbEntity
  8
0
100
AcDbBlockEnd
  0
BLOCK
  5
7D
330
7C
100
AcDbEntity
  8
0
100
AcDbBlockBegin
  2
DC_GROUP_17
 70
     0
 71
     0
 10
0.0
 20
0.0
 30
0.0
  3
DC_GROUP_17
  1

  0
LINE
  5
21F
330
7C
100
AcDbEntity
  8
ZUWAKU
  6
CONTINUOUS
 62
     7
100
AcDbLine
 10
148.4941506234345
 20
-134.0305456568976
 30
0.0
 11
150.9163728456568
 21
-134.0305456568976
 31
0.0
  0
LINE
  5
220
330
7C
100
AcDbEntity
  8
ZUWAKU
  6
CONTINUOUS
 62
     7
100
AcDbLine
 10
154.1528016725025
 20
-134.0305456568976
 30
0.0
 11
157.2196821296652
 21
-134.0305456568976
 31
0.0
  0
LINE
  5
221
330
7C
100
AcDbEntity
  8
ZUWAKU
  6
CONTINUOUS
 62
     7
100
AcDbLine
 10
146.7163728456568
 20
-133.5305456568976
 30
0.0
 11
158.7163728456568
 21
-133.5305456568976
 31
0.0
  0
LINE
  5
222
330
7C
100
AcDbEntity
  8
ZUWAKU
  6
CONTINUOUS
 62
     7
100
AcDbLine
 10
146.7163728456568
 20
-133.0305456568976
 30
0.0
 11
158.7163728456568
 21
-133.0305456568976
 31
0.0
  0
LINE
  5
223
330
7C
100
AcDbEntity
  8
ZUWAKU
  6
CONTINUOUS
 62
     7
100
AcDbLine
 10
148.2163728456567
 20
-134.5305456568976
 30
0.0
 11
158.021142118487
 21
-134.5305456568976
 31
0.0
  0
LINE
  5
224
330
7C
100
AcDbEntity
  8
ZUWAKU
  6
CONTINUOUS
 62
     7
100
AcDbLine
 10
147.9385950678789
 20
-135.0305456568976
 30
0.0
 11
153.9971892572037
 21
-135.0305456568976
 31
0.0
  0
LINE
  5
225
330
7C
100
AcDbEntity
  8
ZUWAKU
  6
CONTINUOUS
 62
     7
100
AcDbLine
 10
155.5163728456568
 20
-135.0305456568976
 30
0.0
 11
158.7163728456568
 21
-135.0305456568976
 31
0.0
  0
ENDBLK
  5
7E
330
7C
100
AcDbEntity
  8
0
100
AcDbBlockEnd
  0
BLOCK
  5
80
330
7F
100
AcDbEntity
  8
0
100
AcDbBlockBegin
  2
DC_GROUP_18
 70
     0
 71
     0
 10
0.0
 20
0.0
 30
0.0
  3
DC_GROUP_18
  1

  0
POINT
  5
226
330
7F
100
AcDbEntity
  8
ZUWAKU
  6
CONTINUOUS
 62
     2
100
AcDbPoint
 10
160.8498749022663
 20
-97.50367813482338
 30
0.0
  0
POINT
  5
227
330
7F
100
AcDbEntity
  8
ZUWAKU
  6
CONTINUOUS
 62
     2
100
AcDbPoint
 10
72.43028918081524
 20
-84.4065495207668
 30
0.0
  0
POINT
  5
228
330
7F
100
AcDbEntity
  8
ZUWAKU
  6
CONTINUOUS
 62
     2
100
AcDbPoint
 10
142.3008962095693
 20
-119.4148407864637
 30
0.0
  0
POINT
  5
229
330
7F
100
AcDbEntity
  8
ZUWAKU
  6
CONTINUOUS
 62
     2
100
AcDbPoint
 10
94.554127092407
 20
-95.62814592659269
 30
0.0
  0
POINT
  5
22A
330
7F
100
AcDbEntity
  8
ZUWAKU
  6
CONTINUOUS
 62
     2
100
AcDbPoint
 10
94.554127092407
 20
-106.7602879620249
 30
0.0
  0
POINT
  5
22B
330
7F
100
AcDbEntity
  8
ZUWAKU
  6
CONTINUOUS
 62
     2
100
AcDbPoint
 10
161.0193620275377
 20
-86.76949353429845
 30
0.0
  0
POINT
  5
22C
330
7F
100
AcDbEntity
  8
ZUWAKU
  6
CONTINUOUS
 62
     2
100
AcDbPoint
 10
162.145474507651
 20
-119.4080450954827
 30
0.0
  0
POINT
  5
22D
330
7F
100
AcDbEntity
  8
ZUWAKU
  6
CONTINUOUS
 62
     2
100
AcDbPoint
 10
169.0941648737996
 20
-108.2969250144304
 30
0.0
  0
ENDBLK
  5
81
330
7F
100
AcDbEntity
  8
0
100
AcDbBlockEnd
  0
BLOCK
  5
83
330
82
100
AcDbEntity
  8
0
100
AcDbBlockBegin
  2
DA_IMAGEDIMGROUP_1
 70
     0
 71
     0
 10
0.0
 20
0.0
 30
0.0
  3
DA_IMAGEDIMGROUP_1
  1

  0
LINE
  5
22E
330
82
100
AcDbEntity
  8
LAYER0014
  6
CONTINUOUS
 62
     7
100
AcDbLine
 10
11.04777871910699
 20
16.26398729249848
 30
0.0
 11
11.04777871910699
 21
-10.71844030454741
 31
0.0
  0
LINE
  5
22F
330
82
100
AcDbEntity
  8
LAYER0014
  6
CONTINUOUS
 62
     7
100
AcDbLine
 10
-42.95222271140448
 20
16.26398729249848
 30
0.0
 11
-42.95222271140448
 21
-10.71844030454741
 31
0.0
  0
LINE
  5
230
330
82
100
AcDbEntity
  8
LAYER0014
  6
CONTINUOUS
 62
     7
100
AcDbLine
 10
11.04777871910699
 20
-8.432441006451711
 30
0.0
 11
-42.95222271140448
 21
-8.432441006451711
 31
0.0
  0
INSERT
  5
237
330
82
100
AcDbEntity
  8
LAYER0014
 62
     7
100
AcDbBlockReference
  2
_OPEN30
 10
11.04777871910699
 20
-8.432441006451711
 30
0.0
 41
3.000002787824364
 42
2.999989273978464
 50
360.0
  0
INSERT
  5
238
330
82
100
AcDbEntity
  8
LAYER0014
 62
     7
100
AcDbBlockReference
  2
_OPEN30
 10
-42.95222271140448
 20
-8.432441006451711
 30
0.0
 41
3.000002787824364
 42
2.999989273978464
 50
180.0
  0
TEXT
  5
239
330
82
100
AcDbEntity
  8
LAYER0014
 62
     7
100
AcDbText
 10
-20.29507971461646
 20
-7.632440934926137
 30
0.0
 40
3.200000047683716
  1
φ５４
 41
0.6506851076699728
  7
FDASTYLE0
 72
     5
 11
-11.60936427768103
 21
-7.632440934926137
 31
0.0
100
AcDbText
  0
ENDBLK
  5
84
330
82
100
AcDbEntity
  8
0
100
AcDbBlockEnd
  0
BLOCK
  5
86
330
85
100
AcDbEntity
  8
0
100
AcDbBlockBegin
  2
DA_IMAGEDIMGROUP_2
 70
     0
 71
     0
 10
0.0
 20
0.0
 30
0.0
  3
DA_IMAGEDIMGROUP_2
  1

  0
LINE
  5
23A
330
85
100
AcDbEntity
  8
LAYER0014
  6
CONTINUOUS
 62
     7
100
AcDbLine
 10
7.547778242269835
 20
16.26398729249848
 30
0.0
 11
7.547778242269835
 21
-1.022012707501517
 31
0.0
  0
LINE
  5
23B
330
85
100
AcDbEntity
  8
LAYER0014
  6
CONTINUOUS
 62
     7
100
AcDbLine
 10
-39.4522236650788
 20
1.263987292498484
 30
0.0
 11
7.547778242269843
 21
1.263987292498484
 31
0.0
  0
INSERT
  5
23C
330
85
100
AcDbEntity
  8
LAYER0014
 62
     7
100
AcDbBlockReference
  2
_OPEN30
 10
7.547778242269843
 20
1.263987292498484
 30
0.0
 41
3.000002787824364
 42
2.999989273978464
 50
360.0
  0
TEXT
  5
23D
330
85
100
AcDbEntity
  8
LAYER0014
 62
     7
100
AcDbText
 10
-20.29522270615927
 20
2.063987304419413
 30
0.0
 40
3.200000047683716
  1
φ４７
 41
0.6507341856978458
  7
FDASTYLE0
 72
     5
 11
-11.60922271664968
 21
2.063987304419413
 31
0.0
100
AcDbText
  0
ENDBLK
  5
87
330
85
100
AcDbEntity
  8
0
100
AcDbBlockEnd
  0
BLOCK
  5
89
330
88
100
AcDbEntity
  8
0
100
AcDbBlockBegin
  2
DA_IMAGEDIMGROUP_3
 70
     0
 71
     0
 10
0.0
 20
0.0
 30
0.0
  3
DA_IMAGEDIMGROUP_3
  1

  0
LINE
  5
23E
330
88
100
AcDbEntity
  8
LAYER0014
  6
CONTINUOUS
 62
     7
100
AcDbLine
 10
-39.45222271140448
 20
27.26398693487062
 30
0.0
 11
-70.26079357322089
 21
27.26398693487062
 31
0.0
  0
LINE
  5
23F
330
88
100
AcDbEntity
  8
LAYER0014
  6
CONTINUOUS
 62
     7
100
AcDbLine
 10
-42.95222271140448
 20
16.26398729249848
 30
0.0
 11
-70.26079357322089
 21
16.26398729249848
 31
0.0
  0
LINE
  5
240
330
88
100
AcDbEntity
  8
LAYER0014
  6
CONTINUOUS
 62
     7
100
AcDbLine
 10
-67.97479046042793
 20
27.26398693487062
 30
0.0
 11
-67.97479046042793
 21
16.26398729249848
 31
0.0
  0
INSERT
  5
241
330
88
100
AcDbEntity
  8
LAYER0014
 62
     7
100
AcDbBlockReference
  2
_OPEN30
 10
-67.97479046042793
 20
27.26398693487062
 30
0.0
 41
3.000002787824364
 42
2.999989273978464
 50
90.0
  0
INSERT
  5
242
330
88
100
AcDbEntity
  8
LAYER0014
 62
     7
100
AcDbBlockReference
  2
_OPEN30
 10
-67.97479046042793
 20
16.26398729249848
 30
0.0
 41
3.000002787824364
 42
2.999989273978464
 50
270.0
  0
TEXT
  5
243
330
88
100
AcDbEntity
  8
LAYER0014
 62
     7
100
AcDbText
 10
-68.7747905319535
 20
19.0211294190587
 30
0.0
 40
3.200000047683716
  1
１１
 50
90.0
 41
0.6382980671213554
  7
FDASTYLE0
 72
     5
 11
-68.7747905319535
 21
24.5068448083104
 31
0.0
100
AcDbText
  0
ENDBLK
  5
8A
330
88
100
AcDbEntity
  8
0
100
AcDbBlockEnd
  0
BLOCK
  5
232
330
231
100
AcDbEntity
  8
0
100
AcDbBlockBegin
  2
_OPEN30
 70
     0
 71
     0
 10
0.0
 20
0.0
 30
0.0
  3
_OPEN30
  1

  0
LINE
  5
234
330
231
100
AcDbEntity
  8
0
  6
BYBLOCK
 62
     0
100
AcDbLine
 10
-1.0
 20
0.267949
 30
0.0
 11
0.0
 21
0.0
 31
0.0
  0
LINE
  5
235
330
231
100
AcDbEntity
  8
0
  6
BYBLOCK
 62
     0
100
AcDbLine
 10
0.0
 20
0.0
 30
0.0
 11
-1.0
 21
-0.267949
 31
0.0
  0
LINE
  5
236
330
231
100
AcDbEntity
  8
0
  6
BYBLOCK
 62
     0
100
AcDbLine
 10
0.0
 20
0.0
 30
0.0
 11
-1.0
 21
0.0
 31
0.0
  0
ENDBLK
  5
233
330
231
100
AcDbEntity
  8
0
100
AcDbBlockEnd
  0
ENDSEC
  0
SECTION
  2
ENTITIES
  0
LINE
  5
244
330
1F
100
AcDbEntity
  8
ZUWAKU
  6
CONTINUOUS
 62
     7
100
AcDbLine
 10
-193.0
 20
-138.5
 30
0.0
 11
192.0
 21
-138.5
 31
0.0
  0
LINE
  5
245
330
1F
100
AcDbEntity
  8
ZUWAKU
  6
CONTINUOUS
 62
     7
100
AcDbLine
 10
-193.0
 20
136.5
 30
0.0
 11
-193.0
 21
-138.5
 31
0.0
  0
LINE
  5
246
330
1F
100
AcDbEntity
  8
ZUWAKU
  6
CONTINUOUS
 62
     7
100
AcDbLine
 10
192.0
 20
136.5
 30
0.0
 11
192.0
 21
-138.5
 31
0.0
  0
LINE
  5
247
330
1F
100
AcDbEntity
  8
ZUWAKU
  6
CONTINUOUS
 62
     7
100
AcDbLine
 10
-193.0
 20
-96.50000000000003
 30
0.0
 11
7.0
 21
-96.50000000000003
 31
0.0
  0
LINE
  5
248
330
1F
100
AcDbEntity
  8
ZUWAKU
  6
CONTINUOUS
 62
     7
100
AcDbLine
 10
-193.0
 20
-103.5
 30
0.0
 11
7.0
 21
-103.5
 31
0.0
  0
LINE
  5
249
330
1F
100
AcDbEntity
  8
ZUWAKU
  6
CONTINUOUS
 62
     7
100
AcDbLine
 10
-193.0
 20
-110.5
 30
0.0
 11
7.0
 21
-110.5
 31
0.0
  0
LINE
  5
24A
330
1F
100
AcDbEntity
  8
ZUWAKU
  6
CONTINUOUS
 62
     7
100
AcDbLine
 10
-186.0
 20
-96.50000000000003
 30
0.0
 11
-186.0
 21
-138.5
 31
0.0
  0
LINE
  5
24B
330
1F
100
AcDbEntity
  8
ZUWAKU
  6
CONTINUOUS
 62
     7
100
AcDbLine
 10
-13.0
 20
-96.50000000000003
 30
0.0
 11
-13.0
 21
-138.5
 31
0.0
  0
LINE
  5
24C
330
1F
100
AcDbEntity
  8
ZUWAKU
  6
CONTINUOUS
 62
     7
100
AcDbLine
 10
-193.0
 20
-131.5
 30
0.0
 11
7.0
 21
-131.5
 31
0.0
  0
LINE
  5
24D
330
1F
100
AcDbEntity
  8
ZUWAKU
  6
CONTINUOUS
 62
     7
100
AcDbLine
 10
-193.0
 20
-124.5
 30
0.0
 11
7.0
 21
-124.5
 31
0.0
  0
LINE
  5
24E
330
1F
100
AcDbEntity
  8
ZUWAKU
  6
CONTINUOUS
 62
     7
100
AcDbLine
 10
-193.0
 20
-117.5
 30
0.0
 11
7.0
 21
-117.5
 31
0.0
  0
LINE
  5
24F
330
1F
100
AcDbEntity
  8
ZUWAKU
  6
CONTINUOUS
 62
     7
100
AcDbLine
 10
-53.0
 20
-96.50000000000003
 30
0.0
 11
-53.0
 21
-138.5
 31
0.0
  0
LINE
  5
250
330
1F
100
AcDbEntity
  8
ZUWAKU
  6
CONTINUOUS
 62
     7
100
AcDbLine
 10
-151.0
 20
-96.50000000000003
 30
0.0
 11
-151.0
 21
-138.5
 31
0.0
  0
LINE
  5
251
330
1F
100
AcDbEntity
  8
ZUWAKU
  6
CONTINUOUS
 62
     7
100
AcDbLine
 10
7.0
 20
-96.50000000000003
 30
0.0
 11
7.0
 21
-138.5
 31
0.0
  0
LINE
  5
252
330
1F
100
AcDbEntity
  8
ZUWAKU
  6
CONTINUOUS
 62
     7
100
AcDbLine
 10
-33.0
 20
-96.50000000000003
 30
0.0
 11
-33.0
 21
-138.5
 31
0.0
  0
LINE
  5
253
330
1F
100
AcDbEntity
  8
ZUWAKU
  6
CONTINUOUS
 62
     7
100
AcDbLine
 10
-193.0
 20
136.5
 30
0.0
 11
192.0
 21
136.5
 31
0.0
  0
LINE
  5
254
330
1F
100
AcDbEntity
  8
ZUWAKU
  6
CONTINUOUS
 62
     7
100
AcDbLine
 10
70.0
 20
-79.0
 30
0.0
 11
192.0
 21
-79.0
 31
0.0
  0
LINE
  5
255
330
1F
100
AcDbEntity
  8
ZUWAKU
  6
CONTINUOUS
 62
     7
100
AcDbLine
 10
70.0
 20
-79.0
 30
0.0
 11
70.0
 21
-138.5
 31
0.0
  0
LINE
  5
256
330
1F
100
AcDbEntity
  8
ZUWAKU
  6
CONTINUOUS
 62
     7
100
AcDbLine
 10
70.0
 20
-101.0
 30
0.0
 11
192.0
 21
-101.0
 31
0.0
  0
LINE
  5
257
330
1F
100
AcDbEntity
  8
ZUWAKU
  6
CONTINUOUS
 62
     7
100
AcDbLine
 10
70.0
 20
-90.0
 30
0.0
 11
192.0
 21
-90.0
 31
0.0
  0
LINE
  5
258
330
1F
100
AcDbEntity
  8
ZUWAKU
  6
CONTINUOUS
 62
     7
100
AcDbLine
 10
70.0
 20
-112.0
 30
0.0
 11
192.0
 21
-112.0
 31
0.0
  0
LINE
  5
259
330
1F
100
AcDbEntity
  8
ZUWAKU
  6
CONTINUOUS
 62
     7
100
AcDbLine
 10
70.0
 20
-123.0
 30
0.0
 11
192.0
 21
-123.0
 31
0.0
  0
LINE
  5
25A
330
1F
100
AcDbEntity
  8
ZUWAKU
  6
CONTINUOUS
 62
     7
100
AcDbLine
 10
158.0
 20
-79.0
 30
0.0
 11
158.0
 21
-123.0
 31
0.0
  0
LINE
  5
25B
330
1F
100
AcDbEntity
  8
ZUWAKU
  6
CONTINUOUS
 62
     7
100
AcDbLine
 10
99.33333333333333
 20
-112.0
 30
0.0
 11
99.33333333333333
 21
-123.0
 31
0.0
  0
LINE
  5
25C
330
1F
100
AcDbEntity
  8
ZUWAKU
  6
CONTINUOUS
 62
     7
100
AcDbLine
 10
128.6666666666667
 20
-112.0
 30
0.0
 11
128.6666666666667
 21
-123.0
 31
0.0
  0
TEXT
  5
25D
330
1F
100
AcDbEntity
  8
ZUWAKU
 62
     7
100
AcDbText
 10
-26.88599956035614
 20
-136.6000000238419
 30
0.0
 40
3.200000047683716
  1
確　認
 41
0.6507341227548625
  7
FDASTYLE0
 72
     5
 11
-18.20000064373016
 21
-136.6000000238419
 31
0.0
100
AcDbText
  0
TEXT
  5
25E
330
1F
100
AcDbEntity
  8
ZUWAKU
 62
     7
100
AcDbText
 10
-117.0859980583191
 20
-136.6000000238419
 30
0.0
 40
3.200000047683716
  1
変　　更　　履　　歴
 41
0.6667094916067029
  7
FDASTYLE0
 72
     5
 11
-86.00000214576721
 21
-136.6000000238419
 31
0.0
100
AcDbText
  0
TEXT
  5
25F
330
1F
100
AcDbEntity
  8
ZUWAKU
 62
     7
100
AcDbText
 10
-6.88599956035614
 20
-136.6000000238419
 30
0.0
 40
3.200000047683716
  1
承　認
 41
0.6507341227548625
  7
FDASTYLE0
 72
     5
 11
1.799999356269836
 21
-136.6000000238419
 31
0.0
100
AcDbText
  0
TEXT
  5
260
330
1F
100
AcDbEntity
  8
ZUWAKU
 62
     7
100
AcDbText
 10
-178.7859987020493
 20
-136.6000000238419
 30
0.0
 40
3.200000047683716
  1
年　　月　　日
 41
0.6638857294227287
  7
FDASTYLE0
 72
     5
 11
-157.3000015020371
 21
-136.6000000238419
 31
0.0
100
AcDbText
  0
TEXT
  5
261
330
1F
100
AcDbEntity
  8
ZUWAKU
 62
     7
100
AcDbText
 10
-46.88599956035614
 20
-136.6000000238419
 30
0.0
 40
3.200000047683716
  1
変　更
 41
0.6507341227548625
  7
FDASTYLE0
 72
     5
 11
-38.20000064373016
 21
-136.6000000238419
 31
0.0
100
AcDbText
  0
TEXT
  5
262
330
1F
100
AcDbEntity
  8
ZUWAKU
 62
     7
100
AcDbText
 10
158.1520598751473
 20
-81.93445270859417
 30
0.0
 40
2.299999952316284
  1
設計図番
 41
0.8404558677421614
  7
FDASTYLE0
 72
     5
 11
169.9520600658822
 21
-81.93445270859417
 31
0.0
100
AcDbText
  0
TEXT
  5
263
330
1F
100
AcDbEntity
  8
ZUWAKU
 62
     7
100
AcDbText
 10
158.2325933361632
 20
-92.72593648471417
 30
0.0
 40
2.299999952316284
  1
図面番号
 41
0.8404558677421614
  7
FDASTYLE0
 72
     5
 11
170.032593526898
 21
-92.72593648471417
 31
0.0
100
AcDbText
  0
TEXT
  5
264
330
1F
100
AcDbEntity
  8
ZUWAKU
 62
     7
100
AcDbText
 10
158.1520598751473
 20
-103.6784871828658
 30
0.0
 40
2.299999952316284
  1
縮　　尺
 41
0.8404558677421614
  7
FDASTYLE0
 72
     5
 11
169.9520600658822
 21
-103.6784871828658
 31
0.0
100
AcDbText
  0
TEXT
  5
265
330
1F
100
AcDbEntity
  8
ZUWAKU
 62
     7
100
AcDbText
 10
158.313126797179
 20
-114.7921048030491
 30
0.0
 40
2.299999952316284
  1
設計年月日
 41
0.8426966561525857
  7
FDASTYLE0
 72
     5
 11
173.3131270355976
 21
-114.7921048030491
 31
0.0
100
AcDbText
  0
TEXT
  5
266
330
1F
100
AcDbEntity
  8
ZUWAKU
 62
     7
100
AcDbText
 10
71.72543055249601
 20
-115.6623973714076
 30
0.0
 40
2.299999952316284
  1
検図
 41
0.8282208880597839
  7
FDASTYLE0
 72
     5
 11
77.12543064786344
 21
-115.6623973714076
 31
0.0
100
AcDbText
  0
TEXT
  5
267
330
1F
100
AcDbEntity
  8
ZUWAKU
 62
     7
100
AcDbText
 10
101.0019935025947
 20
-115.686792705563
 30
0.0
 40
2.299999952316284
  1
担当
 41
0.8282208880597839
  7
FDASTYLE0
 72
     5
 11
106.4019935979621
 21
-115.686792705563
 31
0.0
100
AcDbText
  0
TEXT
  5
268
330
1F
100
AcDbEntity
  8
ZUWAKU
 62
     7
100
AcDbText
 10
130.3732081093593
 20
-115.7470598712646
 30
0.0
 40
2.299999952316284
  1
製図
 41
0.8282208880597839
  7
FDASTYLE0
 72
     5
 11
135.7732082047267
 21
-115.7470598712646
 31
0.0
100
AcDbText
  0
TEXT
  5
269
330
1F
100
AcDbEntity
  8
ZUWAKU
 62
     7
100
AcDbText
 10
71.90979099612932
 20
-97.8210918497951
 30
0.0
 40
5.0
  1
材　質
 41
0.8333333333333334
  7
FDASTYLE0
 72
     5
 11
86.90979099612932
 21
-97.8210918497951
 31
0.0
100
AcDbText
  0
TEXT
  5
26A
330
1F
100
AcDbEntity
  8
ZUWAKU
 62
     7
100
AcDbText
 10
71.6101127292449
 20
-109.7582761473572
 30
0.0
 40
5.0
  1
色　調
 41
0.8333333333333334
  7
FDASTYLE0
 72
     5
 11
86.6101127292449
 21
-109.7582761473572
 31
0.0
100
AcDbText
  0
TEXT
  5
26B
330
1F
100
AcDbEntity
  8
ZUWAKU
 62
     7
100
AcDbText
 10
29.57526265911245
 20
-135.6973335242342
 30
0.0
 40
5.0
  1
等級Ｂ
 41
0.8333333333333334
  7
FDASTYLE0
 72
     5
 11
44.57526265911245
 21
-135.6973335242342
 31
0.0
100
AcDbText
  0
LINE
  5
26C
330
1F
100
AcDbEntity
  8
ZUWAKU
  6
CONTINUOUS
 62
     7
100
AcDbLine
 10
70.0
 20
-96.50000000000003
 30
0.0
 11
70.0
 21
-128.5000000000001
 31
0.0
  0
LINE
  5
26D
330
1F
100
AcDbEntity
  8
ZUWAKU
  6
CONTINUOUS
 62
     7
100
AcDbLine
 10
7.0
 20
-96.50000000000003
 30
0.0
 11
7.0
 21
-128.5000000000001
 31
0.0
  0
LINE
  5
26E
330
1F
100
AcDbEntity
  8
ZUWAKU
  6
CONTINUOUS
 62
     7
100
AcDbLine
 10
90.0
 20
-112.0
 30
0.0
 11
90.0
 21
-90.0
 31
0.0
  0
LINE
  5
26F
330
1F
100
AcDbEntity
  8
ZUWAKU
  6
CONTINUOUS
 62
     7
100
AcDbLine
 10
90.0
 20
-90.0
 30
0.0
 11
90.0
 21
-112.0
 31
0.0
  0
INSERT
  5
270
330
1F
100
AcDbEntity
  8
ZUWAKU
  6
CONTINUOUS
 62
     0
100
AcDbBlockReference
  2
SYMGROUP_1
 10
7.0
 20
-96.50000000000003
 30
0.0
  0
INSERT
  5
271
330
1F
100
AcDbEntity
  8
ZUWAKU
  6
CONTINUOUS
100
AcDbBlockReference
  2
DC_GROUP_1
 10
0.0
 20
0.0
 30
0.0
  0
INSERT
  5
272
330
1F
100
AcDbEntity
  8
ZUWAKU
  6
CONTINUOUS
100
AcDbBlockReference
  2
DC_GROUP_2
 10
0.0
 20
0.0
 30
0.0
  0
INSERT
  5
273
330
1F
100
AcDbEntity
  8
ZUWAKU
  6
CONTINUOUS
100
AcDbBlockReference
  2
DC_GROUP_3
 10
0.0
 20
0.0
 30
0.0
  0
INSERT
  5
274
330
1F
100
AcDbEntity
  8
ZUWAKU
  6
CONTINUOUS
100
AcDbBlockReference
  2
DC_GROUP_4
 10
0.0
 20
0.0
 30
0.0
  0
INSERT
  5
275
330
1F
100
AcDbEntity
  8
ZUWAKU
  6
CONTINUOUS
100
AcDbBlockReference
  2
DC_GROUP_5
 10
0.0
 20
0.0
 30
0.0
  0
INSERT
  5
276
330
1F
100
AcDbEntity
  8
ZUWAKU
  6
CONTINUOUS
100
AcDbBlockReference
  2
DC_GROUP_18
 10
0.0
 20
0.0
 30
0.0
  0
INSERT
  5
277
330
1F
100
AcDbEntity
  8
0
  6
CONTINUOUS
100
AcDbBlockReference
  2
DC_GROUP_6
 10
0.0
 20
0.0
 30
0.0
  0
TEXT
  5
278
330
1F
100
AcDbEntity
  8
0
 62
     7
100
AcDbText
 10
158.3498749022663
 20
-100.0036781348234
 30
0.0
 40
5.0
  1
５５０５２Ａ
 41
0.8333333333333334
  7
FDASTYLE0
 72
     5
 11
188.3498749022663
 21
-100.0036781348234
 31
0.0
100
AcDbText
  0
TEXT
  5
279
330
1F
100
AcDbEntity
  8
0
 62
     7
100
AcDbText
 10
69.93028918081524
 20
-86.9065495207668
 30
0.0
 40
5.0
  1
４ＢφサンカクＰＫ
 41
0.8333333333333334
  7
FDASTYLE0
 72
     5
 11
114.9302891808152
 21
-86.9065495207668
 31
0.0
100
AcDbText
  0
TEXT
  5
27A
330
1F
100
AcDbEntity
  8
0
 62
     7
100
AcDbText
 10
92.054127092407
 20
-98.12814592659269
 30
0.0
 40
5.0
  1
ＣＲ
 41
0.8333333333333334
  7
FDASTYLE0
 72
     5
 11
102.054127092407
 21
-98.12814592659269
 31
0.0
100
AcDbText
  0
TEXT
  5
27B
330
1F
100
AcDbEntity
  8
0
 62
     7
100
AcDbText
 10
92.054127092407
 20
-109.2602879620249
 30
0.0
 40
5.0
  1
クロ
 41
0.8333333333333334
  7
FDASTYLE0
 72
     5
 11
102.054127092407
 21
-109.2602879620249
 31
0.0
100
AcDbText
  0
TEXT
  5
27C
330
1F
100
AcDbEntity
  8
0
 62
     7
100
AcDbText
 10
160.645474507651
 20
-120.9080450954827
 30
0.0
 40
3.0
  1
１９９８．６．３０
 41
0.8333333333333334
  7
FDASTYLE0
 72
     5
 11
187.645474507651
 21
-120.9080450954827
 31
0.0
100
AcDbText
  0
TEXT
  5
27D
330
1F
100
AcDbEntity
  8
0
 62
     7
100
AcDbText
 10
166.5941648737996
 20
-110.7969250144304
 30
0.0
 40
5.0
  1
１／１
 41
0.8333333333333334
  7
FDASTYLE0
 72
     5
 11
181.5941648737996
 21
-110.7969250144304
 31
0.0
100
AcDbText
  0
TEXT
  5
27E
330
1F
100
AcDbEntity
  8
0
 62
     7
100
AcDbText
 10
135.702124961486
 20
-97.70534945921315
 30
0.0
 40
4.800000190734863
  1
６０°
 41
0.6161001267397294
  7
FDASTYLE0
 72
     5
 11
147.9350024543907
 21
-97.70534945921315
 31
0.0
100
AcDbText
  0
TEXT
  5
27F
330
1F
100
AcDbEntity
  8
0
 62
     7
100
AcDbText
 10
150.0274669610168
 20
-94.70534934000386
 30
0.0
 40
2.400000095367432
  1
＋
 41
0.5588852888788665
  7
FDASTYLE0
 72
     5
 11
151.6370566569473
 21
-94.70534934000386
 31
0.0
100
AcDbText
  0
TEXT
  5
280
330
1F
100
AcDbEntity
  8
0
 62
     7
100
AcDbText
 10
150.0274669610168
 20
-98.30534948305501
 30
0.0
 40
2.400000095367432
  1
－
 41
0.5588852888788665
  7
FDASTYLE0
 72
     5
 11
151.6370566569473
 21
-98.30534948305501
 31
0.0
100
AcDbText
  0
TEXT
  5
281
330
1F
100
AcDbEntity
  8
0
 62
     7
100
AcDbText
 10
117.4158480498655
 20
-97.89186124002384
 30
0.0
 40
5.0
  1
硬　度
 41
0.8333333333333334
  7
FDASTYLE0
 72
     5
 11
132.4158480498655
 21
-97.89186124002384
 31
0.0
100
AcDbText
  0
TEXT
  5
282
330
1F
100
AcDbEntity
  8
0
 62
     7
100
AcDbText
 10
140.1874144608453
 20
-120.6840279647346
 30
0.0
 40
4.800000190734863
  1
スヤマ
 41
0.650685111584705
  7
FDASTYLE0
 72
     5
 11
153.2159879738763
 21
-120.6840279647346
 31
0.0
100
AcDbText
  0
TEXT
  5
283
330
1F
100
AcDbEntity
  8
0
 62
     7
100
AcDbText
 10
151.4760966383125
 20
-97.70534945921315
 30
0.0
 40
4.800000190734863
  1
５°
 41
0.6032344971529952
  7
FDASTYLE0
 72
     5
 11
159.2021250806953
 21
-97.70534945921315
 31
0.0
100
AcDbText
  0
TEXT
  5
284
330
1F
100
AcDbEntity
  8
0
 62
     7
100
AcDbText
 10
113.4848920688347
 20
-120.8193844776989
 30
0.0
 40
4.800000190734863
  1
狩野
 41
0.6382980714498162
  7
FDASTYLE0
 72
     5
 11
121.7134653911308
 21
-120.8193844776989
 31
0.0
100
AcDbText
  0
TEXT
  5
285
330
1F
100
AcDbEntity
  8
0
 62
     7
100
AcDbText
 10
84.15155873550135
 20
-120.8193844776989
 30
0.0
 40
4.800000190734863
  1
伊藤
 41
0.6382980714498162
  7
FDASTYLE0
 72
     5
 11
92.3801320577975
 21
-120.8193844776989
 31
0.0
100
AcDbText
  0
LINE
  5
286
330
1F
100
AcDbEntity
  8
0
  6
CONTINUOUS
 62
     7
100
AcDbLine
 10
-42.95222271140448
 20
16.26398729249848
 30
0.0
 11
11.04777871910699
 21
16.26398729249848
 31
0.0
  0
LINE
  5
287
330
1F
100
AcDbEntity
  8
0
  6
CONTINUOUS
 62
     7
100
AcDbLine
 10
-39.45222271140448
 20
27.26398693487062
 30
0.0
 11
7.547778242269835
 21
27.26398693487062
 31
0.0
  0
LINE
  5
288
330
1F
100
AcDbEntity
  8
0
  6
CONTINUOUS
 62
     7
100
AcDbLine
 10
7.547778242269835
 20
27.26398693487062
 30
0.0
 11
7.547778242269835
 21
16.26398729249848
 31
0.0
  0
LINE
  5
289
330
1F
100
AcDbEntity
  8
0
  6
CONTINUOUS
 62
     7
100
AcDbLine
 10
-42.95222271140448
 20
22.26398681566133
 30
0.0
 11
-42.95222271140448
 21
16.26398729249848
 31
0.0
  0
LINE
  5
28A
330
1F
100
AcDbEntity
  8
0
  6
CONTINUOUS
 62
     7
100
AcDbLine
 10
11.04777871910699
 20
22.26398681566133
 30
0.0
 11
11.04777871910699
 21
16.26398729249848
 31
0.0
  0
LINE
  5
28B
330
1F
100
AcDbEntity
  8
0
  6
CONTINUOUS
 62
     7
100
AcDbLine
 10
-42.95222271140448
 20
22.26398681566133
 30
0.0
 11
-15.95222271140448
 21
22.26398681566133
 31
0.0
  0
ARC
  5
28C
330
1F
100
AcDbEntity
  8
0
  6
CONTINUOUS
 62
     7
100
AcDbCircle
 10
-35.14391887839667
 20
20.5231754676999
 30
0.0
 40
8.0
100
AcDbArc
 50
122.5841507702652
 51
167.4318148983509
  0
ARC
  5
28D
330
1F
100
AcDbEntity
  8
0
  6
CONTINUOUS
 62
     7
100
AcDbCircle
 10
3.239477270284972
 20
20.5231754676999
 30
0.0
 40
8.0
100
AcDbArc
 50
12.56819096437909
 51
57.41584740850198
  0
LINE
  5
28E
330
1F
100
AcDbEntity
  8
0
  6
CONTINUOUS
 62
     7
100
AcDbLine
 10
134.492298698706
 20
-89.98534410534386
 30
0.0
 11
134.492298698706
 21
-100.9853441053439
 31
0.0
  0
LINE
  5
28F
330
1F
100
AcDbEntity
  8
0
  6
CONTINUOUS
 62
     7
100
AcDbLine
 10
115.4365126240461
 20
-89.98534410534386
 30
0.0
 11
115.4365126240461
 21
-100.9853441053439
 31
0.0
  0
LINE
  5
290
330
1F
100
AcDbEntity
  8
0
  6
CENTER
 62
     7
100
AcDbLine
 10
-15.95222271140448
 20
33.56716941759004
 30
0.0
 11
-15.95222271140448
 21
12.16867708131684
 31
0.0
  0
LINE
  5
291
330
1F
100
AcDbEntity
  8
LAYER0014
  6
CONTINUOUS
 62
     7
100
AcDbLine
 10
-58.06225383933417
 20
27.26398693487062
 30
0.0
 11
-58.06225383933417
 21
38.63424620429964
 31
0.0
  0
LINE
  5
292
330
1F
100
AcDbEntity
  8
LAYER0014
  6
CONTINUOUS
 62
     7
100
AcDbLine
 10
-58.06225383933417
 20
27.26398693487062
 30
0.0
 11
-58.06225383933417
 21
22.26398681566133
 31
0.0
  0
LINE
  5
293
330
1F
100
AcDbEntity
  8
LAYER0014
  6
CONTINUOUS
 62
     7
100
AcDbLine
 10
-39.45222271140448
 20
27.26398693487062
 30
0.0
 11
-60.34825383933417
 21
27.26398693487062
 31
0.0
  0
LINE
  5
294
330
1F
100
AcDbEntity
  8
LAYER0014
  6
CONTINUOUS
 62
     7
100
AcDbLine
 10
-42.95222271140448
 20
22.26398681566133
 30
0.0
 11
-60.34825383933417
 21
22.26398681566133
 31
0.0
  0
LINE
  5
295
330
1F
100
AcDbEntity
  8
LAYER0014
  6
CONTINUOUS
 62
     7
100
AcDbLine
 10
-58.06225383933417
 20
27.26398693487062
 30
0.0
 11
-58.06225383933417
 21
34.76398693487062
 31
0.0
  0
INSERT
  5
296
330
1F
100
AcDbEntity
  8
LAYER0014
 62
     7
100
AcDbBlockReference
  2
_OPEN30
 10
-58.06225383933417
 20
27.26398693487062
 30
0.0
 41
3.000002787824364
 42
2.999989273978464
 50
270.0
  0
LINE
  5
297
330
1F
100
AcDbEntity
  8
LAYER0014
  6
CONTINUOUS
 62
     7
100
AcDbLine
 10
-58.06225383933417
 20
14.76398681566133
 30
0.0
 11
-58.06225383933417
 21
22.26398681566133
 31
0.0
  0
INSERT
  5
298
330
1F
100
AcDbEntity
  8
LAYER0014
 62
     7
100
AcDbBlockReference
  2
_OPEN30
 10
-58.06225383933417
 20
22.26398681566133
 30
0.0
 41
3.000002787824364
 42
2.999989273978464
 50
90.0
  0
TEXT
  5
299
330
1F
100
AcDbEntity
  8
LAYER0014
 62
     7
100
AcDbText
 10
-58.86225391085974
 20
29.94853076736422
 30
0.0
 40
3.200000047683716
  1
（５）
 50
90.0
 41
0.6506851076699728
  7
FDASTYLE0
 72
     5
 11
-58.86225391085974
 21
38.63424620429964
 31
0.0
100
AcDbText
  0
INSERT
  5
29A
330
1F
100
AcDbEntity
  8
LAYER0014
  6
CONTINUOUS
100
AcDbBlockReference
  2
DA_IMAGEDIMGROUP_1
 10
0.0
 20
0.0
 30
0.0
  0
INSERT
  5
29B
330
1F
100
AcDbEntity
  8
LAYER0014
  6
CONTINUOUS
100
AcDbBlockReference
  2
DA_IMAGEDIMGROUP_2
 10
0.0
 20
0.0
 30
0.0
  0
INSERT
  5
29C
330
1F
100
AcDbEntity
  8
LAYER0014
  6
CONTINUOUS
100
AcDbBlockReference
  2
DA_IMAGEDIMGROUP_3
 10
0.0
 20
0.0
 30
0.0
  0
VIEWPORT
  5
48
330
1B
100
AcDbEntity
 67
     1
  8
0
100
AcDbViewport
 10
-0.5
 20
-1.0
 30
0.0
 40
1155.0
 41
825.0
 68
     1
 69
     1
1001
ACAD
1000
MVIEW
1002
{
1070
    16
1010
0.0
1020
0.0
1030
0.0
1010
0.0
1020
0.0
1030
1.0
1040
0.0
1040
825.0
1040
-0.5
1040
-1.0
1040
50.0
1040
0.0
1040
0.0
1070
     0
1070
   100
1070
     0
1070
     1
1070
     0
1070
     0
1070
     0
1070
     0
1040
0.0
1040
0.0
1040
0.0
1040
0.5
1040
0.5
1040
0.0
1040
0.0
1070
     0
1002
{
1002
}
1002
}
  0
ENDSEC
  0
SECTION
  2
OBJECTS
  0
DICTIONARY
  5
C
330
0
100
AcDbDictionary
  3
ACAD_GROUP
350
D
  3
ACAD_LAYOUT
350
1A
  3
ACAD_MLINESTYLE
350
17
  3
ACAD_PLOTSETTINGS
350
19
  3
ACDBHEADERROUNDTRIPXREC
350
29D
  0
DICTIONARY
  5
D
102
{ACAD_REACTORS
330
C
102
}
330
C
100
AcDbDictionary
  0
DICTIONARY
  5
1A
102
{ACAD_REACTORS
330
C
102
}
330
C
100
AcDbDictionary
  0
DICTIONARY
  5
17
102
{ACAD_REACTORS
330
C
102
}
330
C
100
AcDbDictionary
  3
STANDARD
350
18
  0
DICTIONARY
  5
19
102
{ACAD_REACTORS
330
C
102
}
330
C
100
AcDbDictionary
  0
DICTIONARY
  5
29D
102
{ACAD_REACTORS
330
C
102
}
330
C
100
AcDbDictionary
  3
CEPSNTYPE
350
2A6
  3
DIMSTYLEDATA
350
2BC
  3
FINGERPRINTGUID
350
2A7
  3
HYPERLINKBASE
350
2A0
  3
INSUNITS
350
2A5
  3
LAYOUTDICT
350
2A2
  3
LWETCUNION
350
2A4
  3
PLOTSETDICT
350
2A3
  3
PSVPSCALE
350
2A9
  3
PUCSBASE
350
2AC
  3
PUCSORGBACK
350
2B2
  3
PUCSORGBOTTOM
350
2AE
  3
PUCSORGFRONT
350
2B1
  3
PUCSORGLEFT
350
2AF
  3
PUCSORGRIGHT
350
2B0
  3
PUCSORGTOP
350
2AD
  3
PUCSORTHOREF
350
2AA
  3
PUCSORTHOVIEW
350
2AB
  3
STYLESHEET
350
2A1
  3
TSTACKALIGN
350
29E
  3
TSTACKSIZE
350
29F
  3
UCSBASE
350
2B5
  3
UCSORGBACK
350
2BB
  3
UCSORGBOTTOM
350
2B7
  3
UCSORGFRONT
350
2BA
  3
UCSORGLEFT
350
2B8
  3
UCSORGRIGHT
350
2B9
  3
UCSORGTOP
350
2B6
  3
UCSORTHOREF
350
2B3
  3
UCSORTHOVIEW
350
2B4
  3
VERSIONGUID
350
2A8
  0
MLINESTYLE
  5
18
102
{ACAD_REACTORS
330
17
102
}
330
17
100
AcDbMlineStyle
  2
Standard
 70
     0
  3

 62
   256
 51
90.0
 52
90.0
 71
     2
 49
0.5
 62
   256
  6
BYLAYER
 49
-0.5
 62
   256
  6
BYLAYER
  0
XRECORD
  5
2A6
102
{ACAD_REACTORS
330
29D
102
}
330
29D
100
AcDbXrecord
 90
        0
  0
XRECORD
  5
2BC
102
{ACAD_REACTORS
330
29D
102
}
330
29D
100
AcDbXrecord
1000
DSTYLE
1002
{
1070
   171
 70
     2
1070
   143
 40
25.4
1070
   274
 70
     2
1070
   141
 40
0.09
1070
   271
 70
     4
1070
    43
 40
0.38
1070
    44
 40
0.18
1070
   278
 70
    46
1070
    42
 40
0.0625
1070
   147
 40
0.09
1070
    77
 70
     3
1070
   272
 70
     4
1070
    73
 70
     1
1070
   172
 70
     0
1070
    74
 70
     1
1070
   283
 70
     1
1070
   340
340
11
1070
   140
 40
0.18
1070
   284
 70
     0
1070
    78
 70
     0
1002
}
  0
XRECORD
  5
2A7
102
{ACAD_REACTORS
330
29D
102
}
330
29D
100
AcDbXrecord
  1
{B854893A-A985-4195-B772-DC5C1A6BC5D9}
  0
XRECORD
  5
2A0
102
{ACAD_REACTORS
330
29D
102
}
330
29D
100
AcDbXrecord
  1

  0
XRECORD
  5
2A5
102
{ACAD_REACTORS
330
29D
102
}
330
29D
100
AcDbXrecord
 90
        4
  0
XRECORD
  5
2A2
102
{ACAD_REACTORS
330
29D
102
}
330
29D
100
AcDbXrecord
340
1A
  0
XRECORD
  5
2A4
102
{ACAD_REACTORS
330
29D
102
}
330
29D
100
AcDbXrecord
 90
    10781
  0
XRECORD
  5
2A3
102
{ACAD_REACTORS
330
29D
102
}
330
29D
100
AcDbXrecord
340
19
  0
XRECORD
  5
2A9
102
{ACAD_REACTORS
330
29D
102
}
330
29D
100
AcDbXrecord
 40
0.0
  0
XRECORD
  5
2AC
102
{ACAD_REACTORS
330
29D
102
}
330
29D
100
AcDbXrecord
340
0
  0
XRECORD
  5
2B2
102
{ACAD_REACTORS
330
29D
102
}
330
29D
100
AcDbXrecord
 10
0.0
 20
0.0
 30
0.0
  0
XRECORD
  5
2AE
102
{ACAD_REACTORS
330
29D
102
}
330
29D
100
AcDbXrecord
 10
0.0
 20
0.0
 30
0.0
  0
XRECORD
  5
2B1
102
{ACAD_REACTORS
330
29D
102
}
330
29D
100
AcDbXrecord
 10
0.0
 20
0.0
 30
0.0
  0
XRECORD
  5
2AF
102
{ACAD_REACTORS
330
29D
102
}
330
29D
100
AcDbXrecord
 10
0.0
 20
0.0
 30
0.0
  0
XRECORD
  5
2B0
102
{ACAD_REACTORS
330
29D
102
}
330
29D
100
AcDbXrecord
 10
0.0
 20
0.0
 30
0.0
  0
XRECORD
  5
2AD
102
{ACAD_REACTORS
330
29D
102
}
330
29D
100
AcDbXrecord
 10
0.0
 20
0.0
 30
0.0
  0
XRECORD
  5
2AA
102
{ACAD_REACTORS
330
29D
102
}
330
29D
100
AcDbXrecord
340
0
  0
XRECORD
  5
2AB
102
{ACAD_REACTORS
330
29D
102
}
330
29D
100
AcDbXrecord
 70
     0
  0
XRECORD
  5
2A1
102
{ACAD_REACTORS
330
29D
102
}
330
29D
100
AcDbXrecord
  1

  0
XRECORD
  5
29E
102
{ACAD_REACTORS
330
29D
102
}
330
29D
100
AcDbXrecord
 90
        1
  0
XRECORD
  5
29F
102
{ACAD_REACTORS
330
29D
102
}
330
29D
100
AcDbXrecord
 90
       70
  0
XRECORD
  5
2B5
102
{ACAD_REACTORS
330
29D
102
}
330
29D
100
AcDbXrecord
340
0
  0
XRECORD
  5
2BB
102
{ACAD_REACTORS
330
29D
102
}
330
29D
100
AcDbXrecord
 10
0.0
 20
0.0
 30
0.0
  0
XRECORD
  5
2B7
102
{ACAD_REACTORS
330
29D
102
}
330
29D
100
AcDbXrecord
 10
0.0
 20
0.0
 30
0.0
  0
XRECORD
  5
2BA
102
{ACAD_REACTORS
330
29D
102
}
330
29D
100
AcDbXrecord
 10
0.0
 20
0.0
 30
0.0
  0
XRECORD
  5
2B8
102
{ACAD_REACTORS
330
29D
102
}
330
29D
100
AcDbXrecord
 10
0.0
 20
0.0
 30
0.0
  0
XRECORD
  5
2B9
102
{ACAD_REACTORS
330
29D
102
}
330
29D
100
AcDbXrecord
 10
0.0
 20
0.0
 30
0.0
  0
XRECORD
  5
2B6
102
{ACAD_REACTORS
330
29D
102
}
330
29D
100
AcDbXrecord
 10
0.0
 20
0.0
 30
0.0
  0
XRECORD
  5
2B3
102
{ACAD_REACTORS
330
29D
102
}
330
29D
100
AcDbXrecord
340
0
  0
XRECORD
  5
2B4
102
{ACAD_REACTORS
330
29D
102
}
330
29D
100
AcDbXrecord
 70
     0
  0
XRECORD
  5
2A8
102
{ACAD_REACTORS
330
29D
102
}
330
29D
100
AcDbXrecord
  1
{FAEB1C32-E019-11D5-929B-00C0DF256EC4}
  0
ENDSEC
  0
EOF
