  0
SECTION
  2
HEADER
  9
$ACADVER
  1
AC1009
  9
$DWGCODEPAGE
  3
ansi_932
  9
$INSBASE
 10
0.0
 20
0.0
 30
0.0
  9
$EXTMIN
 10
-574.5
 20
-399.0
 30
0.0
  9
$EXTMAX
 10
565.5
 20
399.0
 30
0.0
  9
$LIMMIN
 10
-210.0
 20
-148.5
  9
$LIMMAX
 10
210.0
 20
148.5
  9
$ORTHOMODE
 70
     0
  9
$REGENMODE
 70
     1
  9
$FILLMODE
 70
     1
  9
$QTEXTMODE
 70
     0
  9
$MIRRTEXT
 70
     1
  9
$DRAGMODE
 70
     2
  9
$LTSCALE
 40
0.25
  9
$OSMODE
 70
    37
  9
$ATTMODE
 70
     1
  9
$TEXTSIZE
 40
0.2
  9
$TRACEWID
 40
0.05
  9
$TEXTSTYLE
  7
STANDARD
  9
$CLAYER
  8
0
  9
$CELTYPE
  6
BYLAYER
  9
$CECOLOR
 62
   256
  9
$DIMSCALE
 40
1.0
  9
$DIMASZ
 40
3.000001907348633
  9
$DIMEXO
 40
1.0
  9
$DIMDLI
 40
10.0
  9
$DIMRND
 40
0.0
  9
$DIMDLE
 40
0.0
  9
$DIMEXE
 40
1.0
  9
$DIMTP
 40
0.0
  9
$DIMTM
 40
0.0
  9
$DIMTXT
 40
3.0
  9
$DIMCEN
 40
0.0
  9
$DIMTSZ
 40
0.0
  9
$DIMTOL
 70
     0
  9
$DIMLIM
 70
     0
  9
$DIMTIH
 70
     0
  9
$DIMTOH
 70
     0
  9
$DIMSE1
 70
     0
  9
$DIMSE2
 70
     0
  9
$DIMTAD
 70
     1
  9
$DIMZIN
 70
     8
  9
$DIMBLK
  1

  9
$DIMASO
 70
     1
  9
$DIMSHO
 70
     1
  9
$DIMPOST
  1

  9
$DIMAPOST
  1

  9
$DIMALT
 70
     0
  9
$DIMALTD
 70
     2
  9
$DIMALTF
 40
25.4
  9
$DIMLFAC
 40
1.0
  9
$DIMTOFL
 70
     0
  9
$DIMTVP
 40
0.0
  9
$DIMTIX
 70
     0
  9
$DIMSOXD
 70
     0
  9
$DIMSAH
 70
     0
  9
$DIMBLK1
  1

  9
$DIMBLK2
  1

  9
$DIMSTYLE
  2
STANDARD
  9
$DIMCLRD
 70
     0
  9
$DIMCLRE
 70
     0
  9
$DIMCLRT
 70
     0
  9
$DIMTFAC
 40
0.65
  9
$DIMGAP
 40
0.09
  9
$LUNITS
 70
     2
  9
$LUPREC
 70
     4
  9
$SKETCHINC
 40
0.1
  9
$FILLETRAD
 40
0.5
  9
$AUNITS
 70
     0
  9
$AUPREC
 70
     0
  9
$MENU
  1
.
  9
$ELEVATION
 40
0.0
  9
$PELEVATION
 40
0.0
  9
$THICKNESS
 40
0.0
  9
$LIMCHECK
 70
     0
  9
$CHAMFERA
 40
0.0
  9
$CHAMFERB
 40
0.0
  9
$SKPOLY
 70
     0
  9
$TDCREATE
 40
2456672.559099757
  9
$TDUPDATE
 40
2456672.559099942
  9
$TDINDWG
 40
0.0000000116
  9
$TDUSRTIMER
 40
0.0000000116
  9
$USRTIMER
 70
     1
  9
$ANGBASE
 50
0.0
  9
$ANGDIR
 70
     0
  9
$PDMODE
 70
     0
  9
$PDSIZE
 40
1.0
  9
$PLINEWID
 40
0.0
  9
$COORDS
 70
     1
  9
$SPLFRAME
 70
     0
  9
$SPLINETYPE
 70
     6
  9
$SPLINESEGS
 70
     8
  9
$ATTDIA
 70
     0
  9
$ATTREQ
 70
     1
  9
$HANDLING
 70
     1
  9
$HANDSEED
  5
38A
  9
$SURFTAB1
 70
     6
  9
$SURFTAB2
 70
     6
  9
$SURFTYPE
 70
     6
  9
$SURFU
 70
     6
  9
$SURFV
 70
     6
  9
$UCSNAME
  2

  9
$UCSORG
 10
0.0
 20
0.0
 30
0.0
  9
$UCSXDIR
 10
1.0
 20
0.0
 30
0.0
  9
$UCSYDIR
 10
0.0
 20
1.0
 30
0.0
  9
$PUCSNAME
  2

  9
$PUCSORG
 10
0.0
 20
0.0
 30
0.0
  9
$PUCSXDIR
 10
1.0
 20
0.0
 30
0.0
  9
$PUCSYDIR
 10
0.0
 20
1.0
 30
0.0
  9
$USERI1
 70
     0
  9
$USERI2
 70
     0
  9
$USERI3
 70
     0
  9
$USERI4
 70
     0
  9
$USERI5
 70
     0
  9
$USERR1
 40
0.0
  9
$USERR2
 40
0.0
  9
$USERR3
 40
0.0
  9
$USERR4
 40
0.0
  9
$USERR5
 40
0.0
  9
$WORLDVIEW
 70
     1
  9
$SHADEDGE
 70
     3
  9
$SHADEDIF
 70
    70
  9
$TILEMODE
 70
     1
  9
$MAXACTVP
 70
    64
  9
$PLIMCHECK
 70
     0
  9
$PEXTMIN
 10
1.000000000000000E+20
 20
1.000000000000000E+20
 30
1.000000000000000E+20
  9
$PEXTMAX
 10
-1.000000000000000E+20
 20
-1.000000000000000E+20
 30
-1.000000000000000E+20
  9
$PLIMMIN
 10
0.0
 20
0.0
  9
$PLIMMAX
 10
12.0
 20
9.0
  9
$UNITMODE
 70
     0
  9
$VISRETAIN
 70
     0
  9
$PLINEGEN
 70
     1
  9
$PSLTSCALE
 70
     0
  0
ENDSEC
  0
SECTION
  2
TABLES
  0
TABLE
  2
VPORT
 70
     1
  0
VPORT
  2
*ACTIVE
 70
     0
 10
0.0
 20
0.0
 11
1.0
 21
1.0
 12
-4.500000000000004
 22
0.0
 13
0.0
 23
0.0
 14
0.5
 24
0.5
 15
0.5
 25
0.5
 16
0.0
 26
0.0
 36
1.0
 17
0.0
 27
0.0
 37
0.0
 40
271.32
 41
1.428571428571429
 42
50.0
 43
0.0
 44
0.0
 50
0.0
 51
0.0
 71
     0
 72
  1000
 73
     1
 74
     1
 75
     0
 76
     0
 77
     0
 78
     0
  0
ENDTAB
  0
TABLE
  2
LTYPE
 70
    67
  0
LTYPE
  2
CONTINUOUS
 70
     0
  3
Solid line
 72
    65
 73
     0
 40
0.0
  0
LTYPE
  2
HIDDENX2
 70
     0
  3
Hidden (2x) ____ ____ ____ ____ ____ ____ ____ 
 72
    65
 73
     2
 40
19.05
 49
12.7
 49
-6.35
  0
LTYPE
  2
HIDDEN
 70
     0
  3
Hidden __ __ __ __ __ __ __ __ __ __ __ __ __ __
 72
    65
 73
     2
 40
9.524999999999999
 49
6.35
 49
-3.175
  0
LTYPE
  2
HIDDEN2
 70
     0
  3
Hidden (.5x) _ _ _ _ _ _ _ _ _ _ _ _ _ _ _ _ _ 
 72
    65
 73
     2
 40
4.762499999999999
 49
3.175
 49
-1.5875
  0
LTYPE
  2
DASHED
 70
     0
  3
Dashed __ __ __ __ __ __ __ __ __ __ __ __ __ _
 72
    65
 73
     2
 40
19.05
 49
12.7
 49
-6.35
  0
LTYPE
  2
DASHED2
 70
     0
  3
Dashed (.5x) _ _ _ _ _ _ _ _ _ _ _ _ _ _ _ _ _ 
 72
    65
 73
     2
 40
9.524999999999999
 49
6.35
 49
-3.175
  0
LTYPE
  2
DASHEDX2
 70
     0
  3
Dashed (2x) ____  ____  ____  ____  ____  ___
 72
    65
 73
     2
 40
38.09999999999999
 49
25.4
 49
-12.7
  0
LTYPE
  2
DOTX2
 70
     0
  3
Dot (2x) .  .  .  .  .  .  .  .  .  .  .  .  .  .
 72
    65
 73
     2
 40
12.7
 49
0.0
 49
-12.7
  0
LTYPE
  2
DOT
 70
     0
  3
Dot . . . . . . . . . . . . . . . . . . . . . . . .
 72
    65
 73
     2
 40
6.35
 49
0.0
 49
-6.35
  0
LTYPE
  2
DOT2
 70
     0
  3
Dot (.5x) ........................................
 72
    65
 73
     2
 40
3.175
 49
0.0
 49
-3.175
  0
LTYPE
  2
CENTERX2
 70
     0
  3
Center (2x) ________  __  ________  __  _____
 72
    65
 73
     4
 40
101.6
 49
63.5
 49
-12.7
 49
12.7
 49
-12.7
  0
LTYPE
  2
CENTER
 70
     0
  3
Center ____ _ ____ _ ____ _ ____ _ ____ _ ____
 72
    65
 73
     4
 40
50.8
 49
31.75
 49
-6.35
 49
6.35
 49
-6.35
  0
LTYPE
  2
CENTER2
 70
     0
  3
Center (.5x) ___ _ ___ _ ___ _ ___ _ ___ _ ___
 72
    65
 73
     4
 40
28.575
 49
19.05
 49
-3.175
 49
3.175
 49
-3.175
  0
LTYPE
  2
DASHDOTX2
 70
     0
  3
Dash dot (2x) ____  .  ____  .  ____  .  ___
 72
    65
 73
     4
 40
50.8
 49
25.4
 49
-12.7
 49
0.0
 49
-12.7
  0
LTYPE
  2
DASHDOT
 70
     0
  3
Dash dot __ . __ . __ . __ . __ . __ . __ . __
 72
    65
 73
     4
 40
25.4
 49
12.7
 49
-6.35
 49
0.0
 49
-6.35
  0
LTYPE
  2
DASHDOT2
 70
     0
  3
Dash dot (.5x) _._._._._._._._._._._._._._._.
 72
    65
 73
     4
 40
12.7
 49
6.35
 49
-3.175
 49
0.0
 49
-3.175
  0
LTYPE
  2
DIVIDEX2
 70
     0
  3
Divide (2x) ________  .  .  ________  .  .  _
 72
    65
 73
     6
 40
63.5
 49
25.4
 49
-12.7
 49
0.0
 49
-12.7
 49
0.0
 49
-12.7
  0
LTYPE
  2
DIVIDE
 70
     0
  3
Divide ____ . . ____ . . ____ . . ____ . . ____
 72
    65
 73
     6
 40
31.75
 49
12.7
 49
-6.35
 49
0.0
 49
-6.35
 49
0.0
 49
-6.35
  0
LTYPE
  2
DIVIDE2
 70
     0
  3
Divide (.5x) __..__..__..__..__..__..__..__.._
 72
    65
 73
     6
 40
15.875
 49
6.35
 49
-3.175
 49
0.0
 49
-3.175
 49
0.0
 49
-3.175
  0
LTYPE
  2
BORDERX2
 70
     0
  3
Border (2x) ____  ____  .  ____  ____  .  ___
 72
    65
 73
     6
 40
88.89999999999999
 49
25.4
 49
-12.7
 49
25.4
 49
-12.7
 49
0.0
 49
-12.7
  0
LTYPE
  2
BORDER
 70
     0
  3
Border __ __ . __ __ . __ __ . __ __ . __ __ .
 72
    65
 73
     6
 40
44.45
 49
12.7
 49
-6.35
 49
12.7
 49
-6.35
 49
0.0
 49
-6.35
  0
LTYPE
  2
BORDER2
 70
     0
  3
Border (.5x) __.__.__.__.__.__.__.__.__.__.__.
 72
    65
 73
     6
 40
22.225
 49
6.35
 49
-3.175
 49
6.35
 49
-3.175
 49
0.0
 49
-3.175
  0
LTYPE
  2
PHANTOMX2
 70
     0
  3
Phantom (2x) ____________    ____    ____   _
 72
    65
 73
     6
 40
127.0
 49
63.5
 49
-12.7
 49
12.7
 49
-12.7
 49
12.7
 49
-12.7
  0
LTYPE
  2
PHANTOM
 70
     0
  3
Phantom ______  __  __  ______  __  __  ______ 
 72
    65
 73
     6
 40
63.5
 49
31.75
 49
-6.35
 49
6.35
 49
-6.35
 49
6.35
 49
-6.35
  0
LTYPE
  2
PHANTOM2
 70
     0
  3
Phantom (.5x) ___ _ _ ___ _ _ ___ _ _ ___ _ _
 72
    65
 73
     6
 40
31.75
 49
15.875
 49
-3.175
 49
3.175
 49
-3.175
 49
3.175
 49
-3.175
  0
LTYPE
  2
ACAD_ISO06W100
 70
     0
  3
ISO long-dash triple-dot ____ ... ____ ... ____
 72
    65
 73
     8
 40
36.0
 49
24.0
 49
-3.0
 49
0.0
 49
-3.0
 49
0.0
 49
-3.0
 49
0.0
 49
-3.0
  0
LTYPE
  2
ACAD_ISO13W100
 70
     0
  3
ISO double-dash double-dot __ __ . . __ __ . . _
 72
    65
 73
     8
 40
36.0
 49
12.0
 49
-3.0
 49
12.0
 49
-3.0
 49
0.0
 49
-3.0
 49
0.0
 49
-3.0
  0
LTYPE
  2
ACAD_ISO14W100
 70
     0
  3
ISO dash triple-dot __ . . . __ . . . __ . . . _
 72
    65
 73
     8
 40
24.0
 49
12.0
 49
-3.0
 49
0.0
 49
-3.0
 49
0.0
 49
-3.0
 49
0.0
 49
-3.0
  0
LTYPE
  2
ACAD_ISO02W100
 70
     0
  3
ISO dash __ __ __ __ __ __ __ __ __ __ __ __ __
 72
    65
 73
     2
 40
15.0
 49
12.0
 49
-3.0
  0
LTYPE
  2
ACAD_ISO03W100
 70
     0
  3
ISO dash space __    __    __    __    __    __
 72
    65
 73
     2
 40
30.0
 49
12.0
 49
-18.0
  0
LTYPE
  2
ACAD_ISO04W100
 70
     0
  3
ISO long-dash dot ____ . ____ . ____ . ____ . _
 72
    65
 73
     4
 40
30.0
 49
24.0
 49
-3.0
 49
0.0
 49
-3.0
  0
LTYPE
  2
ACAD_ISO05W100
 70
     0
  3
ISO long-dash double-dot ____ .. ____ .. ____ . 
 72
    65
 73
     6
 40
33.0
 49
24.0
 49
-3.0
 49
0.0
 49
-3.0
 49
0.0
 49
-3.0
  0
LTYPE
  2
ACAD_ISO07W100
 70
     0
  3
ISO dot . . . . . . . . . . . . . . . . . . . . 
 72
    65
 73
     2
 40
3.0
 49
0.0
 49
-3.0
  0
LTYPE
  2
ACAD_ISO08W100
 70
     0
  3
ISO long-dash short-dash ____ __ ____ __ ____ _
 72
    65
 73
     4
 40
36.0
 49
24.0
 49
-3.0
 49
6.0
 49
-3.0
  0
LTYPE
  2
ACAD_ISO09W100
 70
     0
  3
ISO long-dash double-short-dash ____ __ __ ____
 72
    65
 73
     6
 40
45.0
 49
24.0
 49
-3.0
 49
6.0
 49
-3.0
 49
6.0
 49
-3.0
  0
LTYPE
  2
ACAD_ISO10W100
 70
     0
  3
ISO dash dot __ . __ . __ . __ . __ . __ . __ . 
 72
    65
 73
     4
 40
18.0
 49
12.0
 49
-3.0
 49
0.0
 49
-3.0
  0
LTYPE
  2
ACAD_ISO11W100
 70
     0
  3
ISO double-dash dot __ __ . __ __ . __ __ . __ _
 72
    65
 73
     6
 40
33.0
 49
12.0
 49
-3.0
 49
12.0
 49
-3.0
 49
0.0
 49
-3.0
  0
LTYPE
  2
ACAD_ISO12W100
 70
     0
  3
ISO dash double-dot __ . . __ . . __ . . __ . . 
 72
    65
 73
     6
 40
21.0
 49
12.0
 49
-3.0
 49
0.0
 49
-3.0
 49
0.0
 49
-3.0
  0
LTYPE
  2
ACAD_ISO15W100
 70
     0
  3
ISO double-dash triple-dot __ __ . . . __ __ . .
 72
    65
 73
    10
 40
39.0
 49
12.0
 49
-3.0
 49
12.0
 49
-3.0
 49
0.0
 49
-3.0
 49
0.0
 49
-3.0
 49
0.0
 49
-3.0
  0
LTYPE
  2
JIS_02_0_7
 70
     0
  3
HIDDEN0.75 _ _ _ _ _ _ _ _ _ _ _ _ _ _ _ _ _ 
 72
    65
 73
     2
 40
1.35
 49
0.75
 49
-0.6
  0
LTYPE
  2
JIS_02_1_0
 70
     0
  3
HIDDEN01 _ _ _ _ _ _ _ _ _ _ _ _ _ _ _ _ _ 
 72
    65
 73
     2
 40
2.0
 49
1.0
 49
-1.0
  0
LTYPE
  2
JIS_02_1_2
 70
     0
  3
HIDDEN01.25  _ _ _ _ _ _ _ _ _ _ _ _ _ _ _ _ _ 
 72
    65
 73
     2
 40
2.5
 49
1.25
 49
-1.25
  0
LTYPE
  2
JIS_02_2_0
 70
     0
  3
HIDDEN02 __ __ __ __ __ __ __ __ __ __ __ 
 72
    65
 73
     2
 40
3.0
 49
2.0
 49
-1.0
  0
LTYPE
  2
JIS_02_4_0
 70
     0
  3
HIDDEN04 ____ ____ ____ ____ ____ ____ ____ 
 72
    65
 73
     2
 40
5.5
 49
4.0
 49
-1.5
  0
LTYPE
  2
JIS_08_11
 70
     0
  3
1SASEN11 ___ _ ___ _ ___ _ ___ _ ___ _ ___
 72
    65
 73
     4
 40
12.8
 49
11.0
 49
-0.6
 49
0.6
 49
-0.6
  0
LTYPE
  2
JIS_08_15
 70
     0
  3
1SASEN15 ____ _ ____ _ ____ _ ____ _ ____ 
 72
    65
 73
     4
 40
17.25
 49
15.0
 49
-0.75
 49
0.75
 49
-0.75
  0
LTYPE
  2
JIS_08_25
 70
     0
  3
1SASEN25 ________  __  ________  __  _____
 72
    65
 73
     4
 40
28.0
 49
25.0
 49
-1.125
 49
0.75
 49
-1.125
  0
LTYPE
  2
JIS_08_37
 70
     0
  3
1SASEN37 ________  __  ________  __  _____
 72
    65
 73
     4
 40
40.5
 49
37.5
 49
-1.125
 49
0.75
 49
-1.125
  0
LTYPE
  2
JIS_08_50
 70
     0
  3
1SASEN50 _______________  __  ____________
 72
    65
 73
     4
 40
53.0
 49
50.0
 49
-1.125
 49
0.75
 49
-1.125
  0
LTYPE
  2
JIS_09_08
 70
     0
  3
2SASEN8 __ _ _ __ _ _ __ _ _ __ _ _ __ _ _ 
 72
    65
 73
     6
 40
10.75
 49
8.0
 49
-0.55
 49
0.55
 49
-0.55
 49
0.55
 49
-0.55
  0
LTYPE
  2
JIS_09_15
 70
     0
  3
2SASEN15 ___ _ _ ___ _ _ ___ _ _ ___ _ _ ___ 
 72
    65
 73
     6
 40
18.9
 49
15.0
 49
-0.9
 49
0.6
 49
-0.9
 49
0.6
 49
-0.9
  0
LTYPE
  2
JIS_09_29
 70
     0
  3
2SASEN29 ______　__  __  ______　__  __  ___
 72
    65
 73
     6
 40
34.0
 49
29.0
 49
-1.2
 49
0.7
 49
-1.2
 49
0.7
 49
-1.2
  0
LTYPE
  2
JIS_09_50
 70
     0
  3
2SASEN50 ____________　__  __  _____________
 72
    65
 73
     6
 40
55.0
 49
50.0
 49
-1.2
 49
0.7
 49
-1.2
 49
0.7
 49
-1.2
  0
LTYPE
  2
SXF_破線
 70
     0
  3
02 dashed -- -- -- -- -- --
 72
    65
 73
     2
 40
7.5
 49
6.0
 49
-1.5
  0
LTYPE
  2
SXF_跳び破線
 70
     0
  3
03 dashed_spaced --  --  --  --
 72
    65
 73
     2
 40
12.0
 49
6.0
 49
-6.0
  0
LTYPE
  2
SXF_一点長鎖線
 70
     0
  3
04 long_dashed_dotted ---- . ---- . ----
 72
    65
 73
     4
 40
15.25
 49
12.0
 49
-1.5
 49
0.25
 49
-1.5
  0
LTYPE
  2
SXF_二点長鎖線
 70
     0
  3
05 long_dashed_double-dotted ---- . . ---- 
 72
    65
 73
     6
 40
17.0
 49
12.0
 49
-1.5
 49
0.25
 49
-1.5
 49
0.25
 49
-1.5
  0
LTYPE
  2
SXF_三点長鎖線
 70
     0
  3
06 long_dashed_triplicate-dotted ---- ... ---- 
 72
    65
 73
     8
 40
18.75
 49
12.0
 49
-1.5
 49
0.25
 49
-1.5
 49
0.25
 49
-1.5
 49
0.25
 49
-1.5
  0
LTYPE
  2
SXF_点線
 70
     0
  3
07 dotted . . . . . . . . . . . . 
 72
    65
 73
     2
 40
1.75
 49
0.25
 49
-1.5
  0
LTYPE
  2
SXF_一点鎖線
 70
     0
  3
08 chain ---- - --- - --- - ---
 72
    65
 73
     4
 40
18.5
 49
12.0
 49
-1.5
 49
3.5
 49
-1.5
  0
LTYPE
  2
SXF_二点鎖線
 70
     0
  3
09 chain_double_dash ---- - - ---- - - ----
 72
    65
 73
     6
 40
23.5
 49
12.0
 49
-1.5
 49
3.5
 49
-1.5
 49
3.5
 49
-1.5
  0
LTYPE
  2
SXF_一点短鎖線
 70
     0
  3
10 dashed_dotted -- . -- . -- . --
 72
    65
 73
     4
 40
9.25
 49
6.0
 49
-1.5
 49
0.25
 49
-1.5
  0
LTYPE
  2
SXF_一点二短鎖線
 70
     0
  3
11 double-dashed_dotted -- -- . -- --
 72
    65
 73
     6
 40
16.75
 49
6.0
 49
-1.5
 49
6.0
 49
-1.5
 49
0.25
 49
-1.5
  0
LTYPE
  2
SXF_二点短鎖線
 70
     0
  3
12 dashed_double_dotted -- . . -- . . --
 72
    65
 73
     6
 40
11.0
 49
6.0
 49
-1.5
 49
0.25
 49
-1.5
 49
0.25
 49
-1.5
  0
LTYPE
  2
SXF_二点二短鎖線
 70
     0
  3
13 double-dashed_double-dotted -- -- . . -- --
 72
    65
 73
     8
 40
18.5
 49
6.0
 49
-1.5
 49
6.0
 49
-1.5
 49
0.25
 49
-1.5
 49
0.25
 49
-1.5
  0
LTYPE
  2
SXF_三点短鎖線
 70
     0
  3
14 dashed triplicate-dotted -- . . . -- . . . --
 72
    65
 73
     8
 40
12.75
 49
6.0
 49
-1.5
 49
0.25
 49
-1.5
 49
0.25
 49
-1.5
 49
0.25
 49
-1.5
  0
LTYPE
  2
SXF_三点二短鎖線
 70
     0
  3
15 double-dashed triplicate-dotted -- -- . . . -- -- 
 72
    65
 73
    10
 40
20.25
 49
6.0
 49
-1.5
 49
6.0
 49
-1.5
 49
0.25
 49
-1.5
 49
0.25
 49
-1.5
 49
0.25
 49
-1.5
  0
ENDTAB
  0
TABLE
  2
LAYER
 70
     2
  0
LAYER
  2
0
 70
     0
 62
     7
  6
CONTINUOUS
  0
LAYER
  2
LAYER0014
 70
     0
 62
     7
  6
CONTINUOUS
  0
ENDTAB
  0
TABLE
  2
STYLE
 70
     2
  0
STYLE
  2
STANDARD
 70
     0
 40
0.0
 41
1.0
 50
0.0
 71
     0
 42
0.2
  3
txt.shx
  4
bigfont.shx
  0
STYLE
  2
DCSTYLE0
 70
     0
 40
0.0
 41
0.7787340765971532
 50
0.0
 71
     0
 42
0.2
  3
txt.shx
  4
bigfont
  0
ENDTAB
  0
TABLE
  2
VIEW
 70
     0
  0
ENDTAB
  0
TABLE
  2
UCS
 70
     0
  0
ENDTAB
  0
TABLE
  2
APPID
 70
     2
  0
APPID
  2
ACAD
 70
     0
  0
APPID
  2
DAFUSIONOUT
 70
     0
  0
ENDTAB
  0
TABLE
  2
DIMSTYLE
 70
     1
  0
DIMSTYLE
  2
STANDARD
 70
     0
  3

  4

  5

  6

  7

 40
1.0
 41
0.18
 42
0.0625
 43
0.38
 44
0.18
 45
0.0
 46
0.0
 47
0.0
 48
0.0
140
0.18
141
0.09
142
0.0
143
25.4
144
1.0
145
0.0
146
1.0
147
0.09
 71
     0
 72
     0
 73
     1
 74
     1
 75
     0
 76
     0
 77
     0
 78
     0
170
     0
171
     2
172
     0
173
     0
174
     0
175
     0
176
     0
177
     0
178
     0
  0
ENDTAB
  0
ENDSEC
  0
SECTION
  2
BLOCKS
  0
BLOCK
  8
0
  2
$MODEL_SPACE
 70
     0
 10
0.0
 20
0.0
 30
0.0
  3
$MODEL_SPACE
  1

  0
ENDBLK
  5
21
  8
0
  0
BLOCK
 67
     1
  8
0
  2
$PAPER_SPACE
 70
     0
 10
0.0
 20
0.0
 30
0.0
  3
$PAPER_SPACE
  1

  0
ENDBLK
  5
1D
 67
     1
  8
0
  0
BLOCK
  8
0
  2
DC_FILL_GROUP_1
 70
     0
 10
0.0
 20
0.0
 30
0.0
  3
DC_FILL_GROUP_1
  1

  0
CIRCLE
  5
F7
  8
0
  6
CONTINUOUS
 62
     7
 10
28.71499809265137
 20
7.242650076548259
 30
0.0
 40
0.5
  0
ENDBLK
  5
B4
  8
0
  0
BLOCK
  8
0
  2
DC_FILL_GROUP_2
 70
     0
 10
0.0
 20
0.0
 30
0.0
  3
DC_FILL_GROUP_2
  1

  0
CIRCLE
  5
F8
  8
0
  6
CONTINUOUS
 62
     7
 10
28.71499809265137
 20
9.242650076548259
 30
0.0
 40
0.5
  0
ENDBLK
  5
B7
  8
0
  0
BLOCK
  8
0
  2
DC_FILL_GROUP_3
 70
     0
 10
0.0
 20
0.0
 30
0.0
  3
DC_FILL_GROUP_3
  1

  0
CIRCLE
  5
F9
  8
0
  6
CONTINUOUS
 62
     7
 10
28.71499809265137
 20
12.24265007654826
 30
0.0
 40
0.5
  0
ENDBLK
  5
BA
  8
0
  0
BLOCK
  8
0
  2
DC_FILL_GROUP_4
 70
     0
 10
0.0
 20
0.0
 30
0.0
  3
DC_FILL_GROUP_4
  1

  0
CIRCLE
  5
FA
  8
0
  6
CONTINUOUS
 62
     7
 10
28.71499809265137
 20
14.24265007654826
 30
0.0
 40
0.5
  0
ENDBLK
  5
BD
  8
0
  0
BLOCK
  8
0
  2
DC_FILL_GROUP_5
 70
     0
 10
0.0
 20
0.0
 30
0.0
  3
DC_FILL_GROUP_5
  1

  0
CIRCLE
  5
FB
  8
0
  6
CONTINUOUS
 62
     7
 10
28.71499809265137
 20
-0.7573499234517413
 30
0.0
 40
0.5
  0
ENDBLK
  5
C0
  8
0
  0
BLOCK
  8
0
  2
DC_FILL_GROUP_6
 70
     0
 10
0.0
 20
0.0
 30
0.0
  3
DC_FILL_GROUP_6
  1

  0
CIRCLE
  5
FC
  8
0
  6
CONTINUOUS
 62
     7
 10
28.71499809265137
 20
-5.757349923451741
 30
0.0
 40
0.5
  0
ENDBLK
  5
C3
  8
0
  0
BLOCK
  8
0
  2
DC_FILL_GROUP_7
 70
     0
 10
0.0
 20
0.0
 30
0.0
  3
DC_FILL_GROUP_7
  1

  0
CIRCLE
  5
FD
  8
0
  6
CONTINUOUS
 62
     7
 10
28.71499809265137
 20
-7.75735016187032
 30
0.0
 40
0.5
  0
ENDBLK
  5
C6
  8
0
  0
BLOCK
  8
0
  2
DC_FILL_GROUP_8
 70
     0
 10
0.0
 20
0.0
 30
0.0
  3
DC_FILL_GROUP_8
  1

  0
CIRCLE
  5
FE
  8
0
  6
CONTINUOUS
 62
     7
 10
28.71499809265137
 20
-2.757349923451741
 30
0.0
 40
0.5
  0
ENDBLK
  5
C9
  8
0
  0
BLOCK
  8
0
  2
DC_GROUP_9
 70
     0
 10
0.0
 20
0.0
 30
0.0
  3
DC_GROUP_9
  1

  0
LINE
  5
FF
  8
0
  6
CONTINUOUS
 62
     5
 10
85.12525182912597
 20
-128.5561630926134
 30
0.0
 11
87.81347333756955
 21
-128.5561630926134
 31
0.0
  0
LINE
  5
100
  8
0
  6
CONTINUOUS
 62
     5
 10
94.14637284565683
 20
-128.5561630926134
 30
0.0
 11
96.54637284565683
 21
-128.5561630926134
 31
0.0
  0
LINE
  5
101
  8
0
  6
CONTINUOUS
 62
     5
 10
99.33410885108594
 20
-128.5561630926134
 30
0.0
 11
103.7928487302585
 21
-128.5561630926134
 31
0.0
  0
LINE
  5
102
  8
0
  6
CONTINUOUS
 62
     5
 10
87.85923464780424
 20
-125.3811630926134
 30
0.0
 11
90.10445679901586
 21
-125.3811630926134
 31
0.0
  0
LINE
  5
103
  8
0
  6
CONTINUOUS
 62
     5
 10
94.14637284565683
 20
-125.3811630926134
 30
0.0
 11
96.54637284565683
 21
-125.3811630926134
 31
0.0
  0
LINE
  5
104
  8
0
  6
CONTINUOUS
 62
     5
 10
82.58362715434318
 20
-122.2061630926134
 30
0.0
 11
96.54637284565683
 21
-122.2061630926134
 31
0.0
  0
ENDBLK
  5
CC
  8
0
  0
BLOCK
  8
0
  2
DA_IMAGEDIMGROUP_1
 70
     0
 10
0.0
 20
0.0
 30
0.0
  3
DA_IMAGEDIMGROUP_1
  1

  0
LINE
  5
105
  8
LAYER0014
  6
CONTINUOUS
 62
     7
 10
6.714996185302738
 20
18.24265007654826
 30
0.0
 11
6.714996185302738
 21
58.52865007654826
 31
0.0
  0
LINE
  5
106
  8
LAYER0014
  6
CONTINUOUS
 62
     7
 10
-45.285
 20
18.24265007654826
 30
0.0
 11
-45.285
 21
58.52865007654826
 31
0.0
  0
LINE
  5
107
  8
LAYER0014
  6
CONTINUOUS
 62
     7
 10
6.714996185302738
 20
56.24265007654826
 30
0.0
 11
-45.285
 21
56.24265007654826
 31
0.0
  0
INSERT
  5
10E
  8
LAYER0014
 62
     7
  2
_OPEN30
 10
6.714996185302738
 20
56.24265007654826
 30
0.0
 41
3.000002807615286
 42
2.999989368223643
 50
360.0
  0
INSERT
  5
10F
  8
LAYER0014
 62
     7
  2
_OPEN30
 10
-45.285
 20
56.24265007654826
 30
0.0
 41
3.000002807615286
 42
2.999989368223643
 50
180.0
  0
TEXT
  5
111
  8
LAYER0014
 62
     7
 10
-23.62800190210342
 20
57.04265008846919
 30
0.0
 40
3.200000047683716
  1
φ52
 41
1.036397710577501
  7
DCSTYLE0
 72
     5
 11
-14.94200191259384
 21
57.04265008846919
 31
0.0
  0
ENDBLK
  5
CF
  8
0
  0
BLOCK
  8
0
  2
DA_IMAGEDIMGROUP_2
 70
     0
 10
0.0
 20
0.0
 30
0.0
  3
DA_IMAGEDIMGROUP_2
  1

  0
LINE
  5
112
  8
LAYER0014
  6
CONTINUOUS
 62
     7
 10
-4.785006345492803
 20
20.24265007654826
 30
0.0
 11
-4.785006345492803
 21
38.52865007654826
 31
0.0
  0
LINE
  5
113
  8
LAYER0014
  6
CONTINUOUS
 62
     7
 10
-33.78499365450719
 20
36.24265007654826
 30
0.0
 11
-4.78500634549281
 21
36.24265007654826
 31
0.0
  0
INSERT
  5
114
  8
LAYER0014
 62
     7
  2
_OPEN30
 10
-4.78500634549281
 20
36.24265007654826
 30
0.0
 41
3.000002807615286
 42
2.999989368223643
 50
360.0
  0
TEXT
  5
115
  8
LAYER0014
 62
     7
 10
-23.62799999475479
 20
37.04265008846919
 30
0.0
 40
3.200000047683716
  1
φ29
 41
1.05559026077338
  7
DCSTYLE0
 72
     5
 11
-14.94200000524521
 21
37.04265008846919
 31
0.0
  0
ENDBLK
  5
D2
  8
0
  0
BLOCK
  8
0
  2
DA_IMAGEDIMGROUP_3
 70
     0
 10
0.0
 20
0.0
 30
0.0
  3
DA_IMAGEDIMGROUP_3
  1

  0
LINE
  5
116
  8
LAYER0014
  6
CONTINUOUS
 62
     7
 10
-1.285003814697262
 20
21.24265007654826
 30
0.0
 11
-1.285003814697262
 21
48.52865007654826
 31
0.0
  0
LINE
  5
117
  8
LAYER0014
  6
CONTINUOUS
 62
     7
 10
-37.28499618530273
 20
46.24265007654826
 30
0.0
 11
-1.285003814697262
 21
46.24265007654826
 31
0.0
  0
INSERT
  5
118
  8
LAYER0014
 62
     7
  2
_OPEN30
 10
-1.285003814697262
 20
46.24265007654826
 30
0.0
 41
3.000002807615286
 42
2.999989368223643
 50
360.0
  0
TEXT
  5
119
  8
LAYER0014
 62
     7
 10
-23.62799999475479
 20
47.04265008846919
 30
0.0
 40
3.200000047683716
  1
φ36
 41
1.036397710577501
  7
DCSTYLE0
 72
     5
 11
-14.94200000524521
 21
47.04265008846919
 31
0.0
  0
ENDBLK
  5
D5
  8
0
  0
BLOCK
  8
0
  2
DA_IMAGEDIMGROUP_4
 70
     0
 10
0.0
 20
0.0
 30
0.0
  3
DA_IMAGEDIMGROUP_4
  1

  0
LINE
  5
11A
  8
LAYER0014
  6
CONTINUOUS
 62
     7
 10
-52.285
 20
-11.75735016187032
 30
0.0
 11
-69.571
 21
-11.75735016187032
 31
0.0
  0
LINE
  5
11B
  8
LAYER0014
  6
CONTINUOUS
 62
     7
 10
-49.285
 20
6.242650076548259
 30
0.0
 11
-69.571
 21
6.242650076548259
 31
0.0
  0
LINE
  5
11C
  8
LAYER0014
  6
CONTINUOUS
 62
     7
 10
-67.285
 20
-11.75735016187032
 30
0.0
 11
-67.285
 21
6.242650076548259
 31
0.0
  0
INSERT
  5
11D
  8
LAYER0014
 62
     7
  2
_OPEN30
 10
-67.285
 20
-11.75735016187032
 30
0.0
 41
3.000002807615286
 42
2.999989368223643
 50
270.0
  0
INSERT
  5
11E
  8
LAYER0014
 62
     7
  2
_OPEN30
 10
-67.285
 20
6.242650076548259
 30
0.0
 41
3.000002807615286
 42
2.999989368223643
 50
90.0
  0
TEXT
  5
11F
  8
LAYER0014
 62
     7
 10
-68.08500001192093
 20
-5.500350043376287
 30
0.0
 40
3.200000047683716
  1
18
 50
90.0
 41
0.9730236344031892
  7
DCSTYLE0
 72
     5
 11
-68.08500001192093
 21
-0.0143500419457752
 31
0.0
  0
ENDBLK
  5
D8
  8
0
  0
BLOCK
  8
0
  2
DA_IMAGEDIMGROUP_5
 70
     0
 10
0.0
 20
0.0
 30
0.0
  3
DA_IMAGEDIMGROUP_5
  1

  0
LINE
  5
120
  8
LAYER0014
  6
CONTINUOUS
 62
     7
 10
13.71499809265137
 20
-11.75735016187032
 30
0.0
 11
13.71499809265137
 21
-79.04335016187032
 31
0.0
  0
LINE
  5
121
  8
LAYER0014
  6
CONTINUOUS
 62
     7
 10
-52.285
 20
-11.75735016187032
 30
0.0
 11
-52.285
 21
-79.04335016187032
 31
0.0
  0
LINE
  5
122
  8
LAYER0014
  6
CONTINUOUS
 62
     7
 10
13.71499809265137
 20
-76.75735016187032
 30
0.0
 11
-52.285
 21
-76.75735016187032
 31
0.0
  0
INSERT
  5
123
  8
LAYER0014
 62
     7
  2
_OPEN30
 10
13.71499809265137
 20
-76.75735016187032
 30
0.0
 41
3.000002807615286
 42
2.999989368223643
 50
360.0
  0
INSERT
  5
124
  8
LAYER0014
 62
     7
  2
_OPEN30
 10
-52.285
 20
-76.75735016187032
 30
0.0
 41
3.000002807615286
 42
2.999989368223643
 50
180.0
  0
TEXT
  5
125
  8
LAYER0014
 62
     7
 10
-23.6280009484291
 20
-75.95735014994939
 30
0.0
 40
3.200000047683716
  1
φ66
 41
1.036397710577501
  7
DCSTYLE0
 72
     5
 11
-14.94200095891952
 21
-75.95735014994939
 31
0.0
  0
ENDBLK
  5
DB
  8
0
  0
BLOCK
  8
0
  2
DA_IMAGEDIMGROUP_6
 70
     0
 10
0.0
 20
0.0
 30
0.0
  3
DA_IMAGEDIMGROUP_6
  1

  0
LINE
  5
126
  8
LAYER0014
  6
CONTINUOUS
 62
     7
 10
-49.285
 20
6.242650076548259
 30
0.0
 11
-69.571
 21
6.242650076548259
 31
0.0
  0
LINE
  5
127
  8
LAYER0014
  6
CONTINUOUS
 62
     7
 10
-42.285
 20
21.24265007654826
 30
0.0
 11
-69.571
 21
21.24265007654826
 31
0.0
  0
LINE
  5
128
  8
LAYER0014
  6
CONTINUOUS
 62
     7
 10
-67.285
 20
6.242650076548259
 30
0.0
 11
-67.285
 21
21.24265007654826
 31
0.0
  0
INSERT
  5
129
  8
LAYER0014
 62
     7
  2
_OPEN30
 10
-67.285
 20
6.242650076548259
 30
0.0
 41
3.000002807615286
 42
2.999989368223643
 50
270.0
  0
INSERT
  5
12A
  8
LAYER0014
 62
     7
  2
_OPEN30
 10
-67.285
 20
21.24265007654826
 30
0.0
 41
3.000002807615286
 42
2.999989368223643
 50
90.0
  0
TEXT
  5
12B
  8
LAYER0014
 62
     7
 10
-68.08500001192093
 20
10.999650075833
 30
0.0
 40
3.200000047683716
  1
15
 50
90.0
 41
0.9730236344031892
  7
DCSTYLE0
 72
     5
 11
-68.08500001192093
 21
16.48565007726351
 31
0.0
  0
ENDBLK
  5
DE
  8
0
  0
BLOCK
  8
0
  2
DA_IMAGEDIMGROUP_7
 70
     0
 10
0.0
 20
0.0
 30
0.0
  3
DA_IMAGEDIMGROUP_7
  1

  0
LINE
  5
12C
  8
LAYER0014
  6
CONTINUOUS
 62
     7
 10
-52.285
 20
-11.75735016187032
 30
0.0
 11
-79.571
 21
-11.75735016187032
 31
0.0
  0
LINE
  5
12D
  8
LAYER0014
  6
CONTINUOUS
 62
     7
 10
-42.285
 20
21.24265007654826
 30
0.0
 11
-79.571
 21
21.24265007654826
 31
0.0
  0
LINE
  5
12E
  8
LAYER0014
  6
CONTINUOUS
 62
     7
 10
-77.285
 20
-11.75735016187032
 30
0.0
 11
-77.285
 21
21.24265007654826
 31
0.0
  0
INSERT
  5
12F
  8
LAYER0014
 62
     7
  2
_OPEN30
 10
-77.285
 20
-11.75735016187032
 30
0.0
 41
3.000002807615286
 42
2.999989368223643
 50
270.0
  0
INSERT
  5
130
  8
LAYER0014
 62
     7
  2
_OPEN30
 10
-77.285
 20
21.24265007654826
 30
0.0
 41
3.000002807615286
 42
2.999989368223643
 50
90.0
  0
TEXT
  5
131
  8
LAYER0014
 62
     7
 10
-78.08500001192093
 20
1.999649956623713
 30
0.0
 40
3.200000047683716
  1
33
 50
90.0
 41
0.9730236344031892
  7
DCSTYLE0
 72
     5
 11
-78.08500001192093
 21
7.485649958054225
 31
0.0
  0
ENDBLK
  5
E1
  8
0
  0
BLOCK
  8
0
  2
DA_IMAGEDIMGROUP_8
 70
     0
 10
0.0
 20
0.0
 30
0.0
  3
DA_IMAGEDIMGROUP_8
  1

  0
LINE
  5
132
  8
LAYER0014
  6
CONTINUOUS
 62
     7
 10
0.2149961853027369
 20
-9.757356251296798
 30
0.0
 11
0.2149961853027511
 21
-29.04335016187032
 31
0.0
  0
LINE
  5
133
  8
LAYER0014
  6
CONTINUOUS
 62
     7
 10
-38.78499618530272
 20
-26.75735016187032
 30
0.0
 11
0.214996185302752
 21
-26.75735016187032
 31
0.0
  0
INSERT
  5
134
  8
LAYER0014
 62
     7
  2
_OPEN30
 10
0.214996185302752
 20
-26.75735016187032
 30
0.0
 41
3.000002807615286
 42
2.999989368223643
 50
360.0
  0
TEXT
  5
135
  8
LAYER0014
 62
     7
 10
-23.62799999475479
 20
-25.95735014994939
 30
0.0
 40
3.200000047683716
  1
φ39
 41
1.05559026077338
  7
DCSTYLE0
 72
     5
 11
-14.94200000524521
 21
-25.95735014994939
 31
0.0
  0
ENDBLK
  5
E4
  8
0
  0
BLOCK
  8
0
  2
DA_IMAGEDIMGROUP_9
 70
     0
 10
0.0
 20
0.0
 30
0.0
  3
DA_IMAGEDIMGROUP_9
  1

  0
LINE
  5
136
  8
LAYER0014
  6
CONTINUOUS
 62
     7
 10
4.214996185302754
 20
8.242650163971035
 30
0.0
 11
4.214996185302782
 21
-39.04335016187032
 31
0.0
  0
LINE
  5
137
  8
LAYER0014
  6
CONTINUOUS
 62
     7
 10
-42.7849961853027
 20
-36.75735016187032
 30
0.0
 11
4.214996185302773
 21
-36.75735016187032
 31
0.0
  0
INSERT
  5
138
  8
LAYER0014
 62
     7
  2
_OPEN30
 10
4.214996185302773
 20
-36.75735016187032
 30
0.0
 41
3.000002807615286
 42
2.999989368223643
 50
360.0
  0
TEXT
  5
139
  8
LAYER0014
 62
     7
 10
-23.62799999475476
 20
-35.95735014994939
 30
0.0
 40
3.200000047683716
  1
φ47
 41
1.036397710577501
  7
DCSTYLE0
 72
     5
 11
-14.94200000524518
 21
-35.95735014994939
 31
0.0
  0
ENDBLK
  5
E7
  8
0
  0
BLOCK
  8
0
  2
DA_IMAGEDIMGROUP_10
 70
     0
 10
0.0
 20
0.0
 30
0.0
  3
DA_IMAGEDIMGROUP_10
  1

  0
LINE
  5
13A
  8
LAYER0014
  6
CONTINUOUS
 62
     7
 10
5.214996185302729
 20
7.242650076548266
 30
0.0
 11
5.214996185302757
 21
-49.04335016187031
 31
0.0
  0
LINE
  5
13B
  8
LAYER0014
  6
CONTINUOUS
 62
     7
 10
-43.7849961853027
 20
-46.75735016187032
 30
0.0
 11
5.214996185302766
 21
-46.75735016187032
 31
0.0
  0
INSERT
  5
13C
  8
LAYER0014
 62
     7
  2
_OPEN30
 10
5.214996185302766
 20
-46.75735016187032
 30
0.0
 41
3.000002807615286
 42
2.999989368223643
 50
360.0
  0
TEXT
  5
13D
  8
LAYER0014
 62
     7
 10
-23.62799999475476
 20
-45.95735014994939
 30
0.0
 40
3.200000047683716
  1
φ49
 41
1.05559026077338
  7
DCSTYLE0
 72
     5
 11
-14.94200000524518
 21
-45.95735014994939
 31
0.0
  0
ENDBLK
  5
EA
  8
0
  0
BLOCK
  8
0
  2
DA_IMAGEDIMGROUP_11
 70
     0
 10
0.0
 20
0.0
 30
0.0
  3
DA_IMAGEDIMGROUP_11
  1

  0
LINE
  5
13E
  8
LAYER0014
  6
CONTINUOUS
 62
     7
 10
10.21499618530274
 20
-6.757350074447536
 30
0.0
 11
10.21499618530276
 21
-59.04335016187031
 31
0.0
  0
LINE
  5
13F
  8
LAYER0014
  6
CONTINUOUS
 62
     7
 10
-48.7849961853027
 20
-56.75735016187032
 30
0.0
 11
10.21499618530277
 21
-56.75735016187032
 31
0.0
  0
INSERT
  5
140
  8
LAYER0014
 62
     7
  2
_OPEN30
 10
10.21499618530277
 20
-56.75735016187032
 30
0.0
 41
3.000002807615286
 42
2.999989368223643
 50
360.0
  0
TEXT
  5
141
  8
LAYER0014
 62
     7
 10
-23.62799999475476
 20
-55.95735014994939
 30
0.0
 40
3.200000047683716
  1
φ59
 41
1.05559026077338
  7
DCSTYLE0
 72
     5
 11
-14.94200000524518
 21
-55.95735014994939
 31
0.0
  0
ENDBLK
  5
ED
  8
0
  0
BLOCK
  8
0
  2
DA_IMAGEDIMGROUP_12
 70
     0
 10
0.0
 20
0.0
 30
0.0
  3
DA_IMAGEDIMGROUP_12
  1

  0
LINE
  5
142
  8
LAYER0014
  6
CONTINUOUS
 62
     7
 10
11.21499618530274
 20
-11.75735016187032
 30
0.0
 11
11.21499618530277
 21
-69.04335016187032
 31
0.0
  0
LINE
  5
143
  8
LAYER0014
  6
CONTINUOUS
 62
     7
 10
-49.7849961853027
 20
-66.75735016187032
 30
0.0
 11
11.21499618530277
 21
-66.75735016187032
 31
0.0
  0
INSERT
  5
144
  8
LAYER0014
 62
     7
  2
_OPEN30
 10
11.21499618530277
 20
-66.75735016187032
 30
0.0
 41
3.000002807615286
 42
2.999989368223643
 50
360.0
  0
TEXT
  5
145
  8
LAYER0014
 62
     7
 10
-23.62799999475476
 20
-65.95735014994939
 30
0.0
 40
3.200000047683716
  1
φ61
 41
1.163303552689031
  7
DCSTYLE0
 72
     5
 11
-14.94200000524518
 21
-65.95735014994939
 31
0.0
  0
ENDBLK
  5
F0
  8
0
  0
BLOCK
  8
0
  2
DA_IMAGEDIMGROUP_13
 70
     0
 10
0.0
 20
0.0
 30
0.0
  3
DA_IMAGEDIMGROUP_13
  1

  0
LINE
  5
146
  8
LAYER0014
  6
CONTINUOUS
 62
     7
 10
-19.285
 20
-9.75735014696916
 30
0.0
 11
-8.09898221746883
 21
-9.75735014696916
 31
0.0
  0
LINE
  5
147
  8
LAYER0014
  6
CONTINUOUS
 62
     7
 10
-19.285
 20
2.242650076548259
 30
0.0
 11
-8.09898221746883
 21
2.242650076548259
 31
0.0
  0
LINE
  5
148
  8
LAYER0014
  6
CONTINUOUS
 62
     7
 10
-10.38498221746883
 20
-9.75735014696916
 30
0.0
 11
-10.38498221746883
 21
2.242650076548259
 31
0.0
  0
INSERT
  5
149
  8
LAYER0014
 62
     7
  2
_OPEN30
 10
-10.38498221746883
 20
-9.75735014696916
 30
0.0
 41
3.000002807615286
 42
2.999989368223643
 50
270.0
  0
INSERT
  5
14A
  8
LAYER0014
 62
     7
  2
_OPEN30
 10
-10.38498221746883
 20
2.242650076548259
 30
0.0
 41
3.000002807615286
 42
2.999989368223643
 50
90.0
  0
TEXT
  5
14B
  8
LAYER0014
 62
     7
 10
-11.18498222938976
 20
-6.500350035925706
 30
0.0
 40
3.200000047683716
  1
12
 50
90.0
 41
0.9730236344031892
  7
DCSTYLE0
 72
     5
 11
-11.18498222938976
 21
-1.014350034495195
 31
0.0
  0
ENDBLK
  5
F3
  8
0
  0
BLOCK
  8
0
  2
DA_IMAGEDIMGROUP_14
 70
     0
 10
0.0
 20
0.0
 30
0.0
  3
DA_IMAGEDIMGROUP_14
  1

  0
LINE
  5
14C
  8
LAYER0014
  6
CONTINUOUS
 62
     7
 10
-19.285
 20
4.242650076548259
 30
0.0
 11
-8.09898221746883
 21
4.242650076548259
 31
0.0
  0
LINE
  5
14D
  8
LAYER0014
  6
CONTINUOUS
 62
     7
 10
-19.285
 20
19.24265007654826
 30
0.0
 11
-8.09898221746883
 21
19.24265007654826
 31
0.0
  0
LINE
  5
14E
  8
LAYER0014
  6
CONTINUOUS
 62
     7
 10
-10.38498221746883
 20
4.242650076548259
 30
0.0
 11
-10.38498221746883
 21
19.24265007654826
 31
0.0
  0
INSERT
  5
14F
  8
LAYER0014
 62
     7
  2
_OPEN30
 10
-10.38498221746883
 20
4.242650076548259
 30
0.0
 41
3.000002807615286
 42
2.999989368223643
 50
270.0
  0
INSERT
  5
150
  8
LAYER0014
 62
     7
  2
_OPEN30
 10
-10.38498221746883
 20
19.24265007654826
 30
0.0
 41
3.000002807615286
 42
2.999989368223643
 50
90.0
  0
TEXT
  5
151
  8
LAYER0014
 62
     7
 10
-11.18498222938976
 20
8.999650075833003
 30
0.0
 40
3.200000047683716
  1
15
 50
90.0
 41
0.9730236344031892
  7
DCSTYLE0
 72
     5
 11
-11.18498222938976
 21
14.48565007726351
 31
0.0
  0
ENDBLK
  5
F6
  8
0
  0
BLOCK
  8
0
  2
_OPEN30
 70
     0
 10
0.0
 20
0.0
 30
0.0
  3
_OPEN30
  1

  0
LINE
  5
10B
  8
0
  6
BYBLOCK
 62
     0
 10
-1.0
 20
0.267949
 30
0.0
 11
0.0
 21
0.0
 31
0.0
  0
LINE
  5
10C
  8
0
  6
BYBLOCK
 62
     0
 10
0.0
 20
0.0
 30
0.0
 11
-1.0
 21
-0.267949
 31
0.0
  0
LINE
  5
10D
  8
0
  6
BYBLOCK
 62
     0
 10
0.0
 20
0.0
 30
0.0
 11
-1.0
 21
0.0
 31
0.0
  0
ENDBLK
  5
10A
  8
0
  0
BLOCK
  8
0
  2
*U26
 70
     1
 10
0.0
 20
0.0
 30
0.0
  3
*U26
  1

  0
SOLID
  5
2F9
  8
0
 62
    13
 10
28.22351154280942
 20
7.150775317639973
 30
0.0
 11
28.22351154280942
 21
7.334524835456544
 31
0.0
 12
28.28988952478656
 22
6.979433995109581
 32
0.0
 13
28.28988952478656
 23
6.979433995109581
 33
0.0
  0
SOLID
  5
2FA
  8
0
 62
    13
 10
28.28988952478656
 20
6.979433995109581
 30
0.0
 11
28.22351154280942
 21
7.334524835456544
 31
0.0
 12
28.28988952478656
 22
7.505866157986937
 32
0.0
 13
28.28988952478656
 23
7.505866157986937
 33
0.0
  0
SOLID
  5
2FB
  8
0
 62
    13
 10
28.28988952478656
 20
6.979433995109581
 30
0.0
 11
28.28988952478656
 21
7.505866157986937
 31
0.0
 12
28.41368077446174
 22
6.843641462908139
 32
0.0
 13
28.41368077446174
 23
6.843641462908139
 33
0.0
  0
SOLID
  5
2FC
  8
0
 62
    13
 10
28.41368077446174
 20
6.843641462908139
 30
0.0
 11
28.28988952478656
 21
7.505866157986937
 31
0.0
 12
28.41368077446174
 22
7.641658690188378
 32
0.0
 13
28.41368077446174
 23
7.641658690188378
 33
0.0
  0
SOLID
  5
2FD
  8
0
 62
    13
 10
28.41368077446174
 20
6.843641462908139
 30
0.0
 11
28.41368077446174
 21
7.641658690188378
 31
0.0
 12
28.57816659761533
 22
6.761737254961849
 32
0.0
 13
28.57816659761533
 23
6.761737254961849
 33
0.0
  0
SOLID
  5
2FE
  8
0
 62
    13
 10
28.57816659761533
 20
6.761737254961849
 30
0.0
 11
28.41368077446174
 21
7.641658690188378
 31
0.0
 12
28.57816659761533
 22
7.723562898134668
 32
0.0
 13
28.57816659761533
 23
7.723562898134668
 33
0.0
  0
SOLID
  5
2FF
  8
0
 62
    13
 10
28.57816659761533
 20
6.761737254961849
 30
0.0
 11
28.57816659761533
 21
7.723562898134668
 31
0.0
 12
28.76113227238302
 22
6.744782988400742
 32
0.0
 13
28.76113227238302
 23
6.744782988400742
 33
0.0
  0
SOLID
  5
300
  8
0
 62
    13
 10
28.76113227238302
 20
6.744782988400742
 30
0.0
 11
28.57816659761533
 21
7.723562898134668
 31
0.0
 12
28.76113227238302
 22
7.740517164695776
 32
0.0
 13
28.76113227238302
 23
7.740517164695776
 33
0.0
  0
SOLID
  5
301
  8
0
 62
    13
 10
28.76113227238302
 20
6.744782988400742
 30
0.0
 11
28.76113227238302
 21
7.740517164695776
 31
0.0
 12
28.93786727053964
 22
6.795068430870727
 32
0.0
 13
28.93786727053964
 23
6.795068430870727
 33
0.0
  0
SOLID
  5
302
  8
0
 62
    13
 10
28.93786727053964
 20
6.795068430870727
 30
0.0
 11
28.76113227238302
 21
7.740517164695776
 31
0.0
 12
28.93786727053964
 22
7.69023172222579
 32
0.0
 13
28.93786727053964
 23
7.69023172222579
 33
0.0
  0
SOLID
  5
303
  8
0
 62
    13
 10
28.93786727053964
 20
6.795068430870727
 30
0.0
 11
28.93786727053964
 21
7.69023172222579
 31
0.0
 12
29.0845025512617
 22
6.90580225472498
 32
0.0
 13
29.0845025512617
 23
6.90580225472498
 33
0.0
  0
SOLID
  5
304
  8
0
 62
    13
 10
29.0845025512617
 20
6.90580225472498
 30
0.0
 11
28.93786727053964
 21
7.69023172222579
 31
0.0
 12
29.0845025512617
 22
7.579497898371537
 32
0.0
 13
29.0845025512617
 23
7.579497898371537
 33
0.0
  0
SOLID
  5
305
  8
0
 62
    13
 10
29.0845025512617
 20
6.90580225472498
 30
0.0
 11
29.0845025512617
 21
7.579497898371537
 31
0.0
 12
29.18123420735355
 22
7.062029243454682
 32
0.0
 13
29.18123420735355
 23
7.062029243454682
 33
0.0
  0
SOLID
  5
306
  8
0
 62
    13
 10
29.18123420735355
 20
7.062029243454682
 30
0.0
 11
29.0845025512617
 21
7.579497898371537
 31
0.0
 12
29.18123420735355
 22
7.423270909641835
 32
0.0
 13
29.18123420735355
 23
7.423270909641835
 33
0.0
  0
SOLID
  5
307
  8
0
 62
    13
 10
29.18123420735355
 20
7.062029243454682
 30
0.0
 11
29.18123420735355
 21
7.423270909641835
 31
0.0
 12
29.21499809265137
 22
7.242650076548259
 32
0.0
 13
29.21499809265137
 23
7.242650076548259
 33
0.0
  0
ENDBLK
  5
379
  8
0
  0
BLOCK
  8
0
  2
*U27
 70
     1
 10
0.0
 20
0.0
 30
0.0
  3
*U27
  1

  0
SOLID
  5
309
  8
0
 62
    13
 10
28.22351154280942
 20
9.150775317639974
 30
0.0
 11
28.22351154280942
 21
9.334524835456543
 31
0.0
 12
28.28988952478656
 22
8.97943399510958
 32
0.0
 13
28.28988952478656
 23
8.97943399510958
 33
0.0
  0
SOLID
  5
30A
  8
0
 62
    13
 10
28.28988952478656
 20
8.97943399510958
 30
0.0
 11
28.22351154280942
 21
9.334524835456543
 31
0.0
 12
28.28988952478656
 22
9.505866157986937
 32
0.0
 13
28.28988952478656
 23
9.505866157986937
 33
0.0
  0
SOLID
  5
30B
  8
0
 62
    13
 10
28.28988952478656
 20
8.97943399510958
 30
0.0
 11
28.28988952478656
 21
9.505866157986937
 31
0.0
 12
28.41368077446174
 22
8.843641462908138
 32
0.0
 13
28.41368077446174
 23
8.843641462908138
 33
0.0
  0
SOLID
  5
30C
  8
0
 62
    13
 10
28.41368077446174
 20
8.843641462908138
 30
0.0
 11
28.28988952478656
 21
9.505866157986937
 31
0.0
 12
28.41368077446174
 22
9.641658690188379
 32
0.0
 13
28.41368077446174
 23
9.641658690188379
 33
0.0
  0
SOLID
  5
30D
  8
0
 62
    13
 10
28.41368077446174
 20
8.843641462908138
 30
0.0
 11
28.41368077446174
 21
9.641658690188379
 31
0.0
 12
28.57816659761533
 22
8.761737254961849
 32
0.0
 13
28.57816659761533
 23
8.761737254961849
 33
0.0
  0
SOLID
  5
30E
  8
0
 62
    13
 10
28.57816659761533
 20
8.761737254961849
 30
0.0
 11
28.41368077446174
 21
9.641658690188379
 31
0.0
 12
28.57816659761533
 22
9.723562898134668
 32
0.0
 13
28.57816659761533
 23
9.723562898134668
 33
0.0
  0
SOLID
  5
30F
  8
0
 62
    13
 10
28.57816659761533
 20
8.761737254961849
 30
0.0
 11
28.57816659761533
 21
9.723562898134668
 31
0.0
 12
28.76113227238302
 22
8.744782988400742
 32
0.0
 13
28.76113227238302
 23
8.744782988400742
 33
0.0
  0
SOLID
  5
310
  8
0
 62
    13
 10
28.76113227238302
 20
8.744782988400742
 30
0.0
 11
28.57816659761533
 21
9.723562898134668
 31
0.0
 12
28.76113227238302
 22
9.740517164695776
 32
0.0
 13
28.76113227238302
 23
9.740517164695776
 33
0.0
  0
SOLID
  5
311
  8
0
 62
    13
 10
28.76113227238302
 20
8.744782988400742
 30
0.0
 11
28.76113227238302
 21
9.740517164695776
 31
0.0
 12
28.93786727053964
 22
8.795068430870728
 32
0.0
 13
28.93786727053964
 23
8.795068430870728
 33
0.0
  0
SOLID
  5
312
  8
0
 62
    13
 10
28.93786727053964
 20
8.795068430870728
 30
0.0
 11
28.76113227238302
 21
9.740517164695776
 31
0.0
 12
28.93786727053964
 22
9.69023172222579
 32
0.0
 13
28.93786727053964
 23
9.69023172222579
 33
0.0
  0
SOLID
  5
313
  8
0
 62
    13
 10
28.93786727053964
 20
8.795068430870728
 30
0.0
 11
28.93786727053964
 21
9.69023172222579
 31
0.0
 12
29.0845025512617
 22
8.90580225472498
 32
0.0
 13
29.0845025512617
 23
8.90580225472498
 33
0.0
  0
SOLID
  5
314
  8
0
 62
    13
 10
29.0845025512617
 20
8.90580225472498
 30
0.0
 11
28.93786727053964
 21
9.69023172222579
 31
0.0
 12
29.0845025512617
 22
9.579497898371537
 32
0.0
 13
29.0845025512617
 23
9.579497898371537
 33
0.0
  0
SOLID
  5
315
  8
0
 62
    13
 10
29.0845025512617
 20
8.90580225472498
 30
0.0
 11
29.0845025512617
 21
9.579497898371537
 31
0.0
 12
29.18123420735355
 22
9.062029243454681
 32
0.0
 13
29.18123420735355
 23
9.062029243454681
 33
0.0
  0
SOLID
  5
316
  8
0
 62
    13
 10
29.18123420735355
 20
9.062029243454681
 30
0.0
 11
29.0845025512617
 21
9.579497898371537
 31
0.0
 12
29.18123420735355
 22
9.423270909641834
 32
0.0
 13
29.18123420735355
 23
9.423270909641834
 33
0.0
  0
SOLID
  5
317
  8
0
 62
    13
 10
29.18123420735355
 20
9.062029243454681
 30
0.0
 11
29.18123420735355
 21
9.423270909641834
 31
0.0
 12
29.21499809265137
 22
9.242650076548259
 32
0.0
 13
29.21499809265137
 23
9.242650076548259
 33
0.0
  0
ENDBLK
  5
37B
  8
0
  0
BLOCK
  8
0
  2
*U28
 70
     1
 10
0.0
 20
0.0
 30
0.0
  3
*U28
  1

  0
SOLID
  5
319
  8
0
 62
    13
 10
28.22351154280942
 20
12.15077531763997
 30
0.0
 11
28.22351154280942
 21
12.33452483545654
 31
0.0
 12
28.28988952478656
 22
11.97943399510958
 32
0.0
 13
28.28988952478656
 23
11.97943399510958
 33
0.0
  0
SOLID
  5
31A
  8
0
 62
    13
 10
28.28988952478656
 20
11.97943399510958
 30
0.0
 11
28.22351154280942
 21
12.33452483545654
 31
0.0
 12
28.28988952478656
 22
12.50586615798694
 32
0.0
 13
28.28988952478656
 23
12.50586615798694
 33
0.0
  0
SOLID
  5
31B
  8
0
 62
    13
 10
28.28988952478656
 20
11.97943399510958
 30
0.0
 11
28.28988952478656
 21
12.50586615798694
 31
0.0
 12
28.41368077446174
 22
11.84364146290814
 32
0.0
 13
28.41368077446174
 23
11.84364146290814
 33
0.0
  0
SOLID
  5
31C
  8
0
 62
    13
 10
28.41368077446174
 20
11.84364146290814
 30
0.0
 11
28.28988952478656
 21
12.50586615798694
 31
0.0
 12
28.41368077446174
 22
12.64165869018838
 32
0.0
 13
28.41368077446174
 23
12.64165869018838
 33
0.0
  0
SOLID
  5
31D
  8
0
 62
    13
 10
28.41368077446174
 20
11.84364146290814
 30
0.0
 11
28.41368077446174
 21
12.64165869018838
 31
0.0
 12
28.57816659761533
 22
11.76173725496185
 32
0.0
 13
28.57816659761533
 23
11.76173725496185
 33
0.0
  0
SOLID
  5
31E
  8
0
 62
    13
 10
28.57816659761533
 20
11.76173725496185
 30
0.0
 11
28.41368077446174
 21
12.64165869018838
 31
0.0
 12
28.57816659761533
 22
12.72356289813467
 32
0.0
 13
28.57816659761533
 23
12.72356289813467
 33
0.0
  0
SOLID
  5
31F
  8
0
 62
    13
 10
28.57816659761533
 20
11.76173725496185
 30
0.0
 11
28.57816659761533
 21
12.72356289813467
 31
0.0
 12
28.76113227238302
 22
11.74478298840074
 32
0.0
 13
28.76113227238302
 23
11.74478298840074
 33
0.0
  0
SOLID
  5
320
  8
0
 62
    13
 10
28.76113227238302
 20
11.74478298840074
 30
0.0
 11
28.57816659761533
 21
12.72356289813467
 31
0.0
 12
28.76113227238302
 22
12.74051716469578
 32
0.0
 13
28.76113227238302
 23
12.74051716469578
 33
0.0
  0
SOLID
  5
321
  8
0
 62
    13
 10
28.76113227238302
 20
11.74478298840074
 30
0.0
 11
28.76113227238302
 21
12.74051716469578
 31
0.0
 12
28.93786727053964
 22
11.79506843087073
 32
0.0
 13
28.93786727053964
 23
11.79506843087073
 33
0.0
  0
SOLID
  5
322
  8
0
 62
    13
 10
28.93786727053964
 20
11.79506843087073
 30
0.0
 11
28.76113227238302
 21
12.74051716469578
 31
0.0
 12
28.93786727053964
 22
12.69023172222579
 32
0.0
 13
28.93786727053964
 23
12.69023172222579
 33
0.0
  0
SOLID
  5
323
  8
0
 62
    13
 10
28.93786727053964
 20
11.79506843087073
 30
0.0
 11
28.93786727053964
 21
12.69023172222579
 31
0.0
 12
29.0845025512617
 22
11.90580225472498
 32
0.0
 13
29.0845025512617
 23
11.90580225472498
 33
0.0
  0
SOLID
  5
324
  8
0
 62
    13
 10
29.0845025512617
 20
11.90580225472498
 30
0.0
 11
28.93786727053964
 21
12.69023172222579
 31
0.0
 12
29.0845025512617
 22
12.57949789837154
 32
0.0
 13
29.0845025512617
 23
12.57949789837154
 33
0.0
  0
SOLID
  5
325
  8
0
 62
    13
 10
29.0845025512617
 20
11.90580225472498
 30
0.0
 11
29.0845025512617
 21
12.57949789837154
 31
0.0
 12
29.18123420735355
 22
12.06202924345468
 32
0.0
 13
29.18123420735355
 23
12.06202924345468
 33
0.0
  0
SOLID
  5
326
  8
0
 62
    13
 10
29.18123420735355
 20
12.06202924345468
 30
0.0
 11
29.0845025512617
 21
12.57949789837154
 31
0.0
 12
29.18123420735355
 22
12.42327090964183
 32
0.0
 13
29.18123420735355
 23
12.42327090964183
 33
0.0
  0
SOLID
  5
327
  8
0
 62
    13
 10
29.18123420735355
 20
12.06202924345468
 30
0.0
 11
29.18123420735355
 21
12.42327090964183
 31
0.0
 12
29.21499809265137
 22
12.24265007654826
 32
0.0
 13
29.21499809265137
 23
12.24265007654826
 33
0.0
  0
ENDBLK
  5
37D
  8
0
  0
BLOCK
  8
0
  2
*U29
 70
     1
 10
0.0
 20
0.0
 30
0.0
  3
*U29
  1

  0
SOLID
  5
329
  8
0
 62
    13
 10
28.22351154280942
 20
14.15077531763997
 30
0.0
 11
28.22351154280942
 21
14.33452483545654
 31
0.0
 12
28.28988952478656
 22
13.97943399510958
 32
0.0
 13
28.28988952478656
 23
13.97943399510958
 33
0.0
  0
SOLID
  5
32A
  8
0
 62
    13
 10
28.28988952478656
 20
13.97943399510958
 30
0.0
 11
28.22351154280942
 21
14.33452483545654
 31
0.0
 12
28.28988952478656
 22
14.50586615798694
 32
0.0
 13
28.28988952478656
 23
14.50586615798694
 33
0.0
  0
SOLID
  5
32B
  8
0
 62
    13
 10
28.28988952478656
 20
13.97943399510958
 30
0.0
 11
28.28988952478656
 21
14.50586615798694
 31
0.0
 12
28.41368077446174
 22
13.84364146290814
 32
0.0
 13
28.41368077446174
 23
13.84364146290814
 33
0.0
  0
SOLID
  5
32C
  8
0
 62
    13
 10
28.41368077446174
 20
13.84364146290814
 30
0.0
 11
28.28988952478656
 21
14.50586615798694
 31
0.0
 12
28.41368077446174
 22
14.64165869018838
 32
0.0
 13
28.41368077446174
 23
14.64165869018838
 33
0.0
  0
SOLID
  5
32D
  8
0
 62
    13
 10
28.41368077446174
 20
13.84364146290814
 30
0.0
 11
28.41368077446174
 21
14.64165869018838
 31
0.0
 12
28.57816659761533
 22
13.76173725496185
 32
0.0
 13
28.57816659761533
 23
13.76173725496185
 33
0.0
  0
SOLID
  5
32E
  8
0
 62
    13
 10
28.57816659761533
 20
13.76173725496185
 30
0.0
 11
28.41368077446174
 21
14.64165869018838
 31
0.0
 12
28.57816659761533
 22
14.72356289813467
 32
0.0
 13
28.57816659761533
 23
14.72356289813467
 33
0.0
  0
SOLID
  5
32F
  8
0
 62
    13
 10
28.57816659761533
 20
13.76173725496185
 30
0.0
 11
28.57816659761533
 21
14.72356289813467
 31
0.0
 12
28.76113227238302
 22
13.74478298840074
 32
0.0
 13
28.76113227238302
 23
13.74478298840074
 33
0.0
  0
SOLID
  5
330
  8
0
 62
    13
 10
28.76113227238302
 20
13.74478298840074
 30
0.0
 11
28.57816659761533
 21
14.72356289813467
 31
0.0
 12
28.76113227238302
 22
14.74051716469578
 32
0.0
 13
28.76113227238302
 23
14.74051716469578
 33
0.0
  0
SOLID
  5
331
  8
0
 62
    13
 10
28.76113227238302
 20
13.74478298840074
 30
0.0
 11
28.76113227238302
 21
14.74051716469578
 31
0.0
 12
28.93786727053964
 22
13.79506843087073
 32
0.0
 13
28.93786727053964
 23
13.79506843087073
 33
0.0
  0
SOLID
  5
332
  8
0
 62
    13
 10
28.93786727053964
 20
13.79506843087073
 30
0.0
 11
28.76113227238302
 21
14.74051716469578
 31
0.0
 12
28.93786727053964
 22
14.69023172222579
 32
0.0
 13
28.93786727053964
 23
14.69023172222579
 33
0.0
  0
SOLID
  5
333
  8
0
 62
    13
 10
28.93786727053964
 20
13.79506843087073
 30
0.0
 11
28.93786727053964
 21
14.69023172222579
 31
0.0
 12
29.0845025512617
 22
13.90580225472498
 32
0.0
 13
29.0845025512617
 23
13.90580225472498
 33
0.0
  0
SOLID
  5
334
  8
0
 62
    13
 10
29.0845025512617
 20
13.90580225472498
 30
0.0
 11
28.93786727053964
 21
14.69023172222579
 31
0.0
 12
29.0845025512617
 22
14.57949789837154
 32
0.0
 13
29.0845025512617
 23
14.57949789837154
 33
0.0
  0
SOLID
  5
335
  8
0
 62
    13
 10
29.0845025512617
 20
13.90580225472498
 30
0.0
 11
29.0845025512617
 21
14.57949789837154
 31
0.0
 12
29.18123420735355
 22
14.06202924345468
 32
0.0
 13
29.18123420735355
 23
14.06202924345468
 33
0.0
  0
SOLID
  5
336
  8
0
 62
    13
 10
29.18123420735355
 20
14.06202924345468
 30
0.0
 11
29.0845025512617
 21
14.57949789837154
 31
0.0
 12
29.18123420735355
 22
14.42327090964183
 32
0.0
 13
29.18123420735355
 23
14.42327090964183
 33
0.0
  0
SOLID
  5
337
  8
0
 62
    13
 10
29.18123420735355
 20
14.06202924345468
 30
0.0
 11
29.18123420735355
 21
14.42327090964183
 31
0.0
 12
29.21499809265137
 22
14.24265007654826
 32
0.0
 13
29.21499809265137
 23
14.24265007654826
 33
0.0
  0
ENDBLK
  5
37F
  8
0
  0
BLOCK
  8
0
  2
*U30
 70
     1
 10
0.0
 20
0.0
 30
0.0
  3
*U30
  1

  0
SOLID
  5
339
  8
0
 62
    13
 10
28.22351154280942
 20
-0.8492246823600264
 30
0.0
 11
28.22351154280942
 21
-0.665475164543456
 31
0.0
 12
28.28988952478656
 22
-1.020566004890419
 32
0.0
 13
28.28988952478656
 23
-1.020566004890419
 33
0.0
  0
SOLID
  5
33A
  8
0
 62
    13
 10
28.28988952478656
 20
-1.020566004890419
 30
0.0
 11
28.22351154280942
 21
-0.665475164543456
 31
0.0
 12
28.28988952478656
 22
-0.4941338420130634
 32
0.0
 13
28.28988952478656
 23
-0.4941338420130634
 33
0.0
  0
SOLID
  5
33B
  8
0
 62
    13
 10
28.28988952478656
 20
-1.020566004890419
 30
0.0
 11
28.28988952478656
 21
-0.4941338420130634
 31
0.0
 12
28.41368077446174
 22
-1.156358537091861
 32
0.0
 13
28.41368077446174
 23
-1.156358537091861
 33
0.0
  0
SOLID
  5
33C
  8
0
 62
    13
 10
28.41368077446174
 20
-1.156358537091861
 30
0.0
 11
28.28988952478656
 21
-0.4941338420130634
 31
0.0
 12
28.41368077446174
 22
-0.3583413098116215
 32
0.0
 13
28.41368077446174
 23
-0.3583413098116215
 33
0.0
  0
SOLID
  5
33D
  8
0
 62
    13
 10
28.41368077446174
 20
-1.156358537091861
 30
0.0
 11
28.41368077446174
 21
-0.3583413098116215
 31
0.0
 12
28.57816659761533
 22
-1.238262745038151
 32
0.0
 13
28.57816659761533
 23
-1.238262745038151
 33
0.0
  0
SOLID
  5
33E
  8
0
 62
    13
 10
28.57816659761533
 20
-1.238262745038151
 30
0.0
 11
28.41368077446174
 21
-0.3583413098116215
 31
0.0
 12
28.57816659761533
 22
-0.2764371018653318
 32
0.0
 13
28.57816659761533
 23
-0.2764371018653318
 33
0.0
  0
SOLID
  5
33F
  8
0
 62
    13
 10
28.57816659761533
 20
-1.238262745038151
 30
0.0
 11
28.57816659761533
 21
-0.2764371018653318
 31
0.0
 12
28.76113227238302
 22
-1.255217011599258
 32
0.0
 13
28.76113227238302
 23
-1.255217011599258
 33
0.0
  0
SOLID
  5
340
  8
0
 62
    13
 10
28.76113227238302
 20
-1.255217011599258
 30
0.0
 11
28.57816659761533
 21
-0.2764371018653318
 31
0.0
 12
28.76113227238302
 22
-0.2594828353042241
 32
0.0
 13
28.76113227238302
 23
-0.2594828353042241
 33
0.0
  0
SOLID
  5
341
  8
0
 62
    13
 10
28.76113227238302
 20
-1.255217011599258
 30
0.0
 11
28.76113227238302
 21
-0.2594828353042241
 31
0.0
 12
28.93786727053964
 22
-1.204931569129272
 32
0.0
 13
28.93786727053964
 23
-1.204931569129272
 33
0.0
  0
SOLID
  5
342
  8
0
 62
    13
 10
28.93786727053964
 20
-1.204931569129272
 30
0.0
 11
28.76113227238302
 21
-0.2594828353042241
 31
0.0
 12
28.93786727053964
 22
-0.3097682777742102
 32
0.0
 13
28.93786727053964
 23
-0.3097682777742102
 33
0.0
  0
SOLID
  5
343
  8
0
 62
    13
 10
28.93786727053964
 20
-1.204931569129272
 30
0.0
 11
28.93786727053964
 21
-0.3097682777742102
 31
0.0
 12
29.0845025512617
 22
-1.09419774527502
 32
0.0
 13
29.0845025512617
 23
-1.09419774527502
 33
0.0
  0
SOLID
  5
344
  8
0
 62
    13
 10
29.0845025512617
 20
-1.09419774527502
 30
0.0
 11
28.93786727053964
 21
-0.3097682777742102
 31
0.0
 12
29.0845025512617
 22
-0.4205021016284627
 32
0.0
 13
29.0845025512617
 23
-0.4205021016284627
 33
0.0
  0
SOLID
  5
345
  8
0
 62
    13
 10
29.0845025512617
 20
-1.09419774527502
 30
0.0
 11
29.0845025512617
 21
-0.4205021016284627
 31
0.0
 12
29.18123420735355
 22
-0.9379707565453179
 32
0.0
 13
29.18123420735355
 23
-0.9379707565453179
 33
0.0
  0
SOLID
  5
346
  8
0
 62
    13
 10
29.18123420735355
 20
-0.9379707565453179
 30
0.0
 11
29.0845025512617
 21
-0.4205021016284627
 31
0.0
 12
29.18123420735355
 22
-0.5767290903581649
 32
0.0
 13
29.18123420735355
 23
-0.5767290903581649
 33
0.0
  0
SOLID
  5
347
  8
0
 62
    13
 10
29.18123420735355
 20
-0.9379707565453179
 30
0.0
 11
29.18123420735355
 21
-0.5767290903581649
 31
0.0
 12
29.21499809265137
 22
-0.7573499234517415
 32
0.0
 13
29.21499809265137
 23
-0.7573499234517415
 33
0.0
  0
ENDBLK
  5
381
  8
0
  0
BLOCK
  8
0
  2
*U31
 70
     1
 10
0.0
 20
0.0
 30
0.0
  3
*U31
  1

  0
SOLID
  5
349
  8
0
 62
    13
 10
28.22351154280942
 20
-5.849224682360027
 30
0.0
 11
28.22351154280942
 21
-5.665475164543456
 31
0.0
 12
28.28988952478656
 22
-6.020566004890419
 32
0.0
 13
28.28988952478656
 23
-6.020566004890419
 33
0.0
  0
SOLID
  5
34A
  8
0
 62
    13
 10
28.28988952478656
 20
-6.020566004890419
 30
0.0
 11
28.22351154280942
 21
-5.665475164543456
 31
0.0
 12
28.28988952478656
 22
-5.494133842013063
 32
0.0
 13
28.28988952478656
 23
-5.494133842013063
 33
0.0
  0
SOLID
  5
34B
  8
0
 62
    13
 10
28.28988952478656
 20
-6.020566004890419
 30
0.0
 11
28.28988952478656
 21
-5.494133842013063
 31
0.0
 12
28.41368077446174
 22
-6.156358537091861
 32
0.0
 13
28.41368077446174
 23
-6.156358537091861
 33
0.0
  0
SOLID
  5
34C
  8
0
 62
    13
 10
28.41368077446174
 20
-6.156358537091861
 30
0.0
 11
28.28988952478656
 21
-5.494133842013063
 31
0.0
 12
28.41368077446174
 22
-5.358341309811622
 32
0.0
 13
28.41368077446174
 23
-5.358341309811622
 33
0.0
  0
SOLID
  5
34D
  8
0
 62
    13
 10
28.41368077446174
 20
-6.156358537091861
 30
0.0
 11
28.41368077446174
 21
-5.358341309811622
 31
0.0
 12
28.57816659761533
 22
-6.238262745038151
 32
0.0
 13
28.57816659761533
 23
-6.238262745038151
 33
0.0
  0
SOLID
  5
34E
  8
0
 62
    13
 10
28.57816659761533
 20
-6.238262745038151
 30
0.0
 11
28.41368077446174
 21
-5.358341309811622
 31
0.0
 12
28.57816659761533
 22
-5.276437101865332
 32
0.0
 13
28.57816659761533
 23
-5.276437101865332
 33
0.0
  0
SOLID
  5
34F
  8
0
 62
    13
 10
28.57816659761533
 20
-6.238262745038151
 30
0.0
 11
28.57816659761533
 21
-5.276437101865332
 31
0.0
 12
28.76113227238302
 22
-6.255217011599258
 32
0.0
 13
28.76113227238302
 23
-6.255217011599258
 33
0.0
  0
SOLID
  5
350
  8
0
 62
    13
 10
28.76113227238302
 20
-6.255217011599258
 30
0.0
 11
28.57816659761533
 21
-5.276437101865332
 31
0.0
 12
28.76113227238302
 22
-5.259482835304224
 32
0.0
 13
28.76113227238302
 23
-5.259482835304224
 33
0.0
  0
SOLID
  5
351
  8
0
 62
    13
 10
28.76113227238302
 20
-6.255217011599258
 30
0.0
 11
28.76113227238302
 21
-5.259482835304224
 31
0.0
 12
28.93786727053964
 22
-6.204931569129273
 32
0.0
 13
28.93786727053964
 23
-6.204931569129273
 33
0.0
  0
SOLID
  5
352
  8
0
 62
    13
 10
28.93786727053964
 20
-6.204931569129273
 30
0.0
 11
28.76113227238302
 21
-5.259482835304224
 31
0.0
 12
28.93786727053964
 22
-5.30976827777421
 32
0.0
 13
28.93786727053964
 23
-5.30976827777421
 33
0.0
  0
SOLID
  5
353
  8
0
 62
    13
 10
28.93786727053964
 20
-6.204931569129273
 30
0.0
 11
28.93786727053964
 21
-5.30976827777421
 31
0.0
 12
29.0845025512617
 22
-6.09419774527502
 32
0.0
 13
29.0845025512617
 23
-6.09419774527502
 33
0.0
  0
SOLID
  5
354
  8
0
 62
    13
 10
29.0845025512617
 20
-6.09419774527502
 30
0.0
 11
28.93786727053964
 21
-5.30976827777421
 31
0.0
 12
29.0845025512617
 22
-5.420502101628463
 32
0.0
 13
29.0845025512617
 23
-5.420502101628463
 33
0.0
  0
SOLID
  5
355
  8
0
 62
    13
 10
29.0845025512617
 20
-6.09419774527502
 30
0.0
 11
29.0845025512617
 21
-5.420502101628463
 31
0.0
 12
29.18123420735355
 22
-5.937970756545318
 32
0.0
 13
29.18123420735355
 23
-5.937970756545318
 33
0.0
  0
SOLID
  5
356
  8
0
 62
    13
 10
29.18123420735355
 20
-5.937970756545318
 30
0.0
 11
29.0845025512617
 21
-5.420502101628463
 31
0.0
 12
29.18123420735355
 22
-5.576729090358165
 32
0.0
 13
29.18123420735355
 23
-5.576729090358165
 33
0.0
  0
SOLID
  5
357
  8
0
 62
    13
 10
29.18123420735355
 20
-5.937970756545318
 30
0.0
 11
29.18123420735355
 21
-5.576729090358165
 31
0.0
 12
29.21499809265137
 22
-5.757349923451741
 32
0.0
 13
29.21499809265137
 23
-5.757349923451741
 33
0.0
  0
ENDBLK
  5
383
  8
0
  0
BLOCK
  8
0
  2
*U32
 70
     1
 10
0.0
 20
0.0
 30
0.0
  3
*U32
  1

  0
SOLID
  5
359
  8
0
 62
    13
 10
28.22351154280942
 20
-7.849224920778606
 30
0.0
 11
28.22351154280942
 21
-7.665475402962035
 31
0.0
 12
28.28988952478656
 22
-8.020566243308998
 32
0.0
 13
28.28988952478656
 23
-8.020566243308998
 33
0.0
  0
SOLID
  5
35A
  8
0
 62
    13
 10
28.28988952478656
 20
-8.020566243308998
 30
0.0
 11
28.22351154280942
 21
-7.665475402962035
 31
0.0
 12
28.28988952478656
 22
-7.494134080431643
 32
0.0
 13
28.28988952478656
 23
-7.494134080431643
 33
0.0
  0
SOLID
  5
35B
  8
0
 62
    13
 10
28.28988952478656
 20
-8.020566243308998
 30
0.0
 11
28.28988952478656
 21
-7.494134080431643
 31
0.0
 12
28.41368077446174
 22
-8.15635877551044
 32
0.0
 13
28.41368077446174
 23
-8.15635877551044
 33
0.0
  0
SOLID
  5
35C
  8
0
 62
    13
 10
28.41368077446174
 20
-8.15635877551044
 30
0.0
 11
28.28988952478656
 21
-7.494134080431643
 31
0.0
 12
28.41368077446174
 22
-7.358341548230201
 32
0.0
 13
28.41368077446174
 23
-7.358341548230201
 33
0.0
  0
SOLID
  5
35D
  8
0
 62
    13
 10
28.41368077446174
 20
-8.15635877551044
 30
0.0
 11
28.41368077446174
 21
-7.358341548230201
 31
0.0
 12
28.57816659761533
 22
-8.23826298345673
 32
0.0
 13
28.57816659761533
 23
-8.23826298345673
 33
0.0
  0
SOLID
  5
35E
  8
0
 62
    13
 10
28.57816659761533
 20
-8.23826298345673
 30
0.0
 11
28.41368077446174
 21
-7.358341548230201
 31
0.0
 12
28.57816659761533
 22
-7.276437340283911
 32
0.0
 13
28.57816659761533
 23
-7.276437340283911
 33
0.0
  0
SOLID
  5
35F
  8
0
 62
    13
 10
28.57816659761533
 20
-8.23826298345673
 30
0.0
 11
28.57816659761533
 21
-7.276437340283911
 31
0.0
 12
28.76113227238302
 22
-8.255217250017838
 32
0.0
 13
28.76113227238302
 23
-8.255217250017838
 33
0.0
  0
SOLID
  5
360
  8
0
 62
    13
 10
28.76113227238302
 20
-8.255217250017838
 30
0.0
 11
28.57816659761533
 21
-7.276437340283911
 31
0.0
 12
28.76113227238302
 22
-7.259483073722803
 32
0.0
 13
28.76113227238302
 23
-7.259483073722803
 33
0.0
  0
SOLID
  5
361
  8
0
 62
    13
 10
28.76113227238302
 20
-8.255217250017838
 30
0.0
 11
28.76113227238302
 21
-7.259483073722803
 31
0.0
 12
28.93786727053964
 22
-8.204931807547851
 32
0.0
 13
28.93786727053964
 23
-8.204931807547851
 33
0.0
  0
SOLID
  5
362
  8
0
 62
    13
 10
28.93786727053964
 20
-8.204931807547851
 30
0.0
 11
28.76113227238302
 21
-7.259483073722803
 31
0.0
 12
28.93786727053964
 22
-7.309768516192789
 32
0.0
 13
28.93786727053964
 23
-7.309768516192789
 33
0.0
  0
SOLID
  5
363
  8
0
 62
    13
 10
28.93786727053964
 20
-8.204931807547851
 30
0.0
 11
28.93786727053964
 21
-7.309768516192789
 31
0.0
 12
29.0845025512617
 22
-8.094197983693599
 32
0.0
 13
29.0845025512617
 23
-8.094197983693599
 33
0.0
  0
SOLID
  5
364
  8
0
 62
    13
 10
29.0845025512617
 20
-8.094197983693599
 30
0.0
 11
28.93786727053964
 21
-7.309768516192789
 31
0.0
 12
29.0845025512617
 22
-7.420502340047042
 32
0.0
 13
29.0845025512617
 23
-7.420502340047042
 33
0.0
  0
SOLID
  5
365
  8
0
 62
    13
 10
29.0845025512617
 20
-8.094197983693599
 30
0.0
 11
29.0845025512617
 21
-7.420502340047042
 31
0.0
 12
29.18123420735355
 22
-7.937970994963897
 32
0.0
 13
29.18123420735355
 23
-7.937970994963897
 33
0.0
  0
SOLID
  5
366
  8
0
 62
    13
 10
29.18123420735355
 20
-7.937970994963897
 30
0.0
 11
29.0845025512617
 21
-7.420502340047042
 31
0.0
 12
29.18123420735355
 22
-7.576729328776744
 32
0.0
 13
29.18123420735355
 23
-7.576729328776744
 33
0.0
  0
SOLID
  5
367
  8
0
 62
    13
 10
29.18123420735355
 20
-7.937970994963897
 30
0.0
 11
29.18123420735355
 21
-7.576729328776744
 31
0.0
 12
29.21499809265137
 22
-7.75735016187032
 32
0.0
 13
29.21499809265137
 23
-7.75735016187032
 33
0.0
  0
ENDBLK
  5
385
  8
0
  0
BLOCK
  8
0
  2
*U33
 70
     1
 10
0.0
 20
0.0
 30
0.0
  3
*U33
  1

  0
SOLID
  5
369
  8
0
 62
    13
 10
28.22351154280942
 20
-2.849224682360026
 30
0.0
 11
28.22351154280942
 21
-2.665475164543456
 31
0.0
 12
28.28988952478656
 22
-3.020566004890419
 32
0.0
 13
28.28988952478656
 23
-3.020566004890419
 33
0.0
  0
SOLID
  5
36A
  8
0
 62
    13
 10
28.28988952478656
 20
-3.020566004890419
 30
0.0
 11
28.22351154280942
 21
-2.665475164543456
 31
0.0
 12
28.28988952478656
 22
-2.494133842013063
 32
0.0
 13
28.28988952478656
 23
-2.494133842013063
 33
0.0
  0
SOLID
  5
36B
  8
0
 62
    13
 10
28.28988952478656
 20
-3.020566004890419
 30
0.0
 11
28.28988952478656
 21
-2.494133842013063
 31
0.0
 12
28.41368077446174
 22
-3.156358537091861
 32
0.0
 13
28.41368077446174
 23
-3.156358537091861
 33
0.0
  0
SOLID
  5
36C
  8
0
 62
    13
 10
28.41368077446174
 20
-3.156358537091861
 30
0.0
 11
28.28988952478656
 21
-2.494133842013063
 31
0.0
 12
28.41368077446174
 22
-2.358341309811621
 32
0.0
 13
28.41368077446174
 23
-2.358341309811621
 33
0.0
  0
SOLID
  5
36D
  8
0
 62
    13
 10
28.41368077446174
 20
-3.156358537091861
 30
0.0
 11
28.41368077446174
 21
-2.358341309811621
 31
0.0
 12
28.57816659761533
 22
-3.238262745038151
 32
0.0
 13
28.57816659761533
 23
-3.238262745038151
 33
0.0
  0
SOLID
  5
36E
  8
0
 62
    13
 10
28.57816659761533
 20
-3.238262745038151
 30
0.0
 11
28.41368077446174
 21
-2.358341309811621
 31
0.0
 12
28.57816659761533
 22
-2.276437101865332
 32
0.0
 13
28.57816659761533
 23
-2.276437101865332
 33
0.0
  0
SOLID
  5
36F
  8
0
 62
    13
 10
28.57816659761533
 20
-3.238262745038151
 30
0.0
 11
28.57816659761533
 21
-2.276437101865332
 31
0.0
 12
28.76113227238302
 22
-3.255217011599258
 32
0.0
 13
28.76113227238302
 23
-3.255217011599258
 33
0.0
  0
SOLID
  5
370
  8
0
 62
    13
 10
28.76113227238302
 20
-3.255217011599258
 30
0.0
 11
28.57816659761533
 21
-2.276437101865332
 31
0.0
 12
28.76113227238302
 22
-2.259482835304224
 32
0.0
 13
28.76113227238302
 23
-2.259482835304224
 33
0.0
  0
SOLID
  5
371
  8
0
 62
    13
 10
28.76113227238302
 20
-3.255217011599258
 30
0.0
 11
28.76113227238302
 21
-2.259482835304224
 31
0.0
 12
28.93786727053964
 22
-3.204931569129272
 32
0.0
 13
28.93786727053964
 23
-3.204931569129272
 33
0.0
  0
SOLID
  5
372
  8
0
 62
    13
 10
28.93786727053964
 20
-3.204931569129272
 30
0.0
 11
28.76113227238302
 21
-2.259482835304224
 31
0.0
 12
28.93786727053964
 22
-2.30976827777421
 32
0.0
 13
28.93786727053964
 23
-2.30976827777421
 33
0.0
  0
SOLID
  5
373
  8
0
 62
    13
 10
28.93786727053964
 20
-3.204931569129272
 30
0.0
 11
28.93786727053964
 21
-2.30976827777421
 31
0.0
 12
29.0845025512617
 22
-3.09419774527502
 32
0.0
 13
29.0845025512617
 23
-3.09419774527502
 33
0.0
  0
SOLID
  5
374
  8
0
 62
    13
 10
29.0845025512617
 20
-3.09419774527502
 30
0.0
 11
28.93786727053964
 21
-2.30976827777421
 31
0.0
 12
29.0845025512617
 22
-2.420502101628463
 32
0.0
 13
29.0845025512617
 23
-2.420502101628463
 33
0.0
  0
SOLID
  5
375
  8
0
 62
    13
 10
29.0845025512617
 20
-3.09419774527502
 30
0.0
 11
29.0845025512617
 21
-2.420502101628463
 31
0.0
 12
29.18123420735355
 22
-2.937970756545318
 32
0.0
 13
29.18123420735355
 23
-2.937970756545318
 33
0.0
  0
SOLID
  5
376
  8
0
 62
    13
 10
29.18123420735355
 20
-2.937970756545318
 30
0.0
 11
29.0845025512617
 21
-2.420502101628463
 31
0.0
 12
29.18123420735355
 22
-2.576729090358165
 32
0.0
 13
29.18123420735355
 23
-2.576729090358165
 33
0.0
  0
SOLID
  5
377
  8
0
 62
    13
 10
29.18123420735355
 20
-2.937970756545318
 30
0.0
 11
29.18123420735355
 21
-2.576729090358165
 31
0.0
 12
29.21499809265137
 22
-2.757349923451741
 32
0.0
 13
29.21499809265137
 23
-2.757349923451741
 33
0.0
  0
ENDBLK
  5
387
  8
0
  0
ENDSEC
  0
SECTION
  2
ENTITIES
  0
LINE
  5
152
  8
0
  6
CONTINUOUS
 62
     7
 10
64.5
 20
-74.0
 30
0.0
 11
185.5
 21
-74.0
 31
0.0
  0
LINE
  5
153
  8
0
  6
CONTINUOUS
 62
     7
 10
-194.5
 20
-133.0
 30
0.0
 11
184.5
 21
-133.0
 31
0.0
  0
LINE
  5
154
  8
0
  6
CONTINUOUS
 62
     7
 10
-194.5
 20
133.0
 30
0.0
 11
-194.5
 21
-133.0
 31
0.0
  0
LINE
  5
155
  8
0
  6
CONTINUOUS
 62
     7
 10
64.5
 20
-74.0
 30
0.0
 11
64.5
 21
-133.0
 31
0.0
  0
LINE
  5
156
  8
0
  6
CONTINUOUS
 62
     7
 10
64.5
 20
-96.0
 30
0.0
 11
185.5
 21
-96.0
 31
0.0
  0
LINE
  5
157
  8
0
  6
CONTINUOUS
 62
     7
 10
64.5
 20
-85.0
 30
0.0
 11
185.5
 21
-85.0
 31
0.0
  0
LINE
  5
158
  8
0
  6
CONTINUOUS
 62
     7
 10
64.5
 20
-107.0
 30
0.0
 11
185.5
 21
-107.0
 31
0.0
  0
LINE
  5
159
  8
0
  6
CONTINUOUS
 62
     7
 10
64.5
 20
-118.0
 30
0.0
 11
185.5
 21
-118.0
 31
0.0
  0
LINE
  5
15A
  8
0
  6
CONTINUOUS
 62
     7
 10
151.5
 20
-74.0
 30
0.0
 11
151.5
 21
-118.0
 31
0.0
  0
LINE
  5
15B
  8
0
  6
CONTINUOUS
 62
     7
 10
122.5
 20
-107.0
 30
0.0
 11
122.5
 21
-118.0
 31
0.0
  0
LINE
  5
15C
  8
0
  6
CONTINUOUS
 62
     7
 10
93.5
 20
-107.0
 30
0.0
 11
93.5
 21
-118.0
 31
0.0
  0
LINE
  5
15D
  8
0
  6
CONTINUOUS
 62
     7
 10
184.5
 20
133.0
 30
0.0
 11
184.5
 21
-133.0
 31
0.0
  0
LINE
  5
15E
  8
0
  6
CONTINUOUS
 62
     7
 10
-194.5
 20
133.0
 30
0.0
 11
184.5
 21
133.0
 31
0.0
  0
LINE
  5
15F
  8
0
  6
CONTINUOUS
 62
     7
 10
126.4999978491029
 20
129.0000004689153
 30
0.0
 11
151.4999979625105
 21
125.0000005262236
 31
0.0
  0
LINE
  5
160
  8
0
  6
CONTINUOUS
 62
     7
 10
126.4404411315918
 20
129.0000004768372
 30
0.0
 11
184.5
 21
129.0000004768372
 31
0.0
  0
LINE
  5
161
  8
0
  6
CONTINUOUS
 62
     7
 10
126.5000038146973
 20
125.0000003874302
 30
0.0
 11
184.5
 21
125.0000003874302
 31
0.0
  0
LINE
  5
162
  8
0
  6
CONTINUOUS
 62
     7
 10
126.5000038146973
 20
121.0000004768372
 30
0.0
 11
184.5
 21
121.0000004768372
 31
0.0
  0
LINE
  5
163
  8
0
  6
CONTINUOUS
 62
     7
 10
126.5000038146973
 20
117.0000004768372
 30
0.0
 11
184.5
 21
117.0000004768372
 31
0.0
  0
LINE
  5
164
  8
0
  6
CONTINUOUS
 62
     7
 10
126.5000038146973
 20
113.0
 30
0.0
 11
184.5
 21
113.0
 31
0.0
  0
LINE
  5
165
  8
0
  6
CONTINUOUS
 62
     7
 10
126.5000038146973
 20
109.0
 30
0.0
 11
184.5
 21
109.0
 31
0.0
  0
LINE
  5
166
  8
0
  6
CONTINUOUS
 62
     7
 10
184.5
 20
133.0
 30
0.0
 11
184.5
 21
105.0
 31
0.0
  0
LINE
  5
167
  8
0
  6
CONTINUOUS
 62
     7
 10
173.5
 20
129.0000004768372
 30
0.0
 11
173.5
 21
105.0
 31
0.0
  0
LINE
  5
168
  8
0
  6
CONTINUOUS
 62
     7
 10
162.5
 20
129.0000004768372
 30
0.0
 11
162.5
 21
105.0
 31
0.0
  0
LINE
  5
169
  8
0
  6
CONTINUOUS
 62
     7
 10
151.5000038146973
 20
129.0000004768372
 30
0.0
 11
151.5000038146973
 21
105.0
 31
0.0
  0
LINE
  5
16A
  8
0
  6
CONTINUOUS
 62
     7
 10
126.5000038146973
 20
133.0
 30
0.0
 11
126.5000038146973
 21
105.0
 31
0.0
  0
LINE
  5
16B
  8
0
  6
CONTINUOUS
 62
     7
 10
121.5000038146973
 20
133.0
 30
0.0
 11
121.5000038146973
 21
105.0
 31
0.0
  0
LINE
  5
16C
  8
0
  6
CONTINUOUS
 62
     7
 10
121.5000038146973
 20
133.0
 30
0.0
 11
184.396411895752
 21
133.0
 31
0.0
  0
LINE
  5
16D
  8
0
  6
CONTINUOUS
 62
     7
 10
121.5000038146973
 20
105.0
 30
0.0
 11
184.5
 21
105.0
 31
0.0
  0
LINE
  5
16E
  8
0
  6
CONTINUOUS
 62
     7
 10
84.5
 20
-85.0
 30
0.0
 11
84.5
 21
-107.0
 31
0.0
  0
LINE
  5
16F
  8
0
  6
CONTINUOUS
 62
     7
 10
152.6163728456568
 20
-126.5361668241051
 30
0.0
 11
152.7999359294301
 21
-126.5361668241051
 31
0.0
  0
LINE
  5
170
  8
0
  6
CONTINUOUS
 62
     7
 10
152.6163728456568
 20
-127.5524216486367
 30
0.0
 11
153.0835787514163
 21
-127.5524216486367
 31
0.0
  0
LINE
  5
171
  8
0
  6
CONTINUOUS
 62
     7
 10
152.6163728456568
 20
-123.3694543431024
 30
0.0
 11
152.6163728456568
 21
-124.5694543431024
 31
0.0
  0
LINE
  5
172
  8
0
  6
CONTINUOUS
 62
     7
 10
156.2163728456568
 20
-122.1694543431024
 30
0.0
 11
156.2163728456568
 21
-123.3694543431024
 31
0.0
  0
LINE
  5
173
  8
0
  6
CONTINUOUS
 62
     7
 10
158.4163728456568
 20
-129.9305456568976
 30
0.0
 11
164.4163728456568
 21
-129.9305456568976
 31
0.0
  0
LINE
  5
174
  8
0
  6
CONTINUOUS
 62
     7
 10
154.6163728456568
 20
-127.3116802321412
 30
0.0
 11
154.6163728456568
 21
-129.9305456568976
 31
0.0
  0
LINE
  5
175
  8
0
  6
CONTINUOUS
 62
     7
 10
152.6163728456568
 20
-124.5694543431024
 30
0.0
 11
155.6163728456568
 21
-124.5694543431024
 31
0.0
  0
LINE
  5
176
  8
0
  6
CONTINUOUS
 62
     7
 10
156.2163728456568
 20
-123.3694543431024
 30
0.0
 11
158.0163728456568
 21
-123.3694543431024
 31
0.0
  0
LINE
  5
177
  8
0
  6
CONTINUOUS
 62
     7
 10
152.6163728456568
 20
-123.3694543431024
 30
0.0
 11
154.6163728456568
 21
-123.3694543431024
 31
0.0
  0
LINE
  5
178
  8
0
  6
CONTINUOUS
 62
     7
 10
162.3163728456568
 20
-124.5694543431024
 30
0.0
 11
163.9163728456568
 21
-124.5694543431024
 31
0.0
  0
LINE
  5
179
  8
0
  6
CONTINUOUS
 62
     7
 10
162.3163728456568
 20
-123.3694543431024
 30
0.0
 11
163.9163728456568
 21
-123.3694543431024
 31
0.0
  0
LINE
  5
17A
  8
0
  6
CONTINUOUS
 62
     7
 10
162.3163728456568
 20
-124.5694543431024
 30
0.0
 11
162.3163728456568
 21
-127.9694543431024
 31
0.0
  0
LINE
  5
17B
  8
0
  6
CONTINUOUS
 62
     7
 10
162.3163728456568
 20
-127.9694543431024
 30
0.0
 11
164.4163728456568
 21
-127.9694543431024
 31
0.0
  0
LINE
  5
17C
  8
0
  6
CONTINUOUS
 62
     7
 10
154.6163728456568
 20
-122.1694543431024
 30
0.0
 11
156.2163728456568
 21
-122.1694543431024
 31
0.0
  0
LINE
  5
17D
  8
0
  6
CONTINUOUS
 62
     7
 10
158.4163728456568
 20
-127.9694543431024
 30
0.0
 11
160.4163728456568
 21
-127.9694543431024
 31
0.0
  0
LINE
  5
17E
  8
0
  6
CONTINUOUS
 62
     7
 10
160.4163728456568
 20
-124.5694543431024
 30
0.0
 11
160.4163728456568
 21
-127.9694543431024
 31
0.0
  0
LINE
  5
17F
  8
0
  6
CONTINUOUS
 62
     7
 10
158.6163728456568
 20
-124.5694543431024
 30
0.0
 11
160.4163728456568
 21
-124.5694543431024
 31
0.0
  0
LINE
  5
180
  8
0
  6
CONTINUOUS
 62
     7
 10
160.4163728456568
 20
-122.1694543431024
 30
0.0
 11
162.3163728456568
 21
-122.1694543431024
 31
0.0
  0
LINE
  5
181
  8
0
  6
CONTINUOUS
 62
     7
 10
158.6163728456568
 20
-123.3694543431024
 30
0.0
 11
160.4163728456568
 21
-123.3694543431024
 31
0.0
  0
LINE
  5
182
  8
0
  6
CONTINUOUS
 62
     7
 10
154.6163728456568
 20
-129.9305456568976
 30
0.0
 11
156.2163728456568
 21
-129.9305456568976
 31
0.0
  0
LINE
  5
183
  8
0
  6
CONTINUOUS
 62
     7
 10
164.4163728456568
 20
-127.9694543431024
 30
0.0
 11
164.4163728456568
 21
-129.9305456568976
 31
0.0
  0
LINE
  5
184
  8
0
  6
CONTINUOUS
 62
     7
 10
147.0163728456568
 20
-128.3305456568976
 30
0.0
 11
146.8163728456569
 21
-128.1305456568977
 31
0.0
  0
LINE
  5
185
  8
0
  6
CONTINUOUS
 62
     7
 10
162.3163728456568
 20
-122.1694543431024
 30
0.0
 11
162.3163728456568
 21
-123.3694543431024
 31
0.0
  0
LINE
  5
186
  8
0
  6
CONTINUOUS
 62
     7
 10
163.9163728456568
 20
-123.3694543431024
 30
0.0
 11
163.9163728456568
 21
-124.5694543431024
 31
0.0
  0
LINE
  5
187
  8
0
  6
CONTINUOUS
 62
     7
 10
158.4163728456568
 20
-127.9694543431024
 30
0.0
 11
158.4163728456568
 21
-129.9305456568976
 31
0.0
  0
LINE
  5
188
  8
0
  6
CONTINUOUS
 62
     7
 10
151.2163728456568
 20
-129.1305456568976
 30
0.0
 11
151.2163728456568
 21
-129.9305456568976
 31
0.0
  0
LINE
  5
189
  8
0
  6
CONTINUOUS
 62
     7
 10
160.4163728456568
 20
-122.1694543431024
 30
0.0
 11
160.4163728456568
 21
-123.3694543431024
 31
0.0
  0
LINE
  5
18A
  8
0
  6
CONTINUOUS
 62
     7
 10
143.6163728456567
 20
-128.1305456568976
 30
0.0
 11
143.2163728456567
 21
-128.9305456568976
 31
0.0
  0
LINE
  5
18B
  8
0
  6
CONTINUOUS
 62
     7
 10
143.6163728456568
 20
-128.1305456568976
 30
0.0
 11
146.8163728456568
 21
-128.1305456568976
 31
0.0
  0
LINE
  5
18C
  8
0
  6
CONTINUOUS
 62
     7
 10
149.4163728456568
 20
-128.1305456568976
 30
0.0
 11
151.2163728456568
 21
-128.1305456568976
 31
0.0
  0
LINE
  5
18D
  8
0
  6
CONTINUOUS
 62
     7
 10
141.2163728456567
 20
-128.1305456568975
 30
0.0
 11
140.2163728456567
 21
-129.9305456568975
 31
0.0
  0
LINE
  5
18E
  8
0
  6
CONTINUOUS
 62
     7
 10
158.6163728456568
 20
-123.3694543431024
 30
0.0
 11
158.6163728456568
 21
-124.5694543431024
 31
0.0
  0
LINE
  5
18F
  8
0
  6
CONTINUOUS
 62
     7
 10
151.2163728456568
 20
-123.9305456568976
 30
0.0
 11
151.2163728456568
 21
-125.1305456568976
 31
0.0
  0
LINE
  5
190
  8
0
  6
CONTINUOUS
 62
     7
 10
139.2163728456568
 20
-123.9305456568976
 30
0.0
 11
139.2163728456568
 21
-125.1305456568976
 31
0.0
  0
LINE
  5
191
  8
0
  6
CONTINUOUS
 62
     7
 10
158.0163728456568
 20
-126.5305456568976
 30
0.0
 11
158.0163728456568
 21
-127.5305456568976
 31
0.0
  0
LINE
  5
192
  8
0
  6
CONTINUOUS
 62
     7
 10
154.6163728456568
 20
-122.1694543431024
 30
0.0
 11
154.6163728456568
 21
-123.3694543431024
 31
0.0
  0
LINE
  5
193
  8
0
  6
CONTINUOUS
 62
     7
 10
139.2163728456568
 20
-125.1331447746538
 30
0.0
 11
139.4443544232267
 21
-125.1331447746538
 31
0.0
  0
LINE
  5
194
  8
0
  6
CONTINUOUS
 62
     7
 10
156.2163728456568
 20
-127.0305456568976
 30
0.0
 11
156.2163728456568
 21
-129.9305456568976
 31
0.0
  0
LINE
  5
195
  8
0
  6
CONTINUOUS
 62
     7
 10
143.2163728456568
 20
-128.9305456568976
 30
0.0
 11
144.9092420950863
 21
-128.9305456568976
 31
0.0
  0
LINE
  5
196
  8
0
  6
CONTINUOUS
 62
     7
 10
139.2163728456568
 20
-128.1305456568976
 30
0.0
 11
141.2163728456568
 21
-128.1305456568976
 31
0.0
  0
LINE
  5
197
  8
0
  6
CONTINUOUS
 62
     7
 10
139.2163728456568
 20
-127.1305456568976
 30
0.0
 11
151.2163728456568
 21
-127.1305456568976
 31
0.0
  0
LINE
  5
198
  8
0
  6
CONTINUOUS
 62
     7
 10
140.6163728456568
 20
-126.5305456568976
 30
0.0
 11
149.2163728456568
 21
-126.5305456568976
 31
0.0
  0
LINE
  5
199
  8
0
  6
CONTINUOUS
 62
     7
 10
149.9495181016829
 20
-125.1331447746538
 30
0.0
 11
151.2163728456568
 21
-125.1331447746538
 31
0.0
  0
LINE
  5
19A
  8
0
  6
CONTINUOUS
 62
     7
 10
140.6163728456568
 20
-125.5305456568976
 30
0.0
 11
149.2163728456568
 21
-125.5305456568976
 31
0.0
  0
LINE
  5
19B
  8
0
  6
CONTINUOUS
 62
     7
 10
149.2163728456568
 20
-125.5305456568976
 30
0.0
 11
149.2163728456568
 21
-126.5305456568976
 31
0.0
  0
LINE
  5
19C
  8
0
  6
CONTINUOUS
 62
     7
 10
140.6163728456568
 20
-125.5305456568976
 30
0.0
 11
140.6163728456568
 21
-126.5305456568976
 31
0.0
  0
LINE
  5
19D
  8
0
  6
CONTINUOUS
 62
     7
 10
151.2163728456568
 20
-127.1305456568976
 30
0.0
 11
151.2163728456568
 21
-128.1305456568976
 31
0.0
  0
LINE
  5
19E
  8
0
  6
CONTINUOUS
 62
     7
 10
139.2163728456568
 20
-127.1305456568976
 30
0.0
 11
139.2163728456568
 21
-128.1305456568976
 31
0.0
  0
LINE
  5
19F
  8
0
  6
CONTINUOUS
 62
     7
 10
150.7786428876944
 20
-123.9465342528391
 30
0.0
 11
151.2163728456568
 21
-123.9465342528391
 31
0.0
  0
LINE
  5
1A0
  8
0
  6
CONTINUOUS
 62
     7
 10
142.9163728456568
 20
-122.1694543431024
 30
0.0
 11
146.5163728456568
 21
-122.1694543431024
 31
0.0
  0
LINE
  5
1A1
  8
0
  6
CONTINUOUS
 62
     7
 10
113.3463728456568
 20
-129.9305456568976
 30
0.0
 11
114.9463728456568
 21
-129.9305456568976
 31
0.0
  0
LINE
  5
1A2
  8
0
  6
CONTINUOUS
 62
     7
 10
119.1463728456568
 20
-129.9305456568976
 30
0.0
 11
120.9463728456568
 21
-129.9305456568976
 31
0.0
  0
LINE
  5
1A3
  8
0
  6
CONTINUOUS
 62
     7
 10
136.1963728456568
 20
-127.2305456568976
 30
0.0
 11
137.6963728456568
 21
-127.2305456568976
 31
0.0
  0
LINE
  5
1A4
  8
0
  6
CONTINUOUS
 62
     7
 10
134.7963728456568
 20
-124.3694543431024
 30
0.0
 11
137.7163728456568
 21
-124.3694543431024
 31
0.0
  0
LINE
  5
1A5
  8
0
  6
CONTINUOUS
 62
     7
 10
136.1963728456568
 20
-122.1694543431024
 30
0.0
 11
137.7163728456568
 21
-122.1694543431024
 31
0.0
  0
LINE
  5
1A6
  8
0
  6
CONTINUOUS
 62
     7
 10
129.9463728456568
 20
-126.4694543431024
 30
0.0
 11
131.7463728456568
 21
-126.4694543431024
 31
0.0
  0
LINE
  5
1A7
  8
0
  6
CONTINUOUS
 62
     7
 10
125.1463728456568
 20
-126.4694543431024
 30
0.0
 11
127.8463728456568
 21
-126.4694543431024
 31
0.0
  0
LINE
  5
1A8
  8
0
  6
CONTINUOUS
 62
     7
 10
125.1463728456568
 20
-124.3694543431024
 30
0.0
 11
125.1463728456568
 21
-123.3694543431024
 31
0.0
  0
LINE
  5
1A9
  8
0
  6
CONTINUOUS
 62
     7
 10
132.6463728456568
 20
-129.9305456568976
 30
0.0
 11
134.7963728456568
 21
-129.9305456568976
 31
0.0
  0
LINE
  5
1AA
  8
0
  6
CONTINUOUS
 62
     7
 10
129.9463728456568
 20
-127.8694543431024
 30
0.0
 11
131.7463728456568
 21
-127.8694543431024
 31
0.0
  0
LINE
  5
1AB
  8
0
  6
CONTINUOUS
 62
     7
 10
125.1463728456568
 20
-127.8694543431023
 30
0.0
 11
125.1463728456568
 21
-129.9305456568976
 31
0.0
  0
LINE
  5
1AC
  8
0
  6
CONTINUOUS
 62
     7
 10
132.6463728456568
 20
-124.3694543431024
 30
0.0
 11
132.6463728456568
 21
-129.9305456568976
 31
0.0
  0
LINE
  5
1AD
  8
0
  6
CONTINUOUS
 62
     7
 10
125.1463728456568
 20
-127.8694543431024
 30
0.0
 11
127.8463728456568
 21
-127.8694543431024
 31
0.0
  0
LINE
  5
1AE
  8
0
  6
CONTINUOUS
 62
     7
 10
131.7463728456568
 20
-127.8694543431023
 30
0.0
 11
131.7463728456568
 21
-129.1305456568976
 31
0.0
  0
LINE
  5
1AF
  8
0
  6
CONTINUOUS
 62
     7
 10
134.7963728456568
 20
-124.3694543431024
 30
0.0
 11
134.7963728456568
 21
-128.9305456568976
 31
0.0
  0
LINE
  5
1B0
  8
0
  6
CONTINUOUS
 62
     7
 10
129.9463728456568
 20
-126.4694543431024
 30
0.0
 11
129.9463728456568
 21
-127.8694543431023
 31
0.0
  0
LINE
  5
1B1
  8
0
  6
CONTINUOUS
 62
     7
 10
127.8463728456568
 20
-126.4694543431024
 30
0.0
 11
127.8463728456568
 21
-127.8694543431023
 31
0.0
  0
LINE
  5
1B2
  8
0
  6
CONTINUOUS
 62
     7
 10
134.7963728456568
 20
-123.3694543431024
 30
0.0
 11
136.1963728456568
 21
-123.3694543431024
 31
0.0
  0
LINE
  5
1B3
  8
0
  6
CONTINUOUS
 62
     7
 10
123.7463728456568
 20
-125.1694543431024
 30
0.0
 11
123.7463728456568
 21
-126.2694543431024
 31
0.0
  0
LINE
  5
1B4
  8
0
  6
CONTINUOUS
 62
     7
 10
125.1463728456568
 20
-125.5694543431024
 30
0.0
 11
125.1463728456568
 21
-126.4694543431024
 31
0.0
  0
LINE
  5
1B5
  8
0
  6
CONTINUOUS
 62
     7
 10
140.2163728456568
 20
-129.9305456568976
 30
0.0
 11
143.6971892572037
 21
-129.9305456568976
 31
0.0
  0
LINE
  5
1B6
  8
0
  6
CONTINUOUS
 62
     7
 10
125.1463728456568
 20
-125.5694543431024
 30
0.0
 11
131.7463728456568
 21
-125.5694543431024
 31
0.0
  0
LINE
  5
1B7
  8
0
  6
CONTINUOUS
 62
     7
 10
113.3463728456568
 20
-127.5569023297954
 30
0.0
 11
113.3463728456568
 21
-129.9305456568976
 31
0.0
  0
LINE
  5
1B8
  8
0
  6
CONTINUOUS
 62
     7
 10
123.7463728456568
 20
-128.9305456568976
 30
0.0
 11
123.7463728456568
 21
-129.9305456568976
 31
0.0
  0
LINE
  5
1B9
  8
0
  6
CONTINUOUS
 62
     7
 10
116.3463728456568
 20
-128.7305456568976
 30
0.0
 11
116.3463728456568
 21
-129.9305456568976
 31
0.0
  0
LINE
  5
1BA
  8
0
  6
CONTINUOUS
 62
     7
 10
111.3463728456568
 20
-127.8038225185832
 30
0.0
 11
111.3463728456568
 21
-128.9569023297954
 31
0.0
  0
LINE
  5
1BB
  8
0
  6
CONTINUOUS
 62
     7
 10
114.9463728456568
 20
-124.3694543431024
 30
0.0
 11
116.1463728456568
 21
-124.3694543431024
 31
0.0
  0
LINE
  5
1BC
  8
0
  6
CONTINUOUS
 62
     7
 10
120.9463728456568
 20
-124.3694543431024
 30
0.0
 11
123.5463728456568
 21
-124.3694543431024
 31
0.0
  0
LINE
  5
1BD
  8
0
  6
CONTINUOUS
 62
     7
 10
122.4463728456568
 20
-126.2694543431024
 30
0.0
 11
123.7463728456568
 21
-126.2694543431024
 31
0.0
  0
LINE
  5
1BE
  8
0
  6
CONTINUOUS
 62
     7
 10
120.9463728456568
 20
-125.1694543431024
 30
0.0
 11
123.7463728456568
 21
-125.1694543431024
 31
0.0
  0
LINE
  5
1BF
  8
0
  6
CONTINUOUS
 62
     7
 10
120.9463728456568
 20
-128.1305456568976
 30
0.0
 11
120.9463728456568
 21
-129.9305456568976
 31
0.0
  0
LINE
  5
1C0
  8
0
  6
CONTINUOUS
 62
     7
 10
119.1463728456568
 20
-127.9305456568976
 30
0.0
 11
119.1463728456568
 21
-129.9305456568976
 31
0.0
  0
LINE
  5
1C1
  8
0
  6
CONTINUOUS
 62
     7
 10
116.6463728456568
 20
-125.1694543431024
 30
0.0
 11
116.6463728456568
 21
-126.2694543431024
 31
0.0
  0
LINE
  5
1C2
  8
0
  6
CONTINUOUS
 62
     7
 10
114.9463728456568
 20
-125.8694543431024
 30
0.0
 11
114.9463728456568
 21
-129.9305456568976
 31
0.0
  0
LINE
  5
1C3
  8
0
  6
CONTINUOUS
 62
     7
 10
112.9463728456568
 20
-127.5569023297954
 30
0.0
 11
113.3463728456568
 21
-127.5569023297954
 31
0.0
  0
LINE
  5
1C4
  8
0
  6
CONTINUOUS
 62
     7
 10
116.1463728456568
 20
-125.1694543431024
 30
0.0
 11
116.1463728456568
 21
-126.2694543431024
 31
0.0
  0
LINE
  5
1C5
  8
0
  6
CONTINUOUS
 62
     7
 10
116.6463728456568
 20
-124.3694543431024
 30
0.0
 11
119.1463728456568
 21
-124.3694543431024
 31
0.0
  0
LINE
  5
1C6
  8
0
  6
CONTINUOUS
 62
     7
 10
120.9463728456568
 20
-123.3694543431024
 30
0.0
 11
123.5463728456568
 21
-123.3694543431024
 31
0.0
  0
LINE
  5
1C7
  8
0
  6
CONTINUOUS
 62
     7
 10
118.2063728456568
 20
-123.3694543431024
 30
0.0
 11
119.1463728456568
 21
-123.3694543431024
 31
0.0
  0
LINE
  5
1C8
  8
0
  6
CONTINUOUS
 62
     7
 10
119.1463728456568
 20
-122.1694543431024
 30
0.0
 11
120.9463728456568
 21
-122.1694543431024
 31
0.0
  0
LINE
  5
1C9
  8
0
  6
CONTINUOUS
 62
     7
 10
114.9463728456568
 20
-123.3694543431024
 30
0.0
 11
116.1463728456568
 21
-123.3694543431024
 31
0.0
  0
LINE
  5
1CA
  8
0
  6
CONTINUOUS
 62
     7
 10
114.9463728456568
 20
-125.8694543431025
 30
0.0
 11
116.1463728456568
 21
-126.2694543431025
 31
0.0
  0
LINE
  5
1CB
  8
0
  6
CONTINUOUS
 62
     7
 10
114.9463728456568
 20
-124.3694543431023
 30
0.0
 11
116.1463728456568
 21
-125.1694543431022
 31
0.0
  0
LINE
  5
1CC
  8
0
  6
CONTINUOUS
 62
     7
 10
120.9463728456568
 20
-124.3694543431024
 30
0.0
 11
120.9463728456568
 21
-125.1694543431024
 31
0.0
  0
LINE
  5
1CD
  8
0
  6
CONTINUOUS
 62
     7
 10
116.6463728456568
 20
-122.1694543431024
 30
0.0
 11
116.6463728456568
 21
-124.3694543431024
 31
0.0
  0
LINE
  5
1CE
  8
0
  6
CONTINUOUS
 62
     7
 10
125.1463728456568
 20
-129.9305456568976
 30
0.0
 11
127.0000668278699
 21
-129.9305456568976
 31
0.0
  0
LINE
  5
1CF
  8
0
  6
CONTINUOUS
 62
     7
 10
132.6463728456568
 20
-122.1694543431024
 30
0.0
 11
134.7963728456568
 21
-122.1694543431024
 31
0.0
  0
LINE
  5
1D0
  8
0
  6
CONTINUOUS
 62
     7
 10
132.6463728456568
 20
-122.1694543431024
 30
0.0
 11
132.6463728456568
 21
-123.3694543431024
 31
0.0
  0
LINE
  5
1D1
  8
0
  6
CONTINUOUS
 62
     7
 10
116.6463728456568
 20
-126.2694543431024
 30
0.0
 11
117.9463728456568
 21
-126.2694543431024
 31
0.0
  0
LINE
  5
1D2
  8
0
  6
CONTINUOUS
 62
     7
 10
116.6463728456568
 20
-125.1694543431024
 30
0.0
 11
119.1463728456568
 21
-125.1694543431024
 31
0.0
  0
LINE
  5
1D3
  8
0
  6
CONTINUOUS
 62
     7
 10
119.1463728456568
 20
-124.3694543431024
 30
0.0
 11
119.1463728456568
 21
-125.1694543431024
 31
0.0
  0
LINE
  5
1D4
  8
0
  6
CONTINUOUS
 62
     7
 10
137.7163728456568
 20
-122.1694543431024
 30
0.0
 11
137.7163728456568
 21
-124.3694543431024
 31
0.0
  0
LINE
  5
1D5
  8
0
  6
CONTINUOUS
 62
     7
 10
136.1963728456568
 20
-122.1694543431024
 30
0.0
 11
136.1963728456568
 21
-123.3694543431024
 31
0.0
  0
LINE
  5
1D6
  8
0
  6
CONTINUOUS
 62
     7
 10
134.7963728456568
 20
-122.1694543431024
 30
0.0
 11
134.7963728456568
 21
-123.3694543431024
 31
0.0
  0
LINE
  5
1D7
  8
0
  6
CONTINUOUS
 62
     7
 10
125.1463728456568
 20
-123.3694543431024
 30
0.0
 11
132.6463728456568
 21
-123.3694543431024
 31
0.0
  0
LINE
  5
1D8
  8
0
  6
CONTINUOUS
 62
     7
 10
125.1463728456568
 20
-124.3694543431024
 30
0.0
 11
132.6463728456568
 21
-124.3694543431024
 31
0.0
  0
LINE
  5
1D9
  8
0
  6
CONTINUOUS
 62
     7
 10
125.1463728456568
 20
-126.4694543431024
 30
0.0
 11
127.8463728456568
 21
-126.4694543431024
 31
0.0
  0
LINE
  5
1DA
  8
0
  6
CONTINUOUS
 62
     7
 10
123.5463728456568
 20
-123.3694543431024
 30
0.0
 11
123.5463728456568
 21
-124.3694543431024
 31
0.0
  0
LINE
  5
1DB
  8
0
  6
CONTINUOUS
 62
     7
 10
152.6163728456568
 20
-126.5305456568976
 30
0.0
 11
152.6163728456568
 21
-127.5305456568976
 31
0.0
  0
LINE
  5
1DC
  8
0
  6
CONTINUOUS
 62
     7
 10
113.5463728456568
 20
-122.1694543431024
 30
0.0
 11
114.9463728456568
 21
-122.1694543431024
 31
0.0
  0
LINE
  5
1DD
  8
0
  6
CONTINUOUS
 62
     7
 10
118.2063728456568
 20
-122.1694543431024
 30
0.0
 11
118.2063728456568
 21
-123.3694543431024
 31
0.0
  0
LINE
  5
1DE
  8
0
  6
CONTINUOUS
 62
     7
 10
116.6463728456568
 20
-122.1694543431024
 30
0.0
 11
118.2063728456568
 21
-122.1694543431024
 31
0.0
  0
LINE
  5
1DF
  8
0
  6
CONTINUOUS
 62
     7
 10
119.1463728456568
 20
-122.1694543431024
 30
0.0
 11
119.1463728456568
 21
-123.3694543431024
 31
0.0
  0
LINE
  5
1E0
  8
0
  6
CONTINUOUS
 62
     7
 10
120.9463728456568
 20
-122.1694543431024
 30
0.0
 11
120.9463728456568
 21
-123.3694543431024
 31
0.0
  0
LINE
  5
1E1
  8
0
  6
CONTINUOUS
 62
     7
 10
116.1463728456568
 20
-123.3694543431024
 30
0.0
 11
116.1463728456568
 21
-124.3694543431024
 31
0.0
  0
LINE
  5
1E2
  8
0
  6
CONTINUOUS
 62
     7
 10
111.4463728456568
 20
-124.3694543431024
 30
0.0
 11
112.7463728456568
 21
-124.3694543431024
 31
0.0
  0
LINE
  5
1E3
  8
0
  6
CONTINUOUS
 62
     7
 10
84.44637284565682
 20
-125.5694543431024
 30
0.0
 11
87.80134639299503
 21
-125.5694543431024
 31
0.0
  0
LINE
  5
1E4
  8
0
  6
CONTINUOUS
 62
     7
 10
90.44637284565682
 20
-122.1694543431024
 30
0.0
 11
96.54637284565682
 21
-122.1694543431024
 31
0.0
  0
LINE
  5
1E5
  8
0
  6
CONTINUOUS
 62
     7
 10
84.44637284565682
 20
-125.5694543431023
 30
0.0
 11
84.44637284565682
 21
-127.3694543431023
 31
0.0
  0
LINE
  5
1E6
  8
0
  6
CONTINUOUS
 62
     7
 10
111.4463728456568
 20
-123.3694543431024
 30
0.0
 11
113.5463728456568
 21
-123.3694543431024
 31
0.0
  0
LINE
  5
1E7
  8
0
  6
CONTINUOUS
 62
     7
 10
84.44637284565682
 20
-127.3694543431024
 30
0.0
 11
86.75184431632228
 21
-127.3694543431024
 31
0.0
  0
LINE
  5
1E8
  8
0
  6
CONTINUOUS
 62
     7
 10
92.44637284565682
 20
-125.5694543431024
 30
0.0
 11
92.44637284565682
 21
-127.3694543431024
 31
0.0
  0
LINE
  5
1E9
  8
0
  6
CONTINUOUS
 62
     7
 10
90.50714767707265
 20
-123.7694543431024
 30
0.0
 11
94.14637284565683
 21
-123.7694543431024
 31
0.0
  0
LINE
  5
1EA
  8
0
  6
CONTINUOUS
 62
     7
 10
131.7463728456568
 20
-125.5694543431024
 30
0.0
 11
131.7463728456568
 21
-126.4694543431024
 31
0.0
  0
LINE
  5
1EB
  8
0
  6
CONTINUOUS
 62
     7
 10
114.9463728456568
 20
-122.1694543431024
 30
0.0
 11
114.9463728456568
 21
-123.3694543431024
 31
0.0
  0
LINE
  5
1EC
  8
0
  6
CONTINUOUS
 62
     7
 10
102.7463728456568
 20
-126.7694543431024
 30
0.0
 11
105.9463728456568
 21
-126.7694543431024
 31
0.0
  0
LINE
  5
1ED
  8
0
  6
CONTINUOUS
 62
     7
 10
98.54637284565682
 20
-126.1694543431024
 30
0.0
 11
109.9463728456568
 21
-126.1694543431024
 31
0.0
  0
LINE
  5
1EE
  8
0
  6
CONTINUOUS
 62
     7
 10
98.54637284565682
 20
-124.1694543431024
 30
0.0
 11
109.9463728456568
 21
-124.1694543431024
 31
0.0
  0
LINE
  5
1EF
  8
0
  6
CONTINUOUS
 62
     7
 10
109.9463728456568
 20
-124.1694543431024
 30
0.0
 11
109.9463728456568
 21
-126.1694543431024
 31
0.0
  0
LINE
  5
1F0
  8
0
  6
CONTINUOUS
 62
     7
 10
98.54637284565683
 20
-124.1694543431024
 30
0.0
 11
98.54637284565683
 21
-126.1694543431024
 31
0.0
  0
LINE
  5
1F1
  8
0
  6
CONTINUOUS
 62
     7
 10
96.54637284565683
 20
-122.1694543431024
 30
0.0
 11
96.54637284565683
 21
-128.9694543431024
 31
0.0
  0
LINE
  5
1F2
  8
0
  6
CONTINUOUS
 62
     7
 10
94.14637284565683
 20
-123.7694543431024
 30
0.0
 11
94.14637284565683
 21
-129.3694543431023
 31
0.0
  0
LINE
  5
1F3
  8
0
  6
CONTINUOUS
 62
     7
 10
82.58362715434316
 20
-123.7694543431024
 30
0.0
 11
88.04637284565682
 21
-123.7694543431024
 31
0.0
  0
LINE
  5
1F4
  8
0
  6
CONTINUOUS
 62
     7
 10
88.04637284565683
 20
-120.5694543431024
 30
0.0
 11
88.04637284565683
 21
-122.1694543431024
 31
0.0
  0
LINE
  5
1F5
  8
0
  6
CONTINUOUS
 62
     7
 10
90.44637284565682
 20
-120.5694543431024
 30
0.0
 11
90.44637284565682
 21
-122.1694543431024
 31
0.0
  0
LINE
  5
1F6
  8
0
  6
CONTINUOUS
 62
     7
 10
88.04637284565682
 20
-120.5694543431024
 30
0.0
 11
90.44637284565682
 21
-120.5694543431024
 31
0.0
  0
LINE
  5
1F7
  8
0
  6
CONTINUOUS
 62
     7
 10
82.58362715434318
 20
-122.1694543431024
 30
0.0
 11
82.58362715434318
 21
-123.7694543431024
 31
0.0
  0
LINE
  5
1F8
  8
0
  6
CONTINUOUS
 62
     7
 10
82.58362715434316
 20
-122.1694543431024
 30
0.0
 11
88.04637284565682
 21
-122.1694543431024
 31
0.0
  0
LINE
  5
1F9
  8
0
  6
CONTINUOUS
 62
     7
 10
90.03121405164808
 20
-125.5694543431024
 30
0.0
 11
92.44637284565682
 21
-125.5694543431024
 31
0.0
  0
LINE
  5
1FA
  8
0
  6
CONTINUOUS
 62
     7
 10
113.5463728456568
 20
-122.1694543431024
 30
0.0
 11
113.5463728456568
 21
-123.3694543431024
 31
0.0
  0
LINE
  5
1FB
  8
0
  6
CONTINUOUS
 62
     7
 10
111.4463728456568
 20
-123.3694543431024
 30
0.0
 11
111.4463728456568
 21
-124.3694543431024
 31
0.0
  0
LINE
  5
1FC
  8
0
  6
CONTINUOUS
 62
     7
 10
88.98692822066201
 20
-127.3694543431024
 30
0.0
 11
92.44637284565682
 21
-127.3694543431024
 31
0.0
  0
LINE
  5
1FD
  8
0
  6
CONTINUOUS
 62
     7
 10
149.2163728456568
 20
-129.9305456568976
 30
0.0
 11
151.2163728456568
 21
-129.9305456568976
 31
0.0
  0
LINE
  5
1FE
  8
0
  6
CONTINUOUS
 62
     7
 10
82.58362715434318
 20
-128.9842821983328
 30
0.0
 11
82.58362715434318
 21
-130.1694543431024
 31
0.0
  0
LINE
  5
1FF
  8
0
  6
CONTINUOUS
 62
     7
 10
93.49999999999997
 20
-107.0
 30
0.0
 11
122.5
 21
-118.0
 31
0.0
  0
ARC
  5
200
  8
0
  6
CONTINUOUS
 62
     7
 10
156.0753964745717
 20
-131.0280605928041
 30
0.0
 40
4.0
 50
60.9715340609843
 51
87.98024394550768
  0
ARC
  5
201
  8
0
  6
CONTINUOUS
 62
     7
 10
153.4309728961217
 20
-123.0032477036166
 30
0.0
 40
4.6
 50
318.8442436704028
 51
355.4338431265014
  0
ARC
  5
202
  8
0
  6
CONTINUOUS
 62
     7
 10
156.6806138811
 20
-128.0190845339868
 30
0.0
 40
2.0
 50
48.09638755561873
 51
83.86317369123302
  0
ARC
  5
203
  8
0
  6
CONTINUOUS
 62
     7
 10
153.0835787514163
 20
-122.5524216486367
 30
0.0
 40
5.0
 50
270.0
 51
287.8519707863945
  0
ARC
  5
204
  8
0
  6
CONTINUOUS
 62
     7
 10
152.7999359294301
 20
-123.5361668241051
 30
0.0
 40
3.0
 50
270.0
 51
339.8530457328942
  0
ARC
  5
205
  8
0
  6
CONTINUOUS
 62
     7
 10
144.9092420950863
 20
-124.9305456568976
 30
0.0
 40
4.0
 50
270.0
 51
301.7883306170518
  0
ARC
  5
206
  8
0
  6
CONTINUOUS
 62
     7
 10
151.1490770106608
 20
-127.1316781598903
 30
0.0
 40
2.0
 50
209.9625441683634
 51
271.9282476334827
  0
ARC
  5
207
  8
0
  6
CONTINUOUS
 62
     7
 10
143.6971892572037
 20
-119.9305456568976
 30
0.0
 40
10.0
 50
270.0
 51
293.073918065631
  0
ARC
  5
208
  8
0
  6
CONTINUOUS
 62
     7
 10
149.2163728456568
 20
-127.9305456568976
 30
0.0
 40
2.0
 50
216.8698976458439
 51
270.0
  0
ARC
  5
209
  8
0
  6
CONTINUOUS
 62
     7
 10
138.6427444155
 20
-117.9580294012382
 30
0.0
 40
6.0
 50
275.4861271989982
 51
315.4200248778122
  0
ARC
  5
20A
  8
0
  6
CONTINUOUS
 62
     7
 10
150.7786428876944
 20
-117.9465342528391
 30
0.0
 40
6.0
 50
224.7342935204537
 51
270.0
  0
ARC
  5
20B
  8
0
  6
CONTINUOUS
 62
     7
 10
150.5583602832044
 20
-113.1486000941914
 30
0.0
 40
12.0
 50
240.8674112692758
 51
267.0917440539538
  0
ARC
  5
20C
  8
0
  6
CONTINUOUS
 62
     7
 10
139.4443544232267
 20
-115.1331447746538
 30
0.0
 40
10.0
 50
270.0
 51
301.8165888069297
  0
ARC
  5
20D
  8
0
  6
CONTINUOUS
 62
     7
 10
133.8785047405764
 20
-126.0372799144038
 30
0.0
 40
4.0
 50
283.265695396094
 51
342.6434876261313
  0
ARC
  5
20E
  8
0
  6
CONTINUOUS
 62
     7
 10
134.2075729563648
 20
-127.0191810421865
 30
0.0
 40
2.0
 50
287.1215589227386
 51
353.9335213805733
  0
ARC
  5
20F
  8
0
  6
CONTINUOUS
 62
     7
 10
126.0732198367634
 20
-109.9520333335269
 30
0.0
 40
20.0
 50
272.6561723599372
 51
286.4786265979866
  0
ARC
  5
210
  8
0
  6
CONTINUOUS
 62
     7
 10
126.4350708718812
 20
-125.9689746339814
 30
0.0
 40
4.0
 50
184.3081130703794
 51
227.7648830848148
  0
ARC
  5
211
  8
0
  6
CONTINUOUS
 62
     7
 10
124.3132740533973
 20
-125.970921555968
 30
0.0
 40
4.0
 50
212.6772418063084
 51
261.8523056494763
  0
ARC
  5
212
  8
0
  6
CONTINUOUS
 62
     7
 10
114.026701927849
 20
-125.4718454815091
 30
0.0
 40
4.0
 50
305.4447563754824
 51
348.4979955985226
  0
ARC
  5
213
  8
0
  6
CONTINUOUS
 62
     7
 10
109.607071150831
 20
-125.3548432499945
 30
0.0
 40
4.0
 50
295.7741858394136
 51
326.5976644920055
  0
ARC
  5
214
  8
0
  6
CONTINUOUS
 62
     7
 10
114.4053906304749
 20
-124.2531705556429
 30
0.0
 40
6.0
 50
288.8745432034553
 51
322.2008123804935
  0
ARC
  5
215
  8
0
  6
CONTINUOUS
 62
     7
 10
106.7622963094578
 20
-123.9326156899224
 30
0.0
 40
6.0
 50
319.8192422116139
 51
355.8248039544738
  0
ARC
  5
216
  8
0
  6
CONTINUOUS
 62
     7
 10
83.051983986372
 20
-124.0062663407956
 30
0.0
 40
5.0
 50
264.6251462956196
 51
317.7290360759776
  0
ARC
  5
217
  8
0
  6
CONTINUOUS
 62
     7
 10
98.18024381339877
 20
-119.6000995043927
 30
0.0
 40
10.56940911068406
 50
247.5637467185126
 51
317.2881390123424
  0
ARC
  5
218
  8
0
  6
CONTINUOUS
 62
     7
 10
96.48836802382493
 20
-118.9696225724852
 30
0.0
 40
10.0
 50
270.3323450119129
 51
308.7409648643439
  0
ARC
  5
219
  8
0
  6
CONTINUOUS
 62
     7
 10
83.17187081666829
 20
-122.7928718421244
 30
0.0
 40
7.4
 50
337.9624692219032
 51
352.416518898312
  0
ARC
  5
21A
  8
0
  6
CONTINUOUS
 62
     7
 10
83.051983986372
 20
-124.0062663407956
 30
0.0
 40
5.0
 50
341.7817433502872
 51
2.714681174376221
  0
ARC
  5
21B
  8
0
  6
CONTINUOUS
 62
     7
 10
83.17187081666829
 20
-122.7928718421244
 30
0.0
 40
7.4
 50
265.4406112814196
 51
321.7964493072675
  0
LINE
  5
21C
  8
0
  6
CENTER
 62
    31
 10
-19.285
 20
30.45425514856974
 30
0.0
 11
-19.285
 21
-17.8955463576159
 31
0.0
  0
LINE
  5
21D
  8
0
  6
CONTINUOUS
 62
    31
 10
-19.285
 20
21.24265007654826
 30
0.0
 11
3.714996185302738
 21
21.24265007654826
 31
0.0
  0
LINE
  5
21E
  8
0
  6
CONTINUOUS
 62
    31
 10
9.714996185302738
 20
6.242650076548259
 30
0.0
 11
10.71499618530274
 21
6.242650076548259
 31
0.0
  0
LINE
  5
21F
  8
0
  6
CONTINUOUS
 62
    31
 10
-19.285
 20
-11.75735016187032
 30
0.0
 11
13.71499809265137
 21
-11.75735016187032
 31
0.0
  0
LINE
  5
220
  8
0
  6
CONTINUOUS
 62
    31
 10
6.714996185302738
 20
18.24265007654826
 30
0.0
 11
6.714996185302738
 21
9.242650076548259
 31
0.0
  0
LINE
  5
221
  8
0
  6
CONTINUOUS
 62
    31
 10
-1.285003814697262
 20
19.24265007654826
 30
0.0
 11
-1.285003814697262
 21
4.242650076548259
 31
0.0
  0
LINE
  5
222
  8
0
  6
CONTINUOUS
 62
    31
 10
13.71499809265137
 20
3.242650076548259
 30
0.0
 11
13.71499809265137
 21
-11.75735016187032
 31
0.0
  0
LINE
  5
223
  8
0
  6
CONTINUOUS
 62
    31
 10
-19.285
 20
19.24265007654826
 30
0.0
 11
-1.285003814697262
 21
19.24265007654826
 31
0.0
  0
LINE
  5
224
  8
0
  6
CONTINUOUS
 62
    31
 10
-1.285003814697262
 20
2.242650076548259
 30
0.0
 11
-1.285003814697262
 21
-9.75735014696916
 31
0.0
  0
LINE
  5
225
  8
0
  6
CONTINUOUS
 62
    31
 10
-19.285
 20
4.242650076548259
 30
0.0
 11
-1.285003814697262
 21
4.242650076548259
 31
0.0
  0
LINE
  5
226
  8
0
  6
CONTINUOUS
 62
    31
 10
-19.285
 20
20.24265007654826
 30
0.0
 11
-4.785003814697262
 21
20.24265007654826
 31
0.0
  0
LINE
  5
227
  8
0
  6
CONTINUOUS
 62
    31
 10
-19.285
 20
3.242650076548259
 30
0.0
 11
-4.785003814697262
 21
3.242650076548259
 31
0.0
  0
LINE
  5
228
  8
0
  6
CONTINUOUS
 62
    31
 10
-19.285
 20
-9.75735014696916
 30
0.0
 11
-1.285003814697262
 21
-9.75735014696916
 31
0.0
  0
LINE
  5
229
  8
0
  6
CONTINUOUS
 62
    31
 10
-19.285
 20
2.242650076548259
 30
0.0
 11
-1.285003814697262
 21
2.242650076548259
 31
0.0
  0
LINE
  5
22A
  8
0
  6
CONTINUOUS
 62
    31
 10
-19.285
 20
-10.75735016187032
 30
0.0
 11
-4.785003814697262
 21
-10.75735016187032
 31
0.0
  0
LINE
  5
22B
  8
0
  6
CONTINUOUS
 62
    31
 10
-1.285002448040076
 20
-11.75735027446627
 30
0.0
 11
-4.785000393784847
 21
-10.75735090788863
 31
0.0
  0
LINE
  5
22C
  8
0
  6
CONTINUOUS
 62
    31
 10
-4.785002770946191
 20
-10.75734980250804
 30
0.0
 11
-1.285001157278633
 21
-9.757349387952514
 31
0.0
  0
LINE
  5
22D
  8
0
  6
CONTINUOUS
 62
    31
 10
-1.285002947467065
 20
2.242649482969949
 30
0.0
 11
-4.785000893211836
 21
3.242648849547586
 31
0.0
  0
LINE
  5
22E
  8
0
  6
CONTINUOUS
 62
    31
 10
-4.7850025990123
 20
3.242651101154043
 30
0.0
 11
-1.285000985344742
 21
4.242651515709571
 31
0.0
  0
LINE
  5
22F
  8
0
  6
CONTINUOUS
 62
    31
 10
-1.285001518778387
 20
19.24264936854944
 30
0.0
 11
-4.785003132445945
 21
20.24264978310496
 31
0.0
  0
LINE
  5
230
  8
0
  6
CONTINUOUS
 62
    31
 10
-4.785000294279565
 20
20.24265180546625
 30
0.0
 11
-1.285002348534794
 21
21.24265117204388
 31
0.0
  0
LINE
  5
231
  8
0
  6
CONTINUOUS
 62
    31
 10
0.2149986308394398
 20
-9.757351360223355
 30
0.0
 11
-0.785000850722616
 21
-11.75735032334747
 31
0.0
  0
LINE
  5
232
  8
0
  6
CONTINUOUS
 62
    31
 10
5.214996185302738
 20
18.24265007654826
 30
0.0
 11
5.214996185302738
 21
14.24265007654826
 31
0.0
  0
LINE
  5
233
  8
0
  6
CONTINUOUS
 62
    31
 10
0.2149961853027378
 20
3.242650076548259
 30
0.0
 11
11.21499618530274
 21
3.242650076548259
 31
0.0
  0
LINE
  5
234
  8
0
  6
CONTINUOUS
 62
    31
 10
0.2149961853027378
 20
18.24265007654826
 30
0.0
 11
5.214996185302738
 21
18.24265007654826
 31
0.0
  0
LINE
  5
235
  8
0
  6
CONTINUOUS
 62
    31
 10
0.2149961853027378
 20
18.24265007654826
 30
0.0
 11
0.2149961853027378
 21
-9.75735014696916
 31
0.0
  0
LINE
  5
236
  8
0
  6
CONTINUOUS
 62
    31
 10
11.21499618530274
 20
3.242650076548259
 30
0.0
 11
11.21499618530274
 21
-0.7573499234517413
 31
0.0
  0
LINE
  5
237
  8
0
  6
CONTINUOUS
 62
    31
 10
0.2149961853027378
 20
9.242650076548259
 30
0.0
 11
5.214996185302738
 21
9.242650076548259
 31
0.0
  0
LINE
  5
238
  8
0
  6
CONTINUOUS
 62
    31
 10
0.2149961853027378
 20
12.24265007654826
 30
0.0
 11
5.214996185302738
 21
12.24265007654826
 31
0.0
  0
LINE
  5
239
  8
0
  6
CONTINUOUS
 62
    31
 10
0.2149961853027378
 20
14.24265007654826
 30
0.0
 11
5.214996185302738
 21
14.24265007654826
 31
0.0
  0
LINE
  5
23A
  8
0
  6
CONTINUOUS
 62
    31
 10
0.2149961853027378
 20
7.242650076548259
 30
0.0
 11
5.214996185302738
 21
7.242650076548259
 31
0.0
  0
LINE
  5
23B
  8
0
  6
CONTINUOUS
 62
    31
 10
0.2149961853027378
 20
-0.7573499234517413
 30
0.0
 11
11.21499618530274
 21
-0.7573499234517413
 31
0.0
  0
LINE
  5
23C
  8
0
  6
CONTINUOUS
 62
    31
 10
0.2149961853027378
 20
-2.757349923451741
 30
0.0
 11
11.21499618530274
 21
-2.757349923451741
 31
0.0
  0
LINE
  5
23D
  8
0
  6
CONTINUOUS
 62
    31
 10
0.2149961853027378
 20
-5.757349923451741
 30
0.0
 11
11.21499618530274
 21
-5.757349923451741
 31
0.0
  0
LINE
  5
23E
  8
0
  6
CONTINUOUS
 62
    31
 10
0.2149961853027378
 20
-7.75735016187032
 30
0.0
 11
11.21499618530274
 21
-7.75735016187032
 31
0.0
  0
LINE
  5
23F
  8
0
  6
CONTINUOUS
 62
    31
 10
11.21499618530274
 20
-7.75735016187032
 30
0.0
 11
11.21499618530274
 21
-11.75735016187032
 31
0.0
  0
LINE
  5
240
  8
0
  6
CONTINUOUS
 62
    31
 10
11.21499618530274
 20
-2.757349923451741
 30
0.0
 11
11.21499618530274
 21
-5.757349923451741
 31
0.0
  0
LINE
  5
241
  8
0
  6
CONTINUOUS
 62
    31
 10
5.214996185302738
 20
7.242650076548259
 30
0.0
 11
5.214996185302738
 21
5.242650076548259
 31
0.0
  0
LINE
  5
242
  8
0
  6
CONTINUOUS
 62
    31
 10
5.214996185302738
 20
12.24265007654826
 30
0.0
 11
5.214996185302738
 21
9.242650076548259
 31
0.0
  0
LINE
  5
243
  8
0
  6
CONTINUOUS
 62
    31
 10
-19.285
 20
21.24265007654826
 30
0.0
 11
-42.285
 21
21.24265007654826
 31
0.0
  0
LINE
  5
244
  8
0
  6
CONTINUOUS
 62
    31
 10
-45.285
 20
18.24265007654826
 30
0.0
 11
-45.285
 21
9.242650076548259
 31
0.0
  0
LINE
  5
245
  8
0
  6
CONTINUOUS
 62
    31
 10
-19.285
 20
6.242650076548259
 30
0.0
 11
-49.285
 21
6.242650076548259
 31
0.0
  0
LINE
  5
246
  8
0
  6
CONTINUOUS
 62
    31
 10
-52.285
 20
3.242650076548259
 30
0.0
 11
-52.285
 21
-11.75735016187032
 31
0.0
  0
LINE
  5
247
  8
0
  6
CONTINUOUS
 62
    31
 10
-19.285
 20
-11.75735016187032
 30
0.0
 11
-52.285
 21
-11.75735016187032
 31
0.0
  0
ARC
  5
248
  8
0
  6
CONTINUOUS
 62
    31
 10
10.71499618530274
 20
3.242650076548259
 30
0.0
 40
3.0
 50
0.0
 51
90.00000250447816
  0
ARC
  5
249
  8
0
  6
CONTINUOUS
 62
    31
 10
3.714996185302738
 20
18.24265007654826
 30
0.0
 40
3.0
 50
0.0
 51
90.00000250447816
  0
ARC
  5
24A
  8
0
  6
CONTINUOUS
 62
    31
 10
9.714996185302738
 20
9.242650076548259
 30
0.0
 40
3.0
 50
179.9999949910437
 51
269.9999974955218
  0
ARC
  5
24B
  8
0
  6
CONTINUOUS
 62
    31
 10
7.214996185302738
 20
5.242650076548259
 30
0.0
 40
2.0
 50
179.9999949910437
 51
269.9999974955218
  0
ARC
  5
24C
  8
0
  6
CONTINUOUS
 62
    31
 10
11.21499618530274
 20
-6.75735016187032
 30
0.0
 40
1.0
 50
90.00000250447816
 51
180.0000050089563
  0
ARC
  5
24D
  8
0
  6
CONTINUOUS
 62
    31
 10
5.214996185302738
 20
8.242650076548259
 30
0.0
 40
1.0
 50
90.00000250447816
 51
180.0000050089563
  0
ARC
  5
24E
  8
0
  6
CONTINUOUS
 62
    31
 10
5.214996185302738
 20
13.24265007654826
 30
0.0
 40
1.0
 50
90.00000250447816
 51
180.0000050089563
  0
ARC
  5
24F
  8
0
  6
CONTINUOUS
 62
    31
 10
5.214996185302738
 20
8.242650076548259
 30
0.0
 40
1.0
 50
179.9999949910437
 51
269.9999974955218
  0
ARC
  5
250
  8
0
  6
CONTINUOUS
 62
    31
 10
11.21499618530274
 20
-6.75735016187032
 30
0.0
 40
1.0
 50
179.9999949910437
 51
269.9999974955218
  0
ARC
  5
251
  8
0
  6
CONTINUOUS
 62
    31
 10
5.214996185302738
 20
13.24265007654826
 30
0.0
 40
1.0
 50
179.9999949910437
 51
269.9999974955218
  0
ARC
  5
252
  8
0
  6
CONTINUOUS
 62
    31
 10
11.21499618530274
 20
-1.757349923451741
 30
0.0
 40
1.0
 50
90.00000250447816
 51
180.0000050089563
  0
ARC
  5
253
  8
0
  6
CONTINUOUS
 62
    31
 10
11.21499618530274
 20
-1.757349923451741
 30
0.0
 40
1.0
 50
179.9999949910437
 51
269.9999974955218
  0
ARC
  5
254
  8
0
  6
CONTINUOUS
 62
    31
 10
-42.285
 20
18.24265007654826
 30
0.0
 40
3.0
 50
90.00000250447816
 51
180.0000050089563
  0
ARC
  5
255
  8
0
  6
CONTINUOUS
 62
    31
 10
-48.285
 20
9.242650076548259
 30
0.0
 40
3.0
 50
269.9999974955218
 51
0.0
  0
ARC
  5
256
  8
0
  6
CONTINUOUS
 62
    31
 10
-49.285
 20
3.242650076548259
 30
0.0
 40
3.0
 50
90.00000250447816
 51
180.0000050089563
  0
TEXT
  5
257
  8
0
 62
     7
 10
126.8563093543053
 20
125.3888774514198
 30
0.0
 40
1.600000023841858
  1
呼び寸法の区分
 41
1.146341517931077
  7
DCSTYLE0
 72
     5
 11
137.5991671681404
 21
125.3888774514198
 31
0.0
  0
TEXT
  5
258
  8
0
 62
     7
 10
144.9719099402428
 20
126.641313970089
 30
0.0
 40
1.600000023841858
  1
等　級
 41
1.117647190304362
  7
DCSTYLE0
 72
     5
 11
149.3147676587105
 21
126.641313970089
 31
0.0
  0
TEXT
  5
259
  8
0
 62
     7
 10
126.5734189152718
 20
105.8715912103653
 30
0.0
 40
2.299999952316284
  1
３００を越え６００以下
 41
1.153846219231853
  7
DCSTYLE0
 72
     5
 11
151.2162769436836
 21
105.8715912103653
 31
0.0
  0
TEXT
  5
25A
  8
0
 62
     7
 10
126.5734189152718
 20
109.8204551935196
 30
0.0
 40
2.299999952316284
  1
１２０を越え３００以下
 41
1.153846219231853
  7
DCSTYLE0
 72
     5
 11
151.2162769436836
 21
109.8204551935196
 31
0.0
  0
TEXT
  5
25B
  8
0
 62
     7
 10
128.8637555241585
 20
113.8482958078384
 30
0.0
 40
2.299999952316284
  1
３０を越え１２０以下
 41
1.152542441841779
  7
DCSTYLE0
 72
     5
 11
151.2066135406494
 21
113.8482958078384
 31
0.0
  0
TEXT
  5
25C
  8
0
 62
     7
 10
133.4017651677132
 20
117.9473849534988
 30
0.0
 40
2.299999952316284
  1
６を越え３０以下
 41
1.148936249060725
  7
DCSTYLE0
 72
     5
 11
151.1446231603622
 21
117.9473849534988
 31
0.0
  0
TEXT
  5
25D
  8
0
 62
     7
 10
144.9751217961311
 20
121.5880686044693
 30
0.0
 40
2.299999952316284
  1
６以下
 41
1.117647223460403
  7
DCSTYLE0
 72
     5
 11
151.2179797291756
 21
121.5880686044693
 31
0.0
  0
TEXT
  5
25E
  8
0
 62
     7
 10
174.7854717969894
 20
105.5680869817734
 30
0.0
 40
3.200000047683716
  1
8.0
 41
1.212766100117499
  7
DCSTYLE0
 72
     5
 11
183.4711872339249
 21
105.5680869817734
 31
0.0
  0
TEXT
  5
25F
  8
0
 62
     7
 10
174.8230122327805
 20
109.4494317770004
 30
0.0
 40
3.200000047683716
  1
5.0
 41
1.212766100117499
  7
DCSTYLE0
 72
     5
 11
183.5087276697159
 21
109.4494317770004
 31
0.0
  0
TEXT
  5
260
  8
0
 62
     7
 10
174.8230122327805
 20
113.4772733449936
 30
0.0
 40
3.200000047683716
  1
3.0
 41
1.212766100117499
  7
DCSTYLE0
 72
     5
 11
183.5087276697159
 21
113.4772733449936
 31
0.0
  0
TEXT
  5
261
  8
0
 62
     7
 10
174.7854717969894
 20
117.4973849058151
 30
0.0
 40
3.200000047683716
  1
1.6
 41
1.212766100117499
  7
DCSTYLE0
 72
     5
 11
183.4711872339249
 21
117.4973849058151
 31
0.0
  0
TEXT
  5
262
  8
0
 62
     7
 10
174.7854717969894
 20
121.4525526762009
 30
0.0
 40
3.200000047683716
  1
0.8
 41
1.212766100117499
  7
DCSTYLE0
 72
     5
 11
183.4711872339249
 21
121.4525526762009
 31
0.0
  0
TEXT
  5
263
  8
0
 62
     7
 10
163.8451718091965
 20
105.4215911626816
 30
0.0
 40
3.200000047683716
  1
4.0
 41
1.212766100117499
  7
DCSTYLE0
 72
     5
 11
172.5308872461319
 21
105.4215911626816
 31
0.0
  0
TEXT
  5
264
  8
0
 62
     7
 10
163.8451718091965
 20
109.5284093618393
 30
0.0
 40
3.200000047683716
  1
2.5
 41
1.212766100117499
  7
DCSTYLE0
 72
     5
 11
172.5308872461319
 21
109.5284093618393
 31
0.0
  0
TEXT
  5
265
  8
0
 62
     7
 10
163.8451718091965
 20
113.5562499761581
 30
0.0
 40
3.200000047683716
  1
1.6
 41
1.212766100117499
  7
DCSTYLE0
 72
     5
 11
172.5308872461319
 21
113.5562499761581
 31
0.0
  0
TEXT
  5
266
  8
0
 62
     7
 10
163.8451718091965
 20
117.3471592664719
 30
0.0
 40
3.200000047683716
  1
0.8
 41
1.212766100117499
  7
DCSTYLE0
 72
     5
 11
172.5308872461319
 21
117.3471592664719
 31
0.0
  0
TEXT
  5
267
  8
0
 62
     7
 10
163.813067317009
 20
121.3249666690826
 30
0.0
 40
3.200000047683716
  1
0.4
 41
1.187500139698384
  7
DCSTYLE0
 72
     5
 11
172.4987827539444
 21
121.3249666690826
 31
0.0
  0
TEXT
  5
268
  8
0
 62
     7
 10
152.8673313856125
 20
105.5795463323593
 30
0.0
 40
3.200000047683716
  1
2.5
 41
1.212766100117499
  7
DCSTYLE0
 72
     5
 11
161.5530468225479
 21
105.5795463323593
 31
0.0
  0
TEXT
  5
269
  8
0
 62
     7
 10
152.9044560194016
 20
109.4594625234604
 30
0.0
 40
3.200000047683716
  1
1.6
 41
1.212766100117499
  7
DCSTYLE0
 72
     5
 11
161.590171456337
 21
109.4594625234604
 31
0.0
  0
TEXT
  5
26A
  8
0
 62
     7
 10
152.8673313856125
 20
113.4772733449936
 30
0.0
 40
3.200000047683716
  1
0.8
 41
1.212766100117499
  7
DCSTYLE0
 72
     5
 11
161.5530468225479
 21
113.4772733449936
 31
0.0
  0
TEXT
  5
26B
  8
0
 62
     7
 10
152.8673313856125
 20
117.5051139593124
 30
0.0
 40
3.200000047683716
  1
0.4
 41
1.187500139698384
  7
DCSTYLE0
 72
     5
 11
161.5530468225479
 21
117.5051139593124
 31
0.0
  0
TEXT
  5
26C
  8
0
 62
     7
 10
152.8673313856125
 20
121.5329549312592
 30
0.0
 40
3.200000047683716
  1
0.2
 41
1.212766100117499
  7
DCSTYLE0
 72
     5
 11
161.5530468225479
 21
121.5329549312592
 31
0.0
  0
TEXT
  5
26D
  8
0
 62
     7
 10
174.5940922498703
 20
125.4715138673782
 30
0.0
 40
3.200000047683716
  1
C(
 41
1.125000209547576
  7
DCSTYLE0
 72
     5
 11
180.079807639122
 21
125.4715138673782
 31
0.0
  0
TEXT
  5
26E
  8
0
 62
     7
 10
181.5655211806297
 20
127.4715139269829
 30
0.0
 40
1.600000023841858
  1
+
 41
0.6818184866146563
  7
DCSTYLE0
 72
     5
 11
182.7083788514137
 21
127.4715139269829
 31
0.0
  0
TEXT
  5
26F
  8
0
 62
     7
 10
181.5655211806297
 20
125.0715138316154
 30
0.0
 40
1.600000023841858
  1
-
 41
0.6818184866146563
  7
DCSTYLE0
 72
     5
 11
182.7083788514137
 21
125.0715138316154
 31
0.0
  0
TEXT
  5
270
  8
0
 62
     7
 10
182.5940923690796
 20
125.4715138673782
 30
0.0
 40
3.200000047683716
  1
)
 41
1.500000670552244
  7
DCSTYLE0
 72
     5
 11
184.8798077106476
 21
125.4715138673782
 31
0.0
  0
TEXT
  5
271
  8
0
 62
     7
 10
163.6854809522629
 20
125.2801347970963
 30
0.0
 40
3.200000047683716
  1
B(
 41
1.125000209547576
  7
DCSTYLE0
 72
     5
 11
169.1711963415146
 21
125.2801347970963
 31
0.0
  0
TEXT
  5
272
  8
0
 62
     7
 10
170.6569098830223
 20
127.2801348567009
 30
0.0
 40
1.600000023841858
  1
+
 41
0.6818184866146563
  7
DCSTYLE0
 72
     5
 11
171.7997675538063
 21
127.2801348567009
 31
0.0
  0
TEXT
  5
273
  8
0
 62
     7
 10
170.6569098830223
 20
124.8801347613335
 30
0.0
 40
1.600000023841858
  1
-
 41
0.6818184866146563
  7
DCSTYLE0
 72
     5
 11
171.7997675538063
 21
124.8801347613335
 31
0.0
  0
TEXT
  5
274
  8
0
 62
     7
 10
171.6854810714722
 20
125.2801347970963
 30
0.0
 40
3.200000047683716
  1
)
 41
1.500000670552244
  7
DCSTYLE0
 72
     5
 11
173.9711964130402
 21
125.2801347970963
 31
0.0
  0
TEXT
  5
275
  8
0
 62
     7
 10
152.5854939222336
 20
125.2801347970963
 30
0.0
 40
3.200000047683716
  1
A(
 41
1.241379541569739
  7
DCSTYLE0
 72
     5
 11
158.0712093114853
 21
125.2801347970963
 31
0.0
  0
TEXT
  5
276
  8
0
 62
     7
 10
159.556922852993
 20
127.2801348567009
 30
0.0
 40
1.600000023841858
  1
+
 41
0.6818184866146563
  7
DCSTYLE0
 72
     5
 11
160.699780523777
 21
127.2801348567009
 31
0.0
  0
TEXT
  5
277
  8
0
 62
     7
 10
159.556922852993
 20
124.8801347613335
 30
0.0
 40
1.600000023841858
  1
-
 41
0.6818184866146563
  7
DCSTYLE0
 72
     5
 11
160.699780523777
 21
124.8801347613335
 31
0.0
  0
TEXT
  5
278
  8
0
 62
     7
 10
160.5854940414429
 20
125.2801347970963
 30
0.0
 40
3.200000047683716
  1
)
 41
1.500000670552244
  7
DCSTYLE0
 72
     5
 11
162.8712093830109
 21
125.2801347970963
 31
0.0
  0
TEXT
  5
279
  8
0
 62
     7
 10
129.5321286916733
 20
129.5197043418884
 30
0.0
 40
3.0
  1
普　通　寸　法　規　格：単位（ｍｍ）
 41
1.158878430399197
  7
DCSTYLE0
 72
     5
 11
182.6749824285507
 21
129.5197043418884
 31
0.0
  0
TEXT
  5
27A
  8
0
 62
     7
 10
122.650168299675
 20
106.9715350866318
 30
0.0
 40
3.200000047683716
  1
工
 41
1.000000447034829
  7
DCSTYLE0
 72
     5
 11
124.935883641243
 21
106.9715350866318
 31
0.0
  0
TEXT
  5
27B
  8
0
 62
     7
 10
122.650168299675
 20
111.1818746328354
 30
0.0
 40
3.200000047683716
  1
加
 41
1.000000447034829
  7
DCSTYLE0
 72
     5
 11
124.935883641243
 21
111.1818746328354
 31
0.0
  0
TEXT
  5
27C
  8
0
 62
     7
 10
122.7777546644211
 20
115.3284214735031
 30
0.0
 40
3.200000047683716
  1
形
 41
1.000000447034829
  7
DCSTYLE0
 72
     5
 11
125.0634700059891
 21
115.3284214735031
 31
0.0
  0
TEXT
  5
27D
  8
0
 62
     7
 10
122.7139652967453
 20
119.7939337491989
 30
0.0
 40
3.200000047683716
  1
成
 41
1.000000447034829
  7
DCSTYLE0
 72
     5
 11
124.9996806383133
 21
119.7939337491989
 31
0.0
  0
TEXT
  5
27E
  8
0
 62
     7
 10
122.7777546644211
 20
123.7491019368172
 30
0.0
 40
3.200000047683716
  1
ﾑ
 41
1.000000447034829
  7
DCSTYLE0
 72
     5
 11
125.0634700059891
 21
123.7491019368172
 31
0.0
  0
TEXT
  5
27F
  8
0
 62
     7
 10
122.7139652967453
 20
127.6404770612717
 30
0.0
 40
3.200000047683716
  1
ゴ
 41
1.000000447034829
  7
DCSTYLE0
 72
     5
 11
124.9996806383133
 21
127.6404770612717
 31
0.0
  0
TEXT
  5
280
  8
0
 62
     7
 10
68.67142677307129
 20
-92.90000009536743
 30
0.0
 40
4.800000190734863
  1
材　質
 41
1.117647193226154
  7
DCSTYLE0
 72
     5
 11
81.7000002861023
 21
-92.90000009536743
 31
0.0
  0
TEXT
  5
281
  8
0
 62
     7
 10
68.67142677307129
 20
-103.9000000953674
 30
0.0
 40
4.800000190734863
  1
色　調
 41
1.117647193226154
  7
DCSTYLE0
 72
     5
 11
81.7000002861023
 21
-103.9000000953674
 31
0.0
  0
TEXT
  5
282
  8
0
 62
     7
 10
168.179333515962
 20
-105.2533334287008
 30
0.0
 40
4.800000190734863
  1
１／１
 41
1.117683741974775
  7
DCSTYLE0
 72
     5
 11
181.2083330829938
 21
-105.2533334287008
 31
0.0
  0
TEXT
  5
283
  8
0
 62
     7
 10
152.2884863977139
 20
94.28685997289196
 30
0.0
 40
4.800000190734863
  1
等級B
 41
1.055590200753954
  7
DCSTYLE0
 72
     5
 11
165.3174859647458
 21
94.28685997289196
 31
0.0
  0
TEXT
  5
284
  8
0
 62
     7
 10
69.19974919634875
 20
-82.04590453222751
 30
0.0
 40
4.800000190734863
  1
Y防臭キャップ
 41
1.146356622619724
  7
DCSTYLE0
 72
     5
 11
101.4287480958086
 21
-82.04590453222751
 31
0.0
  0
TEXT
  5
285
  8
0
 62
     7
 10
87.66391301887435
 20
-93.12440282574286
 30
0.0
 40
4.800000190734863
  1
EPDM 硬度57ﾟ
 41
1.035542435981525
  7
DCSTYLE0
 72
     5
 11
134.2929114176552
 21
-93.12440282574286
 31
0.0
  0
TEXT
  5
286
  8
0
 62
     7
 10
136.5211613251488
 20
-90.12440270653357
 30
0.0
 40
2.400000095367432
  1
+
 41
0.6819033622707851
  7
DCSTYLE0
 72
     5
 11
138.2356612755577
 21
-90.12440270653357
 31
0.0
  0
TEXT
  5
287
  8
0
 62
     7
 10
136.5211613251488
 20
-93.72440284958472
 30
0.0
 40
2.400000095367432
  1
-
 41
0.6819033622707851
  7
DCSTYLE0
 72
     5
 11
138.2356612755577
 21
-93.72440284958472
 31
0.0
  0
TEXT
  5
288
  8
0
 62
     7
 10
138.0639112664978
 20
-93.12440282574286
 30
0.0
 40
4.800000190734863
  1
3ﾟ
 41
1.028624925866726
  7
DCSTYLE0
 72
     5
 11
146.2929110004227
 21
-93.12440282574286
 31
0.0
  0
TEXT
  5
289
  8
0
 62
     7
 10
88.06050004959106
 20
-103.4800000953674
 30
0.0
 40
4.800000190734863
  1
ｸﾛ
 41
1.090965830464709
  7
DCSTYLE0
 72
     5
 11
96.28949978351592
 21
-103.4800000953674
 31
0.0
  0
TEXT
  5
28A
  8
0
 62
     7
 10
155.0038333829244
 20
-94.61333342870076
 30
0.0
 40
4.800000190734863
  1
95619A
 41
1.025656975614085
  7
DCSTYLE0
 72
     5
 11
182.4328324492772
 21
-94.61333342870076
 31
0.0
  0
TEXT
  5
28B
  8
0
 62
     7
 10
154.2453333266576
 20
-116.4233333571752
 30
0.0
 40
3.200000047683716
  1
1998.8.4
 41
1.173926609608588
  7
DCSTYLE0
 72
     5
 11
178.9313332565625
 21
-116.4233333571752
 31
0.0
  0
TEXT
  5
28C
  8
0
 62
     7
 10
134.1671667162577
 20
-115.4500000953674
 30
0.0
 40
4.800000190734863
  1
笹川
 41
1.090965830464709
  7
DCSTYLE0
 72
     5
 11
142.3961664501826
 21
-115.4500000953674
 31
0.0
  0
TEXT
  5
28D
  8
0
 62
     7
 10
83.10537915641137
 20
-115.2557016682151
 30
0.0
 40
4.800000190734863
  1
伊藤
 41
1.090965830464709
  7
DCSTYLE0
 72
     5
 11
91.33437889033624
 21
-115.2557016682151
 31
0.0
  0
INSERT
  5
28E
  8
0
  6
CONTINUOUS
  2
DC_FILL_GROUP_1
 10
0.0
 20
0.0
 30
0.0
  0
INSERT
  5
28F
  8
0
  6
CONTINUOUS
  2
DC_FILL_GROUP_2
 10
0.0
 20
0.0
 30
0.0
  0
INSERT
  5
290
  8
0
  6
CONTINUOUS
  2
DC_FILL_GROUP_3
 10
0.0
 20
0.0
 30
0.0
  0
INSERT
  5
291
  8
0
  6
CONTINUOUS
  2
DC_FILL_GROUP_4
 10
0.0
 20
0.0
 30
0.0
  0
INSERT
  5
292
  8
0
  6
CONTINUOUS
  2
DC_FILL_GROUP_5
 10
0.0
 20
0.0
 30
0.0
  0
INSERT
  5
293
  8
0
  6
CONTINUOUS
  2
DC_FILL_GROUP_6
 10
0.0
 20
0.0
 30
0.0
  0
INSERT
  5
294
  8
0
  6
CONTINUOUS
  2
DC_FILL_GROUP_7
 10
0.0
 20
0.0
 30
0.0
  0
INSERT
  5
295
  8
0
  6
CONTINUOUS
  2
DC_FILL_GROUP_8
 10
0.0
 20
0.0
 30
0.0
  0
INSERT
  5
296
  8
0
  6
CONTINUOUS
  2
DC_GROUP_9
 10
0.0
 20
0.0
 30
0.0
  0
INSERT
  5
297
  8
0
 62
    13
  2
*U26
 10
0.0
 20
0.0
 30
0.0
1001
ACAD
1002
{
1000
R14_HATCH_DATA
1000
297
1011
1.0
1021
0.0
1031
0.0
1021
0.0
1031
0.0
1011
0.0
1021
1.0
1031
0.0
1021
1.0
1031
0.0
1011
0.0
1021
0.0
1031
1.0
1021
0.0
1031
1.0
1040
0.0
1010
0.0
1020
0.0
1030
1.0
1020
0.0
1030
1.0
1000
SOLID
1070
     1
1070
     1
1071
        1
1071
        0
1071
        1
1070
     2
1040
28.71499809265137
1040
7.242650076548259
1040
0.5
1040
0.0
1040
6.283185307179586
1070
     1
1071
        0
1070
     0
1070
     1
1071
        0
1002
}
  0
INSERT
  5
298
  8
0
 62
    13
  2
*U27
 10
0.0
 20
0.0
 30
0.0
1001
ACAD
1002
{
1000
R14_HATCH_DATA
1000
298
1011
1.0
1021
0.0
1031
0.0
1021
0.0
1031
0.0
1011
0.0
1021
1.0
1031
0.0
1021
1.0
1031
0.0
1011
0.0
1021
0.0
1031
1.0
1021
0.0
1031
1.0
1040
0.0
1010
0.0
1020
0.0
1030
1.0
1020
0.0
1030
1.0
1000
SOLID
1070
     1
1070
     1
1071
        1
1071
        0
1071
        1
1070
     2
1040
28.71499809265137
1040
9.242650076548259
1040
0.5
1040
0.0
1040
6.283185307179586
1070
     1
1071
        0
1070
     0
1070
     1
1071
        0
1002
}
  0
INSERT
  5
299
  8
0
 62
    13
  2
*U28
 10
0.0
 20
0.0
 30
0.0
1001
ACAD
1002
{
1000
R14_HATCH_DATA
1000
299
1011
1.0
1021
0.0
1031
0.0
1021
0.0
1031
0.0
1011
0.0
1021
1.0
1031
0.0
1021
1.0
1031
0.0
1011
0.0
1021
0.0
1031
1.0
1021
0.0
1031
1.0
1040
0.0
1010
0.0
1020
0.0
1030
1.0
1020
0.0
1030
1.0
1000
SOLID
1070
     1
1070
     1
1071
        1
1071
        0
1071
        1
1070
     2
1040
28.71499809265137
1040
12.24265007654826
1040
0.5
1040
0.0
1040
6.283185307179586
1070
     1
1071
        0
1070
     0
1070
     1
1071
        0
1002
}
  0
INSERT
  5
29A
  8
0
 62
    13
  2
*U29
 10
0.0
 20
0.0
 30
0.0
1001
ACAD
1002
{
1000
R14_HATCH_DATA
1000
29A
1011
1.0
1021
0.0
1031
0.0
1021
0.0
1031
0.0
1011
0.0
1021
1.0
1031
0.0
1021
1.0
1031
0.0
1011
0.0
1021
0.0
1031
1.0
1021
0.0
1031
1.0
1040
0.0
1010
0.0
1020
0.0
1030
1.0
1020
0.0
1030
1.0
1000
SOLID
1070
     1
1070
     1
1071
        1
1071
        0
1071
        1
1070
     2
1040
28.71499809265137
1040
14.24265007654826
1040
0.5
1040
0.0
1040
6.283185307179586
1070
     1
1071
        0
1070
     0
1070
     1
1071
        0
1002
}
  0
INSERT
  5
29B
  8
0
 62
    13
  2
*U30
 10
0.0
 20
0.0
 30
0.0
1001
ACAD
1002
{
1000
R14_HATCH_DATA
1000
29B
1011
1.0
1021
0.0
1031
0.0
1021
0.0
1031
0.0
1011
0.0
1021
1.0
1031
0.0
1021
1.0
1031
0.0
1011
0.0
1021
0.0
1031
1.0
1021
0.0
1031
1.0
1040
0.0
1010
0.0
1020
0.0
1030
1.0
1020
0.0
1030
1.0
1000
SOLID
1070
     1
1070
     1
1071
        1
1071
        0
1071
        1
1070
     2
1040
28.71499809265137
1040
-0.7573499234517413
1040
0.5
1040
0.0
1040
6.283185307179586
1070
     1
1071
        0
1070
     0
1070
     1
1071
        0
1002
}
  0
INSERT
  5
29C
  8
0
 62
    13
  2
*U31
 10
0.0
 20
0.0
 30
0.0
1001
ACAD
1002
{
1000
R14_HATCH_DATA
1000
29C
1011
1.0
1021
0.0
1031
0.0
1021
0.0
1031
0.0
1011
0.0
1021
1.0
1031
0.0
1021
1.0
1031
0.0
1011
0.0
1021
0.0
1031
1.0
1021
0.0
1031
1.0
1040
0.0
1010
0.0
1020
0.0
1030
1.0
1020
0.0
1030
1.0
1000
SOLID
1070
     1
1070
     1
1071
        1
1071
        0
1071
        1
1070
     2
1040
28.71499809265137
1040
-5.757349923451741
1040
0.5
1040
0.0
1040
6.283185307179586
1070
     1
1071
        0
1070
     0
1070
     1
1071
        0
1002
}
  0
INSERT
  5
29D
  8
0
 62
    13
  2
*U32
 10
0.0
 20
0.0
 30
0.0
1001
ACAD
1002
{
1000
R14_HATCH_DATA
1000
29D
1011
1.0
1021
0.0
1031
0.0
1021
0.0
1031
0.0
1011
0.0
1021
1.0
1031
0.0
1021
1.0
1031
0.0
1011
0.0
1021
0.0
1031
1.0
1021
0.0
1031
1.0
1040
0.0
1010
0.0
1020
0.0
1030
1.0
1020
0.0
1030
1.0
1000
SOLID
1070
     1
1070
     1
1071
        1
1071
        0
1071
        1
1070
     2
1040
28.71499809265137
1040
-7.75735016187032
1040
0.5
1040
0.0
1040
6.283185307179586
1070
     1
1071
        0
1070
     0
1070
     1
1071
        0
1002
}
  0
INSERT
  5
29E
  8
0
 62
    13
  2
*U33
 10
0.0
 20
0.0
 30
0.0
1001
ACAD
1002
{
1000
R14_HATCH_DATA
1000
29E
1011
1.0
1021
0.0
1031
0.0
1021
0.0
1031
0.0
1011
0.0
1021
1.0
1031
0.0
1021
1.0
1031
0.0
1011
0.0
1021
0.0
1031
1.0
1021
0.0
1031
1.0
1040
0.0
1010
0.0
1020
0.0
1030
1.0
1020
0.0
1030
1.0
1000
SOLID
1070
     1
1070
     1
1071
        1
1071
        0
1071
        1
1070
     2
1040
28.71499809265137
1040
-2.757349923451741
1040
0.5
1040
0.0
1040
6.283185307179586
1070
     1
1071
        0
1070
     0
1070
     1
1071
        0
1002
}
  0
INSERT
  5
29F
  8
LAYER0014
  6
CONTINUOUS
  2
DA_IMAGEDIMGROUP_1
 10
0.0
 20
0.0
 30
0.0
  0
INSERT
  5
2A0
  8
LAYER0014
  6
CONTINUOUS
  2
DA_IMAGEDIMGROUP_2
 10
0.0
 20
0.0
 30
0.0
  0
INSERT
  5
2A1
  8
LAYER0014
  6
CONTINUOUS
  2
DA_IMAGEDIMGROUP_3
 10
0.0
 20
0.0
 30
0.0
  0
INSERT
  5
2A2
  8
LAYER0014
  6
CONTINUOUS
  2
DA_IMAGEDIMGROUP_4
 10
0.0
 20
0.0
 30
0.0
  0
INSERT
  5
2A3
  8
LAYER0014
  6
CONTINUOUS
  2
DA_IMAGEDIMGROUP_5
 10
0.0
 20
0.0
 30
0.0
  0
INSERT
  5
2A4
  8
LAYER0014
  6
CONTINUOUS
  2
DA_IMAGEDIMGROUP_6
 10
0.0
 20
0.0
 30
0.0
  0
INSERT
  5
2A5
  8
LAYER0014
  6
CONTINUOUS
  2
DA_IMAGEDIMGROUP_7
 10
0.0
 20
0.0
 30
0.0
  0
INSERT
  5
2A6
  8
LAYER0014
  6
CONTINUOUS
  2
DA_IMAGEDIMGROUP_8
 10
0.0
 20
0.0
 30
0.0
  0
INSERT
  5
2A7
  8
LAYER0014
  6
CONTINUOUS
  2
DA_IMAGEDIMGROUP_9
 10
0.0
 20
0.0
 30
0.0
  0
INSERT
  5
2A8
  8
LAYER0014
  6
CONTINUOUS
  2
DA_IMAGEDIMGROUP_10
 10
0.0
 20
0.0
 30
0.0
  0
INSERT
  5
2A9
  8
LAYER0014
  6
CONTINUOUS
  2
DA_IMAGEDIMGROUP_11
 10
0.0
 20
0.0
 30
0.0
  0
INSERT
  5
2AA
  8
LAYER0014
  6
CONTINUOUS
  2
DA_IMAGEDIMGROUP_12
 10
0.0
 20
0.0
 30
0.0
  0
INSERT
  5
2AB
  8
LAYER0014
  6
CONTINUOUS
  2
DA_IMAGEDIMGROUP_13
 10
0.0
 20
0.0
 30
0.0
  0
INSERT
  5
2AC
  8
LAYER0014
  6
CONTINUOUS
  2
DA_IMAGEDIMGROUP_14
 10
0.0
 20
0.0
 30
0.0
  0
LINE
  5
2AD
  8
LAYER0014
  6
CONTINUOUS
 62
     7
 10
-10.38498221746883
 20
-11.75735016187032
 30
0.0
 11
-10.38498221746883
 21
-21.27175618863161
 31
0.0
  0
LINE
  5
2AE
  8
LAYER0014
  6
CONTINUOUS
 62
     7
 10
-10.38498221746883
 20
-11.75735016187032
 30
0.0
 11
-10.38498221746883
 21
-9.75735014696916
 31
0.0
  0
LINE
  5
2AF
  8
LAYER0014
  6
CONTINUOUS
 62
     7
 10
-19.285
 20
-11.75735016187032
 30
0.0
 11
-8.098982217468832
 21
-11.75735016187032
 31
0.0
  0
LINE
  5
2B0
  8
LAYER0014
  6
CONTINUOUS
 62
     7
 10
-19.285
 20
-9.75735014696916
 30
0.0
 11
-8.098982217468832
 21
-9.75735014696916
 31
0.0
  0
LINE
  5
2B1
  8
LAYER0014
  6
CONTINUOUS
 62
     7
 10
28.71499809265137
 20
-11.75735016187032
 30
0.0
 11
28.71499809265137
 21
-26.64178586671947
 31
0.0
  0
LINE
  5
2B2
  8
LAYER0014
  6
CONTINUOUS
 62
     7
 10
28.71499809265137
 20
-7.75735016187032
 30
0.0
 11
28.71499809265137
 21
-11.75735016187032
 31
0.0
  0
LINE
  5
2B3
  8
LAYER0014
  6
CONTINUOUS
 62
     7
 10
11.21499618530274
 20
-7.75735016187032
 30
0.0
 11
31.00099809265137
 21
-7.75735016187032
 31
0.0
  0
LINE
  5
2B4
  8
LAYER0014
  6
CONTINUOUS
 62
     7
 10
13.71499809265137
 20
-11.75735016187032
 30
0.0
 11
31.00099809265137
 21
-11.75735016187032
 31
0.0
  0
LINE
  5
2B5
  8
LAYER0014
  6
CONTINUOUS
 62
     7
 10
28.71499809265137
 20
14.24265007654826
 30
0.0
 11
28.71499809265137
 21
12.24265007654826
 31
0.0
  0
LINE
  5
2B6
  8
LAYER0014
  6
CONTINUOUS
 62
     7
 10
5.214996185302738
 20
14.24265007654826
 30
0.0
 11
31.00099809265137
 21
14.24265007654826
 31
0.0
  0
LINE
  5
2B7
  8
LAYER0014
  6
CONTINUOUS
 62
     7
 10
5.214996185302738
 20
12.24265007654826
 30
0.0
 11
31.00099809265137
 21
12.24265007654826
 31
0.0
  0
LINE
  5
2B8
  8
LAYER0014
  6
CONTINUOUS
 62
     7
 10
28.71499809265137
 20
12.24265007654826
 30
0.0
 11
28.71499809265137
 21
9.242650076548259
 31
0.0
  0
LINE
  5
2B9
  8
LAYER0014
  6
CONTINUOUS
 62
     7
 10
5.214996185302738
 20
12.24265007654826
 30
0.0
 11
31.00099809265137
 21
12.24265007654826
 31
0.0
  0
LINE
  5
2BA
  8
LAYER0014
  6
CONTINUOUS
 62
     7
 10
5.214996185302738
 20
9.242650076548259
 30
0.0
 11
31.00099809265137
 21
9.242650076548259
 31
0.0
  0
LINE
  5
2BB
  8
LAYER0014
  6
CONTINUOUS
 62
     7
 10
28.71499809265137
 20
9.242650076548259
 30
0.0
 11
28.71499809265137
 21
7.242650076548259
 31
0.0
  0
LINE
  5
2BC
  8
LAYER0014
  6
CONTINUOUS
 62
     7
 10
5.214996185302738
 20
9.242650076548259
 30
0.0
 11
31.00099809265137
 21
9.242650076548259
 31
0.0
  0
LINE
  5
2BD
  8
LAYER0014
  6
CONTINUOUS
 62
     7
 10
5.214996185302738
 20
7.242650076548259
 30
0.0
 11
31.00099809265137
 21
7.242650076548259
 31
0.0
  0
LINE
  5
2BE
  8
LAYER0014
  6
CONTINUOUS
 62
     7
 10
28.71499809265137
 20
-5.757349923451741
 30
0.0
 11
28.71499809265137
 21
-7.75735016187032
 31
0.0
  0
LINE
  5
2BF
  8
LAYER0014
  6
CONTINUOUS
 62
     7
 10
11.21499618530274
 20
-5.757349923451741
 30
0.0
 11
31.00099809265137
 21
-5.757349923451741
 31
0.0
  0
LINE
  5
2C0
  8
LAYER0014
  6
CONTINUOUS
 62
     7
 10
11.21499618530274
 20
-7.75735016187032
 30
0.0
 11
31.00099809265137
 21
-7.75735016187032
 31
0.0
  0
LINE
  5
2C1
  8
LAYER0014
  6
CONTINUOUS
 62
     7
 10
28.71499809265137
 20
-0.7573499234517413
 30
0.0
 11
28.71499809265137
 21
-2.757349923451741
 31
0.0
  0
LINE
  5
2C2
  8
LAYER0014
  6
CONTINUOUS
 62
     7
 10
11.21499618530274
 20
-0.7573499234517413
 30
0.0
 11
31.00099809265137
 21
-0.7573499234517413
 31
0.0
  0
LINE
  5
2C3
  8
LAYER0014
  6
CONTINUOUS
 62
     7
 10
11.21499618530274
 20
-2.757349923451741
 30
0.0
 11
31.00099809265137
 21
-2.757349923451741
 31
0.0
  0
LINE
  5
2C4
  8
LAYER0014
  6
CONTINUOUS
 62
     7
 10
28.71499809265137
 20
-2.757349923451741
 30
0.0
 11
28.71499809265137
 21
-5.757349923451741
 31
0.0
  0
LINE
  5
2C5
  8
LAYER0014
  6
CONTINUOUS
 62
     7
 10
11.21499618530274
 20
-2.757349923451741
 30
0.0
 11
31.00099809265137
 21
-2.757349923451741
 31
0.0
  0
LINE
  5
2C6
  8
LAYER0014
  6
CONTINUOUS
 62
     7
 10
11.21499618530274
 20
-5.757349923451741
 30
0.0
 11
31.00099809265137
 21
-5.757349923451741
 31
0.0
  0
LINE
  5
2C7
  8
LAYER0014
  6
CONTINUOUS
 62
     7
 10
-10.38498221746883
 20
2.242650076548259
 30
0.0
 11
-10.38498221746883
 21
4.242650076548259
 31
0.0
  0
LINE
  5
2C8
  8
LAYER0014
  6
CONTINUOUS
 62
     7
 10
-19.285
 20
2.242650076548259
 30
0.0
 11
-8.09898221746883
 21
2.242650076548259
 31
0.0
  0
LINE
  5
2C9
  8
LAYER0014
  6
CONTINUOUS
 62
     7
 10
-19.285
 20
4.242650076548259
 30
0.0
 11
-8.09898221746883
 21
4.242650076548259
 31
0.0
  0
LINE
  5
2CA
  8
LAYER0014
  6
CONTINUOUS
 62
     7
 10
-10.38498221746883
 20
21.24265007654826
 30
0.0
 11
-10.38498221746883
 21
30.2417153112615
 31
0.0
  0
LINE
  5
2CB
  8
LAYER0014
  6
CONTINUOUS
 62
     7
 10
-10.38498221746883
 20
19.24265007654826
 30
0.0
 11
-10.38498221746883
 21
21.24265007654826
 31
0.0
  0
LINE
  5
2CC
  8
LAYER0014
  6
CONTINUOUS
 62
     7
 10
-19.285
 20
19.24265007654826
 30
0.0
 11
-8.098982217468832
 21
19.24265007654826
 31
0.0
  0
LINE
  5
2CD
  8
LAYER0014
  6
CONTINUOUS
 62
     7
 10
-19.285
 20
21.24265007654826
 30
0.0
 11
-8.098982217468832
 21
21.24265007654826
 31
0.0
  0
LINE
  5
2CE
  8
LAYER0014
  6
CONTINUOUS
 62
     7
 10
28.71499809265137
 20
-0.7573499234517413
 30
0.0
 11
28.71499809265137
 21
7.242650076548259
 31
0.0
  0
LINE
  5
2CF
  8
LAYER0014
  6
CONTINUOUS
 62
     7
 10
11.21499618530274
 20
-0.7573499234517413
 30
0.0
 11
31.00099809265137
 21
-0.7573499234517413
 31
0.0
  0
LINE
  5
2D0
  8
LAYER0014
  6
CONTINUOUS
 62
     7
 10
5.214996185302738
 20
7.242650076548259
 30
0.0
 11
31.00099809265137
 21
7.242650076548259
 31
0.0
  0
LINE
  5
2D1
  8
LAYER0014
  6
CONTINUOUS
 62
     7
 10
28.71499809265137
 20
21.24265007654826
 30
0.0
 11
28.71499809265137
 21
31.08686312941263
 31
0.0
  0
LINE
  5
2D2
  8
LAYER0014
  6
CONTINUOUS
 62
     7
 10
28.71499809265137
 20
14.24265007654826
 30
0.0
 11
28.71499809265137
 21
21.24265007654826
 31
0.0
  0
LINE
  5
2D3
  8
LAYER0014
  6
CONTINUOUS
 62
     7
 10
5.214996185302738
 20
14.24265007654826
 30
0.0
 11
31.00099809265137
 21
14.24265007654826
 31
0.0
  0
LINE
  5
2D4
  8
LAYER0014
  6
CONTINUOUS
 62
     7
 10
3.714996185302738
 20
21.24265007654826
 30
0.0
 11
31.00099809265137
 21
21.24265007654826
 31
0.0
  0
LINE
  5
2D5
  8
LAYER0014
  6
CONTINUOUS
 62
     7
 10
-10.38498221746883
 20
-11.75735016187032
 30
0.0
 11
-10.38498221746883
 21
-19.25735016187032
 31
0.0
  0
INSERT
  5
2D6
  8
LAYER0014
 62
     7
  2
_OPEN30
 10
-10.38498221746883
 20
-11.75735016187032
 30
0.0
 41
3.000002807615286
 42
2.999989368223643
 50
90.0
  0
LINE
  5
2D7
  8
LAYER0014
  6
CONTINUOUS
 62
     7
 10
-10.38498221746883
 20
2.242650076548259
 30
0.0
 11
-10.38498221746883
 21
-5.257349923451741
 31
0.0
  0
INSERT
  5
2D8
  8
LAYER0014
 62
     7
  2
_OPEN30
 10
-10.38498221746883
 20
2.242650076548259
 30
0.0
 41
3.000002807615286
 42
2.999989368223643
 50
90.0
  0
LINE
  5
2D9
  8
LAYER0014
  6
CONTINUOUS
 62
     7
 10
-10.38498221746883
 20
19.24265007654826
 30
0.0
 11
-10.38498221746883
 21
11.74265007654826
 31
0.0
  0
INSERT
  5
2DA
  8
LAYER0014
 62
     7
  2
_OPEN30
 10
-10.38498221746883
 20
19.24265007654826
 30
0.0
 41
3.000002807615286
 42
2.999989368223643
 50
90.0
  0
LINE
  5
2DB
  8
LAYER0014
  6
CONTINUOUS
 62
     7
 10
-10.38498221746883
 20
-2.257350146969159
 30
0.0
 11
-10.38498221746883
 21
-9.75735014696916
 31
0.0
  0
INSERT
  5
2DC
  8
LAYER0014
 62
     7
  2
_OPEN30
 10
-10.38498221746883
 20
-9.75735014696916
 30
0.0
 41
3.000002807615286
 42
2.999989368223643
 50
270.0
  0
LINE
  5
2DD
  8
LAYER0014
  6
CONTINUOUS
 62
     7
 10
28.71499809265137
 20
-19.25735016187032
 30
0.0
 11
28.71499809265137
 21
-11.75735016187032
 31
0.0
  0
INSERT
  5
2DE
  8
LAYER0014
 62
     7
  2
_OPEN30
 10
28.71499809265137
 20
-11.75735016187032
 30
0.0
 41
3.000002807615286
 42
2.999989368223643
 50
90.0
  0
LINE
  5
2DF
  8
LAYER0014
  6
CONTINUOUS
 62
     7
 10
-10.38498221746883
 20
11.74265007654826
 30
0.0
 11
-10.38498221746883
 21
4.242650076548259
 31
0.0
  0
INSERT
  5
2E0
  8
LAYER0014
 62
     7
  2
_OPEN30
 10
-10.38498221746883
 20
4.242650076548259
 30
0.0
 41
3.000002807615286
 42
2.999989368223643
 50
270.0
  0
LINE
  5
2E1
  8
LAYER0014
  6
CONTINUOUS
 62
     7
 10
-10.38498221746883
 20
28.74265007654826
 30
0.0
 11
-10.38498221746883
 21
21.24265007654826
 31
0.0
  0
INSERT
  5
2E2
  8
LAYER0014
 62
     7
  2
_OPEN30
 10
-10.38498221746883
 20
21.24265007654826
 30
0.0
 41
3.000002807615286
 42
2.999989368223643
 50
270.0
  0
LINE
  5
2E3
  8
LAYER0014
  6
CONTINUOUS
 62
     7
 10
28.71499809265137
 20
28.74265007654826
 30
0.0
 11
28.71499809265137
 21
21.24265007654826
 31
0.0
  0
INSERT
  5
2E4
  8
LAYER0014
 62
     7
  2
_OPEN30
 10
28.71499809265137
 20
21.24265007654826
 30
0.0
 41
3.000002807615286
 42
2.999989368223643
 50
270.0
  0
TEXT
  5
2E5
  8
LAYER0014
 62
     7
 10
-11.18498222938976
 20
-21.27175618863161
 30
0.0
 40
3.200000047683716
  1
(2)
 50
90.0
 41
1.295497138221875
  7
DCSTYLE0
 72
     5
 11
-11.18498222938976
 21
-12.58575619912203
 31
0.0
  0
TEXT
  5
2E6
  8
LAYER0014
 62
     7
 10
27.91499808073044
 20
-26.64178586671947
 30
0.0
 40
3.200000047683716
  1
(4)
 50
90.0
 41
1.295497138221875
  7
DCSTYLE0
 72
     5
 11
27.91499808073044
 21
-17.95578587720989
 31
0.0
  0
TEXT
  5
2E7
  8
LAYER0014
 62
     7
 10
37.51499822378159
 20
8.899650081793467
 30
0.0
 40
3.200000047683716
  1
(2)
 50
90.0
 41
1.295497138221875
  7
DCSTYLE0
 72
     5
 11
37.51499822378159
 21
17.58565007130305
 31
0.0
  0
TEXT
  5
2E8
  8
LAYER0014
 62
     7
 10
27.91499808073044
 20
6.399650081793467
 30
0.0
 40
3.200000047683716
  1
(3)
 50
90.0
 41
1.295497138221875
  7
DCSTYLE0
 72
     5
 11
27.91499808073044
 21
15.08565007130305
 31
0.0
  0
TEXT
  5
2E9
  8
LAYER0014
 62
     7
 10
37.51499822378159
 20
3.899650081793467
 30
0.0
 40
3.200000047683716
  1
(2)
 50
90.0
 41
1.295497138221875
  7
DCSTYLE0
 72
     5
 11
37.51499822378159
 21
12.58565007130305
 31
0.0
  0
TEXT
  5
2EA
  8
LAYER0014
 62
     7
 10
37.51499822378159
 20
-11.10035003741582
 30
0.0
 40
3.200000047683716
  1
(2)
 50
90.0
 41
1.295497138221875
  7
DCSTYLE0
 72
     5
 11
37.51499822378159
 21
-2.41435004790624
 31
0.0
  0
TEXT
  5
2EB
  8
LAYER0014
 62
     7
 10
37.51499822378159
 20
-6.100349918206533
 30
0.0
 40
3.200000047683716
  1
(2)
 50
90.0
 41
1.295497138221875
  7
DCSTYLE0
 72
     5
 11
37.51499822378159
 21
2.585650071303049
 31
0.0
  0
TEXT
  5
2EC
  8
LAYER0014
 62
     7
 10
27.91499808073044
 20
-8.600349918206533
 30
0.0
 40
3.200000047683716
  1
(3)
 50
90.0
 41
1.295497138221875
  7
DCSTYLE0
 72
     5
 11
27.91499808073044
 21
0.0856500713030499
 31
0.0
  0
TEXT
  5
2ED
  8
LAYER0014
 62
     7
 10
-11.18498222938976
 20
-1.100349918206533
 30
0.0
 40
3.200000047683716
  1
(2)
 50
90.0
 41
1.295497138221875
  7
DCSTYLE0
 72
     5
 11
-11.18498222938976
 21
7.58565007130305
 31
0.0
  0
TEXT
  5
2EE
  8
LAYER0014
 62
     7
 10
-11.18498222938976
 20
21.55571532175192
 30
0.0
 40
3.200000047683716
  1
(2)
 50
90.0
 41
1.295497138221875
  7
DCSTYLE0
 72
     5
 11
-11.18498222938976
 21
30.2417153112615
 31
0.0
  0
TEXT
  5
2EF
  8
LAYER0014
 62
     7
 10
27.91499808073044
 20
-1.100349918206533
 30
0.0
 40
3.200000047683716
  1
(8)
 50
90.0
 41
1.295497138221875
  7
DCSTYLE0
 72
     5
 11
27.91499808073044
 21
7.58565007130305
 31
0.0
  0
TEXT
  5
2F0
  8
LAYER0014
 62
     7
 10
27.91499808073044
 20
22.40086313990304
 30
0.0
 40
3.200000047683716
  1
(7)
 50
90.0
 41
1.295497138221875
  7
DCSTYLE0
 72
     5
 11
27.91499808073044
 21
31.08686312941263
 31
0.0
  0
VIEWPORT
  5
AE
 67
     1
  8
0
 10
-4.5
 20
0.0
 30
0.0
 40
1140.0
 41
798.0
 68
     1
 69
     1
1001
ACAD
1000
MVIEW
1002
{
1070
    16
1010
0.0
1020
0.0
1030
0.0
1020
0.0
1030
0.0
1010
0.0
1020
0.0
1030
1.0
1020
0.0
1030
1.0
1040
0.0
1040
798.0
1040
-4.5
1040
0.0
1040
50.0
1040
0.0
1040
0.0
1070
     0
1070
   100
1070
     0
1070
     3
1070
     0
1070
     0
1070
     0
1070
     0
1040
0.0
1040
0.0
1040
0.0
1040
0.5
1040
0.5
1040
0.0
1040
0.0
1070
     0
1002
{
1002
}
1002
}
  0
ENDSEC
  0
EOF
