  0
SECTION
  2
HEADER
  9
$ACADVER
  1
AC1015
  9
$ACADMAINTVER
 70
     6
  9
$DWGCODEPAGE
  3
ANSI_932
  9
$INSBASE
 10
0.0
 20
0.0
 30
0.0
  9
$EXTMIN
 10
-627.0
 20
-432.0
 30
0.0
  9
$EXTMAX
 10
627.0
 20
432.0
 30
0.0
  9
$LIMMIN
 10
-209.0
 20
-144.0
  9
$LIMMAX
 10
209.0
 20
144.0
  9
$ORTHOMODE
 70
     0
  9
$REGENMODE
 70
     1
  9
$FILLMODE
 70
     1
  9
$QTEXTMODE
 70
     0
  9
$MIRRTEXT
 70
     1
  9
$LTSCALE
 40
1.0
  9
$ATTMODE
 70
     1
  9
$TEXTSIZE
 40
0.2
  9
$TRACEWID
 40
0.05
  9
$TEXTSTYLE
  7
Standard
  9
$CLAYER
  8
0
  9
$CELTYPE
  6
ByLayer
  9
$CECOLOR
 62
   256
  9
$CELTSCALE
 40
1.0
  9
$DISPSILH
 70
     0
  9
$DIMSCALE
 40
1.0
  9
$DIMASZ
 40
2.5
  9
$DIMEXO
 40
0.0625
  9
$DIMDLI
 40
0.38
  9
$DIMRND
 40
0.0
  9
$DIMDLE
 40
0.0
  9
$DIMEXE
 40
0.18
  9
$DIMTP
 40
0.0
  9
$DIMTM
 40
0.0
  9
$DIMTXT
 40
0.18
  9
$DIMCEN
 40
0.09
  9
$DIMTSZ
 40
0.0
  9
$DIMTOL
 70
     0
  9
$DIMLIM
 70
     0
  9
$DIMTIH
 70
     1
  9
$DIMTOH
 70
     1
  9
$DIMSE1
 70
     0
  9
$DIMSE2
 70
     0
  9
$DIMTAD
 70
     3
  9
$DIMZIN
 70
     0
  9
$DIMBLK
  1

  9
$DIMASO
 70
     1
  9
$DIMSHO
 70
     1
  9
$DIMPOST
  1

  9
$DIMAPOST
  1

  9
$DIMALT
 70
     0
  9
$DIMALTD
 70
     2
  9
$DIMALTF
 40
25.4
  9
$DIMLFAC
 40
1.0
  9
$DIMTOFL
 70
     0
  9
$DIMTVP
 40
0.0
  9
$DIMTIX
 70
     0
  9
$DIMSOXD
 70
     0
  9
$DIMSAH
 70
     0
  9
$DIMBLK1
  1

  9
$DIMBLK2
  1

  9
$DIMSTYLE
  2
Standard
  9
$DIMCLRD
 70
     0
  9
$DIMCLRE
 70
     0
  9
$DIMCLRT
 70
     0
  9
$DIMTFAC
 40
1.0
  9
$DIMGAP
 40
0.09
  9
$DIMJUST
 70
     0
  9
$DIMSD1
 70
     0
  9
$DIMSD2
 70
     0
  9
$DIMTOLJ
 70
     1
  9
$DIMTZIN
 70
     0
  9
$DIMALTZ
 70
     0
  9
$DIMALTTZ
 70
     0
  9
$DIMUPT
 70
     0
  9
$DIMDEC
 70
     4
  9
$DIMTDEC
 70
     4
  9
$DIMALTU
 70
     2
  9
$DIMALTTD
 70
     2
  9
$DIMTXSTY
  7
Standard
  9
$DIMAUNIT
 70
     0
  9
$DIMADEC
 70
     0
  9
$DIMALTRND
 40
0.0
  9
$DIMAZIN
 70
     0
  9
$DIMDSEP
 70
    46
  9
$DIMATFIT
 70
     3
  9
$DIMFRAC
 70
     0
  9
$DIMLDRBLK
  1

  9
$DIMLUNIT
 70
     2
  9
$DIMLWD
 70
    -2
  9
$DIMLWE
 70
    -2
  9
$DIMTMOVE
 70
     0
  9
$LUNITS
 70
     2
  9
$LUPREC
 70
     4
  9
$SKETCHINC
 40
0.1
  9
$FILLETRAD
 40
0.5
  9
$AUNITS
 70
     0
  9
$AUPREC
 70
     0
  9
$MENU
  1
.
  9
$ELEVATION
 40
0.0
  9
$PELEVATION
 40
0.0
  9
$THICKNESS
 40
0.0
  9
$LIMCHECK
 70
     0
  9
$CHAMFERA
 40
0.5
  9
$CHAMFERB
 40
0.5
  9
$CHAMFERC
 40
1.0
  9
$CHAMFERD
 40
0.0
  9
$SKPOLY
 70
     0
  9
$TDCREATE
 40
2455247.390423982
  9
$TDUCREATE
 40
2455247.015423982
  9
$TDUPDATE
 40
2455247.390423993
  9
$TDUUPDATE
 40
2455247.015423993
  9
$TDINDWG
 40
0.0000000116
  9
$TDUSRTIMER
 40
0.0000000116
  9
$USRTIMER
 70
     1
  9
$ANGBASE
 50
0.0
  9
$ANGDIR
 70
     0
  9
$PDMODE
 70
     0
  9
$PDSIZE
 40
1.0
  9
$PLINEWID
 40
0.0
  9
$SPLFRAME
 70
     0
  9
$SPLINETYPE
 70
     6
  9
$SPLINESEGS
 70
     8
  9
$HANDSEED
  5
31F
  9
$SURFTAB1
 70
     6
  9
$SURFTAB2
 70
     6
  9
$SURFTYPE
 70
     6
  9
$SURFU
 70
     6
  9
$SURFV
 70
     6
  9
$UCSBASE
  2

  9
$UCSNAME
  2

  9
$UCSORG
 10
0.0
 20
0.0
 30
0.0
  9
$UCSXDIR
 10
1.0
 20
0.0
 30
0.0
  9
$UCSYDIR
 10
0.0
 20
1.0
 30
0.0
  9
$UCSORTHOREF
  2

  9
$UCSORTHOVIEW
 70
     0
  9
$UCSORGTOP
 10
0.0
 20
0.0
 30
0.0
  9
$UCSORGBOTTOM
 10
0.0
 20
0.0
 30
0.0
  9
$UCSORGLEFT
 10
0.0
 20
0.0
 30
0.0
  9
$UCSORGRIGHT
 10
0.0
 20
0.0
 30
0.0
  9
$UCSORGFRONT
 10
0.0
 20
0.0
 30
0.0
  9
$UCSORGBACK
 10
0.0
 20
0.0
 30
0.0
  9
$PUCSBASE
  2

  9
$PUCSNAME
  2

  9
$PUCSORG
 10
0.0
 20
0.0
 30
0.0
  9
$PUCSXDIR
 10
1.0
 20
0.0
 30
0.0
  9
$PUCSYDIR
 10
0.0
 20
1.0
 30
0.0
  9
$PUCSORTHOREF
  2

  9
$PUCSORTHOVIEW
 70
     0
  9
$PUCSORGTOP
 10
0.0
 20
0.0
 30
0.0
  9
$PUCSORGBOTTOM
 10
0.0
 20
0.0
 30
0.0
  9
$PUCSORGLEFT
 10
0.0
 20
0.0
 30
0.0
  9
$PUCSORGRIGHT
 10
0.0
 20
0.0
 30
0.0
  9
$PUCSORGFRONT
 10
0.0
 20
0.0
 30
0.0
  9
$PUCSORGBACK
 10
0.0
 20
0.0
 30
0.0
  9
$USERI1
 70
     0
  9
$USERI2
 70
     0
  9
$USERI3
 70
     0
  9
$USERI4
 70
     0
  9
$USERI5
 70
     0
  9
$USERR1
 40
0.0
  9
$USERR2
 40
0.0
  9
$USERR3
 40
0.0
  9
$USERR4
 40
0.0
  9
$USERR5
 40
0.0
  9
$WORLDVIEW
 70
     1
  9
$SHADEDGE
 70
     3
  9
$SHADEDIF
 70
    70
  9
$TILEMODE
 70
     1
  9
$MAXACTVP
 70
    64
  9
$PINSBASE
 10
0.0
 20
0.0
 30
0.0
  9
$PLIMCHECK
 70
     0
  9
$PEXTMIN
 10
1.000000000000000E+20
 20
1.000000000000000E+20
 30
1.000000000000000E+20
  9
$PEXTMAX
 10
-1.000000000000000E+20
 20
-1.000000000000000E+20
 30
-1.000000000000000E+20
  9
$PLIMMIN
 10
0.0
 20
0.0
  9
$PLIMMAX
 10
12.0
 20
9.0
  9
$UNITMODE
 70
     0
  9
$VISRETAIN
 70
     0
  9
$PLINEGEN
 70
     1
  9
$PSLTSCALE
 70
     0
  9
$TREEDEPTH
 70
  3020
  9
$CMLSTYLE
  2
Standard
  9
$CMLJUST
 70
     0
  9
$CMLSCALE
 40
1.0
  9
$PROXYGRAPHICS
 70
     0
  9
$MEASUREMENT
 70
     1
  9
$CELWEIGHT
370
    -1
  9
$ENDCAPS
280
     0
  9
$JOINSTYLE
280
     0
  9
$LWDISPLAY
290
     0
  9
$INSUNITS
 70
     4
  9
$HYPERLINKBASE
  1

  9
$STYLESHEET
  1

  9
$XEDIT
290
     1
  9
$CEPSNTYPE
380
     0
  9
$PSTYLEMODE
290
     1
  9
$FINGERPRINTGUID
  2
{A09DB783-8A04-47E2-BCE5-218F6EB47FCC}
  9
$VERSIONGUID
  2
{FAEB1C32-E019-11D5-929B-00C0DF256EC4}
  9
$EXTNAMES
290
     1
  9
$PSVPSCALE
 40
0.0
  9
$OLESTARTUP
290
     0
  0
ENDSEC
  0
SECTION
  2
CLASSES
  0
CLASS
  1
ACDBDICTIONARYWDFLT
  2
AcDbDictionaryWithDefault
  3
ObjectDBX Classes
 90
        0
280
     0
281
     0
  0
CLASS
  1
ACDBPLACEHOLDER
  2
AcDbPlaceHolder
  3
ObjectDBX Classes
 90
        0
280
     0
281
     0
  0
CLASS
  1
LAYOUT
  2
AcDbLayout
  3
ObjectDBX Classes
 90
        0
280
     0
281
     0
  0
ENDSEC
  0
SECTION
  2
TABLES
  0
TABLE
  2
VPORT
  5
8
330
0
100
AcDbSymbolTable
 70
     1
  0
VPORT
  5
29
330
8
100
AcDbSymbolTableRecord
100
AcDbViewportTableRecord
  2
*Active
 70
     0
 10
0.0
 20
0.0
 11
1.0
 21
1.0
 12
0.0
 22
0.0
 13
0.0
 23
0.0
 14
0.5
 24
0.5
 15
0.5
 25
0.5
 16
0.0
 26
0.0
 36
1.0
 17
-0.0000000000000036
 27
0.0
 37
0.0
 40
293.76
 41
1.451388888888889
 42
50.0
 43
0.0
 44
0.0
 50
0.0
 51
0.0
 71
     0
 72
  1000
 73
     1
 74
     1
 75
     0
 76
     0
 77
     0
 78
     0
281
     0
 65
     1
110
0.0
120
0.0
130
0.0
111
1.0
121
0.0
131
0.0
112
0.0
122
1.0
132
0.0
 79
     0
146
0.0
  0
ENDTAB
  0
TABLE
  2
LTYPE
  5
5
330
0
100
AcDbSymbolTable
 70
    28
  0
LTYPE
  5
14
330
5
100
AcDbSymbolTableRecord
100
AcDbLinetypeTableRecord
  2
ByBlock
 70
     0
  3

 72
    65
 73
     0
 40
0.0
  0
LTYPE
  5
15
330
5
100
AcDbSymbolTableRecord
100
AcDbLinetypeTableRecord
  2
ByLayer
 70
     0
  3

 72
    65
 73
     0
 40
0.0
  0
LTYPE
  5
16
330
5
100
AcDbSymbolTableRecord
100
AcDbLinetypeTableRecord
  2
Continuous
 70
     0
  3
Solid line
 72
    65
 73
     0
 40
0.0
  0
LTYPE
  5
2B
330
5
100
AcDbSymbolTableRecord
100
AcDbLinetypeTableRecord
  2
HIDDENX2
 70
     0
  3
CADPAC LINETYPE
 72
    65
 73
     2
 40
7.598944591029067
 49
5.6992084432718
 74
     0
 49
-1.899736147757267
 74
     0
  0
LTYPE
  5
2C
330
5
100
AcDbSymbolTableRecord
100
AcDbLinetypeTableRecord
  2
HIDDEN
 70
     0
  3
CADPAC LINETYPE
 72
    65
 73
     2
 40
5.6992084432718
 49
3.799472295514534
 74
     0
 49
-1.899736147757267
 74
     0
  0
LTYPE
  5
2D
330
5
100
AcDbSymbolTableRecord
100
AcDbLinetypeTableRecord
  2
HIDDEN2
 70
     0
  3
CADPAC LINETYPE
 72
    65
 73
     2
 40
4.749340369393167
 49
2.8496042216359
 74
     0
 49
-1.899736147757267
 74
     0
  0
LTYPE
  5
2E
330
5
100
AcDbSymbolTableRecord
100
AcDbLinetypeTableRecord
  2
DASHED
 70
     0
  3
CADPAC LINETYPE
 72
    65
 73
     2
 40
5.319261213720324
 49
3.799472295514534
 74
     0
 49
-1.519788918205791
 74
     0
  0
LTYPE
  5
2F
330
5
100
AcDbSymbolTableRecord
100
AcDbLinetypeTableRecord
  2
DASHED2
 70
     0
  3
CADPAC LINETYPE
 72
    65
 73
     2
 40
3.419525065963057
 49
2.279683377308714
 74
     0
 49
-1.139841688654343
 74
     0
  0
LTYPE
  5
30
330
5
100
AcDbSymbolTableRecord
100
AcDbLinetypeTableRecord
  2
DASHEDX2
 70
     0
  3
CADPAC LINETYPE
 72
    65
 73
     2
 40
9.118733509234801
 49
7.59894459102901
 74
     0
 49
-1.519788918205791
 74
     0
  0
LTYPE
  5
31
330
5
100
AcDbSymbolTableRecord
100
AcDbLinetypeTableRecord
  2
DOTX2
 70
     0
  3
CADPAC LINETYPE
 72
    65
 73
     2
 40
3.324538258575167
 49
0.0
 74
     0
 49
-3.324538258575167
 74
     0
  0
LTYPE
  5
32
330
5
100
AcDbSymbolTableRecord
100
AcDbLinetypeTableRecord
  2
DOT
 70
     0
  3
CADPAC LINETYPE
 72
    65
 73
     2
 40
2.659630606860134
 49
0.0
 74
     0
 49
-2.659630606860134
 74
     0
  0
LTYPE
  5
33
330
5
100
AcDbSymbolTableRecord
100
AcDbLinetypeTableRecord
  2
DOT2
 70
     0
  3
CADPAC LINETYPE
 72
    65
 73
     2
 40
1.9947229551451
 49
0.0
 74
     0
 49
-1.9947229551451
 74
     0
  0
LTYPE
  5
34
330
5
100
AcDbSymbolTableRecord
100
AcDbLinetypeTableRecord
  2
CENTERX2
 70
     0
  3
CADPAC LINETYPE
 72
    65
 73
     4
 40
11.3984168865436
 49
4.749340369393167
 74
     0
 49
-2.374670184696583
 74
     0
 49
1.899736147757267
 74
     0
 49
-2.374670184696583
 74
     0
  0
LTYPE
  5
35
330
5
100
AcDbSymbolTableRecord
100
AcDbLinetypeTableRecord
  2
CENTER
 70
     0
  3
CADPAC LINETYPE
 72
    65
 73
     4
 40
8.738786279683428
 49
3.799472295514534
 74
     0
 49
-1.899736147757267
 74
     0
 49
1.13984168865436
 74
     0
 49
-1.899736147757267
 74
     0
  0
LTYPE
  5
36
330
5
100
AcDbSymbolTableRecord
100
AcDbLinetypeTableRecord
  2
CENTER2
 70
     0
  3
CADPAC LINETYPE
 72
    65
 73
     4
 40
6.079155672823253
 49
2.8496042216359
 74
     0
 49
-1.42480211081795
 74
     0
 49
0.3799472295514534
 74
     0
 49
-1.42480211081795
 74
     0
  0
LTYPE
  5
37
330
5
100
AcDbSymbolTableRecord
100
AcDbLinetypeTableRecord
  2
DASHDOTX2
 70
     0
  3
CADPAC LINETYPE
 72
    65
 73
     4
 40
18.23746701846966
 49
9.118733509234829
 74
     0
 49
-3.03957783641161
 74
     0
 49
3.03957783641161
 74
     0
 49
-3.03957783641161
 74
     0
  0
LTYPE
  5
38
330
5
100
AcDbSymbolTableRecord
100
AcDbLinetypeTableRecord
  2
DASHDOT
 70
     0
  3
CADPAC LINETYPE
 72
    65
 73
     4
 40
9.118733509234801
 49
4.559366754617429
 74
     0
 49
-1.519788918205791
 74
     0
 49
1.519788918205791
 74
     0
 49
-1.519788918205791
 74
     0
  0
LTYPE
  5
39
330
5
100
AcDbSymbolTableRecord
100
AcDbLinetypeTableRecord
  2
DASHDOT2
 70
     0
  3
CADPAC LINETYPE
 72
    65
 73
     4
 40
5.851187335092337
 49
3.419525065963072
 74
     0
 49
-1.139841688654343
 74
     0
 49
0.1519788918205791
 74
     0
 49
-1.139841688654343
 74
     0
  0
LTYPE
  5
3A
330
5
100
AcDbSymbolTableRecord
100
AcDbLinetypeTableRecord
  2
DIVIDEX2
 70
     0
  3
CADPAC LINETYPE
 72
    65
 73
     6
 40
24.31662269129288
 49
9.118733509234829
 74
     0
 49
-3.03957783641161
 74
     0
 49
3.03957783641161
 74
     0
 49
-3.03957783641161
 74
     0
 49
3.03957783641161
 74
     0
 49
-3.03957783641161
 74
     0
  0
LTYPE
  5
3B
330
5
100
AcDbSymbolTableRecord
100
AcDbLinetypeTableRecord
  2
DIVIDE
 70
     0
  3
CADPAC LINETYPE
 72
    65
 73
     6
 40
12.15831134564638
 49
4.559366754617429
 74
     0
 49
-1.519788918205791
 74
     0
 49
1.519788918205791
 74
     0
 49
-1.519788918205791
 74
     0
 49
1.519788918205791
 74
     0
 49
-1.519788918205791
 74
     0
  0
LTYPE
  5
3C
330
5
100
AcDbSymbolTableRecord
100
AcDbLinetypeTableRecord
  2
DIVIDE2
 70
     0
  3
CADPAC LINETYPE
 72
    65
 73
     6
 40
9.118733509234787
 49
3.419525065963072
 74
     0
 49
-1.139841688654343
 74
     0
 49
1.139841688654343
 74
     0
 49
-1.139841688654343
 74
     0
 49
1.139841688654343
 74
     0
 49
-1.139841688654343
 74
     0
  0
LTYPE
  5
3D
330
5
100
AcDbSymbolTableRecord
100
AcDbLinetypeTableRecord
  2
BORDERX2
 70
     0
  3
CADPAC LINETYPE
 72
    65
 73
     6
 40
16.62269129287608
 49
4.749340369393167
 74
     0
 49
-2.374670184696583
 74
     0
 49
4.749340369393167
 74
     0
 49
-2.374670184696583
 74
     0
 49
0.0
 74
     0
 49
-2.374670184696583
 74
     0
  0
LTYPE
  5
3E
330
5
100
AcDbSymbolTableRecord
100
AcDbLinetypeTableRecord
  2
BORDER
 70
     0
  3
CADPAC LINETYPE
 72
    65
 73
     6
 40
13.29815303430087
 49
3.799472295514534
 74
     0
 49
-1.899736147757267
 74
     0
 49
3.799472295514534
 74
     0
 49
-1.899736147757267
 74
     0
 49
0.0
 74
     0
 49
-1.899736147757267
 74
     0
  0
LTYPE
  5
3F
330
5
100
AcDbSymbolTableRecord
100
AcDbLinetypeTableRecord
  2
BORDER2
 70
     0
  3
CADPAC LINETYPE
 72
    65
 73
     6
 40
9.878627968337696
 49
3.03957783641161
 74
     0
 49
-1.899736147757238
 74
     0
 49
1.139841688654343
 74
     0
 49
-1.899736147757238
 74
     0
 49
0.0
 74
     0
 49
-1.899736147757267
 74
     0
  0
LTYPE
  5
40
330
5
100
AcDbSymbolTableRecord
100
AcDbLinetypeTableRecord
  2
PHANTOMX2
 70
     0
  3
CADPAC LINETYPE
 72
    65
 73
     6
 40
14.2480211081795
 49
4.749340369393167
 74
     0
 49
-1.899736147757267
 74
     0
 49
1.899736147757267
 74
     0
 49
-1.899736147757267
 74
     0
 49
1.899736147757267
 74
     0
 49
-1.899736147757267
 74
     0
  0
LTYPE
  5
41
330
5
100
AcDbSymbolTableRecord
100
AcDbLinetypeTableRecord
  2
PHANTOM
 70
     0
  3
CADPAC LINETYPE
 72
    65
 73
     6
 40
11.77836411609506
 49
3.799472295514534
 74
     0
 49
-1.899736147757267
 74
     0
 49
1.13984168865436
 74
     0
 49
-1.899736147757267
 74
     0
 49
1.13984168865436
 74
     0
 49
-1.899736147757267
 74
     0
  0
LTYPE
  5
42
330
5
100
AcDbSymbolTableRecord
100
AcDbLinetypeTableRecord
  2
PHANTOM2
 70
     0
  3
CADPAC LINETYPE
 72
    65
 73
     6
 40
10.06860158311351
 49
2.8496042216359
 74
     0
 49
-1.899736147757267
 74
     0
 49
0.7598944591029068
 74
     0
 49
-1.899736147757267
 74
     0
 49
0.7598944591029068
 74
     0
 49
-1.899736147757267
 74
     0
  0
LTYPE
  5
43
330
5
100
AcDbSymbolTableRecord
100
AcDbLinetypeTableRecord
  2
ACAD_ISO06W100
 70
     0
  3
CADPAC LINETYPE
 72
    65
 73
     8
 40
20.13720316622681
 49
9.118733509234829
 74
     0
 49
-1.899736147757238
 74
     0
 49
1.139841688654343
 74
     0
 49
-1.899736147757238
 74
     0
 49
1.139841688654343
 74
     0
 49
-1.899736147757238
 74
     0
 49
1.139841688654343
 74
     0
 49
-1.899736147757238
 74
     0
  0
LTYPE
  5
44
330
5
100
AcDbSymbolTableRecord
100
AcDbLinetypeTableRecord
  2
ACAD_ISO13W100
 70
     0
  3
CADPAC LINETYPE
 72
    65
 73
     8
 40
15.19788918205813
 49
3.799472295514534
 74
     0
 49
-1.899736147757267
 74
     0
 49
3.799472295514534
 74
     0
 49
-1.899736147757267
 74
     0
 49
0.0
 74
     0
 49
-1.899736147757267
 74
     0
 49
0.0
 74
     0
 49
-1.899736147757267
 74
     0
  0
LTYPE
  5
45
330
5
100
AcDbSymbolTableRecord
100
AcDbLinetypeTableRecord
  2
ACAD_ISO14W100
 70
     0
  3
CADPAC LINETYPE
 72
    65
 73
     8
 40
11.3984168865436
 49
3.799472295514534
 74
     0
 49
-1.899736147757267
 74
     0
 49
0.0
 74
     0
 49
-1.899736147757267
 74
     0
 49
0.0
 74
     0
 49
-1.899736147757267
 74
     0
 49
0.0
 74
     0
 49
-1.899736147757267
 74
     0
  0
ENDTAB
  0
TABLE
  2
LAYER
  5
2
330
0
100
AcDbSymbolTable
 70
     3
  0
LAYER
  5
10
330
2
100
AcDbSymbolTableRecord
100
AcDbLayerTableRecord
  2
0
 70
     0
 62
     7
  6
Continuous
370
    -3
390
F
  0
LAYER
  5
46
330
2
100
AcDbSymbolTableRecord
100
AcDbLayerTableRecord
  2
Layer0014
 70
     0
 62
     7
  6
Continuous
370
    -3
390
F
  0
LAYER
  5
47
330
2
100
AcDbSymbolTableRecord
100
AcDbLayerTableRecord
  2
Layer0016
 70
     0
 62
     7
  6
Continuous
370
    -3
390
F
  0
ENDTAB
  0
TABLE
  2
STYLE
  5
3
330
0
100
AcDbSymbolTable
 70
     2
  0
STYLE
  5
11
330
3
100
AcDbSymbolTableRecord
100
AcDbTextStyleTableRecord
  2
Standard
 70
     0
 40
0.0
 41
1.0
 50
0.0
 71
     0
 42
0.2
  3
txt
  4

  0
STYLE
  5
159
330
3
100
AcDbSymbolTableRecord
100
AcDbTextStyleTableRecord
  2
FdaStyle0
 70
     0
 40
3.200000047683716
 41
0.6600454954301211
 50
0.0
 71
     0
 42
0.2
  3
txt.shx
  4
bigfont
  0
ENDTAB
  0
TABLE
  2
VIEW
  5
6
330
0
100
AcDbSymbolTable
 70
     0
  0
ENDTAB
  0
TABLE
  2
UCS
  5
7
330
0
100
AcDbSymbolTable
 70
     0
  0
ENDTAB
  0
TABLE
  2
APPID
  5
9
330
0
100
AcDbSymbolTable
 70
     2
  0
APPID
  5
12
330
9
100
AcDbSymbolTableRecord
100
AcDbRegAppTableRecord
  2
ACAD
 70
     0
  0
APPID
  5
2A
330
9
100
AcDbSymbolTableRecord
100
AcDbRegAppTableRecord
  2
DaFusionOut
 70
     0
  0
ENDTAB
  0
TABLE
  2
DIMSTYLE
  5
A
330
0
100
AcDbSymbolTable
 70
     1
100
AcDbDimStyleTable
  0
DIMSTYLE
105
27
330
A
100
AcDbSymbolTableRecord
100
AcDbDimStyleTableRecord
  2
Standard
 70
     0
340
11
  0
ENDTAB
  0
TABLE
  2
BLOCK_RECORD
  5
1
330
0
100
AcDbSymbolTable
 70
    23
  0
BLOCK_RECORD
  5
1F
330
1
100
AcDbSymbolTableRecord
100
AcDbBlockTableRecord
  2
*Model_Space
340
22
  0
BLOCK_RECORD
  5
1B
330
1
100
AcDbSymbolTableRecord
100
AcDbBlockTableRecord
  2
*Paper_Space
340
1E
  0
BLOCK_RECORD
  5
23
330
1
100
AcDbSymbolTableRecord
100
AcDbBlockTableRecord
  2
*Paper_Space0
340
26
  0
BLOCK_RECORD
  5
49
330
1
100
AcDbSymbolTableRecord
100
AcDbBlockTableRecord
  2
DC_GROUP_1
340
0
102
{BLKREFS
331
304
102
}
  0
BLOCK_RECORD
  5
4C
330
1
100
AcDbSymbolTableRecord
100
AcDbBlockTableRecord
  2
DC_GROUP_2
340
0
102
{BLKREFS
331
305
102
}
  0
BLOCK_RECORD
  5
4F
330
1
100
AcDbSymbolTableRecord
100
AcDbBlockTableRecord
  2
DC_GROUP_3
340
0
102
{BLKREFS
331
306
102
}
  0
BLOCK_RECORD
  5
52
330
1
100
AcDbSymbolTableRecord
100
AcDbBlockTableRecord
  2
DC_GROUP_4
340
0
102
{BLKREFS
331
307
102
}
  0
BLOCK_RECORD
  5
55
330
1
100
AcDbSymbolTableRecord
100
AcDbBlockTableRecord
  2
DC_GROUP_5
340
0
102
{BLKREFS
331
308
102
}
  0
BLOCK_RECORD
  5
58
330
1
100
AcDbSymbolTableRecord
100
AcDbBlockTableRecord
  2
DC_GROUP_6
340
0
102
{BLKREFS
331
309
102
}
  0
BLOCK_RECORD
  5
5B
330
1
100
AcDbSymbolTableRecord
100
AcDbBlockTableRecord
  2
DC_FILL_GROUP_7
340
0
102
{BLKREFS
331
30A
102
}
  0
BLOCK_RECORD
  5
5E
330
1
100
AcDbSymbolTableRecord
100
AcDbBlockTableRecord
  2
DC_GROUP_8
340
0
102
{BLKREFS
331
30B
102
}
  0
BLOCK_RECORD
  5
61
330
1
100
AcDbSymbolTableRecord
100
AcDbBlockTableRecord
  2
DC_GROUP_9
340
0
102
{BLKREFS
331
30C
102
}
  0
BLOCK_RECORD
  5
64
330
1
100
AcDbSymbolTableRecord
100
AcDbBlockTableRecord
  2
DC_GROUP_10
340
0
102
{BLKREFS
331
30D
102
}
  0
BLOCK_RECORD
  5
67
330
1
100
AcDbSymbolTableRecord
100
AcDbBlockTableRecord
  2
DA_IMAGEDIMGROUP_1
340
0
102
{BLKREFS
331
30F
102
}
  0
BLOCK_RECORD
  5
6A
330
1
100
AcDbSymbolTableRecord
100
AcDbBlockTableRecord
  2
DA_IMAGEDIMGROUP_2
340
0
102
{BLKREFS
331
310
102
}
  0
BLOCK_RECORD
  5
6D
330
1
100
AcDbSymbolTableRecord
100
AcDbBlockTableRecord
  2
DA_IMAGEDIMGROUP_3
340
0
102
{BLKREFS
331
311
102
}
  0
BLOCK_RECORD
  5
70
330
1
100
AcDbSymbolTableRecord
100
AcDbBlockTableRecord
  2
DA_IMAGEDIMGROUP_4
340
0
102
{BLKREFS
331
312
102
}
  0
BLOCK_RECORD
  5
73
330
1
100
AcDbSymbolTableRecord
100
AcDbBlockTableRecord
  2
DA_IMAGEDIMGROUP_5
340
0
102
{BLKREFS
331
313
102
}
  0
BLOCK_RECORD
  5
76
330
1
100
AcDbSymbolTableRecord
100
AcDbBlockTableRecord
  2
DA_IMAGEDIMGROUP_6
340
0
102
{BLKREFS
331
314
102
}
  0
BLOCK_RECORD
  5
79
330
1
100
AcDbSymbolTableRecord
100
AcDbBlockTableRecord
  2
DA_IMAGEDIMGROUP_7
340
0
102
{BLKREFS
331
315
102
}
  0
BLOCK_RECORD
  5
7C
330
1
100
AcDbSymbolTableRecord
100
AcDbBlockTableRecord
  2
DA_IMAGEDIMGROUP_8
340
0
102
{BLKREFS
331
316
102
}
  0
BLOCK_RECORD
  5
7F
330
1
100
AcDbSymbolTableRecord
100
AcDbBlockTableRecord
  2
DA_IMAGEDIMGROUP_9
340
0
102
{BLKREFS
331
317
102
}
  0
BLOCK_RECORD
  5
82
330
1
100
AcDbSymbolTableRecord
100
AcDbBlockTableRecord
  2
DA_IMAGEDIMGROUP_10
340
0
102
{BLKREFS
331
318
102
}
  0
BLOCK_RECORD
  5
85
330
1
100
AcDbSymbolTableRecord
100
AcDbBlockTableRecord
  2
DA_IMAGEDIMGROUP_11
340
0
102
{BLKREFS
331
319
102
}
  0
BLOCK_RECORD
  5
152
330
1
100
AcDbSymbolTableRecord
100
AcDbBlockTableRecord
  2
_Open30
340
0
102
{BLKREFS
331
158
331
15E
331
15F
331
164
331
165
331
16A
331
16B
331
173
331
178
331
179
331
180
331
186
331
188
331
190
331
192
331
199
331
19E
331
19F
102
}
  0
ENDTAB
  0
ENDSEC
  0
SECTION
  2
BLOCKS
  0
BLOCK
  5
20
330
1F
100
AcDbEntity
  8
0
100
AcDbBlockBegin
  2
*Model_Space
 70
     0
 71
     0
 10
0.0
 20
0.0
 30
0.0
  3
*Model_Space
  1

  0
ENDBLK
  5
21
330
1F
100
AcDbEntity
  8
0
100
AcDbBlockEnd
  0
BLOCK
  5
1C
330
1B
100
AcDbEntity
 67
     1
  8
0
100
AcDbBlockBegin
  2
*Paper_Space
 70
     0
 71
     0
 10
0.0
 20
0.0
 30
0.0
  3
*Paper_Space
  1

  0
ENDBLK
  5
1D
330
1B
100
AcDbEntity
 67
     1
  8
0
100
AcDbBlockEnd
  0
BLOCK
  5
24
330
23
100
AcDbEntity
  8
0
100
AcDbBlockBegin
  2
*Paper_Space0
 70
     0
 71
     0
 10
0.0
 20
0.0
 30
0.0
  3
*Paper_Space0
  1

  0
ENDBLK
  5
25
330
23
100
AcDbEntity
  8
0
100
AcDbBlockEnd
  0
BLOCK
  5
4A
330
49
100
AcDbEntity
  8
0
100
AcDbBlockBegin
  2
DC_GROUP_1
 70
     0
 71
     0
 10
0.0
 20
0.0
 30
0.0
  3
DC_GROUP_1
  1

  0
LINE
  5
88
330
49
100
AcDbEntity
  8
0
  6
Continuous
 62
     3
370
    18
100
AcDbLine
 10
-209.0
 20
-122.5
 30
0.0
 11
-202.0
 21
-122.5
 31
0.0
  0
LINE
  5
89
330
49
100
AcDbEntity
  8
0
  6
Continuous
 62
     3
370
    18
100
AcDbLine
 10
-202.0
 20
-122.5
 30
0.0
 11
-205.5
 21
-116.437822173509
 31
0.0
  0
LINE
  5
8A
330
49
100
AcDbEntity
  8
0
  6
Continuous
 62
     3
370
    18
100
AcDbLine
 10
-205.5
 20
-116.437822173509
 30
0.0
 11
-209.0
 21
-122.5
 31
0.0
  0
ENDBLK
  5
4B
330
49
100
AcDbEntity
  8
0
100
AcDbBlockEnd
  0
BLOCK
  5
4D
330
4C
100
AcDbEntity
  8
0
100
AcDbBlockBegin
  2
DC_GROUP_2
 70
     0
 71
     0
 10
0.0
 20
0.0
 30
0.0
  3
DC_GROUP_2
  1

  0
LINE
  5
8B
330
4C
100
AcDbEntity
  8
0
  6
Continuous
 62
     3
370
    18
100
AcDbLine
 10
-209.0
 20
-115.5
 30
0.0
 11
-202.0
 21
-115.5
 31
0.0
  0
LINE
  5
8C
330
4C
100
AcDbEntity
  8
0
  6
Continuous
 62
     3
370
    18
100
AcDbLine
 10
-202.0
 20
-115.5
 30
0.0
 11
-205.5
 21
-109.437822173509
 31
0.0
  0
LINE
  5
8D
330
4C
100
AcDbEntity
  8
0
  6
Continuous
 62
     3
370
    18
100
AcDbLine
 10
-205.5
 20
-109.437822173509
 30
0.0
 11
-209.0
 21
-115.5
 31
0.0
  0
ENDBLK
  5
4E
330
4C
100
AcDbEntity
  8
0
100
AcDbBlockEnd
  0
BLOCK
  5
50
330
4F
100
AcDbEntity
  8
0
100
AcDbBlockBegin
  2
DC_GROUP_3
 70
     0
 71
     0
 10
0.0
 20
0.0
 30
0.0
  3
DC_GROUP_3
  1

  0
LINE
  5
8E
330
4F
100
AcDbEntity
  8
0
  6
Continuous
 62
     3
370
    18
100
AcDbLine
 10
-209.0
 20
-129.5
 30
0.0
 11
-202.0
 21
-129.5
 31
0.0
  0
LINE
  5
8F
330
4F
100
AcDbEntity
  8
0
  6
Continuous
 62
     3
370
    18
100
AcDbLine
 10
-202.0
 20
-129.5
 30
0.0
 11
-205.5
 21
-123.437822173509
 31
0.0
  0
LINE
  5
90
330
4F
100
AcDbEntity
  8
0
  6
Continuous
 62
     3
370
    18
100
AcDbLine
 10
-205.5
 20
-123.437822173509
 30
0.0
 11
-209.0
 21
-129.5
 31
0.0
  0
ENDBLK
  5
51
330
4F
100
AcDbEntity
  8
0
100
AcDbBlockEnd
  0
BLOCK
  5
53
330
52
100
AcDbEntity
  8
0
100
AcDbBlockBegin
  2
DC_GROUP_4
 70
     0
 71
     0
 10
0.0
 20
0.0
 30
0.0
  3
DC_GROUP_4
  1

  0
LINE
  5
91
330
52
100
AcDbEntity
  8
0
  6
Continuous
 62
     3
370
    18
100
AcDbLine
 10
-209.0
 20
-108.5
 30
0.0
 11
-202.0
 21
-108.5
 31
0.0
  0
LINE
  5
92
330
52
100
AcDbEntity
  8
0
  6
Continuous
 62
     3
370
    18
100
AcDbLine
 10
-202.0
 20
-108.5
 30
0.0
 11
-205.5
 21
-102.437822173509
 31
0.0
  0
LINE
  5
93
330
52
100
AcDbEntity
  8
0
  6
Continuous
 62
     3
370
    18
100
AcDbLine
 10
-205.5
 20
-102.437822173509
 30
0.0
 11
-209.0
 21
-108.5
 31
0.0
  0
ENDBLK
  5
54
330
52
100
AcDbEntity
  8
0
100
AcDbBlockEnd
  0
BLOCK
  5
56
330
55
100
AcDbEntity
  8
0
100
AcDbBlockBegin
  2
DC_GROUP_5
 70
     0
 71
     0
 10
0.0
 20
0.0
 30
0.0
  3
DC_GROUP_5
  1

  0
LINE
  5
94
330
55
100
AcDbEntity
  8
0
  6
Continuous
 62
     3
370
    18
100
AcDbLine
 10
-209.0
 20
-136.5
 30
0.0
 11
-202.0
 21
-136.5
 31
0.0
  0
LINE
  5
95
330
55
100
AcDbEntity
  8
0
  6
Continuous
 62
     3
370
    18
100
AcDbLine
 10
-202.0
 20
-136.5
 30
0.0
 11
-205.5
 21
-130.437822173509
 31
0.0
  0
LINE
  5
96
330
55
100
AcDbEntity
  8
0
  6
Continuous
 62
     3
370
    18
100
AcDbLine
 10
-205.5
 20
-130.437822173509
 30
0.0
 11
-209.0
 21
-136.5
 31
0.0
  0
ENDBLK
  5
57
330
55
100
AcDbEntity
  8
0
100
AcDbBlockEnd
  0
BLOCK
  5
59
330
58
100
AcDbEntity
  8
0
100
AcDbBlockBegin
  2
DC_GROUP_6
 70
     0
 71
     0
 10
0.0
 20
0.0
 30
0.0
  3
DC_GROUP_6
  1

  0
LINE
  5
97
330
58
100
AcDbEntity
  8
0
  6
Continuous
 62
     3
370
    18
100
AcDbLine
 10
74.08362715434318
 20
-141.1436630926143
 30
0.0
 11
75.52384968478773
 21
-141.1436630926143
 31
0.0
  0
LINE
  5
98
330
58
100
AcDbEntity
  8
0
  6
Continuous
 62
     3
370
    18
100
AcDbLine
 10
88.94154508581077
 20
-141.1436630926143
 30
0.0
 11
90.41894254098678
 21
-141.1436630926143
 31
0.0
  0
LINE
  5
99
330
58
100
AcDbEntity
  8
0
  6
Continuous
 62
     3
370
    18
100
AcDbLine
 10
74.08362715434318
 20
-140.6674130926143
 30
0.0
 11
77.41060822564228
 21
-140.6674130926143
 31
0.0
  0
LINE
  5
9A
330
58
100
AcDbEntity
  8
0
  6
Continuous
 62
     3
370
    18
100
AcDbLine
 10
86.46129894505744
 20
-140.6674130926143
 30
0.0
 11
92.89918868174011
 21
-140.6674130926143
 31
0.0
  0
LINE
  5
9B
330
58
100
AcDbEntity
  8
0
  6
Continuous
 62
     3
370
    18
100
AcDbLine
 10
104.8463728456568
 20
-140.6674130926143
 30
0.0
 11
106.4463728456568
 21
-140.6674130926143
 31
0.0
  0
LINE
  5
9C
330
58
100
AcDbEntity
  8
0
  6
Continuous
 62
     3
370
    18
100
AcDbLine
 10
107.8463728456568
 20
-140.6674130926143
 30
0.0
 11
108.4911163991614
 21
-140.6674130926143
 31
0.0
  0
LINE
  5
9D
330
58
100
AcDbEntity
  8
0
  6
Continuous
 62
     3
370
    18
100
AcDbLine
 10
110.6463728456568
 20
-140.6674130926143
 30
0.0
 11
112.4463728456568
 21
-140.6674130926143
 31
0.0
  0
LINE
  5
9E
330
58
100
AcDbEntity
  8
0
  6
Continuous
 62
     3
370
    18
100
AcDbLine
 10
114.2848924519957
 20
-140.6674130926143
 30
0.0
 11
115.2463728456568
 21
-140.6674130926143
 31
0.0
  0
LINE
  5
9F
330
58
100
AcDbEntity
  8
0
  6
Continuous
 62
     3
370
    18
100
AcDbLine
 10
116.6463728456569
 20
-140.6674130926143
 30
0.0
 11
120.935332409978
 21
-140.6674130926143
 31
0.0
  0
LINE
  5
A0
330
58
100
AcDbEntity
  8
0
  6
Continuous
 62
     3
370
    18
100
AcDbLine
 10
124.1463728456568
 20
-140.6674130926143
 30
0.0
 11
127.0584253066912
 21
-140.6674130926143
 31
0.0
  0
LINE
  5
A1
330
58
100
AcDbEntity
  8
0
  6
Continuous
 62
     3
370
    18
100
AcDbLine
 10
131.8625576035918
 20
-140.6674130926143
 30
0.0
 11
137.476095253352
 21
-140.6674130926143
 31
0.0
  0
LINE
  5
A2
330
58
100
AcDbEntity
  8
0
  6
Continuous
 62
     3
370
    18
100
AcDbLine
 10
139.724762281601
 20
-140.6674130926143
 30
0.0
 11
142.7163728456568
 21
-140.6674130926143
 31
0.0
  0
LINE
  5
A3
330
58
100
AcDbEntity
  8
0
  6
Continuous
 62
     3
370
    18
100
AcDbLine
 10
146.1163728456568
 20
-140.6674130926143
 30
0.0
 11
147.7163728456569
 21
-140.6674130926143
 31
0.0
  0
LINE
  5
A4
330
58
100
AcDbEntity
  8
0
  6
Continuous
 62
     3
370
    18
100
AcDbLine
 10
149.9163728456568
 20
-140.6674130926143
 30
0.0
 11
155.9163728456568
 21
-140.6674130926143
 31
0.0
  0
LINE
  5
A5
330
58
100
AcDbEntity
  8
0
  6
Continuous
 62
     3
370
    18
100
AcDbLine
 10
74.08362715434318
 20
-140.1911630926142
 30
0.0
 11
78.38964825405007
 21
-140.1911630926143
 31
0.0
  0
LINE
  5
A6
330
58
100
AcDbEntity
  8
0
  6
Continuous
 62
     3
370
    18
100
AcDbLine
 10
85.64637284565684
 20
-140.1911630926143
 30
0.0
 11
94.12140449453855
 21
-140.1911630926143
 31
0.0
  0
LINE
  5
A7
330
58
100
AcDbEntity
  8
0
  6
Continuous
 62
     3
370
    18
100
AcDbLine
 10
104.8463728456568
 20
-140.1911630926143
 30
0.0
 11
106.4463728456568
 21
-140.1911630926142
 31
0.0
  0
LINE
  5
A8
330
58
100
AcDbEntity
  8
0
  6
Continuous
 62
     3
370
    18
100
AcDbLine
 10
107.8463728456568
 20
-140.1911630926143
 30
0.0
 11
109.3136496735664
 21
-140.1911630926143
 31
0.0
  0
LINE
  5
A9
330
58
100
AcDbEntity
  8
0
  6
Continuous
 62
     3
370
    18
100
AcDbLine
 10
110.6463728456568
 20
-140.1911630926143
 30
0.0
 11
112.4463728456568
 21
-140.1911630926143
 31
0.0
  0
LINE
  5
AA
330
58
100
AcDbEntity
  8
0
  6
Continuous
 62
     3
370
    18
100
AcDbLine
 10
113.440502584069
 20
-140.1911630926143
 30
0.0
 11
115.2463728456568
 21
-140.1911630926143
 31
0.0
  0
LINE
  5
AB
330
58
100
AcDbEntity
  8
0
  6
Continuous
 62
     3
370
    18
100
AcDbLine
 10
116.6463728456569
 20
-140.1911630926143
 30
0.0
 11
123.0372738365879
 21
-140.1911630926143
 31
0.0
  0
LINE
  5
AC
330
58
100
AcDbEntity
  8
0
  6
Continuous
 62
     3
370
    18
100
AcDbLine
 10
124.1463728456568
 20
-140.1911630926143
 30
0.0
 11
127.8387935240733
 21
-140.1911630926143
 31
0.0
  0
LINE
  5
AD
330
58
100
AcDbEntity
  8
0
  6
Continuous
 62
     3
370
    18
100
AcDbLine
 10
132.1271409369252
 20
-140.1911630926143
 30
0.0
 11
138.9709095315882
 21
-140.1911630926143
 31
0.0
  0
LINE
  5
AE
330
58
100
AcDbEntity
  8
0
  6
Continuous
 62
     3
370
    18
100
AcDbLine
 10
139.1636836685299
 20
-140.1911630926143
 30
0.0
 11
142.7163728456568
 21
-140.1911630926143
 31
0.0
  0
LINE
  5
AF
330
58
100
AcDbEntity
  8
0
  6
Continuous
 62
     3
370
    18
100
AcDbLine
 10
146.1163728456568
 20
-140.1911630926143
 30
0.0
 11
147.7163728456569
 21
-140.1911630926143
 31
0.0
  0
LINE
  5
B0
330
58
100
AcDbEntity
  8
0
  6
Continuous
 62
     3
370
    18
100
AcDbLine
 10
149.9163728456568
 20
-140.1911630926142
 30
0.0
 11
155.9163728456568
 21
-140.1911630926142
 31
0.0
  0
LINE
  5
B1
330
58
100
AcDbEntity
  8
0
  6
Continuous
 62
     3
370
    18
100
AcDbLine
 10
76.23384181823163
 20
-139.7149130926143
 30
0.0
 11
79.10914784515057
 21
-139.7149130926143
 31
0.0
  0
LINE
  5
B2
330
58
100
AcDbEntity
  8
0
  6
Continuous
 62
     3
370
    18
100
AcDbLine
 10
85.64637284565684
 20
-139.7149130926143
 30
0.0
 11
88.04637284565683
 21
-139.7149130926143
 31
0.0
  0
LINE
  5
B3
330
58
100
AcDbEntity
  8
0
  6
Continuous
 62
     3
370
    18
100
AcDbLine
 10
90.23098093698738
 20
-139.7149130926143
 30
0.0
 11
95.03118599221017
 21
-139.7149130926143
 31
0.0
  0
LINE
  5
B4
330
58
100
AcDbEntity
  8
0
  6
Continuous
 62
     3
370
    18
100
AcDbLine
 10
102.8463728456568
 20
-139.7149130926143
 30
0.0
 11
103.2773086154227
 21
-139.7149130926143
 31
0.0
  0
LINE
  5
B5
330
58
100
AcDbEntity
  8
0
  6
Continuous
 62
     3
370
    18
100
AcDbLine
 10
104.8463728456568
 20
-139.7149130926142
 30
0.0
 11
106.4463728456568
 21
-139.7149130926143
 31
0.0
  0
LINE
  5
B6
330
58
100
AcDbEntity
  8
0
  6
Continuous
 62
     3
370
    18
100
AcDbLine
 10
107.8681784854513
 20
-139.7149130926143
 30
0.0
 11
109.9169805314717
 21
-139.7149130926143
 31
0.0
  0
LINE
  5
B7
330
58
100
AcDbEntity
  8
0
  6
Continuous
 62
     3
370
    18
100
AcDbLine
 10
110.6463728456568
 20
-139.7149130926143
 30
0.0
 11
112.4463728456568
 21
-139.7149130926143
 31
0.0
  0
LINE
  5
B8
330
58
100
AcDbEntity
  8
0
  6
Continuous
 62
     3
370
    18
100
AcDbLine
 10
112.902859916747
 20
-139.7149130926143
 30
0.0
 11
115.02649355962
 21
-139.7149130926143
 31
0.0
  0
LINE
  5
B9
330
58
100
AcDbEntity
  8
0
  6
Continuous
 62
     3
370
    18
100
AcDbLine
 10
116.6463728456569
 20
-139.7149130926143
 30
0.0
 11
123.2463728456568
 21
-139.7149130926142
 31
0.0
  0
LINE
  5
BA
330
58
100
AcDbEntity
  8
0
  6
Continuous
 62
     3
370
    18
100
AcDbLine
 10
124.1463728456568
 20
-139.7149130926142
 30
0.0
 11
126.2963728456568
 21
-139.7149130926143
 31
0.0
  0
LINE
  5
BB
330
58
100
AcDbEntity
  8
0
  6
Continuous
 62
     3
370
    18
100
AcDbLine
 10
126.7679940110182
 20
-139.7149130926143
 30
0.0
 11
128.3500835402965
 21
-139.7149130926143
 31
0.0
  0
LINE
  5
BC
330
58
100
AcDbEntity
  8
0
  6
Continuous
 62
     3
370
    18
100
AcDbLine
 10
132.3917242702585
 20
-139.7149130926142
 30
0.0
 11
134.8241891277984
 21
-139.7149130926143
 31
0.0
  0
LINE
  5
BD
330
58
100
AcDbEntity
  8
0
  6
Continuous
 62
     3
370
    18
100
AcDbLine
 10
137.7048358244194
 20
-139.7149130926143
 30
0.0
 11
141.4270429899386
 21
-139.7149130926143
 31
0.0
  0
LINE
  5
BE
330
58
100
AcDbEntity
  8
0
  6
Continuous
 62
     3
370
    18
100
AcDbLine
 10
146.1163728456568
 20
-139.7149130926142
 30
0.0
 11
147.7163728456569
 21
-139.7149130926143
 31
0.0
  0
LINE
  5
BF
330
58
100
AcDbEntity
  8
0
  6
Continuous
 62
     3
370
    18
100
AcDbLine
 10
149.9163728456568
 20
-139.7149130926142
 30
0.0
 11
155.9163728456568
 21
-139.7149130926142
 31
0.0
  0
LINE
  5
C0
330
58
100
AcDbEntity
  8
0
  6
Continuous
 62
     3
370
    18
100
AcDbLine
 10
77.21409174812672
 20
-139.2386630926143
 30
0.0
 11
79.68219592149812
 21
-139.2386630926143
 31
0.0
  0
LINE
  5
C1
330
58
100
AcDbEntity
  8
0
  6
Continuous
 62
     3
370
    18
100
AcDbLine
 10
85.64637284565684
 20
-139.2386630926143
 30
0.0
 11
88.04637284565683
 21
-139.2386630926143
 31
0.0
  0
LINE
  5
C2
330
58
100
AcDbEntity
  8
0
  6
Continuous
 62
     3
370
    18
100
AcDbLine
 10
91.74135188153146
 20
-139.2386630926143
 30
0.0
 11
95.77020506789488
 21
-139.2386630926143
 31
0.0
  0
LINE
  5
C3
330
58
100
AcDbEntity
  8
0
  6
Continuous
 62
     3
370
    18
100
AcDbLine
 10
102.8463728456568
 20
-139.2386630926143
 30
0.0
 11
103.8789988402401
 21
-139.2386630926143
 31
0.0
  0
LINE
  5
C4
330
58
100
AcDbEntity
  8
0
  6
Continuous
 62
     3
370
    18
100
AcDbLine
 10
104.8463728456568
 20
-139.2386630926143
 30
0.0
 11
106.4463728456568
 21
-139.2386630926143
 31
0.0
  0
LINE
  5
C5
330
58
100
AcDbEntity
  8
0
  6
Continuous
 62
     3
370
    18
100
AcDbLine
 10
108.41542488218
 20
-139.2386630926143
 30
0.0
 11
110.3904602216568
 21
-139.2386630926143
 31
0.0
  0
LINE
  5
C6
330
58
100
AcDbEntity
  8
0
  6
Continuous
 62
     3
370
    18
100
AcDbLine
 10
110.6463728456568
 20
-139.2386630926143
 30
0.0
 11
112.4463728456568
 21
-139.2386630926143
 31
0.0
  0
LINE
  5
C7
330
58
100
AcDbEntity
  8
0
  6
Continuous
 62
     3
370
    18
100
AcDbLine
 10
112.5182249910965
 20
-139.2386630926143
 30
0.0
 11
114.6413625817091
 21
-139.2386630926143
 31
0.0
  0
LINE
  5
C8
330
58
100
AcDbEntity
  8
0
  6
Continuous
 62
     3
370
    18
100
AcDbLine
 10
116.6463728456569
 20
-139.2386630926143
 30
0.0
 11
123.2463728456568
 21
-139.2386630926143
 31
0.0
  0
LINE
  5
C9
330
58
100
AcDbEntity
  8
0
  6
Continuous
 62
     3
370
    18
100
AcDbLine
 10
124.1463728456568
 20
-139.2386630926143
 30
0.0
 11
126.2963728456568
 21
-139.2386630926143
 31
0.0
  0
LINE
  5
CA
330
58
100
AcDbEntity
  8
0
  6
Continuous
 62
     3
370
    18
100
AcDbLine
 10
127.2927743721743
 20
-139.2386630926143
 30
0.0
 11
128.71825205178
 21
-139.2386630926143
 31
0.0
  0
LINE
  5
CB
330
58
100
AcDbEntity
  8
0
  6
Continuous
 62
     3
370
    18
100
AcDbLine
 10
132.6563076035918
 20
-139.2386630926143
 30
0.0
 11
135.0623141277983
 21
-139.2386630926143
 31
0.0
  0
LINE
  5
CC
330
58
100
AcDbEntity
  8
0
  6
Continuous
 62
     3
370
    18
100
AcDbLine
 10
138.4244902813735
 20
-139.2386630926143
 30
0.0
 11
140.9833686452132
 21
-139.2386630926143
 31
0.0
  0
LINE
  5
CD
330
58
100
AcDbEntity
  8
0
  6
Continuous
 62
     3
370
    18
100
AcDbLine
 10
146.1163728456568
 20
-139.2386630926143
 30
0.0
 11
147.7163728456569
 21
-139.2386630926143
 31
0.0
  0
LINE
  5
CE
330
58
100
AcDbEntity
  8
0
  6
Continuous
 62
     3
370
    18
100
AcDbLine
 10
149.9163728456568
 20
-139.2386630926143
 30
0.0
 11
155.9163728456568
 21
-139.2386630926143
 31
0.0
  0
LINE
  5
CF
330
58
100
AcDbEntity
  8
0
  6
Continuous
 62
     3
370
    18
100
AcDbLine
 10
77.85219027974246
 20
-138.7624130926143
 30
0.0
 11
80.15490462649288
 21
-138.7624130926143
 31
0.0
  0
LINE
  5
D0
330
58
100
AcDbEntity
  8
0
  6
Continuous
 62
     3
370
    18
100
AcDbLine
 10
85.64637284565684
 20
-138.7624130926143
 30
0.0
 11
88.04637284565683
 21
-138.7624130926143
 31
0.0
  0
LINE
  5
D1
330
58
100
AcDbEntity
  8
0
  6
Continuous
 62
     3
370
    18
100
AcDbLine
 10
92.75143792349348
 20
-138.7624130926143
 30
0.0
 11
96.39508155057044
 21
-138.7624130926143
 31
0.0
  0
LINE
  5
D2
330
58
100
AcDbEntity
  8
0
  6
Continuous
 62
     3
370
    18
100
AcDbLine
 10
102.88102469012
 20
-138.7624130926143
 30
0.0
 11
104.3013797540984
 21
-138.7624130926143
 31
0.0
  0
LINE
  5
D3
330
58
100
AcDbEntity
  8
0
  6
Continuous
 62
     3
370
    18
100
AcDbLine
 10
104.8463728456568
 20
-138.7624130926143
 30
0.0
 11
106.4463728456568
 21
-138.7624130926143
 31
0.0
  0
LINE
  5
D4
330
58
100
AcDbEntity
  8
0
  6
Continuous
 62
     3
370
    18
100
AcDbLine
 10
108.8059243995573
 20
-138.7624130926143
 30
0.0
 11
114.3596578195058
 21
-138.7624130926143
 31
0.0
  0
LINE
  5
D5
330
58
100
AcDbEntity
  8
0
  6
Continuous
 62
     3
370
    18
100
AcDbLine
 10
119.3463728456568
 20
-138.7624130926143
 30
0.0
 11
121.4463728456568
 21
-138.7624130926143
 31
0.0
  0
LINE
  5
D6
330
58
100
AcDbEntity
  8
0
  6
Continuous
 62
     3
370
    18
100
AcDbLine
 10
124.1463728456568
 20
-138.7624130926143
 30
0.0
 11
126.2963728456568
 21
-138.7624130926143
 31
0.0
  0
LINE
  5
D7
330
58
100
AcDbEntity
  8
0
  6
Continuous
 62
     3
370
    18
100
AcDbLine
 10
127.5643459955963
 20
-138.7624130926143
 30
0.0
 11
128.9873709776981
 21
-138.7624130926143
 31
0.0
  0
LINE
  5
D8
330
58
100
AcDbEntity
  8
0
  6
Continuous
 62
     3
370
    18
100
AcDbLine
 10
130.7163728456568
 20
-138.7624130926143
 30
0.0
 11
142.7163728456568
 21
-138.7624130926143
 31
0.0
  0
LINE
  5
D9
330
58
100
AcDbEntity
  8
0
  6
Continuous
 62
     3
370
    18
100
AcDbLine
 10
146.1163728456568
 20
-138.7624130926143
 30
0.0
 11
147.7163728456569
 21
-138.7624130926143
 31
0.0
  0
LINE
  5
DA
330
58
100
AcDbEntity
  8
0
  6
Continuous
 62
     3
370
    18
100
AcDbLine
 10
151.9163728456569
 20
-138.7624130926143
 30
0.0
 11
153.8163728456568
 21
-138.7624130926143
 31
0.0
  0
LINE
  5
DB
330
58
100
AcDbEntity
  8
0
  6
Continuous
 62
     3
370
    18
100
AcDbLine
 10
75.94637284565684
 20
-138.2861630926143
 30
0.0
 11
83.94637284565683
 21
-138.2861630926143
 31
0.0
  0
LINE
  5
DC
330
58
100
AcDbEntity
  8
0
  6
Continuous
 62
     3
370
    18
100
AcDbLine
 10
85.64637284565684
 20
-138.2861630926143
 30
0.0
 11
88.04637284565683
 21
-138.2861630926143
 31
0.0
  0
LINE
  5
DD
330
58
100
AcDbEntity
  8
0
  6
Continuous
 62
     3
370
    18
100
AcDbLine
 10
93.54130902630743
 20
-138.2861630926143
 30
0.0
 11
96.93536858605607
 21
-138.2861630926143
 31
0.0
  0
LINE
  5
DE
330
58
100
AcDbEntity
  8
0
  6
Continuous
 62
     3
370
    18
100
AcDbLine
 10
103.2376073367101
 20
-138.2861630926143
 30
0.0
 11
106.4463728456568
 21
-138.2861630926143
 31
0.0
  0
LINE
  5
DF
330
58
100
AcDbEntity
  8
0
  6
Continuous
 62
     3
370
    18
100
AcDbLine
 10
109.0915654043421
 20
-138.2861630926143
 30
0.0
 11
114.1581654501842
 21
-138.2861630926143
 31
0.0
  0
LINE
  5
E0
330
58
100
AcDbEntity
  8
0
  6
Continuous
 62
     3
370
    18
100
AcDbLine
 10
119.3463728456568
 20
-138.2861630926143
 30
0.0
 11
121.4463728456568
 21
-138.2861630926143
 31
0.0
  0
LINE
  5
E1
330
58
100
AcDbEntity
  8
0
  6
Continuous
 62
     3
370
    18
100
AcDbLine
 10
124.1463728456568
 20
-138.2861630926143
 30
0.0
 11
126.2963728456568
 21
-138.2861630926143
 31
0.0
  0
LINE
  5
E2
330
58
100
AcDbEntity
  8
0
  6
Continuous
 62
     3
370
    18
100
AcDbLine
 10
127.6896730004467
 20
-138.2861630926143
 30
0.0
 11
129.1785430044867
 21
-138.2861630926143
 31
0.0
  0
LINE
  5
E3
330
58
100
AcDbEntity
  8
0
  6
Continuous
 62
     3
370
    18
100
AcDbLine
 10
130.7163728456568
 20
-138.2861630926143
 30
0.0
 11
142.7163728456568
 21
-138.2861630926143
 31
0.0
  0
LINE
  5
E4
330
58
100
AcDbEntity
  8
0
  6
Continuous
 62
     3
370
    18
100
AcDbLine
 10
144.1163728456568
 20
-138.2861630926143
 30
0.0
 11
147.7163728456569
 21
-138.2861630926143
 31
0.0
  0
LINE
  5
E5
330
58
100
AcDbEntity
  8
0
  6
Continuous
 62
     3
370
    18
100
AcDbLine
 10
148.9889745934152
 20
-138.2861630926143
 30
0.0
 11
149.5163728456568
 21
-138.2861630926143
 31
0.0
  0
LINE
  5
E6
330
58
100
AcDbEntity
  8
0
  6
Continuous
 62
     3
370
    18
100
AcDbLine
 10
151.9163728456569
 20
-138.2861630926143
 30
0.0
 11
153.8163728456568
 21
-138.2861630926143
 31
0.0
  0
LINE
  5
E7
330
58
100
AcDbEntity
  8
0
  6
Continuous
 62
     3
370
    18
100
AcDbLine
 10
75.94637284565684
 20
-137.8099130926143
 30
0.0
 11
83.94637284565683
 21
-137.8099130926143
 31
0.0
  0
LINE
  5
E8
330
58
100
AcDbEntity
  8
0
  6
Continuous
 62
     3
370
    18
100
AcDbLine
 10
85.64637284565684
 20
-137.8099130926143
 30
0.0
 11
88.04637284565683
 21
-137.8099130926143
 31
0.0
  0
LINE
  5
E9
330
58
100
AcDbEntity
  8
0
  6
Continuous
 62
     3
370
    18
100
AcDbLine
 10
94.19560932411076
 20
-137.8099130926143
 30
0.0
 11
97.40882692882857
 21
-137.8099130926143
 31
0.0
  0
LINE
  5
EA
330
58
100
AcDbEntity
  8
0
  6
Continuous
 62
     3
370
    18
100
AcDbLine
 10
103.5273850700071
 20
-137.8099130926143
 30
0.0
 11
106.4463728456568
 21
-137.8099130926143
 31
0.0
  0
LINE
  5
EB
330
58
100
AcDbEntity
  8
0
  6
Continuous
 62
     3
370
    18
100
AcDbLine
 10
109.296260929657
 20
-137.8099130926143
 30
0.0
 11
114.0244670171304
 21
-137.8099130926143
 31
0.0
  0
LINE
  5
EC
330
58
100
AcDbEntity
  8
0
  6
Continuous
 62
     3
370
    18
100
AcDbLine
 10
119.3463728456568
 20
-137.8099130926143
 30
0.0
 11
121.4463728456568
 21
-137.8099130926143
 31
0.0
  0
LINE
  5
ED
330
58
100
AcDbEntity
  8
0
  6
Continuous
 62
     3
370
    18
100
AcDbLine
 10
124.1463728456568
 20
-137.8099130926143
 30
0.0
 11
126.2963728456568
 21
-137.8099130926143
 31
0.0
  0
LINE
  5
EE
330
58
100
AcDbEntity
  8
0
  6
Continuous
 62
     3
370
    18
100
AcDbLine
 10
144.1163728456568
 20
-137.8099130926143
 30
0.0
 11
149.5163728456568
 21
-137.8099130926143
 31
0.0
  0
LINE
  5
EF
330
58
100
AcDbEntity
  8
0
  6
Continuous
 62
     3
370
    18
100
AcDbLine
 10
151.9163728456569
 20
-137.8099130926143
 30
0.0
 11
153.8163728456568
 21
-137.8099130926143
 31
0.0
  0
LINE
  5
F0
330
58
100
AcDbEntity
  8
0
  6
Continuous
 62
     3
370
    18
100
AcDbLine
 10
75.94637284565684
 20
-137.3336630926143
 30
0.0
 11
83.94637284565683
 21
-137.3336630926143
 31
0.0
  0
LINE
  5
F1
330
58
100
AcDbEntity
  8
0
  6
Continuous
 62
     3
370
    18
100
AcDbLine
 10
85.64637284565684
 20
-137.3336630926143
 30
0.0
 11
88.04637284565683
 21
-137.3336630926143
 31
0.0
  0
LINE
  5
F2
330
58
100
AcDbEntity
  8
0
  6
Continuous
 62
     3
370
    18
100
AcDbLine
 10
103.7609299006354
 20
-137.3336630926143
 30
0.0
 11
106.4463728456568
 21
-137.3336630926143
 31
0.0
  0
LINE
  5
F3
330
58
100
AcDbEntity
  8
0
  6
Continuous
 62
     3
370
    18
100
AcDbLine
 10
109.4327575348763
 20
-137.3336630926143
 30
0.0
 11
113.9517302728187
 21
-137.3336630926143
 31
0.0
  0
LINE
  5
F4
330
58
100
AcDbEntity
  8
0
  6
Continuous
 62
     3
370
    18
100
AcDbLine
 10
116.6463728456568
 20
-137.3336630926143
 30
0.0
 11
123.2463728456568
 21
-137.3336630926143
 31
0.0
  0
LINE
  5
F5
330
58
100
AcDbEntity
  8
0
  6
Continuous
 62
     3
370
    18
100
AcDbLine
 10
124.1463728456568
 20
-137.3336630926143
 30
0.0
 11
126.2963728456568
 21
-137.3336630926143
 31
0.0
  0
LINE
  5
F6
330
58
100
AcDbEntity
  8
0
  6
Continuous
 62
     3
370
    18
100
AcDbLine
 10
132.1163728456568
 20
-137.3336630926143
 30
0.0
 11
140.7163728456568
 21
-137.3336630926143
 31
0.0
  0
LINE
  5
F7
330
58
100
AcDbEntity
  8
0
  6
Continuous
 62
     3
370
    18
100
AcDbLine
 10
145.383455485173
 20
-137.3336630926143
 30
0.0
 11
149.257347165141
 21
-137.3336630926143
 31
0.0
  0
LINE
  5
F8
330
58
100
AcDbEntity
  8
0
  6
Continuous
 62
     3
370
    18
100
AcDbLine
 10
151.9163728456569
 20
-137.3336630926143
 30
0.0
 11
153.8163728456568
 21
-137.3336630926143
 31
0.0
  0
LINE
  5
F9
330
58
100
AcDbEntity
  8
0
  6
Continuous
 62
     3
370
    18
100
AcDbLine
 10
75.94637284565684
 20
-136.8574130926143
 30
0.0
 11
83.94637284565683
 21
-136.8574130926143
 31
0.0
  0
LINE
  5
FA
330
58
100
AcDbEntity
  8
0
  6
Continuous
 62
     3
370
    18
100
AcDbLine
 10
85.64637284565684
 20
-136.8574130926143
 30
0.0
 11
88.04637284565683
 21
-136.8574130926143
 31
0.0
  0
LINE
  5
FB
330
58
100
AcDbEntity
  8
0
  6
Continuous
 62
     3
370
    18
100
AcDbLine
 10
90.04637284565683
 20
-136.8574130926143
 30
0.0
 11
101.4463728456568
 21
-136.8574130926143
 31
0.0
  0
LINE
  5
FC
330
58
100
AcDbEntity
  8
0
  6
Continuous
 62
     3
370
    18
100
AcDbLine
 10
103.9451789370149
 20
-136.8574130926143
 30
0.0
 11
107.6463728456568
 21
-136.8574130926143
 31
0.0
  0
LINE
  5
FD
330
58
100
AcDbEntity
  8
0
  6
Continuous
 62
     3
370
    18
100
AcDbLine
 10
108.1463728456568
 20
-136.8574130926143
 30
0.0
 11
115.2463728456569
 21
-136.8574130926143
 31
0.0
  0
LINE
  5
FE
330
58
100
AcDbEntity
  8
0
  6
Continuous
 62
     3
370
    18
100
AcDbLine
 10
116.6463728456568
 20
-136.8574130926143
 30
0.0
 11
123.2463728456568
 21
-136.8574130926143
 31
0.0
  0
LINE
  5
FF
330
58
100
AcDbEntity
  8
0
  6
Continuous
 62
     3
370
    18
100
AcDbLine
 10
124.1463728456568
 20
-136.8574130926143
 30
0.0
 11
126.2963728456568
 21
-136.8574130926143
 31
0.0
  0
LINE
  5
100
330
58
100
AcDbEntity
  8
0
  6
Continuous
 62
     3
370
    18
100
AcDbLine
 10
132.1163728456568
 20
-136.8574130926143
 30
0.0
 11
140.7163728456568
 21
-136.8574130926143
 31
0.0
  0
LINE
  5
101
330
58
100
AcDbEntity
  8
0
  6
Continuous
 62
     3
370
    18
100
AcDbLine
 10
146.2004137011844
 20
-136.8574130926143
 30
0.0
 11
148.538429054171
 21
-136.8574130926143
 31
0.0
  0
LINE
  5
102
330
58
100
AcDbEntity
  8
0
  6
Continuous
 62
     3
370
    18
100
AcDbLine
 10
151.9163728456569
 20
-136.8574130926143
 30
0.0
 11
153.8163728456568
 21
-136.8574130926143
 31
0.0
  0
LINE
  5
103
330
58
100
AcDbEntity
  8
0
  6
Continuous
 62
     3
370
    18
100
AcDbLine
 10
79.35923464780399
 20
-136.3811630926143
 30
0.0
 11
81.60445679901552
 21
-136.3811630926143
 31
0.0
  0
LINE
  5
104
330
58
100
AcDbEntity
  8
0
  6
Continuous
 62
     3
370
    18
100
AcDbLine
 10
85.64637284565684
 20
-136.3811630926143
 30
0.0
 11
88.04637284565683
 21
-136.3811630926143
 31
0.0
  0
LINE
  5
105
330
58
100
AcDbEntity
  8
0
  6
Continuous
 62
     3
370
    18
100
AcDbLine
 10
90.04637284565683
 20
-136.3811630926143
 30
0.0
 11
101.4463728456568
 21
-136.3811630926143
 31
0.0
  0
LINE
  5
106
330
58
100
AcDbEntity
  8
0
  6
Continuous
 62
     3
370
    18
100
AcDbLine
 10
104.0848138424631
 20
-136.3811630926143
 30
0.0
 11
107.6463728456568
 21
-136.3811630926143
 31
0.0
  0
LINE
  5
107
330
58
100
AcDbEntity
  8
0
  6
Continuous
 62
     3
370
    18
100
AcDbLine
 10
108.1463728456568
 20
-136.3811630926143
 30
0.0
 11
115.2463728456569
 21
-136.3811630926143
 31
0.0
  0
LINE
  5
108
330
58
100
AcDbEntity
  8
0
  6
Continuous
 62
     3
370
    18
100
AcDbLine
 10
124.1463728456568
 20
-136.3811630926143
 30
0.0
 11
126.2963728456568
 21
-136.3811630926143
 31
0.0
  0
LINE
  5
109
330
58
100
AcDbEntity
  8
0
  6
Continuous
 62
     3
370
    18
100
AcDbLine
 10
146.6655201636495
 20
-136.3811630926143
 30
0.0
 11
148.8686776086119
 21
-136.3811630926143
 31
0.0
  0
LINE
  5
10A
330
58
100
AcDbEntity
  8
0
  6
Continuous
 62
     3
370
    18
100
AcDbLine
 10
151.9163728456569
 20
-136.3811630926143
 30
0.0
 11
153.8163728456568
 21
-136.3811630926143
 31
0.0
  0
LINE
  5
10B
330
58
100
AcDbEntity
  8
0
  6
Continuous
 62
     3
370
    18
100
AcDbLine
 10
79.47056447422067
 20
-135.9049130926143
 30
0.0
 11
81.76406947126257
 21
-135.9049130926143
 31
0.0
  0
LINE
  5
10C
330
58
100
AcDbEntity
  8
0
  6
Continuous
 62
     3
370
    18
100
AcDbLine
 10
85.64637284565684
 20
-135.9049130926144
 30
0.0
 11
88.04637284565683
 21
-135.9049130926143
 31
0.0
  0
LINE
  5
10D
330
58
100
AcDbEntity
  8
0
  6
Continuous
 62
     3
370
    18
100
AcDbLine
 10
90.04637284565683
 20
-135.9049130926143
 30
0.0
 11
101.4463728456568
 21
-135.9049130926143
 31
0.0
  0
LINE
  5
10E
330
58
100
AcDbEntity
  8
0
  6
Continuous
 62
     3
370
    18
100
AcDbLine
 10
104.1829920253951
 20
-135.9049130926143
 30
0.0
 11
107.249560969925
 21
-135.9049130926143
 31
0.0
  0
LINE
  5
10F
330
58
100
AcDbEntity
  8
0
  6
Continuous
 62
     3
370
    18
100
AcDbLine
 10
110.6463728456568
 20
-135.9049130926143
 30
0.0
 11
112.4463728456568
 21
-135.9049130926143
 31
0.0
  0
LINE
  5
110
330
58
100
AcDbEntity
  8
0
  6
Continuous
 62
     3
370
    18
100
AcDbLine
 10
124.1463728456568
 20
-135.9049130926143
 30
0.0
 11
126.2963728456568
 21
-135.9049130926143
 31
0.0
  0
LINE
  5
111
330
58
100
AcDbEntity
  8
0
  6
Continuous
 62
     3
370
    18
100
AcDbLine
 10
130.7163728456568
 20
-135.9049130926143
 30
0.0
 11
133.0686293442535
 21
-135.9049130926143
 31
0.0
  0
LINE
  5
112
330
58
100
AcDbEntity
  8
0
  6
Continuous
 62
     3
370
    18
100
AcDbLine
 10
139.652304447794
 20
-135.9049130926143
 30
0.0
 11
142.7163728456568
 21
-135.9049130926143
 31
0.0
  0
LINE
  5
113
330
58
100
AcDbEntity
  8
0
  6
Continuous
 62
     3
370
    18
100
AcDbLine
 10
146.9694927564039
 20
-135.9049130926143
 30
0.0
 11
149.1194891905019
 21
-135.9049130926143
 31
0.0
  0
LINE
  5
114
330
58
100
AcDbEntity
  8
0
  6
Continuous
 62
     3
370
    18
100
AcDbLine
 10
151.9163728456569
 20
-135.9049130926143
 30
0.0
 11
153.8163728456568
 21
-135.9049130926143
 31
0.0
  0
LINE
  5
115
330
58
100
AcDbEntity
  8
0
  6
Continuous
 62
     3
370
    18
100
AcDbLine
 10
79.53411013732934
 20
-135.4286630926143
 30
0.0
 11
81.88880832400619
 21
-135.4286630926143
 31
0.0
  0
LINE
  5
116
330
58
100
AcDbEntity
  8
0
  6
Continuous
 62
     3
370
    18
100
AcDbLine
 10
85.64637284565684
 20
-135.4286630926143
 30
0.0
 11
88.04637284565683
 21
-135.4286630926143
 31
0.0
  0
LINE
  5
117
330
58
100
AcDbEntity
  8
0
  6
Continuous
 62
     3
370
    18
100
AcDbLine
 10
90.04637284565683
 20
-135.4286630926143
 30
0.0
 11
101.4463728456568
 21
-135.4286630926143
 31
0.0
  0
LINE
  5
118
330
58
100
AcDbEntity
  8
0
  6
Continuous
 62
     3
370
    18
100
AcDbLine
 10
104.2417558982737
 20
-135.4286630926143
 30
0.0
 11
106.5351859699249
 21
-135.4286630926143
 31
0.0
  0
LINE
  5
119
330
58
100
AcDbEntity
  8
0
  6
Continuous
 62
     3
370
    18
100
AcDbLine
 10
110.6463728456568
 20
-135.4286630926143
 30
0.0
 11
112.4463728456568
 21
-135.4286630926143
 31
0.0
  0
LINE
  5
11A
330
58
100
AcDbEntity
  8
0
  6
Continuous
 62
     3
370
    18
100
AcDbLine
 10
124.1463728456568
 20
-135.4286630926143
 30
0.0
 11
126.2963728456568
 21
-135.4286630926143
 31
0.0
  0
LINE
  5
11B
330
58
100
AcDbEntity
  8
0
  6
Continuous
 62
     3
370
    18
100
AcDbLine
 10
130.7163728456568
 20
-135.4286630926143
 30
0.0
 11
134.631269014109
 21
-135.4286630926143
 31
0.0
  0
LINE
  5
11C
330
58
100
AcDbEntity
  8
0
  6
Continuous
 62
     3
370
    18
100
AcDbLine
 10
137.9644405537019
 20
-135.4286630926143
 30
0.0
 11
142.7163728456568
 21
-135.4286630926143
 31
0.0
  0
LINE
  5
11D
330
58
100
AcDbEntity
  8
0
  6
Continuous
 62
     3
370
    18
100
AcDbLine
 10
144.1163728456568
 20
-135.4286630926143
 30
0.0
 11
149.3045516331297
 21
-135.4286630926143
 31
0.0
  0
LINE
  5
11E
330
58
100
AcDbEntity
  8
0
  6
Continuous
 62
     3
370
    18
100
AcDbLine
 10
150.1163728456568
 20
-135.4286630926143
 30
0.0
 11
155.4163728456568
 21
-135.4286630926143
 31
0.0
  0
LINE
  5
11F
330
58
100
AcDbEntity
  8
0
  6
Continuous
 62
     3
370
    18
100
AcDbLine
 10
79.55169396072654
 20
-134.9524130926143
 30
0.0
 11
81.98045919530969
 21
-134.9524130926143
 31
0.0
  0
LINE
  5
120
330
58
100
AcDbEntity
  8
0
  6
Continuous
 62
     3
370
    18
100
AcDbLine
 10
85.64637284565684
 20
-134.9524130926144
 30
0.0
 11
88.04637284565683
 21
-134.9524130926143
 31
0.0
  0
LINE
  5
121
330
58
100
AcDbEntity
  8
0
  6
Continuous
 62
     3
370
    18
100
AcDbLine
 10
102.9463728456568
 20
-134.9524130926143
 30
0.0
 11
107.6463728456568
 21
-134.9524130926143
 31
0.0
  0
LINE
  5
122
330
58
100
AcDbEntity
  8
0
  6
Continuous
 62
     3
370
    18
100
AcDbLine
 10
108.1463728456568
 20
-134.9524130926143
 30
0.0
 11
115.0463728456568
 21
-134.9524130926143
 31
0.0
  0
LINE
  5
123
330
58
100
AcDbEntity
  8
0
  6
Continuous
 62
     3
370
    18
100
AcDbLine
 10
116.6463728456568
 20
-134.9524130926143
 30
0.0
 11
129.2163728456568
 21
-134.9524130926143
 31
0.0
  0
LINE
  5
124
330
58
100
AcDbEntity
  8
0
  6
Continuous
 62
     3
370
    18
100
AcDbLine
 10
130.7163728456568
 20
-134.9524130926144
 30
0.0
 11
135.6582176303868
 21
-134.9524130926143
 31
0.0
  0
LINE
  5
125
330
58
100
AcDbEntity
  8
0
  6
Continuous
 62
     3
370
    18
100
AcDbLine
 10
136.8355617330871
 20
-134.9524130926143
 30
0.0
 11
142.7163728456568
 21
-134.9524130926143
 31
0.0
  0
LINE
  5
126
330
58
100
AcDbEntity
  8
0
  6
Continuous
 62
     3
370
    18
100
AcDbLine
 10
144.1163728456568
 20
-134.9524130926144
 30
0.0
 11
149.4319822345178
 21
-134.9524130926143
 31
0.0
  0
LINE
  5
127
330
58
100
AcDbEntity
  8
0
  6
Continuous
 62
     3
370
    18
100
AcDbLine
 10
150.1163728456568
 20
-134.9524130926144
 30
0.0
 11
155.4163728456568
 21
-134.9524130926144
 31
0.0
  0
LINE
  5
128
330
58
100
AcDbEntity
  8
0
  6
Continuous
 62
     3
370
    18
100
AcDbLine
 10
74.08362715434319
 20
-134.4761630926143
 30
0.0
 11
88.04637284565683
 21
-134.4761630926143
 31
0.0
  0
LINE
  5
129
330
58
100
AcDbEntity
  8
0
  6
Continuous
 62
     3
370
    18
100
AcDbLine
 10
102.9463728456568
 20
-134.4761630926143
 30
0.0
 11
107.6463728456568
 21
-134.4761630926143
 31
0.0
  0
LINE
  5
12A
330
58
100
AcDbEntity
  8
0
  6
Continuous
 62
     3
370
    18
100
AcDbLine
 10
108.1463728456568
 20
-134.4761630926143
 30
0.0
 11
115.0463728456568
 21
-134.4761630926143
 31
0.0
  0
LINE
  5
12B
330
58
100
AcDbEntity
  8
0
  6
Continuous
 62
     3
370
    18
100
AcDbLine
 10
116.6463728456568
 20
-134.4761630926143
 30
0.0
 11
129.2163728456568
 21
-134.4761630926143
 31
0.0
  0
LINE
  5
12C
330
58
100
AcDbEntity
  8
0
  6
Continuous
 62
     3
370
    18
100
AcDbLine
 10
132.4986307803529
 20
-134.4761630926143
 30
0.0
 11
139.9498653340569
 21
-134.4761630926143
 31
0.0
  0
LINE
  5
12D
330
58
100
AcDbEntity
  8
0
  6
Continuous
 62
     3
370
    18
100
AcDbLine
 10
144.1163728456568
 20
-134.4761630926143
 30
0.0
 11
149.5065986494859
 21
-134.4761630926143
 31
0.0
  0
LINE
  5
12E
330
58
100
AcDbEntity
  8
0
  6
Continuous
 62
     3
370
    18
100
AcDbLine
 10
150.1163728456568
 20
-134.4761630926143
 30
0.0
 11
155.4163728456568
 21
-134.4761630926143
 31
0.0
  0
LINE
  5
12F
330
58
100
AcDbEntity
  8
0
  6
Continuous
 62
     3
370
    18
100
AcDbLine
 10
74.08362715434319
 20
-133.9999130926144
 30
0.0
 11
88.04637284565683
 21
-133.9999130926144
 31
0.0
  0
LINE
  5
130
330
58
100
AcDbEntity
  8
0
  6
Continuous
 62
     3
370
    18
100
AcDbLine
 10
105.0463728456568
 20
-133.9999130926144
 30
0.0
 11
106.4463728456568
 21
-133.9999130926144
 31
0.0
  0
LINE
  5
131
330
58
100
AcDbEntity
  8
0
  6
Continuous
 62
     3
370
    18
100
AcDbLine
 10
108.1463728456568
 20
-133.9999130926144
 30
0.0
 11
109.7063728456568
 21
-133.9999130926144
 31
0.0
  0
LINE
  5
132
330
58
100
AcDbEntity
  8
0
  6
Continuous
 62
     3
370
    18
100
AcDbLine
 10
110.6463728456568
 20
-133.9999130926144
 30
0.0
 11
112.4463728456568
 21
-133.9999130926144
 31
0.0
  0
LINE
  5
133
330
58
100
AcDbEntity
  8
0
  6
Continuous
 62
     3
370
    18
100
AcDbLine
 10
124.1463728456568
 20
-133.9999130926144
 30
0.0
 11
126.2963728456568
 21
-133.9999130926144
 31
0.0
  0
LINE
  5
134
330
58
100
AcDbEntity
  8
0
  6
Continuous
 62
     3
370
    18
100
AcDbLine
 10
127.6963728456568
 20
-133.9999130926144
 30
0.0
 11
129.2163728456568
 21
-133.9999130926144
 31
0.0
  0
LINE
  5
135
330
58
100
AcDbEntity
  8
0
  6
Continuous
 62
     3
370
    18
100
AcDbLine
 10
133.3953447356493
 20
-133.9999130926144
 30
0.0
 11
139.0439307982323
 21
-133.9999130926144
 31
0.0
  0
LINE
  5
136
330
58
100
AcDbEntity
  8
0
  6
Continuous
 62
     3
370
    18
100
AcDbLine
 10
146.1163728456568
 20
-133.9999130926144
 30
0.0
 11
147.7163728456569
 21
-133.9999130926144
 31
0.0
  0
LINE
  5
137
330
58
100
AcDbEntity
  8
0
  6
Continuous
 62
     3
370
    18
100
AcDbLine
 10
151.9163728456568
 20
-133.9999130926144
 30
0.0
 11
153.8163728456568
 21
-133.9999130926144
 31
0.0
  0
LINE
  5
138
330
58
100
AcDbEntity
  8
0
  6
Continuous
 62
     3
370
    18
100
AcDbLine
 10
74.08362715434319
 20
-133.5236630926143
 30
0.0
 11
88.04637284565683
 21
-133.5236630926144
 31
0.0
  0
LINE
  5
139
330
58
100
AcDbEntity
  8
0
  6
Continuous
 62
     3
370
    18
100
AcDbLine
 10
105.0463728456568
 20
-133.5236630926144
 30
0.0
 11
106.4463728456568
 21
-133.5236630926144
 31
0.0
  0
LINE
  5
13A
330
58
100
AcDbEntity
  8
0
  6
Continuous
 62
     3
370
    18
100
AcDbLine
 10
108.1463728456568
 20
-133.5236630926144
 30
0.0
 11
109.7063728456568
 21
-133.5236630926144
 31
0.0
  0
LINE
  5
13B
330
58
100
AcDbEntity
  8
0
  6
Continuous
 62
     3
370
    18
100
AcDbLine
 10
110.6463728456568
 20
-133.5236630926144
 30
0.0
 11
112.4463728456568
 21
-133.5236630926144
 31
0.0
  0
LINE
  5
13C
330
58
100
AcDbEntity
  8
0
  6
Continuous
 62
     3
370
    18
100
AcDbLine
 10
124.1463728456568
 20
-133.5236630926144
 30
0.0
 11
126.2963728456568
 21
-133.5236630926144
 31
0.0
  0
LINE
  5
13D
330
58
100
AcDbEntity
  8
0
  6
Continuous
 62
     3
370
    18
100
AcDbLine
 10
127.6963728456568
 20
-133.5236630926144
 30
0.0
 11
129.2163728456568
 21
-133.5236630926144
 31
0.0
  0
LINE
  5
13E
330
58
100
AcDbEntity
  8
0
  6
Continuous
 62
     3
370
    18
100
AcDbLine
 10
134.0356853341592
 20
-133.5236630926144
 30
0.0
 11
138.3992239126289
 21
-133.5236630926144
 31
0.0
  0
LINE
  5
13F
330
58
100
AcDbEntity
  8
0
  6
Continuous
 62
     3
370
    18
100
AcDbLine
 10
146.1163728456568
 20
-133.5236630926144
 30
0.0
 11
147.7163728456569
 21
-133.5236630926144
 31
0.0
  0
LINE
  5
140
330
58
100
AcDbEntity
  8
0
  6
Continuous
 62
     3
370
    18
100
AcDbLine
 10
151.9163728456568
 20
-133.5236630926144
 30
0.0
 11
153.8163728456568
 21
-133.5236630926144
 31
0.0
  0
LINE
  5
141
330
58
100
AcDbEntity
  8
0
  6
Continuous
 62
     3
370
    18
100
AcDbLine
 10
79.54637284565682
 20
-133.0474130926144
 30
0.0
 11
81.94637284565683
 21
-133.0474130926144
 31
0.0
  0
LINE
  5
142
330
58
100
AcDbEntity
  8
0
  6
Continuous
 62
     3
370
    18
100
AcDbLine
 10
79.54637284565682
 20
-132.5711630926144
 30
0.0
 11
81.94637284565683
 21
-132.5711630926144
 31
0.0
  0
LINE
  5
143
330
58
100
AcDbEntity
  8
0
  6
Continuous
 62
     3
370
    18
100
AcDbLine
 10
79.54637284565682
 20
-132.0949130926144
 30
0.0
 11
81.94637284565683
 21
-132.0949130926144
 31
0.0
  0
LINE
  5
144
330
58
100
AcDbEntity
  8
0
  6
Continuous
 62
     3
370
    18
100
AcDbLine
 10
79.54637284565682
 20
-131.6186630926144
 30
0.0
 11
81.94637284565683
 21
-131.6186630926144
 31
0.0
  0
ENDBLK
  5
5A
330
58
100
AcDbEntity
  8
0
100
AcDbBlockEnd
  0
BLOCK
  5
5C
330
5B
100
AcDbEntity
  8
0
100
AcDbBlockBegin
  2
DC_FILL_GROUP_7
 70
     0
 71
     0
 10
0.0
 20
0.0
 30
0.0
  3
DC_FILL_GROUP_7
  1

  0
CIRCLE
  5
145
330
5B
100
AcDbEntity
  8
0
  6
Continuous
 62
     3
370
    18
100
AcDbCircle
 10
-85.20075685903498
 20
57.37199621570483
 30
0.0
 40
0.5
  0
ENDBLK
  5
5D
330
5B
100
AcDbEntity
  8
0
100
AcDbBlockEnd
  0
BLOCK
  5
5F
330
5E
100
AcDbEntity
  8
0
100
AcDbBlockBegin
  2
DC_GROUP_8
 70
     0
 71
     0
 10
0.0
 20
0.0
 30
0.0
  3
DC_GROUP_8
  1

  0
LINE
  5
146
330
5E
100
AcDbEntity
  8
0
  6
Continuous
 62
     3
370
    18
100
AcDbLine
 10
-61.14342865252033
 20
-64.05965310328713
 30
0.0
 11
-56.14342865252033
 21
-64.05965310328713
 31
0.0
  0
LINE
  5
147
330
5E
100
AcDbEntity
  8
0
  6
Continuous
 62
     3
370
    18
100
AcDbLine
 10
-56.14342865252033
 20
-64.05965310328713
 30
0.0
 11
-58.64342865252033
 21
-59.72952608436494
 31
0.0
  0
LINE
  5
148
330
5E
100
AcDbEntity
  8
0
  6
Continuous
 62
     3
370
    18
100
AcDbLine
 10
-58.64342865252033
 20
-59.72952608436494
 30
0.0
 11
-61.14342865252033
 21
-64.05965310328713
 31
0.0
  0
ENDBLK
  5
60
330
5E
100
AcDbEntity
  8
0
100
AcDbBlockEnd
  0
BLOCK
  5
62
330
61
100
AcDbEntity
  8
0
100
AcDbBlockBegin
  2
DC_GROUP_9
 70
     0
 71
     0
 10
0.0
 20
0.0
 30
0.0
  3
DC_GROUP_9
  1

  0
LINE
  5
149
330
61
100
AcDbEntity
  8
0
  6
Continuous
 62
     3
370
    18
100
AcDbLine
 10
-61.04091014447965
 20
58.55166499266011
 30
0.0
 11
-55.04091014447965
 21
58.55166499266011
 31
0.0
  0
LINE
  5
14A
330
61
100
AcDbEntity
  8
0
  6
Continuous
 62
     3
370
    18
100
AcDbLine
 10
-55.04091014447965
 20
58.55166499266011
 30
0.0
 11
-58.04091014447965
 21
63.74781741536674
 31
0.0
  0
LINE
  5
14B
330
61
100
AcDbEntity
  8
0
  6
Continuous
 62
     3
370
    18
100
AcDbLine
 10
-58.04091014447965
 20
63.74781741536674
 30
0.0
 11
-61.04091014447965
 21
58.55166499266011
 31
0.0
  0
ENDBLK
  5
63
330
61
100
AcDbEntity
  8
0
100
AcDbBlockEnd
  0
BLOCK
  5
65
330
64
100
AcDbEntity
  8
0
100
AcDbBlockBegin
  2
DC_GROUP_10
 70
     0
 71
     0
 10
0.0
 20
0.0
 30
0.0
  3
DC_GROUP_10
  1

  0
LINE
  5
14C
330
64
100
AcDbEntity
  8
0
  6
Continuous
 62
     3
370
    18
100
AcDbLine
 10
-2.952312703783271
 20
-13.97268273694359
 30
0.0
 11
-2.95231270378327
 21
-7.972682736943586
 31
0.0
  0
LINE
  5
14D
330
64
100
AcDbEntity
  8
0
  6
Continuous
 62
     3
370
    18
100
AcDbLine
 10
-2.95231270378327
 20
-7.972682736943586
 30
0.0
 11
-8.148465126489903
 21
-10.97268273694359
 31
0.0
  0
LINE
  5
14E
330
64
100
AcDbEntity
  8
0
  6
Continuous
 62
     3
370
    18
100
AcDbLine
 10
-8.148465126489903
 20
-10.97268273694359
 30
0.0
 11
-2.952312703783271
 21
-13.97268273694359
 31
0.0
  0
ENDBLK
  5
66
330
64
100
AcDbEntity
  8
0
100
AcDbBlockEnd
  0
BLOCK
  5
68
330
67
100
AcDbEntity
  8
0
100
AcDbBlockBegin
  2
DA_IMAGEDIMGROUP_1
 70
     0
 71
     0
 10
0.0
 20
0.0
 30
0.0
  3
DA_IMAGEDIMGROUP_1
  1

  0
LINE
  5
14F
330
67
100
AcDbEntity
  8
Layer0014
  6
Continuous
 62
     7
370
    18
100
AcDbLine
 10
-87.54075685903503
 20
-29.22800378429517
 30
0.0
 11
-130.7398944723618
 21
-29.22800378429517
 31
0.0
  0
LINE
  5
150
330
67
100
AcDbEntity
  8
Layer0014
  6
Continuous
 62
     7
370
    18
100
AcDbLine
 10
-87.54075685903501
 20
30.27199621570483
 30
0.0
 11
-130.7398944723618
 21
30.27199621570483
 31
0.0
  0
LINE
  5
151
330
67
100
AcDbEntity
  8
Layer0014
  6
Continuous
 62
     7
370
    18
100
AcDbLine
 10
-128.4538944723618
 20
-29.22800378429515
 30
0.0
 11
-128.4538944723618
 21
30.27199621570485
 31
0.0
  0
INSERT
  5
158
330
67
100
AcDbEntity
  8
Layer0014
 62
     7
100
AcDbBlockReference
  2
_Open30
 10
-128.4538944723618
 20
30.27199621570485
 30
0.0
 41
3.000002787824364
 42
2.999989273978464
 50
90.0
  0
TEXT
  5
15A
330
67
100
AcDbEntity
  8
Layer0014
 62
     7
100
AcDbText
 10
-130.0538944723618
 20
-4.399065322103212
 30
0.0
 40
3.200000047683716
  1
φ５９．５
 50
90.0
 41
0.6600454954301211
  7
FdaStyle0
 72
     5
 11
-130.0538944723618
 21
10.68693464356451
 31
0.0
100
AcDbText
  0
ENDBLK
  5
69
330
67
100
AcDbEntity
  8
0
100
AcDbBlockEnd
  0
BLOCK
  5
6B
330
6A
100
AcDbEntity
  8
0
100
AcDbBlockBegin
  2
DA_IMAGEDIMGROUP_2
 70
     0
 71
     0
 10
0.0
 20
0.0
 30
0.0
  3
DA_IMAGEDIMGROUP_2
  1

  0
LINE
  5
15B
330
6A
100
AcDbEntity
  8
Layer0014
  6
Continuous
 62
     7
370
    18
100
AcDbLine
 10
-74.86075685903499
 20
6.771996215704832
 30
0.0
 11
-40.27199546713675
 21
6.771996215704832
 31
0.0
  0
LINE
  5
15C
330
6A
100
AcDbEntity
  8
Layer0014
  6
Continuous
 62
     7
370
    18
100
AcDbLine
 10
-74.86075685903499
 20
-5.728003784295169
 30
0.0
 11
-40.27199546713675
 21
-5.728003784295169
 31
0.0
  0
LINE
  5
15D
330
6A
100
AcDbEntity
  8
Layer0014
  6
Continuous
 62
     7
370
    18
100
AcDbLine
 10
-42.55799546713675
 20
6.771996215704824
 30
0.0
 11
-42.55799546713675
 21
-5.728003784295176
 31
0.0
  0
INSERT
  5
15E
330
6A
100
AcDbEntity
  8
Layer0014
 62
     7
100
AcDbBlockReference
  2
_Open30
 10
-42.55799546713675
 20
6.771996215704824
 30
0.0
 41
3.000002787824364
 42
2.999989273978464
 50
90.0
  0
INSERT
  5
15F
330
6A
100
AcDbEntity
  8
Layer0014
 62
     7
100
AcDbBlockReference
  2
_Open30
 10
-42.55799546713675
 20
-5.728003784295176
 30
0.0
 41
3.000002787824364
 42
2.999989273978464
 50
270.0
  0
TEXT
  5
160
330
6A
100
AcDbEntity
  8
Layer0014
 62
     7
100
AcDbText
 10
-44.15799546713675
 20
-8.533069373460478
 30
0.0
 40
3.200000047683716
  1
φ１２．５
 50
90.0
 41
0.6600454954301211
  7
FdaStyle0
 72
     5
 11
-44.15799546713675
 21
6.552930592207247
 31
0.0
100
AcDbText
  0
ENDBLK
  5
6C
330
6A
100
AcDbEntity
  8
0
100
AcDbBlockEnd
  0
BLOCK
  5
6E
330
6D
100
AcDbEntity
  8
0
100
AcDbBlockBegin
  2
DA_IMAGEDIMGROUP_3
 70
     0
 71
     0
 10
0.0
 20
0.0
 30
0.0
  3
DA_IMAGEDIMGROUP_3
  1

  0
LINE
  5
161
330
6D
100
AcDbEntity
  8
Layer0014
  6
Continuous
 62
     7
370
    18
100
AcDbLine
 10
-76.060756859035
 20
18.52199621570483
 30
0.0
 11
-27.02555778894472
 21
18.52199621570483
 31
0.0
  0
LINE
  5
162
330
6D
100
AcDbEntity
  8
Layer0014
  6
Continuous
 62
     7
370
    18
100
AcDbLine
 10
-76.060756859035
 20
-17.47800378429518
 30
0.0
 11
-27.02555778894472
 21
-17.47800378429518
 31
0.0
  0
LINE
  5
163
330
6D
100
AcDbEntity
  8
Layer0014
  6
Continuous
 62
     7
370
    18
100
AcDbLine
 10
-29.31155778894473
 20
18.52199621570483
 30
0.0
 11
-29.31155778894473
 21
-17.47800378429518
 31
0.0
  0
INSERT
  5
164
330
6D
100
AcDbEntity
  8
Layer0014
 62
     7
100
AcDbBlockReference
  2
_Open30
 10
-29.31155778894473
 20
18.52199621570483
 30
0.0
 41
3.000002787824364
 42
2.999989273978464
 50
90.0
  0
INSERT
  5
165
330
6D
100
AcDbEntity
  8
Layer0014
 62
     7
100
AcDbBlockReference
  2
_Open30
 10
-29.31155778894473
 20
-17.47800378429518
 30
0.0
 41
3.000002787824364
 42
2.999989273978464
 50
270.0
  0
TEXT
  5
166
330
6D
100
AcDbEntity
  8
Layer0014
 62
     7
100
AcDbText
 10
-30.91155778894473
 20
-4.261376891813086
 30
0.0
 40
3.200000047683716
  1
φ３６
 50
90.0
 41
0.6507341856978458
  7
FdaStyle0
 72
     5
 11
-30.91155778894473
 21
4.424623097696497
 31
0.0
100
AcDbText
  0
ENDBLK
  5
6F
330
6D
100
AcDbEntity
  8
0
100
AcDbBlockEnd
  0
BLOCK
  5
71
330
70
100
AcDbEntity
  8
0
100
AcDbBlockBegin
  2
DA_IMAGEDIMGROUP_4
 70
     0
 71
     0
 10
0.0
 20
0.0
 30
0.0
  3
DA_IMAGEDIMGROUP_4
  1

  0
LINE
  5
167
330
70
100
AcDbEntity
  8
Layer0014
  6
Continuous
 62
     7
370
    18
100
AcDbLine
 10
-90.14075685903501
 20
10.37199621570483
 30
0.0
 11
-115.886756859035
 21
10.37199621570483
 31
0.0
  0
LINE
  5
168
330
70
100
AcDbEntity
  8
Layer0014
  6
Continuous
 62
     7
370
    18
100
AcDbLine
 10
-90.14075685903501
 20
-9.328003784295163
 30
0.0
 11
-115.886756859035
 21
-9.328003784295163
 31
0.0
  0
LINE
  5
169
330
70
100
AcDbEntity
  8
Layer0014
  6
Continuous
 62
     7
370
    18
100
AcDbLine
 10
-113.600756859035
 20
10.37199621570483
 30
0.0
 11
-113.600756859035
 21
-9.328003784295175
 31
0.0
  0
INSERT
  5
16A
330
70
100
AcDbEntity
  8
Layer0014
 62
     7
100
AcDbBlockReference
  2
_Open30
 10
-113.600756859035
 20
10.37199621570483
 30
0.0
 41
3.000002787824364
 42
2.999989273978464
 50
90.0
  0
INSERT
  5
16B
330
70
100
AcDbEntity
  8
Layer0014
 62
     7
100
AcDbBlockReference
  2
_Open30
 10
-113.600756859035
 20
-9.328003784295175
 30
0.0
 41
3.000002787824364
 42
2.999989273978464
 50
270.0
  0
TEXT
  5
16C
330
70
100
AcDbEntity
  8
Layer0014
 62
     7
100
AcDbText
 10
-115.200756859035
 20
-12.16400375890359
 30
0.0
 40
3.200000047683716
  1
φ１９．７
 50
90.0
 41
0.6600454954301211
  7
FdaStyle0
 72
     5
 11
-115.200756859035
 21
2.921996206764135
 31
0.0
100
AcDbText
  0
TEXT
  5
16D
330
70
100
AcDbEntity
  8
Layer0014
 62
     7
100
AcDbText
 10
-117.6007568947978
 20
3.607496187809858
 30
0.0
 40
1.600000023841858
  1
＋
 50
90.0
 41
0.5953124946060902
  7
FdaStyle0
 72
     5
 11
-117.6007568947978
 21
4.750496194485578
 31
0.0
100
AcDbText
  0
TEXT
  5
16E
330
70
100
AcDbEntity
  8
Layer0014
 62
     7
100
AcDbText
 10
-115.200756859035
 20
3.607496187809858
 30
0.0
 40
1.600000023841858
  1
－
 50
90.0
 41
0.5953124946060902
  7
FdaStyle0
 72
     5
 11
-115.200756859035
 21
4.750496194485578
 31
0.0
100
AcDbText
  0
TEXT
  5
16F
330
70
100
AcDbEntity
  8
Layer0014
 62
     7
100
AcDbText
 10
-115.200756859035
 20
5.435996175531301
 30
0.0
 40
3.200000047683716
  1
０．３
 50
90.0
 41
0.6507341856978458
  7
FdaStyle0
 72
     5
 11
-115.200756859035
 21
14.12199616504088
 31
0.0
100
AcDbText
  0
ENDBLK
  5
72
330
70
100
AcDbEntity
  8
0
100
AcDbBlockEnd
  0
BLOCK
  5
74
330
73
100
AcDbEntity
  8
0
100
AcDbBlockBegin
  2
DA_IMAGEDIMGROUP_5
 70
     0
 71
     0
 10
0.0
 20
0.0
 30
0.0
  3
DA_IMAGEDIMGROUP_5
  1

  0
LINE
  5
170
330
73
100
AcDbEntity
  8
Layer0014
  6
Continuous
 62
     7
370
    18
100
AcDbLine
 10
-82.06075685903501
 20
-26.22800378429518
 30
0.0
 11
-11.714
 21
-26.22800378429518
 31
0.0
  0
LINE
  5
171
330
73
100
AcDbEntity
  8
Layer0014
  6
Continuous
 62
     7
370
    18
100
AcDbLine
 10
-82.060756859035
 20
27.27199621570483
 30
0.0
 11
-11.714
 21
27.27199621570483
 31
0.0
  0
LINE
  5
172
330
73
100
AcDbEntity
  8
Layer0014
  6
Continuous
 62
     7
370
    18
100
AcDbLine
 10
-14.0
 20
-26.22800378429513
 30
0.0
 11
-14.0
 21
27.27199621570488
 31
0.0
  0
INSERT
  5
173
330
73
100
AcDbEntity
  8
Layer0014
 62
     7
100
AcDbBlockReference
  2
_Open30
 10
-14.0
 20
27.27199621570488
 30
0.0
 41
3.000002787824364
 42
2.999989273978464
 50
90.0
  0
TEXT
  5
174
330
73
100
AcDbEntity
  8
Layer0014
 62
     7
100
AcDbText
 10
-15.6
 20
-10.27858792324761
 30
0.0
 40
3.200000047683716
  1
（φ５３．５）
 50
90.0
 41
0.663885792132577
  7
FdaStyle0
 72
     5
 11
-15.6
 21
11.20741201857825
 31
0.0
100
AcDbText
  0
ENDBLK
  5
75
330
73
100
AcDbEntity
  8
0
100
AcDbBlockEnd
  0
BLOCK
  5
77
330
76
100
AcDbEntity
  8
0
100
AcDbBlockBegin
  2
DA_IMAGEDIMGROUP_6
 70
     0
 71
     0
 10
0.0
 20
0.0
 30
0.0
  3
DA_IMAGEDIMGROUP_6
  1

  0
LINE
  5
175
330
76
100
AcDbEntity
  8
Layer0014
  6
Continuous
 62
     7
370
    18
100
AcDbLine
 10
-89.14075685903501
 20
42.37199621570483
 30
0.0
 11
-147.1998190954774
 21
42.37199621570483
 31
0.0
  0
LINE
  5
176
330
76
100
AcDbEntity
  8
Layer0014
  6
Continuous
 62
     7
370
    18
100
AcDbLine
 10
-89.14075685903501
 20
-41.32800378429518
 30
0.0
 11
-147.1998190954774
 21
-41.32800378429518
 31
0.0
  0
LINE
  5
177
330
76
100
AcDbEntity
  8
Layer0014
  6
Continuous
 62
     7
370
    18
100
AcDbLine
 10
-144.9138190954774
 20
42.37199621570483
 30
0.0
 11
-144.9138190954774
 21
-41.32800378429518
 31
0.0
  0
INSERT
  5
178
330
76
100
AcDbEntity
  8
Layer0014
 62
     7
100
AcDbBlockReference
  2
_Open30
 10
-144.9138190954774
 20
42.37199621570483
 30
0.0
 41
3.000002787824364
 42
2.999989273978464
 50
90.0
  0
INSERT
  5
179
330
76
100
AcDbEntity
  8
Layer0014
 62
     7
100
AcDbBlockReference
  2
_Open30
 10
-144.9138190954774
 20
-41.32800378429518
 30
0.0
 41
3.000002787824364
 42
2.999989273978464
 50
270.0
  0
TEXT
  5
17A
330
76
100
AcDbEntity
  8
Layer0014
 62
     7
100
AcDbText
 10
-146.5138190954774
 20
-4.399065322103212
 30
0.0
 40
3.200000047683716
  1
φ８３．７
 50
90.0
 41
0.6600454954301211
  7
FdaStyle0
 72
     5
 11
-146.5138190954774
 21
10.68693464356451
 31
0.0
100
AcDbText
  0
ENDBLK
  5
78
330
76
100
AcDbEntity
  8
0
100
AcDbBlockEnd
  0
BLOCK
  5
7A
330
79
100
AcDbEntity
  8
0
100
AcDbBlockBegin
  2
DA_IMAGEDIMGROUP_7
 70
     0
 71
     0
 10
0.0
 20
0.0
 30
0.0
  3
DA_IMAGEDIMGROUP_7
  1

  0
LINE
  5
17B
330
79
100
AcDbEntity
  8
Layer0014
  6
Continuous
 62
     7
370
    18
100
AcDbLine
 10
-86.60075685903502
 20
44.91199621570483
 30
0.0
 11
-86.60075685903502
 21
59.65799621570483
 31
0.0
  0
LINE
  5
17C
330
79
100
AcDbEntity
  8
Layer0014
  6
Continuous
 62
     7
370
    18
100
AcDbLine
 10
-85.20075685903498
 20
44.91199621570483
 30
0.0
 11
-85.20075685903498
 21
59.65799621570483
 31
0.0
  0
LINE
  5
17D
330
79
100
AcDbEntity
  8
Layer0014
  6
Continuous
 62
     7
370
    18
100
AcDbLine
 10
-86.600756859035
 20
57.37199621570483
 30
0.0
 11
-85.200756859035
 21
57.37199621570483
 31
0.0
  0
LINE
  5
17E
330
79
100
AcDbEntity
  8
Layer0014
  6
Continuous
 62
     7
370
    18
100
AcDbLine
 10
-86.600756859035
 20
57.37199621570483
 30
0.0
 11
-85.200756859035
 21
57.37199621570483
 31
0.0
  0
LINE
  5
17F
330
79
100
AcDbEntity
  8
Layer0014
  6
Continuous
 62
     7
370
    18
100
AcDbLine
 10
-86.600756859035
 20
57.37199621570483
 30
0.0
 11
-92.950756859035
 21
57.37199621570483
 31
0.0
  0
INSERT
  5
180
330
79
100
AcDbEntity
  8
Layer0014
 62
     7
100
AcDbBlockReference
  2
_Open30
 10
-86.600756859035
 20
57.37199621570483
 30
0.0
 41
3.000002787824364
 42
2.999989273978464
 50
360.0
  0
TEXT
  5
181
330
79
100
AcDbEntity
  8
Layer0014
 62
     7
100
AcDbText
 10
-103.0288104529864
 20
58.97199621570482
 30
0.0
 40
3.200000047683716
  1
（１．４）
 41
0.6600454954301211
  7
FdaStyle0
 72
     5
 11
-87.94281048731864
 21
58.97199621570482
 31
0.0
100
AcDbText
  0
ENDBLK
  5
7B
330
79
100
AcDbEntity
  8
0
100
AcDbBlockEnd
  0
BLOCK
  5
7D
330
7C
100
AcDbEntity
  8
0
100
AcDbBlockBegin
  2
DA_IMAGEDIMGROUP_8
 70
     0
 71
     0
 10
0.0
 20
0.0
 30
0.0
  3
DA_IMAGEDIMGROUP_8
  1

  0
LINE
  5
182
330
7C
100
AcDbEntity
  8
Layer0014
  6
Continuous
 62
     7
370
    18
100
AcDbLine
 10
-86.60075685903502
 20
-43.86800378429518
 30
0.0
 11
-86.60075685903502
 21
-58.71398919219212
 31
0.0
  0
LINE
  5
183
330
7C
100
AcDbEntity
  8
Layer0014
  6
Continuous
 62
     7
370
    18
100
AcDbLine
 10
-82.40075685903503
 20
-42.01800378429518
 30
0.0
 11
-82.40075685903503
 21
-58.71398919219212
 31
0.0
  0
LINE
  5
184
330
7C
100
AcDbEntity
  8
Layer0014
  6
Continuous
 62
     7
370
    18
100
AcDbLine
 10
-86.600756859035
 20
-56.42798919219212
 30
0.0
 11
-82.400756859035
 21
-56.42798919219212
 31
0.0
  0
LINE
  5
185
330
7C
100
AcDbEntity
  8
Layer0014
  6
Continuous
 62
     7
370
    18
100
AcDbLine
 10
-86.600756859035
 20
-56.42798919219212
 30
0.0
 11
-92.950756859035
 21
-56.42798919219212
 31
0.0
  0
INSERT
  5
186
330
7C
100
AcDbEntity
  8
Layer0014
 62
     7
100
AcDbBlockReference
  2
_Open30
 10
-86.600756859035
 20
-56.42798919219212
 30
0.0
 41
3.000002787824364
 42
2.999989273978464
 50
360.0
  0
LINE
  5
187
330
7C
100
AcDbEntity
  8
Layer0014
  6
Continuous
 62
     7
370
    18
100
AcDbLine
 10
-76.05075685903501
 20
-56.42798919219212
 30
0.0
 11
-82.400756859035
 21
-56.42798919219212
 31
0.0
  0
INSERT
  5
188
330
7C
100
AcDbEntity
  8
Layer0014
 62
     7
100
AcDbBlockReference
  2
_Open30
 10
-82.400756859035
 20
-56.42798919219212
 30
0.0
 41
3.000002787824364
 42
2.999989273978464
 50
180.0
  0
TEXT
  5
189
330
7C
100
AcDbEntity
  8
Layer0014
 62
     7
100
AcDbText
 10
-75.4782508287721
 20
-54.82798919219212
 30
0.0
 40
3.200000047683716
  1
４．２
 41
0.6507341856978458
  7
FdaStyle0
 72
     5
 11
-66.79225083926252
 21
-54.82798919219212
 31
0.0
100
AcDbText
  0
TEXT
  5
18A
330
7C
100
AcDbEntity
  8
Layer0014
 62
     7
100
AcDbText
 10
-66.1067508582168
 20
-52.42798915642933
 30
0.0
 40
1.600000023841858
  1
＋０．５
 41
0.6566125222121553
  7
FdaStyle0
 72
     5
 11
-60.16375086942247
 21
-52.42798915642933
 31
0.0
100
AcDbText
  0
TEXT
  5
18B
330
7C
100
AcDbEntity
  8
Layer0014
 62
     7
100
AcDbText
 10
-66.1067508582168
 20
-54.82798919219212
 30
0.0
 40
1.600000023841858
  1
－０
 41
0.6383523323841703
  7
FdaStyle0
 72
     5
 11
-63.36375085750154
 21
-54.82798919219212
 31
0.0
100
AcDbText
  0
ENDBLK
  5
7E
330
7C
100
AcDbEntity
  8
0
100
AcDbBlockEnd
  0
BLOCK
  5
80
330
7F
100
AcDbEntity
  8
0
100
AcDbBlockBegin
  2
DA_IMAGEDIMGROUP_9
 70
     0
 71
     0
 10
0.0
 20
0.0
 30
0.0
  3
DA_IMAGEDIMGROUP_9
  1

  0
LINE
  5
18C
330
7F
100
AcDbEntity
  8
Layer0014
  6
Continuous
 62
     7
370
    18
100
AcDbLine
 10
-88.60075685903502
 20
-10.86800378429518
 30
0.0
 11
-88.60075685903502
 21
-67.79320436352619
 31
0.0
  0
LINE
  5
18D
330
7F
100
AcDbEntity
  8
Layer0014
  6
Continuous
 62
     7
370
    18
100
AcDbLine
 10
-76.60075685903502
 20
-7.268003784295169
 30
0.0
 11
-76.60075685903502
 21
-67.79320436352619
 31
0.0
  0
LINE
  5
18E
330
7F
100
AcDbEntity
  8
Layer0014
  6
Continuous
 62
     7
370
    18
100
AcDbLine
 10
-88.60075685903502
 20
-65.50720436352619
 30
0.0
 11
-76.60075685903502
 21
-65.50720436352619
 31
0.0
  0
LINE
  5
18F
330
7F
100
AcDbEntity
  8
Layer0014
  6
Continuous
 62
     7
370
    18
100
AcDbLine
 10
-88.60075685903502
 20
-65.50720436352619
 30
0.0
 11
-94.95075685903501
 21
-65.50720436352619
 31
0.0
  0
INSERT
  5
190
330
7F
100
AcDbEntity
  8
Layer0014
 62
     7
100
AcDbBlockReference
  2
_Open30
 10
-88.60075685903502
 20
-65.50720436352619
 30
0.0
 41
3.000002787824364
 42
2.999989273978464
 50
360.0
  0
LINE
  5
191
330
7F
100
AcDbEntity
  8
Layer0014
  6
Continuous
 62
     7
370
    18
100
AcDbLine
 10
-70.25075685903502
 20
-65.50720436352619
 30
0.0
 11
-76.60075685903502
 21
-65.50720436352619
 31
0.0
  0
INSERT
  5
192
330
7F
100
AcDbEntity
  8
Layer0014
 62
     7
100
AcDbBlockReference
  2
_Open30
 10
-76.60075685903502
 20
-65.50720436352619
 30
0.0
 41
3.000002787824364
 42
2.999989273978464
 50
180.0
  0
TEXT
  5
193
330
7F
100
AcDbEntity
  8
Layer0014
 62
     7
100
AcDbText
 10
-73.43742765618265
 20
-63.90720436352618
 30
0.0
 40
3.200000047683716
  1
１２．２　　１２
 41
0.6650681540793101
  7
FdaStyle0
 72
     5
 11
-48.75142772627771
 21
-63.90720436352618
 31
0.0
100
AcDbText
  0
ENDBLK
  5
81
330
7F
100
AcDbEntity
  8
0
100
AcDbBlockEnd
  0
BLOCK
  5
83
330
82
100
AcDbEntity
  8
0
100
AcDbBlockBegin
  2
DA_IMAGEDIMGROUP_10
 70
     0
 71
     0
 10
0.0
 20
0.0
 30
0.0
  3
DA_IMAGEDIMGROUP_10
  1

  0
LINE
  5
194
330
82
100
AcDbEntity
  8
Layer0014
  6
Continuous
 62
     7
370
    18
100
AcDbLine
 10
-76.60075685903502
 20
8.311996215704831
 30
0.0
 11
-76.60075685903502
 21
59.65799621570483
 31
0.0
  0
LINE
  5
195
330
82
100
AcDbEntity
  8
Layer0014
  6
Continuous
 62
     7
370
    18
100
AcDbLine
 10
-85.20075685903498
 20
44.91199621570483
 30
0.0
 11
-85.20075685903498
 21
59.65799621570483
 31
0.0
  0
LINE
  5
196
330
82
100
AcDbEntity
  8
Layer0014
  6
Continuous
 62
     7
370
    18
100
AcDbLine
 10
-76.60075685903502
 20
57.37199621570483
 30
0.0
 11
-85.20075685903498
 21
57.37199621570483
 31
0.0
  0
LINE
  5
197
330
82
100
AcDbEntity
  8
Layer0014
  6
Continuous
 62
     7
370
    18
100
AcDbLine
 10
-76.60075685903502
 20
57.37199621570483
 30
0.0
 11
-85.20075685903498
 21
57.37199621570483
 31
0.0
  0
LINE
  5
198
330
82
100
AcDbEntity
  8
Layer0014
  6
Continuous
 62
     7
370
    18
100
AcDbLine
 10
-76.60075685903502
 20
57.37199621570483
 30
0.0
 11
-70.25075685903502
 21
57.37199621570483
 31
0.0
  0
INSERT
  5
199
330
82
100
AcDbEntity
  8
Layer0014
 62
     7
100
AcDbBlockReference
  2
_Open30
 10
-76.60075685903502
 20
57.37199621570483
 30
0.0
 41
3.000002787824364
 42
2.999989273978464
 50
180.0
  0
TEXT
  5
19A
330
82
100
AcDbEntity
  8
Layer0014
 62
     7
100
AcDbText
 10
-70.4557529147626
 20
58.97199621570482
 30
0.0
 40
3.200000047683716
  1
８．８　　　８．６±０．３
 41
0.6682104778591579
  7
FdaStyle0
 72
     5
 11
-29.76975304446231
 21
58.97199621570482
 31
0.0
100
AcDbText
  0
ENDBLK
  5
84
330
82
100
AcDbEntity
  8
0
100
AcDbBlockEnd
  0
BLOCK
  5
86
330
85
100
AcDbEntity
  8
0
100
AcDbBlockBegin
  2
DA_IMAGEDIMGROUP_11
 70
     0
 71
     0
 10
0.0
 20
0.0
 30
0.0
  3
DA_IMAGEDIMGROUP_11
  1

  0
LINE
  5
19B
330
85
100
AcDbEntity
  8
Layer0014
  6
Continuous
 62
     7
370
    18
100
AcDbLine
 10
-79.86075685903499
 20
-39.47800378429517
 30
0.0
 11
0.2307349433514077
 21
-39.47800378429517
 31
0.0
  0
LINE
  5
19C
330
85
100
AcDbEntity
  8
Layer0014
  6
Continuous
 62
     7
370
    18
100
AcDbLine
 10
-79.86075685903502
 20
40.27199621570483
 30
0.0
 11
0.2307349433514077
 21
40.27199621570483
 31
0.0
  0
LINE
  5
19D
330
85
100
AcDbEntity
  8
Layer0014
  6
Continuous
 62
     7
370
    18
100
AcDbLine
 10
-2.05526505664859
 20
-39.47800378429517
 30
0.0
 11
-2.05526505664859
 21
40.27199621570483
 31
0.0
  0
INSERT
  5
19E
330
85
100
AcDbEntity
  8
Layer0014
 62
     7
100
AcDbBlockReference
  2
_Open30
 10
-2.05526505664859
 20
-39.47800378429517
 30
0.0
 41
3.000002787824364
 42
2.999989273978464
 50
270.0
  0
INSERT
  5
19F
330
85
100
AcDbEntity
  8
Layer0014
 62
     7
100
AcDbBlockReference
  2
_Open30
 10
-2.05526505664859
 20
40.27199621570483
 30
0.0
 41
3.000002787824364
 42
2.999989273978464
 50
90.0
  0
TEXT
  5
1A0
330
85
100
AcDbEntity
  8
Layer0014
 62
     7
100
AcDbText
 10
-3.655265056648589
 20
-7.664434526896166
 30
0.0
 40
3.200000047683716
  1
φ７９．５
 50
90.0
 41
0.6600454954301211
  7
FdaStyle0
 72
     5
 11
-3.655265056648589
 21
7.421565438771559
 31
0.0
100
AcDbText
  0
TEXT
  5
1A1
330
85
100
AcDbEntity
  8
Layer0014
 62
     7
100
AcDbText
 10
-6.055265092411375
 20
8.107065419817282
 30
0.0
 40
1.600000023841858
  1
＋０．１５
 50
90.0
 41
0.6600454954301211
  7
FdaStyle0
 72
     5
 11
-6.055265092411375
 21
15.65006540265114
 31
0.0
100
AcDbText
  0
TEXT
  5
1A2
330
85
100
AcDbEntity
  8
Layer0014
 62
     7
100
AcDbText
 10
-3.65526505664859
 20
8.107065419817282
 30
0.0
 40
1.600000023841858
  1
－０．２
 50
90.0
 41
0.6566125222121553
  7
FdaStyle0
 72
     5
 11
-3.65526505664859
 21
14.05006540861161
 31
0.0
100
AcDbText
  0
ENDBLK
  5
87
330
85
100
AcDbEntity
  8
0
100
AcDbBlockEnd
  0
BLOCK
  5
153
330
152
100
AcDbEntity
  8
0
100
AcDbBlockBegin
  2
_Open30
 70
     0
 71
     0
 10
0.0
 20
0.0
 30
0.0
  3
_Open30
  1

  0
LINE
  5
155
330
152
100
AcDbEntity
  8
0
  6
ByBlock
 62
     0
370
    -2
100
AcDbLine
 10
-1.0
 20
0.267949
 30
0.0
 11
0.0
 21
0.0
 31
0.0
  0
LINE
  5
156
330
152
100
AcDbEntity
  8
0
  6
ByBlock
 62
     0
370
    -2
100
AcDbLine
 10
0.0
 20
0.0
 30
0.0
 11
-1.0
 21
-0.267949
 31
0.0
  0
LINE
  5
157
330
152
100
AcDbEntity
  8
0
  6
ByBlock
 62
     0
370
    -2
100
AcDbLine
 10
0.0
 20
0.0
 30
0.0
 11
-1.0
 21
0.0
 31
0.0
  0
ENDBLK
  5
154
330
152
100
AcDbEntity
  8
0
100
AcDbBlockEnd
  0
ENDSEC
  0
SECTION
  2
ENTITIES
  0
LINE
  5
1A3
330
1F
100
AcDbEntity
  8
0
  6
Continuous
 62
     7
370
    18
100
AcDbLine
 10
-209.0
 20
-144.0
 30
0.0
 11
176.0
 21
-144.0
 31
0.0
  0
LINE
  5
1A4
330
1F
100
AcDbEntity
  8
0
  6
Continuous
 62
     7
370
    18
100
AcDbLine
 10
-209.0
 20
131.0
 30
0.0
 11
-209.0
 21
-144.0
 31
0.0
  0
LINE
  5
1A5
330
1F
100
AcDbEntity
  8
0
  6
Continuous
 62
     7
370
    18
100
AcDbLine
 10
176.0
 20
131.0
 30
0.0
 11
176.0
 21
-144.0
 31
0.0
  0
LINE
  5
1A6
330
1F
100
AcDbEntity
  8
0
  6
Continuous
 62
     7
370
    18
100
AcDbLine
 10
-209.0
 20
-102.0
 30
0.0
 11
-9.0
 21
-102.0
 31
0.0
  0
LINE
  5
1A7
330
1F
100
AcDbEntity
  8
0
  6
Continuous
 62
     7
370
    18
100
AcDbLine
 10
-209.0
 20
-109.0
 30
0.0
 11
-9.0
 21
-109.0
 31
0.0
  0
LINE
  5
1A8
330
1F
100
AcDbEntity
  8
0
  6
Continuous
 62
     7
370
    18
100
AcDbLine
 10
-209.0
 20
-116.0
 30
0.0
 11
-9.0
 21
-116.0
 31
0.0
  0
LINE
  5
1A9
330
1F
100
AcDbEntity
  8
0
  6
Continuous
 62
     7
370
    18
100
AcDbLine
 10
-202.0
 20
-102.0
 30
0.0
 11
-202.0
 21
-144.0
 31
0.0
  0
LINE
  5
1AA
330
1F
100
AcDbEntity
  8
0
  6
Continuous
 62
     7
370
    18
100
AcDbLine
 10
-29.0
 20
-102.0
 30
0.0
 11
-29.0
 21
-144.0
 31
0.0
  0
LINE
  5
1AB
330
1F
100
AcDbEntity
  8
0
  6
Continuous
 62
     7
370
    18
100
AcDbLine
 10
-209.0
 20
-137.0
 30
0.0
 11
-9.0
 21
-137.0
 31
0.0
  0
LINE
  5
1AC
330
1F
100
AcDbEntity
  8
0
  6
Continuous
 62
     7
370
    18
100
AcDbLine
 10
-209.0
 20
-130.0
 30
0.0
 11
-9.0
 21
-130.0
 31
0.0
  0
LINE
  5
1AD
330
1F
100
AcDbEntity
  8
0
  6
Continuous
 62
     7
370
    18
100
AcDbLine
 10
-209.0
 20
-123.0
 30
0.0
 11
-9.0
 21
-123.0
 31
0.0
  0
LINE
  5
1AE
330
1F
100
AcDbEntity
  8
0
  6
Continuous
 62
     7
370
    18
100
AcDbLine
 10
-69.0
 20
-102.0
 30
0.0
 11
-69.0
 21
-144.0
 31
0.0
  0
LINE
  5
1AF
330
1F
100
AcDbEntity
  8
0
  6
Continuous
 62
     7
370
    18
100
AcDbLine
 10
-167.0
 20
-102.0
 30
0.0
 11
-167.0
 21
-144.0
 31
0.0
  0
LINE
  5
1B0
330
1F
100
AcDbEntity
  8
0
  6
Continuous
 62
     7
370
    18
100
AcDbLine
 10
-9.0
 20
-102.0
 30
0.0
 11
-9.0
 21
-144.0
 31
0.0
  0
LINE
  5
1B1
330
1F
100
AcDbEntity
  8
0
  6
Continuous
 62
     7
370
    18
100
AcDbLine
 10
-49.0
 20
-102.0
 30
0.0
 11
-49.0
 21
-144.0
 31
0.0
  0
LINE
  5
1B2
330
1F
100
AcDbEntity
  8
0
  6
Continuous
 62
     7
370
    18
100
AcDbLine
 10
-209.0
 20
131.0
 30
0.0
 11
176.0
 21
131.0
 31
0.0
  0
LINE
  5
1B3
330
1F
100
AcDbEntity
  8
0
  6
Continuous
 62
     7
370
    18
100
AcDbLine
 10
-3.999999523162838
 20
-130.0000000000001
 30
0.0
 11
54.0
 21
-130.0000000000001
 31
0.0
  0
LINE
  5
1B4
330
1F
100
AcDbEntity
  8
0
  6
Continuous
 62
     7
370
    18
100
AcDbLine
 10
-8.999999999999996
 20
-134.0000000000001
 30
0.0
 11
54.0
 21
-134.0000000000001
 31
0.0
  0
LINE
  5
1B5
330
1F
100
AcDbEntity
  8
0
  6
Continuous
 62
     7
370
    18
100
AcDbLine
 10
-3.999999523162838
 20
-114.0000002384186
 30
0.0
 11
54.0
 21
-114.0000002384186
 31
0.0
  0
LINE
  5
1B6
330
1F
100
AcDbEntity
  8
0
  6
Continuous
 62
     7
370
    18
100
AcDbLine
 10
-3.999999523162838
 20
-118.0000004768372
 30
0.0
 11
54.0
 21
-118.0000004768372
 31
0.0
  0
LINE
  5
1B7
330
1F
100
AcDbEntity
  8
0
  6
Continuous
 62
     7
370
    18
100
AcDbLine
 10
-3.999999523162842
 20
-102.0
 30
0.0
 11
-3.999999523162842
 21
-134.0000000000001
 31
0.0
  0
LINE
  5
1B8
330
1F
100
AcDbEntity
  8
0
  6
Continuous
 62
     7
370
    18
100
AcDbLine
 10
21.0
 20
-106.0000004768372
 30
0.0
 11
21.0
 21
-134.0000000000001
 31
0.0
  0
LINE
  5
1B9
330
1F
100
AcDbEntity
  8
0
  6
Continuous
 62
     7
370
    18
100
AcDbLine
 10
-8.999999999999996
 20
-102.0
 30
0.0
 11
53.89641189575195
 21
-102.0
 31
0.0
  0
LINE
  5
1BA
330
1F
100
AcDbEntity
  8
0
  6
Continuous
 62
     7
370
    18
100
AcDbLine
 10
54.0
 20
-102.0
 30
0.0
 11
54.0
 21
-134.0000000000001
 31
0.0
  0
LINE
  5
1BB
330
1F
100
AcDbEntity
  8
0
  6
Continuous
 62
     7
370
    18
100
AcDbLine
 10
43.0
 20
-106.0000004768372
 30
0.0
 11
43.0
 21
-134.0000000000001
 31
0.0
  0
LINE
  5
1BC
330
1F
100
AcDbEntity
  8
0
  6
Continuous
 62
     7
370
    18
100
AcDbLine
 10
-3.999999523162838
 20
-126.0
 30
0.0
 11
54.0
 21
-126.0
 31
0.0
  0
LINE
  5
1BD
330
1F
100
AcDbEntity
  8
0
  6
Continuous
 62
     7
370
    18
100
AcDbLine
 10
32.0
 20
-106.0000004768372
 30
0.0
 11
32.0
 21
-134.0000000000001
 31
0.0
  0
LINE
  5
1BE
330
1F
100
AcDbEntity
  8
0
  6
Continuous
 62
     7
370
    18
100
AcDbLine
 10
-9.0
 20
-102.0
 30
0.0
 11
-9.0
 21
-134.0000000000001
 31
0.0
  0
LINE
  5
1BF
330
1F
100
AcDbEntity
  8
0
  6
Continuous
 62
     7
370
    18
100
AcDbLine
 10
-3.999999523162838
 20
-110.0000003576279
 30
0.0
 11
54.0
 21
-110.0000003576279
 31
0.0
  0
LINE
  5
1C0
330
1F
100
AcDbEntity
  8
0
  6
Continuous
 62
     7
370
    18
100
AcDbLine
 10
-3.999999523162838
 20
-122.0
 30
0.0
 11
54.0
 21
-122.0
 31
0.0
  0
LINE
  5
1C1
330
1F
100
AcDbEntity
  8
0
  6
Continuous
 62
     7
370
    18
100
AcDbLine
 10
-4.059560298919674
 20
-106.0000004768372
 30
0.0
 11
54.0
 21
-106.0000004768372
 31
0.0
  0
LINE
  5
1C2
330
1F
100
AcDbEntity
  8
0
  6
Continuous
 62
     7
370
    18
100
AcDbLine
 10
-3.999999850530289
 20
-106.0000003191013
 30
0.0
 11
21.0000002628773
 21
-110.0000002617931
 31
0.0
  0
LINE
  5
1C3
330
1F
100
AcDbEntity
  8
0
  6
Continuous
 62
     7
370
    18
100
AcDbLine
 10
54.0
 20
-84.5
 30
0.0
 11
176.0
 21
-84.5
 31
0.0
  0
LINE
  5
1C4
330
1F
100
AcDbEntity
  8
0
  6
Continuous
 62
     7
370
    18
100
AcDbLine
 10
54.0
 20
-84.5
 30
0.0
 11
54.0
 21
-143.5
 31
0.0
  0
LINE
  5
1C5
330
1F
100
AcDbEntity
  8
0
  6
Continuous
 62
     7
370
    18
100
AcDbLine
 10
54.0
 20
-106.5
 30
0.0
 11
176.0
 21
-106.5
 31
0.0
  0
LINE
  5
1C6
330
1F
100
AcDbEntity
  8
0
  6
Continuous
 62
     7
370
    18
100
AcDbLine
 10
54.0
 20
-95.5
 30
0.0
 11
176.0
 21
-95.5
 31
0.0
  0
LINE
  5
1C7
330
1F
100
AcDbEntity
  8
0
  6
Continuous
 62
     7
370
    18
100
AcDbLine
 10
54.0
 20
-117.5
 30
0.0
 11
176.0
 21
-117.5
 31
0.0
  0
LINE
  5
1C8
330
1F
100
AcDbEntity
  8
0
  6
Continuous
 62
     7
370
    18
100
AcDbLine
 10
54.0
 20
-128.5
 30
0.0
 11
176.0
 21
-128.5
 31
0.0
  0
LINE
  5
1C9
330
1F
100
AcDbEntity
  8
0
  6
Continuous
 62
     7
370
    18
100
AcDbLine
 10
120.0
 20
-117.5
 30
0.0
 11
120.0
 21
-128.5
 31
0.0
  0
LINE
  5
1CA
330
1F
100
AcDbEntity
  8
0
  6
Continuous
 62
     7
370
    18
100
AcDbLine
 10
142.0
 20
-84.5
 30
0.0
 11
142.0
 21
-128.5
 31
0.0
  0
LINE
  5
1CB
330
1F
100
AcDbEntity
  8
0
  6
Continuous
 62
     7
370
    18
100
AcDbLine
 10
144.1163728456568
 20
-137.5361668241051
 30
0.0
 11
144.2999359294301
 21
-137.5361668241051
 31
0.0
  0
LINE
  5
1CC
330
1F
100
AcDbEntity
  8
0
  6
Continuous
 62
     7
370
    18
100
AcDbLine
 10
144.1163728456568
 20
-138.5524216486367
 30
0.0
 11
144.5835787514163
 21
-138.5524216486367
 31
0.0
  0
LINE
  5
1CD
330
1F
100
AcDbEntity
  8
0
  6
Continuous
 62
     7
370
    18
100
AcDbLine
 10
144.1163728456568
 20
-134.3694543431024
 30
0.0
 11
144.1163728456568
 21
-135.5694543431024
 31
0.0
  0
LINE
  5
1CE
330
1F
100
AcDbEntity
  8
0
  6
Continuous
 62
     7
370
    18
100
AcDbLine
 10
147.7163728456568
 20
-133.1694543431024
 30
0.0
 11
147.7163728456568
 21
-134.3694543431024
 31
0.0
  0
LINE
  5
1CF
330
1F
100
AcDbEntity
  8
0
  6
Continuous
 62
     7
370
    18
100
AcDbLine
 10
149.9163728456568
 20
-140.9305456568976
 30
0.0
 11
155.9163728456568
 21
-140.9305456568976
 31
0.0
  0
LINE
  5
1D0
330
1F
100
AcDbEntity
  8
0
  6
Continuous
 62
     7
370
    18
100
AcDbLine
 10
146.1163728456568
 20
-138.3116802321412
 30
0.0
 11
146.1163728456568
 21
-140.9305456568976
 31
0.0
  0
LINE
  5
1D1
330
1F
100
AcDbEntity
  8
0
  6
Continuous
 62
     7
370
    18
100
AcDbLine
 10
144.1163728456568
 20
-135.5694543431024
 30
0.0
 11
147.1163728456568
 21
-135.5694543431024
 31
0.0
  0
LINE
  5
1D2
330
1F
100
AcDbEntity
  8
0
  6
Continuous
 62
     7
370
    18
100
AcDbLine
 10
147.7163728456568
 20
-134.3694543431024
 30
0.0
 11
149.5163728456568
 21
-134.3694543431024
 31
0.0
  0
LINE
  5
1D3
330
1F
100
AcDbEntity
  8
0
  6
Continuous
 62
     7
370
    18
100
AcDbLine
 10
144.1163728456568
 20
-134.3694543431024
 30
0.0
 11
146.1163728456568
 21
-134.3694543431024
 31
0.0
  0
LINE
  5
1D4
330
1F
100
AcDbEntity
  8
0
  6
Continuous
 62
     7
370
    18
100
AcDbLine
 10
153.8163728456568
 20
-135.5694543431024
 30
0.0
 11
155.4163728456568
 21
-135.5694543431024
 31
0.0
  0
LINE
  5
1D5
330
1F
100
AcDbEntity
  8
0
  6
Continuous
 62
     7
370
    18
100
AcDbLine
 10
153.8163728456568
 20
-134.3694543431024
 30
0.0
 11
155.4163728456568
 21
-134.3694543431024
 31
0.0
  0
LINE
  5
1D6
330
1F
100
AcDbEntity
  8
0
  6
Continuous
 62
     7
370
    18
100
AcDbLine
 10
153.8163728456568
 20
-135.5694543431024
 30
0.0
 11
153.8163728456568
 21
-138.9694543431024
 31
0.0
  0
LINE
  5
1D7
330
1F
100
AcDbEntity
  8
0
  6
Continuous
 62
     7
370
    18
100
AcDbLine
 10
153.8163728456568
 20
-138.9694543431024
 30
0.0
 11
155.9163728456568
 21
-138.9694543431024
 31
0.0
  0
LINE
  5
1D8
330
1F
100
AcDbEntity
  8
0
  6
Continuous
 62
     7
370
    18
100
AcDbLine
 10
146.1163728456568
 20
-133.1694543431024
 30
0.0
 11
147.7163728456568
 21
-133.1694543431024
 31
0.0
  0
LINE
  5
1D9
330
1F
100
AcDbEntity
  8
0
  6
Continuous
 62
     7
370
    18
100
AcDbLine
 10
149.9163728456568
 20
-138.9694543431024
 30
0.0
 11
151.9163728456568
 21
-138.9694543431024
 31
0.0
  0
LINE
  5
1DA
330
1F
100
AcDbEntity
  8
0
  6
Continuous
 62
     7
370
    18
100
AcDbLine
 10
151.9163728456568
 20
-135.5694543431024
 30
0.0
 11
151.9163728456568
 21
-138.9694543431024
 31
0.0
  0
LINE
  5
1DB
330
1F
100
AcDbEntity
  8
0
  6
Continuous
 62
     7
370
    18
100
AcDbLine
 10
150.1163728456568
 20
-135.5694543431024
 30
0.0
 11
151.9163728456568
 21
-135.5694543431024
 31
0.0
  0
LINE
  5
1DC
330
1F
100
AcDbEntity
  8
0
  6
Continuous
 62
     7
370
    18
100
AcDbLine
 10
151.9163728456568
 20
-133.1694543431024
 30
0.0
 11
153.8163728456568
 21
-133.1694543431024
 31
0.0
  0
LINE
  5
1DD
330
1F
100
AcDbEntity
  8
0
  6
Continuous
 62
     7
370
    18
100
AcDbLine
 10
150.1163728456568
 20
-134.3694543431024
 30
0.0
 11
151.9163728456568
 21
-134.3694543431024
 31
0.0
  0
LINE
  5
1DE
330
1F
100
AcDbEntity
  8
0
  6
Continuous
 62
     7
370
    18
100
AcDbLine
 10
146.1163728456568
 20
-140.9305456568976
 30
0.0
 11
147.7163728456568
 21
-140.9305456568976
 31
0.0
  0
LINE
  5
1DF
330
1F
100
AcDbEntity
  8
0
  6
Continuous
 62
     7
370
    18
100
AcDbLine
 10
155.9163728456568
 20
-138.9694543431024
 30
0.0
 11
155.9163728456568
 21
-140.9305456568976
 31
0.0
  0
LINE
  5
1E0
330
1F
100
AcDbEntity
  8
0
  6
Continuous
 62
     7
370
    18
100
AcDbLine
 10
138.5163728456568
 20
-139.3305456568976
 30
0.0
 11
138.3163728456569
 21
-139.1305456568977
 31
0.0
  0
LINE
  5
1E1
330
1F
100
AcDbEntity
  8
0
  6
Continuous
 62
     7
370
    18
100
AcDbLine
 10
153.8163728456568
 20
-133.1694543431024
 30
0.0
 11
153.8163728456568
 21
-134.3694543431024
 31
0.0
  0
LINE
  5
1E2
330
1F
100
AcDbEntity
  8
0
  6
Continuous
 62
     7
370
    18
100
AcDbLine
 10
155.4163728456568
 20
-134.3694543431024
 30
0.0
 11
155.4163728456568
 21
-135.5694543431024
 31
0.0
  0
LINE
  5
1E3
330
1F
100
AcDbEntity
  8
0
  6
Continuous
 62
     7
370
    18
100
AcDbLine
 10
149.9163728456568
 20
-138.9694543431024
 30
0.0
 11
149.9163728456568
 21
-140.9305456568976
 31
0.0
  0
LINE
  5
1E4
330
1F
100
AcDbEntity
  8
0
  6
Continuous
 62
     7
370
    18
100
AcDbLine
 10
142.7163728456568
 20
-140.1305456568976
 30
0.0
 11
142.7163728456568
 21
-140.9305456568976
 31
0.0
  0
LINE
  5
1E5
330
1F
100
AcDbEntity
  8
0
  6
Continuous
 62
     7
370
    18
100
AcDbLine
 10
151.9163728456568
 20
-133.1694543431024
 30
0.0
 11
151.9163728456568
 21
-134.3694543431024
 31
0.0
  0
LINE
  5
1E6
330
1F
100
AcDbEntity
  8
0
  6
Continuous
 62
     7
370
    18
100
AcDbLine
 10
135.1163728456567
 20
-139.1305456568975
 30
0.0
 11
134.7163728456567
 21
-139.9305456568976
 31
0.0
  0
LINE
  5
1E7
330
1F
100
AcDbEntity
  8
0
  6
Continuous
 62
     7
370
    18
100
AcDbLine
 10
135.1163728456568
 20
-139.1305456568976
 30
0.0
 11
138.3163728456568
 21
-139.1305456568976
 31
0.0
  0
LINE
  5
1E8
330
1F
100
AcDbEntity
  8
0
  6
Continuous
 62
     7
370
    18
100
AcDbLine
 10
140.9163728456568
 20
-139.1305456568976
 30
0.0
 11
142.7163728456568
 21
-139.1305456568976
 31
0.0
  0
LINE
  5
1E9
330
1F
100
AcDbEntity
  8
0
  6
Continuous
 62
     7
370
    18
100
AcDbLine
 10
132.7163728456567
 20
-139.1305456568975
 30
0.0
 11
131.7163728456567
 21
-140.9305456568975
 31
0.0
  0
LINE
  5
1EA
330
1F
100
AcDbEntity
  8
0
  6
Continuous
 62
     7
370
    18
100
AcDbLine
 10
150.1163728456568
 20
-134.3694543431024
 30
0.0
 11
150.1163728456568
 21
-135.5694543431024
 31
0.0
  0
LINE
  5
1EB
330
1F
100
AcDbEntity
  8
0
  6
Continuous
 62
     7
370
    18
100
AcDbLine
 10
142.7163728456568
 20
-134.9305456568976
 30
0.0
 11
142.7163728456568
 21
-136.1305456568976
 31
0.0
  0
LINE
  5
1EC
330
1F
100
AcDbEntity
  8
0
  6
Continuous
 62
     7
370
    18
100
AcDbLine
 10
130.7163728456568
 20
-134.9305456568976
 30
0.0
 11
130.7163728456568
 21
-136.1305456568976
 31
0.0
  0
LINE
  5
1ED
330
1F
100
AcDbEntity
  8
0
  6
Continuous
 62
     7
370
    18
100
AcDbLine
 10
149.5163728456568
 20
-137.5305456568976
 30
0.0
 11
149.5163728456568
 21
-138.5305456568976
 31
0.0
  0
LINE
  5
1EE
330
1F
100
AcDbEntity
  8
0
  6
Continuous
 62
     7
370
    18
100
AcDbLine
 10
146.1163728456568
 20
-133.1694543431024
 30
0.0
 11
146.1163728456568
 21
-134.3694543431024
 31
0.0
  0
LINE
  5
1EF
330
1F
100
AcDbEntity
  8
0
  6
Continuous
 62
     7
370
    18
100
AcDbLine
 10
130.7163728456568
 20
-136.1331447746538
 30
0.0
 11
130.9443544232267
 21
-136.1331447746538
 31
0.0
  0
LINE
  5
1F0
330
1F
100
AcDbEntity
  8
0
  6
Continuous
 62
     7
370
    18
100
AcDbLine
 10
147.7163728456568
 20
-138.0305456568976
 30
0.0
 11
147.7163728456568
 21
-140.9305456568976
 31
0.0
  0
LINE
  5
1F1
330
1F
100
AcDbEntity
  8
0
  6
Continuous
 62
     7
370
    18
100
AcDbLine
 10
134.7163728456568
 20
-139.9305456568976
 30
0.0
 11
136.4092420950863
 21
-139.9305456568976
 31
0.0
  0
LINE
  5
1F2
330
1F
100
AcDbEntity
  8
0
  6
Continuous
 62
     7
370
    18
100
AcDbLine
 10
130.7163728456568
 20
-139.1305456568976
 30
0.0
 11
132.7163728456568
 21
-139.1305456568976
 31
0.0
  0
LINE
  5
1F3
330
1F
100
AcDbEntity
  8
0
  6
Continuous
 62
     7
370
    18
100
AcDbLine
 10
130.7163728456568
 20
-138.1305456568976
 30
0.0
 11
142.7163728456568
 21
-138.1305456568976
 31
0.0
  0
LINE
  5
1F4
330
1F
100
AcDbEntity
  8
0
  6
Continuous
 62
     7
370
    18
100
AcDbLine
 10
132.1163728456568
 20
-137.5305456568976
 30
0.0
 11
140.7163728456568
 21
-137.5305456568976
 31
0.0
  0
LINE
  5
1F5
330
1F
100
AcDbEntity
  8
0
  6
Continuous
 62
     7
370
    18
100
AcDbLine
 10
141.4495181016829
 20
-136.1331447746538
 30
0.0
 11
142.7163728456568
 21
-136.1331447746538
 31
0.0
  0
LINE
  5
1F6
330
1F
100
AcDbEntity
  8
0
  6
Continuous
 62
     7
370
    18
100
AcDbLine
 10
132.1163728456568
 20
-136.5305456568976
 30
0.0
 11
140.7163728456568
 21
-136.5305456568976
 31
0.0
  0
LINE
  5
1F7
330
1F
100
AcDbEntity
  8
0
  6
Continuous
 62
     7
370
    18
100
AcDbLine
 10
140.7163728456568
 20
-136.5305456568976
 30
0.0
 11
140.7163728456568
 21
-137.5305456568976
 31
0.0
  0
LINE
  5
1F8
330
1F
100
AcDbEntity
  8
0
  6
Continuous
 62
     7
370
    18
100
AcDbLine
 10
132.1163728456568
 20
-136.5305456568976
 30
0.0
 11
132.1163728456568
 21
-137.5305456568976
 31
0.0
  0
LINE
  5
1F9
330
1F
100
AcDbEntity
  8
0
  6
Continuous
 62
     7
370
    18
100
AcDbLine
 10
142.7163728456568
 20
-138.1305456568976
 30
0.0
 11
142.7163728456568
 21
-139.1305456568976
 31
0.0
  0
LINE
  5
1FA
330
1F
100
AcDbEntity
  8
0
  6
Continuous
 62
     7
370
    18
100
AcDbLine
 10
130.7163728456568
 20
-138.1305456568976
 30
0.0
 11
130.7163728456568
 21
-139.1305456568976
 31
0.0
  0
LINE
  5
1FB
330
1F
100
AcDbEntity
  8
0
  6
Continuous
 62
     7
370
    18
100
AcDbLine
 10
142.2786428876944
 20
-134.9465342528391
 30
0.0
 11
142.7163728456568
 21
-134.9465342528391
 31
0.0
  0
LINE
  5
1FC
330
1F
100
AcDbEntity
  8
0
  6
Continuous
 62
     7
370
    18
100
AcDbLine
 10
134.4163728456568
 20
-133.1694543431024
 30
0.0
 11
138.0163728456568
 21
-133.1694543431024
 31
0.0
  0
LINE
  5
1FD
330
1F
100
AcDbEntity
  8
0
  6
Continuous
 62
     7
370
    18
100
AcDbLine
 10
104.8463728456568
 20
-140.9305456568976
 30
0.0
 11
106.4463728456568
 21
-140.9305456568976
 31
0.0
  0
LINE
  5
1FE
330
1F
100
AcDbEntity
  8
0
  6
Continuous
 62
     7
370
    18
100
AcDbLine
 10
110.6463728456568
 20
-140.9305456568976
 30
0.0
 11
112.4463728456568
 21
-140.9305456568976
 31
0.0
  0
LINE
  5
1FF
330
1F
100
AcDbEntity
  8
0
  6
Continuous
 62
     7
370
    18
100
AcDbLine
 10
127.6963728456568
 20
-138.2305456568976
 30
0.0
 11
129.1963728456568
 21
-138.2305456568976
 31
0.0
  0
LINE
  5
200
330
1F
100
AcDbEntity
  8
0
  6
Continuous
 62
     7
370
    18
100
AcDbLine
 10
126.2963728456568
 20
-135.3694543431024
 30
0.0
 11
129.2163728456568
 21
-135.3694543431024
 31
0.0
  0
LINE
  5
201
330
1F
100
AcDbEntity
  8
0
  6
Continuous
 62
     7
370
    18
100
AcDbLine
 10
127.6963728456568
 20
-133.1694543431024
 30
0.0
 11
129.2163728456568
 21
-133.1694543431024
 31
0.0
  0
LINE
  5
202
330
1F
100
AcDbEntity
  8
0
  6
Continuous
 62
     7
370
    18
100
AcDbLine
 10
121.4463728456568
 20
-137.4694543431024
 30
0.0
 11
123.2463728456568
 21
-137.4694543431024
 31
0.0
  0
LINE
  5
203
330
1F
100
AcDbEntity
  8
0
  6
Continuous
 62
     7
370
    18
100
AcDbLine
 10
116.6463728456568
 20
-137.4694543431024
 30
0.0
 11
119.3463728456568
 21
-137.4694543431024
 31
0.0
  0
LINE
  5
204
330
1F
100
AcDbEntity
  8
0
  6
Continuous
 62
     7
370
    18
100
AcDbLine
 10
116.6463728456568
 20
-135.3694543431024
 30
0.0
 11
116.6463728456568
 21
-134.3694543431024
 31
0.0
  0
LINE
  5
205
330
1F
100
AcDbEntity
  8
0
  6
Continuous
 62
     7
370
    18
100
AcDbLine
 10
124.1463728456568
 20
-140.9305456568976
 30
0.0
 11
126.2963728456568
 21
-140.9305456568976
 31
0.0
  0
LINE
  5
206
330
1F
100
AcDbEntity
  8
0
  6
Continuous
 62
     7
370
    18
100
AcDbLine
 10
121.4463728456568
 20
-138.8694543431024
 30
0.0
 11
123.2463728456568
 21
-138.8694543431024
 31
0.0
  0
LINE
  5
207
330
1F
100
AcDbEntity
  8
0
  6
Continuous
 62
     7
370
    18
100
AcDbLine
 10
116.6463728456568
 20
-138.8694543431024
 30
0.0
 11
116.6463728456568
 21
-140.9305456568976
 31
0.0
  0
LINE
  5
208
330
1F
100
AcDbEntity
  8
0
  6
Continuous
 62
     7
370
    18
100
AcDbLine
 10
124.1463728456568
 20
-135.3694543431024
 30
0.0
 11
124.1463728456568
 21
-140.9305456568976
 31
0.0
  0
LINE
  5
209
330
1F
100
AcDbEntity
  8
0
  6
Continuous
 62
     7
370
    18
100
AcDbLine
 10
116.6463728456568
 20
-138.8694543431024
 30
0.0
 11
119.3463728456568
 21
-138.8694543431024
 31
0.0
  0
LINE
  5
20A
330
1F
100
AcDbEntity
  8
0
  6
Continuous
 62
     7
370
    18
100
AcDbLine
 10
123.2463728456568
 20
-138.8694543431024
 30
0.0
 11
123.2463728456568
 21
-140.1305456568976
 31
0.0
  0
LINE
  5
20B
330
1F
100
AcDbEntity
  8
0
  6
Continuous
 62
     7
370
    18
100
AcDbLine
 10
126.2963728456568
 20
-135.3694543431024
 30
0.0
 11
126.2963728456568
 21
-139.9305456568976
 31
0.0
  0
LINE
  5
20C
330
1F
100
AcDbEntity
  8
0
  6
Continuous
 62
     7
370
    18
100
AcDbLine
 10
121.4463728456568
 20
-137.4694543431024
 30
0.0
 11
121.4463728456568
 21
-138.8694543431024
 31
0.0
  0
LINE
  5
20D
330
1F
100
AcDbEntity
  8
0
  6
Continuous
 62
     7
370
    18
100
AcDbLine
 10
119.3463728456568
 20
-137.4694543431024
 30
0.0
 11
119.3463728456568
 21
-138.8694543431024
 31
0.0
  0
LINE
  5
20E
330
1F
100
AcDbEntity
  8
0
  6
Continuous
 62
     7
370
    18
100
AcDbLine
 10
126.2963728456568
 20
-134.3694543431024
 30
0.0
 11
127.6963728456568
 21
-134.3694543431024
 31
0.0
  0
LINE
  5
20F
330
1F
100
AcDbEntity
  8
0
  6
Continuous
 62
     7
370
    18
100
AcDbLine
 10
115.2463728456568
 20
-136.1694543431024
 30
0.0
 11
115.2463728456568
 21
-137.2694543431024
 31
0.0
  0
LINE
  5
210
330
1F
100
AcDbEntity
  8
0
  6
Continuous
 62
     7
370
    18
100
AcDbLine
 10
116.6463728456568
 20
-136.5694543431024
 30
0.0
 11
116.6463728456568
 21
-137.4694543431024
 31
0.0
  0
LINE
  5
211
330
1F
100
AcDbEntity
  8
0
  6
Continuous
 62
     7
370
    18
100
AcDbLine
 10
131.7163728456568
 20
-140.9305456568976
 30
0.0
 11
135.1971892572037
 21
-140.9305456568976
 31
0.0
  0
LINE
  5
212
330
1F
100
AcDbEntity
  8
0
  6
Continuous
 62
     7
370
    18
100
AcDbLine
 10
116.6463728456568
 20
-136.5694543431024
 30
0.0
 11
123.2463728456568
 21
-136.5694543431024
 31
0.0
  0
LINE
  5
213
330
1F
100
AcDbEntity
  8
0
  6
Continuous
 62
     7
370
    18
100
AcDbLine
 10
104.8463728456568
 20
-138.5569023297954
 30
0.0
 11
104.8463728456568
 21
-140.9305456568976
 31
0.0
  0
LINE
  5
214
330
1F
100
AcDbEntity
  8
0
  6
Continuous
 62
     7
370
    18
100
AcDbLine
 10
115.2463728456568
 20
-139.9305456568976
 30
0.0
 11
115.2463728456568
 21
-140.9305456568976
 31
0.0
  0
LINE
  5
215
330
1F
100
AcDbEntity
  8
0
  6
Continuous
 62
     7
370
    18
100
AcDbLine
 10
107.8463728456568
 20
-139.7305456568976
 30
0.0
 11
107.8463728456568
 21
-140.9305456568976
 31
0.0
  0
LINE
  5
216
330
1F
100
AcDbEntity
  8
0
  6
Continuous
 62
     7
370
    18
100
AcDbLine
 10
102.8463728456568
 20
-138.8038225185832
 30
0.0
 11
102.8463728456568
 21
-139.9569023297954
 31
0.0
  0
LINE
  5
217
330
1F
100
AcDbEntity
  8
0
  6
Continuous
 62
     7
370
    18
100
AcDbLine
 10
106.4463728456568
 20
-135.3694543431024
 30
0.0
 11
107.6463728456568
 21
-135.3694543431024
 31
0.0
  0
LINE
  5
218
330
1F
100
AcDbEntity
  8
0
  6
Continuous
 62
     7
370
    18
100
AcDbLine
 10
112.4463728456568
 20
-135.3694543431024
 30
0.0
 11
115.0463728456568
 21
-135.3694543431024
 31
0.0
  0
LINE
  5
219
330
1F
100
AcDbEntity
  8
0
  6
Continuous
 62
     7
370
    18
100
AcDbLine
 10
113.9463728456568
 20
-137.2694543431024
 30
0.0
 11
115.2463728456568
 21
-137.2694543431024
 31
0.0
  0
LINE
  5
21A
330
1F
100
AcDbEntity
  8
0
  6
Continuous
 62
     7
370
    18
100
AcDbLine
 10
112.4463728456568
 20
-136.1694543431024
 30
0.0
 11
115.2463728456568
 21
-136.1694543431024
 31
0.0
  0
LINE
  5
21B
330
1F
100
AcDbEntity
  8
0
  6
Continuous
 62
     7
370
    18
100
AcDbLine
 10
112.4463728456568
 20
-139.1305456568976
 30
0.0
 11
112.4463728456568
 21
-140.9305456568976
 31
0.0
  0
LINE
  5
21C
330
1F
100
AcDbEntity
  8
0
  6
Continuous
 62
     7
370
    18
100
AcDbLine
 10
110.6463728456568
 20
-138.9305456568976
 30
0.0
 11
110.6463728456568
 21
-140.9305456568976
 31
0.0
  0
LINE
  5
21D
330
1F
100
AcDbEntity
  8
0
  6
Continuous
 62
     7
370
    18
100
AcDbLine
 10
108.1463728456568
 20
-136.1694543431024
 30
0.0
 11
108.1463728456568
 21
-137.2694543431024
 31
0.0
  0
LINE
  5
21E
330
1F
100
AcDbEntity
  8
0
  6
Continuous
 62
     7
370
    18
100
AcDbLine
 10
106.4463728456568
 20
-136.8694543431024
 30
0.0
 11
106.4463728456568
 21
-140.9305456568976
 31
0.0
  0
LINE
  5
21F
330
1F
100
AcDbEntity
  8
0
  6
Continuous
 62
     7
370
    18
100
AcDbLine
 10
104.4463728456568
 20
-138.5569023297954
 30
0.0
 11
104.8463728456568
 21
-138.5569023297954
 31
0.0
  0
LINE
  5
220
330
1F
100
AcDbEntity
  8
0
  6
Continuous
 62
     7
370
    18
100
AcDbLine
 10
107.6463728456568
 20
-136.1694543431024
 30
0.0
 11
107.6463728456568
 21
-137.2694543431024
 31
0.0
  0
LINE
  5
221
330
1F
100
AcDbEntity
  8
0
  6
Continuous
 62
     7
370
    18
100
AcDbLine
 10
108.1463728456568
 20
-135.3694543431024
 30
0.0
 11
110.6463728456568
 21
-135.3694543431024
 31
0.0
  0
LINE
  5
222
330
1F
100
AcDbEntity
  8
0
  6
Continuous
 62
     7
370
    18
100
AcDbLine
 10
112.4463728456568
 20
-134.3694543431024
 30
0.0
 11
115.0463728456568
 21
-134.3694543431024
 31
0.0
  0
LINE
  5
223
330
1F
100
AcDbEntity
  8
0
  6
Continuous
 62
     7
370
    18
100
AcDbLine
 10
109.7063728456568
 20
-134.3694543431024
 30
0.0
 11
110.6463728456568
 21
-134.3694543431024
 31
0.0
  0
LINE
  5
224
330
1F
100
AcDbEntity
  8
0
  6
Continuous
 62
     7
370
    18
100
AcDbLine
 10
110.6463728456568
 20
-133.1694543431024
 30
0.0
 11
112.4463728456568
 21
-133.1694543431024
 31
0.0
  0
LINE
  5
225
330
1F
100
AcDbEntity
  8
0
  6
Continuous
 62
     7
370
    18
100
AcDbLine
 10
106.4463728456568
 20
-134.3694543431024
 30
0.0
 11
107.6463728456568
 21
-134.3694543431024
 31
0.0
  0
LINE
  5
226
330
1F
100
AcDbEntity
  8
0
  6
Continuous
 62
     7
370
    18
100
AcDbLine
 10
106.4463728456568
 20
-136.8694543431025
 30
0.0
 11
107.6463728456568
 21
-137.2694543431024
 31
0.0
  0
LINE
  5
227
330
1F
100
AcDbEntity
  8
0
  6
Continuous
 62
     7
370
    18
100
AcDbLine
 10
106.4463728456569
 20
-135.3694543431023
 30
0.0
 11
107.6463728456568
 21
-136.1694543431023
 31
0.0
  0
LINE
  5
228
330
1F
100
AcDbEntity
  8
0
  6
Continuous
 62
     7
370
    18
100
AcDbLine
 10
112.4463728456568
 20
-135.3694543431024
 30
0.0
 11
112.4463728456568
 21
-136.1694543431024
 31
0.0
  0
LINE
  5
229
330
1F
100
AcDbEntity
  8
0
  6
Continuous
 62
     7
370
    18
100
AcDbLine
 10
108.1463728456568
 20
-133.1694543431024
 30
0.0
 11
108.1463728456568
 21
-135.3694543431024
 31
0.0
  0
LINE
  5
22A
330
1F
100
AcDbEntity
  8
0
  6
Continuous
 62
     7
370
    18
100
AcDbLine
 10
116.6463728456568
 20
-140.9305456568976
 30
0.0
 11
118.5000668278699
 21
-140.9305456568976
 31
0.0
  0
LINE
  5
22B
330
1F
100
AcDbEntity
  8
0
  6
Continuous
 62
     7
370
    18
100
AcDbLine
 10
124.1463728456568
 20
-133.1694543431024
 30
0.0
 11
126.2963728456568
 21
-133.1694543431024
 31
0.0
  0
LINE
  5
22C
330
1F
100
AcDbEntity
  8
0
  6
Continuous
 62
     7
370
    18
100
AcDbLine
 10
124.1463728456568
 20
-133.1694543431024
 30
0.0
 11
124.1463728456568
 21
-134.3694543431024
 31
0.0
  0
LINE
  5
22D
330
1F
100
AcDbEntity
  8
0
  6
Continuous
 62
     7
370
    18
100
AcDbLine
 10
108.1463728456568
 20
-137.2694543431024
 30
0.0
 11
109.4463728456568
 21
-137.2694543431024
 31
0.0
  0
LINE
  5
22E
330
1F
100
AcDbEntity
  8
0
  6
Continuous
 62
     7
370
    18
100
AcDbLine
 10
108.1463728456568
 20
-136.1694543431024
 30
0.0
 11
110.6463728456568
 21
-136.1694543431024
 31
0.0
  0
LINE
  5
22F
330
1F
100
AcDbEntity
  8
0
  6
Continuous
 62
     7
370
    18
100
AcDbLine
 10
110.6463728456568
 20
-135.3694543431024
 30
0.0
 11
110.6463728456568
 21
-136.1694543431024
 31
0.0
  0
LINE
  5
230
330
1F
100
AcDbEntity
  8
0
  6
Continuous
 62
     7
370
    18
100
AcDbLine
 10
129.2163728456568
 20
-133.1694543431024
 30
0.0
 11
129.2163728456568
 21
-135.3694543431024
 31
0.0
  0
LINE
  5
231
330
1F
100
AcDbEntity
  8
0
  6
Continuous
 62
     7
370
    18
100
AcDbLine
 10
127.6963728456568
 20
-133.1694543431024
 30
0.0
 11
127.6963728456568
 21
-134.3694543431024
 31
0.0
  0
LINE
  5
232
330
1F
100
AcDbEntity
  8
0
  6
Continuous
 62
     7
370
    18
100
AcDbLine
 10
126.2963728456568
 20
-133.1694543431024
 30
0.0
 11
126.2963728456568
 21
-134.3694543431024
 31
0.0
  0
LINE
  5
233
330
1F
100
AcDbEntity
  8
0
  6
Continuous
 62
     7
370
    18
100
AcDbLine
 10
116.6463728456568
 20
-134.3694543431024
 30
0.0
 11
124.1463728456568
 21
-134.3694543431024
 31
0.0
  0
LINE
  5
234
330
1F
100
AcDbEntity
  8
0
  6
Continuous
 62
     7
370
    18
100
AcDbLine
 10
116.6463728456568
 20
-135.3694543431024
 30
0.0
 11
124.1463728456568
 21
-135.3694543431024
 31
0.0
  0
LINE
  5
235
330
1F
100
AcDbEntity
  8
0
  6
Continuous
 62
     7
370
    18
100
AcDbLine
 10
116.6463728456568
 20
-137.4694543431024
 30
0.0
 11
119.3463728456568
 21
-137.4694543431024
 31
0.0
  0
LINE
  5
236
330
1F
100
AcDbEntity
  8
0
  6
Continuous
 62
     7
370
    18
100
AcDbLine
 10
115.0463728456568
 20
-134.3694543431024
 30
0.0
 11
115.0463728456568
 21
-135.3694543431024
 31
0.0
  0
LINE
  5
237
330
1F
100
AcDbEntity
  8
0
  6
Continuous
 62
     7
370
    18
100
AcDbLine
 10
144.1163728456568
 20
-137.5305456568976
 30
0.0
 11
144.1163728456568
 21
-138.5305456568976
 31
0.0
  0
LINE
  5
238
330
1F
100
AcDbEntity
  8
0
  6
Continuous
 62
     7
370
    18
100
AcDbLine
 10
105.0463728456568
 20
-133.1694543431024
 30
0.0
 11
106.4463728456568
 21
-133.1694543431024
 31
0.0
  0
LINE
  5
239
330
1F
100
AcDbEntity
  8
0
  6
Continuous
 62
     7
370
    18
100
AcDbLine
 10
109.7063728456568
 20
-133.1694543431024
 30
0.0
 11
109.7063728456568
 21
-134.3694543431024
 31
0.0
  0
LINE
  5
23A
330
1F
100
AcDbEntity
  8
0
  6
Continuous
 62
     7
370
    18
100
AcDbLine
 10
108.1463728456568
 20
-133.1694543431024
 30
0.0
 11
109.7063728456568
 21
-133.1694543431024
 31
0.0
  0
LINE
  5
23B
330
1F
100
AcDbEntity
  8
0
  6
Continuous
 62
     7
370
    18
100
AcDbLine
 10
110.6463728456568
 20
-133.1694543431024
 30
0.0
 11
110.6463728456568
 21
-134.3694543431024
 31
0.0
  0
LINE
  5
23C
330
1F
100
AcDbEntity
  8
0
  6
Continuous
 62
     7
370
    18
100
AcDbLine
 10
112.4463728456568
 20
-133.1694543431024
 30
0.0
 11
112.4463728456568
 21
-134.3694543431024
 31
0.0
  0
LINE
  5
23D
330
1F
100
AcDbEntity
  8
0
  6
Continuous
 62
     7
370
    18
100
AcDbLine
 10
107.6463728456568
 20
-134.3694543431024
 30
0.0
 11
107.6463728456568
 21
-135.3694543431024
 31
0.0
  0
LINE
  5
23E
330
1F
100
AcDbEntity
  8
0
  6
Continuous
 62
     7
370
    18
100
AcDbLine
 10
102.9463728456568
 20
-135.3694543431024
 30
0.0
 11
104.2463728456568
 21
-135.3694543431024
 31
0.0
  0
LINE
  5
23F
330
1F
100
AcDbEntity
  8
0
  6
Continuous
 62
     7
370
    18
100
AcDbLine
 10
75.94637284565683
 20
-136.5694543431024
 30
0.0
 11
79.30134639299503
 21
-136.5694543431024
 31
0.0
  0
LINE
  5
240
330
1F
100
AcDbEntity
  8
0
  6
Continuous
 62
     7
370
    18
100
AcDbLine
 10
81.94637284565683
 20
-133.1694543431024
 30
0.0
 11
88.04637284565682
 21
-133.1694543431024
 31
0.0
  0
LINE
  5
241
330
1F
100
AcDbEntity
  8
0
  6
Continuous
 62
     7
370
    18
100
AcDbLine
 10
75.94637284565683
 20
-136.5694543431023
 30
0.0
 11
75.94637284565683
 21
-138.3694543431024
 31
0.0
  0
LINE
  5
242
330
1F
100
AcDbEntity
  8
0
  6
Continuous
 62
     7
370
    18
100
AcDbLine
 10
102.9463728456568
 20
-134.3694543431024
 30
0.0
 11
105.0463728456568
 21
-134.3694543431024
 31
0.0
  0
LINE
  5
243
330
1F
100
AcDbEntity
  8
0
  6
Continuous
 62
     7
370
    18
100
AcDbLine
 10
75.94637284565683
 20
-138.3694543431024
 30
0.0
 11
78.25184431632228
 21
-138.3694543431024
 31
0.0
  0
LINE
  5
244
330
1F
100
AcDbEntity
  8
0
  6
Continuous
 62
     7
370
    18
100
AcDbLine
 10
83.94637284565683
 20
-136.5694543431024
 30
0.0
 11
83.94637284565683
 21
-138.3694543431024
 31
0.0
  0
LINE
  5
245
330
1F
100
AcDbEntity
  8
0
  6
Continuous
 62
     7
370
    18
100
AcDbLine
 10
82.00714767707265
 20
-134.7694543431024
 30
0.0
 11
85.64637284565683
 21
-134.7694543431024
 31
0.0
  0
LINE
  5
246
330
1F
100
AcDbEntity
  8
0
  6
Continuous
 62
     7
370
    18
100
AcDbLine
 10
123.2463728456568
 20
-136.5694543431024
 30
0.0
 11
123.2463728456568
 21
-137.4694543431024
 31
0.0
  0
LINE
  5
247
330
1F
100
AcDbEntity
  8
0
  6
Continuous
 62
     7
370
    18
100
AcDbLine
 10
106.4463728456568
 20
-133.1694543431024
 30
0.0
 11
106.4463728456568
 21
-134.3694543431024
 31
0.0
  0
LINE
  5
248
330
1F
100
AcDbEntity
  8
0
  6
Continuous
 62
     7
370
    18
100
AcDbLine
 10
94.24637284565682
 20
-137.7694543431024
 30
0.0
 11
97.44637284565684
 21
-137.7694543431024
 31
0.0
  0
LINE
  5
249
330
1F
100
AcDbEntity
  8
0
  6
Continuous
 62
     7
370
    18
100
AcDbLine
 10
90.04637284565682
 20
-137.1694543431024
 30
0.0
 11
101.4463728456568
 21
-137.1694543431024
 31
0.0
  0
LINE
  5
24A
330
1F
100
AcDbEntity
  8
0
  6
Continuous
 62
     7
370
    18
100
AcDbLine
 10
90.04637284565682
 20
-135.1694543431024
 30
0.0
 11
101.4463728456568
 21
-135.1694543431024
 31
0.0
  0
LINE
  5
24B
330
1F
100
AcDbEntity
  8
0
  6
Continuous
 62
     7
370
    18
100
AcDbLine
 10
101.4463728456568
 20
-135.1694543431024
 30
0.0
 11
101.4463728456568
 21
-137.1694543431024
 31
0.0
  0
LINE
  5
24C
330
1F
100
AcDbEntity
  8
0
  6
Continuous
 62
     7
370
    18
100
AcDbLine
 10
90.04637284565683
 20
-135.1694543431024
 30
0.0
 11
90.04637284565683
 21
-137.1694543431024
 31
0.0
  0
LINE
  5
24D
330
1F
100
AcDbEntity
  8
0
  6
Continuous
 62
     7
370
    18
100
AcDbLine
 10
88.04637284565683
 20
-133.1694543431024
 30
0.0
 11
88.04637284565683
 21
-139.9694543431024
 31
0.0
  0
LINE
  5
24E
330
1F
100
AcDbEntity
  8
0
  6
Continuous
 62
     7
370
    18
100
AcDbLine
 10
85.64637284565683
 20
-134.7694543431024
 30
0.0
 11
85.64637284565683
 21
-140.3694543431024
 31
0.0
  0
LINE
  5
24F
330
1F
100
AcDbEntity
  8
0
  6
Continuous
 62
     7
370
    18
100
AcDbLine
 10
74.08362715434316
 20
-134.7694543431024
 30
0.0
 11
79.54637284565682
 21
-134.7694543431024
 31
0.0
  0
LINE
  5
250
330
1F
100
AcDbEntity
  8
0
  6
Continuous
 62
     7
370
    18
100
AcDbLine
 10
79.54637284565683
 20
-131.5694543431023
 30
0.0
 11
79.54637284565683
 21
-133.1694543431024
 31
0.0
  0
LINE
  5
251
330
1F
100
AcDbEntity
  8
0
  6
Continuous
 62
     7
370
    18
100
AcDbLine
 10
81.94637284565683
 20
-131.5694543431023
 30
0.0
 11
81.94637284565683
 21
-133.1694543431024
 31
0.0
  0
LINE
  5
252
330
1F
100
AcDbEntity
  8
0
  6
Continuous
 62
     7
370
    18
100
AcDbLine
 10
79.54637284565682
 20
-131.5694543431024
 30
0.0
 11
81.94637284565683
 21
-131.5694543431024
 31
0.0
  0
LINE
  5
253
330
1F
100
AcDbEntity
  8
0
  6
Continuous
 62
     7
370
    18
100
AcDbLine
 10
74.08362715434318
 20
-133.1694543431024
 30
0.0
 11
74.08362715434318
 21
-134.7694543431024
 31
0.0
  0
LINE
  5
254
330
1F
100
AcDbEntity
  8
0
  6
Continuous
 62
     7
370
    18
100
AcDbLine
 10
74.08362715434316
 20
-133.1694543431024
 30
0.0
 11
79.54637284565682
 21
-133.1694543431024
 31
0.0
  0
LINE
  5
255
330
1F
100
AcDbEntity
  8
0
  6
Continuous
 62
     7
370
    18
100
AcDbLine
 10
81.53121405164808
 20
-136.5694543431024
 30
0.0
 11
83.94637284565683
 21
-136.5694543431024
 31
0.0
  0
LINE
  5
256
330
1F
100
AcDbEntity
  8
0
  6
Continuous
 62
     7
370
    18
100
AcDbLine
 10
105.0463728456568
 20
-133.1694543431024
 30
0.0
 11
105.0463728456568
 21
-134.3694543431024
 31
0.0
  0
LINE
  5
257
330
1F
100
AcDbEntity
  8
0
  6
Continuous
 62
     7
370
    18
100
AcDbLine
 10
102.9463728456568
 20
-134.3694543431024
 30
0.0
 11
102.9463728456568
 21
-135.3694543431024
 31
0.0
  0
LINE
  5
258
330
1F
100
AcDbEntity
  8
0
  6
Continuous
 62
     7
370
    18
100
AcDbLine
 10
80.48692822066201
 20
-138.3694543431024
 30
0.0
 11
83.94637284565683
 21
-138.3694543431024
 31
0.0
  0
LINE
  5
259
330
1F
100
AcDbEntity
  8
0
  6
Continuous
 62
     7
370
    18
100
AcDbLine
 10
140.7163728456568
 20
-140.9305456568976
 30
0.0
 11
142.7163728456568
 21
-140.9305456568976
 31
0.0
  0
LINE
  5
25A
330
1F
100
AcDbEntity
  8
0
  6
Continuous
 62
     7
370
    18
100
AcDbLine
 10
74.08362715434318
 20
-139.9842821983328
 30
0.0
 11
74.08362715434318
 21
-141.1694543431024
 31
0.0
  0
LINE
  5
25B
330
1F
100
AcDbEntity
  8
0
  6
Continuous
 62
     7
370
    18
100
AcDbLine
 10
98.0
 20
-117.5
 30
0.0
 11
98.0
 21
-128.5
 31
0.0
  0
LINE
  5
25C
330
1F
100
AcDbEntity
  8
0
  6
Continuous
 62
     7
370
    18
100
AcDbLine
 10
76.0
 20
-117.5
 30
0.0
 11
76.0
 21
-128.5
 31
0.0
  0
LINE
  5
25D
330
1F
100
AcDbEntity
  8
0
  6
Continuous
 62
     7
370
    18
100
AcDbLine
 10
75.0
 20
-95.5
 30
0.0
 11
75.0
 21
-117.5
 31
0.0
  0
LINE
  5
25E
330
1F
100
AcDbEntity
  8
0
  6
Continuous
 62
     7
370
    18
100
AcDbLine
 10
-88.60075685903502
 20
9.371996215704826
 30
0.0
 11
-88.60075685903502
 21
-8.328003784295175
 31
0.0
  0
LINE
  5
25F
330
1F
100
AcDbEntity
  8
0
  6
Continuous
 62
     7
370
    18
100
AcDbLine
 10
-78.600756859035
 20
6.771996215704832
 30
0.0
 11
-77.60075685903502
 21
6.771996215704832
 31
0.0
  0
LINE
  5
260
330
1F
100
AcDbEntity
  8
0
  6
Continuous
 62
     7
370
    18
100
AcDbLine
 10
-78.600756859035
 20
-5.728003784295169
 30
0.0
 11
-77.60075685903502
 21
-5.728003784295169
 31
0.0
  0
LINE
  5
261
330
1F
100
AcDbEntity
  8
0
  6
Continuous
 62
     7
370
    18
100
AcDbLine
 10
-78.60075685903502
 20
18.21207161787792
 30
0.0
 11
-78.60075685903502
 21
3.521996215704824
 31
0.0
  0
LINE
  5
262
330
1F
100
AcDbEntity
  8
0
  6
Continuous
 62
     7
370
    18
100
AcDbLine
 10
-85.00075685903499
 20
32.64108556768723
 30
0.0
 11
-85.00075685903499
 21
27.45795097440099
 31
0.0
  0
LINE
  5
263
330
1F
100
AcDbEntity
  8
0
  6
Continuous
 62
     7
370
    18
100
AcDbLine
 10
-82.40075685903503
 20
40.27199621570482
 30
0.0
 11
-82.40075685903503
 21
38.52199621570482
 31
0.0
  0
LINE
  5
264
330
1F
100
AcDbEntity
  8
0
  6
Continuous
 62
     7
370
    18
100
AcDbLine
 10
-86.60075685903502
 20
42.37199621570483
 30
0.0
 11
-86.60075685903502
 21
9.371996215704822
 31
0.0
  0
LINE
  5
265
330
1F
100
AcDbEntity
  8
0
  6
Continuous
 62
     7
370
    18
100
AcDbLine
 10
-86.60075685903502
 20
42.37199621570483
 30
0.0
 11
-86.60075685903502
 21
10.02389584420322
 31
0.0
  0
LINE
  5
266
330
1F
100
AcDbEntity
  8
0
  6
Continuous
 62
     7
370
    18
100
AcDbLine
 10
-85.600756859035
 20
-39.47800378429517
 30
0.0
 11
-82.400756859035
 21
-39.47800378429517
 31
0.0
  0
LINE
  5
267
330
1F
100
AcDbEntity
  8
0
  6
Continuous
 62
     7
370
    18
100
AcDbLine
 10
-85.60075685903502
 20
0.5219962157048244
 30
0.0
 11
-85.60075685903502
 21
-41.32800378429518
 31
0.0
  0
LINE
  5
268
330
1F
100
AcDbEntity
  8
0
  6
Continuous
 62
     7
370
    18
100
AcDbLine
 10
-86.600756859035
 20
42.37199621570483
 30
0.0
 11
-85.200756859035
 21
42.37199621570483
 31
0.0
  0
LINE
  5
269
330
1F
100
AcDbEntity
  8
0
  6
Continuous
 62
     7
370
    18
100
AcDbLine
 10
-86.600756859035
 20
-41.32800378429518
 30
0.0
 11
-85.600756859035
 21
-41.32800378429518
 31
0.0
  0
LINE
  5
26A
330
1F
100
AcDbEntity
  8
0
  6
Continuous
 62
     7
370
    18
100
AcDbLine
 10
-85.60075685903502
 20
30.64699621570482
 30
0.0
 11
-85.60075685903502
 21
9.582856419400802
 31
0.0
  0
LINE
  5
26B
330
1F
100
AcDbEntity
  8
0
  6
Continuous
 62
     7
370
    18
100
AcDbLine
 10
-85.00075685903501
 20
32.64108556768724
 30
0.0
 11
-84.600756859035
 21
32.64108556768724
 31
0.0
  0
LINE
  5
26C
330
1F
100
AcDbEntity
  8
0
  6
Continuous
 62
     7
370
    18
100
AcDbLine
 10
-86.60075685903499
 20
31.27199621570482
 30
0.0
 11
-85.00075685903499
 21
30.27199621570482
 31
0.0
  0
LINE
  5
26D
330
1F
100
AcDbEntity
  8
0
  6
Continuous
 62
     7
370
    18
100
AcDbLine
 10
-85.20075685903498
 20
42.37199621570483
 30
0.0
 11
-85.20075685903498
 21
40.52199621570482
 31
0.0
  0
LINE
  5
26E
330
1F
100
AcDbEntity
  8
0
  6
Continuous
 62
     7
370
    18
100
AcDbLine
 10
-84.60075685903502
 20
32.64108556768723
 30
0.0
 11
-84.60075685903502
 21
27.58192081353175
 31
0.0
  0
LINE
  5
26F
330
1F
100
AcDbEntity
  8
0
  6
Continuous
 62
     7
370
    18
100
AcDbLine
 10
-84.60075685903502
 20
37.32199621570482
 30
0.0
 11
-84.60075685903502
 21
35.27199621570482
 31
0.0
  0
LINE
  5
270
330
1F
100
AcDbEntity
  8
0
  6
Continuous
 62
     7
370
    18
100
AcDbLine
 10
-85.20075685903501
 20
40.52199621570484
 30
0.0
 11
-82.40075685903501
 21
40.27199621570484
 31
0.0
  0
LINE
  5
271
330
1F
100
AcDbEntity
  8
0
  6
Continuous
 62
     7
370
    18
100
AcDbLine
 10
-82.40075685903499
 20
38.5219962157048
 30
0.0
 11
-84.60075685903499
 21
37.3219962157048
 31
0.0
  0
LINE
  5
272
330
1F
100
AcDbEntity
  8
0
  6
Continuous
 62
     7
370
    18
100
AcDbLine
 10
-84.60075685903502
 20
35.27199621570485
 30
0.0
 11
-82.40075685903501
 21
34.02199621570485
 31
0.0
  0
LINE
  5
273
330
1F
100
AcDbEntity
  8
0
  6
Continuous
 62
     7
370
    18
100
AcDbLine
 10
-82.40075685903503
 20
34.02199621570484
 30
0.0
 11
-82.40075685903503
 21
31.52199621570482
 31
0.0
  0
LINE
  5
274
330
1F
100
AcDbEntity
  8
0
  6
Continuous
 62
     7
370
    18
100
AcDbLine
 10
-82.40075685903503
 20
31.52199621570486
 30
0.0
 11
-84.60075685903503
 21
30.52199621570487
 31
0.0
  0
LINE
  5
275
330
1F
100
AcDbEntity
  8
0
  6
Continuous
 62
     7
370
    18
100
AcDbLine
 10
-82.40075685903503
 20
0.5219962157048244
 30
0.0
 11
-82.40075685903503
 21
-39.47800378429518
 31
0.0
  0
LINE
  5
276
330
1F
100
AcDbEntity
  8
0
  6
Continuous
 62
     7
370
    18
100
AcDbLine
 10
-79.00075685903499
 20
18.08810177874716
 30
0.0
 11
-79.00075685903499
 21
3.921996215704825
 31
0.0
  0
LINE
  5
277
330
1F
100
AcDbEntity
  8
0
  6
Continuous
 62
     7
370
    18
100
AcDbLine
 10
-84.825485710881
 20
26.89242261884945
 30
0.0
 11
-79.17602800718905
 21
18.65363013429869
 31
0.0
  0
LINE
  5
278
330
1F
100
AcDbEntity
  8
0
  6
Continuous
 62
     7
370
    18
100
AcDbLine
 10
-84.42548571088098
 20
27.01639245798021
 30
0.0
 11
-78.77602800718903
 21
18.77759997342945
 31
0.0
  0
LINE
  5
279
330
1F
100
AcDbEntity
  8
0
  6
Continuous
 62
     7
370
    18
100
AcDbLine
 10
-82.400756859035
 20
3.921996215704837
 30
0.0
 11
-79.00075685903501
 21
3.921996215704837
 31
0.0
  0
LINE
  5
27A
330
1F
100
AcDbEntity
  8
0
  6
Continuous
 62
     7
370
    18
100
AcDbLine
 10
-78.60075685903499
 20
-17.47800378429508
 30
0.0
 11
-82.40075685903503
 21
-26.22800378429517
 31
0.0
  0
LINE
  5
27B
330
1F
100
AcDbEntity
  8
0
  6
Continuous
 62
     7
370
    18
100
AcDbLine
 10
-82.40075685903503
 20
3.921996215704825
 30
0.0
 11
-82.40075685903503
 21
3.521996215704824
 31
0.0
  0
LINE
  5
27C
330
1F
100
AcDbEntity
  8
0
  6
Continuous
 62
     7
370
    18
100
AcDbLine
 10
-82.400756859035
 20
3.521996215704832
 30
0.0
 11
-78.600756859035
 21
3.521996215704832
 31
0.0
  0
LINE
  5
27D
330
1F
100
AcDbEntity
  8
0
  6
Continuous
 62
     7
370
    18
100
AcDbLine
 10
-86.60075685903502
 20
0.5219962157048244
 30
0.0
 11
-86.60075685903502
 21
-41.32800378429518
 31
0.0
  0
LINE
  5
27E
330
1F
100
AcDbEntity
  8
0
  6
Continuous
 62
     7
370
    18
100
AcDbLine
 10
-71.68852690536014
 20
60.53144807370185
 30
0.0
 11
-61.49964216917923
 21
60.53144807370185
 31
0.0
  0
LINE
  5
27F
330
1F
100
AcDbEntity
  8
0
  6
Continuous
 62
     7
370
    18
100
AcDbLine
 10
-97.3125
 20
6.671996215704837
 30
0.0
 11
-80.39942272961815
 21
6.671996215704837
 31
0.0
  0
LINE
  5
280
330
1F
100
AcDbEntity
  8
0
  6
Continuous
 62
     7
370
    18
100
AcDbLine
 10
-79.00075685903499
 20
6.671996215704832
 30
0.0
 11
-87.19722161754973
 21
10.28696031821347
 31
0.0
  0
LINE
  5
281
330
1F
100
AcDbEntity
  8
0
  6
Continuous
 62
     7
370
    18
100
AcDbLine
 10
-76.60075685903502
 20
5.771996215704832
 30
0.0
 11
-76.60075685903502
 21
-4.728003784295169
 31
0.0
  0
LINE
  5
282
330
1F
100
AcDbEntity
  8
0
  6
Continuous
 62
     7
370
    18
100
AcDbLine
 10
-71.68852690536014
 20
59.53144807370185
 30
0.0
 11
-61.49964216917923
 21
59.53144807370185
 31
0.0
  0
LINE
  5
283
330
1F
100
AcDbEntity
  8
0
  6
Continuous
 62
     7
370
    18
100
AcDbLine
 10
-74.23566834170855
 20
-63.39675565326634
 30
0.0
 11
-61.98450816582915
 21
-63.39675565326634
 31
0.0
  0
LINE
  5
284
330
1F
100
AcDbEntity
  8
0
  6
Continuous
 62
     7
370
    18
100
AcDbLine
 10
-74.23566834170855
 20
-62.39675565326634
 30
0.0
 11
-61.98450816582915
 21
-62.39675565326634
 31
0.0
  0
LINE
  5
285
330
1F
100
AcDbEntity
  8
0
  6
Continuous
 62
     7
370
    18
100
AcDbLine
 10
-78.60075685903499
 20
0.5219962157048244
 30
0.0
 11
-78.60075685903499
 21
-17.47800378429508
 31
0.0
  0
LINE
  5
286
330
1F
100
AcDbEntity
  8
0
  6
Continuous
 62
     7
370
    18
100
AcDbLine
 10
-6.044896755177213
 20
-15.95796350026053
 30
0.0
 11
-6.044896755177213
 21
-29.59378253325268
 31
0.0
  0
LINE
  5
287
330
1F
100
AcDbEntity
  8
0
  6
Continuous
 62
     7
370
    18
100
AcDbLine
 10
-4.937533270377891
 20
-15.95796350026053
 30
0.0
 11
-4.937533270377891
 21
-29.59378253325268
 31
0.0
  0
ARC
  5
288
330
1F
100
AcDbEntity
  8
0
  6
Continuous
 62
     7
370
    18
100
AcDbCircle
 10
147.5753964745717
 20
-142.0280605928041
 30
0.0
 40
4.0
100
AcDbArc
 50
60.9715340609843
 51
87.98024394550768
  0
ARC
  5
289
330
1F
100
AcDbEntity
  8
0
  6
Continuous
 62
     7
370
    18
100
AcDbCircle
 10
144.9309728961217
 20
-134.0032477036166
 30
0.0
 40
4.6
100
AcDbArc
 50
318.8442436704028
 51
355.4338431265014
  0
ARC
  5
28A
330
1F
100
AcDbEntity
  8
0
  6
Continuous
 62
     7
370
    18
100
AcDbCircle
 10
148.1806138811
 20
-139.0190845339868
 30
0.0
 40
2.0
100
AcDbArc
 50
48.09638755561873
 51
83.86317369123302
  0
ARC
  5
28B
330
1F
100
AcDbEntity
  8
0
  6
Continuous
 62
     7
370
    18
100
AcDbCircle
 10
144.5835787514163
 20
-133.5524216486367
 30
0.0
 40
5.0
100
AcDbArc
 50
270.0
 51
287.8519707863945
  0
ARC
  5
28C
330
1F
100
AcDbEntity
  8
0
  6
Continuous
 62
     7
370
    18
100
AcDbCircle
 10
144.2999359294301
 20
-134.5361668241051
 30
0.0
 40
3.0
100
AcDbArc
 50
270.0
 51
339.8530457328942
  0
ARC
  5
28D
330
1F
100
AcDbEntity
  8
0
  6
Continuous
 62
     7
370
    18
100
AcDbCircle
 10
136.4092420950863
 20
-135.9305456568976
 30
0.0
 40
4.0
100
AcDbArc
 50
270.0
 51
301.7883306170518
  0
ARC
  5
28E
330
1F
100
AcDbEntity
  8
0
  6
Continuous
 62
     7
370
    18
100
AcDbCircle
 10
142.6490770106609
 20
-138.1316781598903
 30
0.0
 40
2.0
100
AcDbArc
 50
209.9625441683634
 51
271.9282476334827
  0
ARC
  5
28F
330
1F
100
AcDbEntity
  8
0
  6
Continuous
 62
     7
370
    18
100
AcDbCircle
 10
135.1971892572037
 20
-130.9305456568976
 30
0.0
 40
10.0
100
AcDbArc
 50
270.0
 51
293.073918065631
  0
ARC
  5
290
330
1F
100
AcDbEntity
  8
0
  6
Continuous
 62
     7
370
    18
100
AcDbCircle
 10
140.7163728456568
 20
-138.9305456568976
 30
0.0
 40
2.0
100
AcDbArc
 50
216.8698976458439
 51
270.0
  0
ARC
  5
291
330
1F
100
AcDbEntity
  8
0
  6
Continuous
 62
     7
370
    18
100
AcDbCircle
 10
130.1427444155
 20
-128.9580294012382
 30
0.0
 40
6.0
100
AcDbArc
 50
275.4861271989983
 51
315.4200248778122
  0
ARC
  5
292
330
1F
100
AcDbEntity
  8
0
  6
Continuous
 62
     7
370
    18
100
AcDbCircle
 10
142.2786428876944
 20
-128.9465342528391
 30
0.0
 40
6.0
100
AcDbArc
 50
224.7342935204538
 51
270.0
  0
ARC
  5
293
330
1F
100
AcDbEntity
  8
0
  6
Continuous
 62
     7
370
    18
100
AcDbCircle
 10
142.0583602832044
 20
-124.1486000941914
 30
0.0
 40
12.0
100
AcDbArc
 50
240.8674112692758
 51
267.0917440539539
  0
ARC
  5
294
330
1F
100
AcDbEntity
  8
0
  6
Continuous
 62
     7
370
    18
100
AcDbCircle
 10
130.9443544232267
 20
-126.1331447746538
 30
0.0
 40
10.0
100
AcDbArc
 50
270.0
 51
301.8165888069296
  0
ARC
  5
295
330
1F
100
AcDbEntity
  8
0
  6
Continuous
 62
     7
370
    18
100
AcDbCircle
 10
125.3785047405764
 20
-137.0372799144038
 30
0.0
 40
4.0
100
AcDbArc
 50
283.265695396094
 51
342.6434876261313
  0
ARC
  5
296
330
1F
100
AcDbEntity
  8
0
  6
Continuous
 62
     7
370
    18
100
AcDbCircle
 10
125.7075729563648
 20
-138.0191810421865
 30
0.0
 40
2.0
100
AcDbArc
 50
287.1215589227386
 51
353.9335213805733
  0
ARC
  5
297
330
1F
100
AcDbEntity
  8
0
  6
Continuous
 62
     7
370
    18
100
AcDbCircle
 10
117.5732198367634
 20
-120.9520333335269
 30
0.0
 40
20.0
100
AcDbArc
 50
272.6561723599371
 51
286.4786265979867
  0
ARC
  5
298
330
1F
100
AcDbEntity
  8
0
  6
Continuous
 62
     7
370
    18
100
AcDbCircle
 10
117.9350708718812
 20
-136.9689746339814
 30
0.0
 40
4.0
100
AcDbArc
 50
184.3081130703794
 51
227.7648830848148
  0
ARC
  5
299
330
1F
100
AcDbEntity
  8
0
  6
Continuous
 62
     7
370
    18
100
AcDbCircle
 10
115.8132740533973
 20
-136.970921555968
 30
0.0
 40
4.0
100
AcDbArc
 50
212.6772418063084
 51
261.8523056494763
  0
ARC
  5
29A
330
1F
100
AcDbEntity
  8
0
  6
Continuous
 62
     7
370
    18
100
AcDbCircle
 10
105.5267019278491
 20
-136.4718454815092
 30
0.0
 40
4.0
100
AcDbArc
 50
305.4447563754824
 51
348.4979955985226
  0
ARC
  5
29B
330
1F
100
AcDbEntity
  8
0
  6
Continuous
 62
     7
370
    18
100
AcDbCircle
 10
101.107071150831
 20
-136.3548432499945
 30
0.0
 40
4.0
100
AcDbArc
 50
295.7741858394136
 51
326.5976644920056
  0
ARC
  5
29C
330
1F
100
AcDbEntity
  8
0
  6
Continuous
 62
     7
370
    18
100
AcDbCircle
 10
105.9053906304749
 20
-135.2531705556429
 30
0.0
 40
6.0
100
AcDbArc
 50
288.8745432034554
 51
322.2008123804935
  0
ARC
  5
29D
330
1F
100
AcDbEntity
  8
0
  6
Continuous
 62
     7
370
    18
100
AcDbCircle
 10
98.26229630945778
 20
-134.9326156899224
 30
0.0
 40
6.0
100
AcDbArc
 50
319.8192422116139
 51
355.8248039544737
  0
ARC
  5
29E
330
1F
100
AcDbEntity
  8
0
  6
Continuous
 62
     7
370
    18
100
AcDbCircle
 10
74.55198398637199
 20
-135.0062663407956
 30
0.0
 40
5.0
100
AcDbArc
 50
264.6251462956196
 51
317.7290360759776
  0
ARC
  5
29F
330
1F
100
AcDbEntity
  8
0
  6
Continuous
 62
     7
370
    18
100
AcDbCircle
 10
89.68024381339878
 20
-130.6000995043927
 30
0.0
 40
10.56940911068407
100
AcDbArc
 50
247.5637467185126
 51
317.2881390123424
  0
ARC
  5
2A0
330
1F
100
AcDbEntity
  8
0
  6
Continuous
 62
     7
370
    18
100
AcDbCircle
 10
87.98836802382493
 20
-129.9696225724852
 30
0.0
 40
10.0
100
AcDbArc
 50
270.3323450119129
 51
308.7409648643439
  0
ARC
  5
2A1
330
1F
100
AcDbEntity
  8
0
  6
Continuous
 62
     7
370
    18
100
AcDbCircle
 10
74.67187081666829
 20
-133.7928718421244
 30
0.0
 40
7.4
100
AcDbArc
 50
337.9624692219032
 51
352.416518898312
  0
ARC
  5
2A2
330
1F
100
AcDbEntity
  8
0
  6
Continuous
 62
     7
370
    18
100
AcDbCircle
 10
74.55198398637199
 20
-135.0062663407956
 30
0.0
 40
5.0
100
AcDbArc
 50
341.7817433502872
 51
362.7146811743762
  0
ARC
  5
2A3
330
1F
100
AcDbEntity
  8
0
  6
Continuous
 62
     7
370
    18
100
AcDbCircle
 10
74.67187081666829
 20
-133.7928718421244
 30
0.0
 40
7.4
100
AcDbArc
 50
265.4406112814197
 51
321.7964493072675
  0
ARC
  5
2A4
330
1F
100
AcDbEntity
  8
0
  6
Continuous
 62
     7
370
    18
100
AcDbCircle
 10
-87.60075685903502
 20
9.371996215704826
 30
0.0
 40
1.0
100
AcDbArc
 50
66.20062481562552
 51
180.0
  0
ARC
  5
2A5
330
1F
100
AcDbEntity
  8
0
  6
Continuous
 62
     7
370
    18
100
AcDbCircle
 10
-87.60075685903502
 20
-8.328003784295163
 30
0.0
 40
1.0
100
AcDbArc
 50
180.0
 51
360.0
  0
ARC
  5
2A6
330
1F
100
AcDbEntity
  8
0
  6
Continuous
 62
     7
370
    18
100
AcDbCircle
 10
-80.00075685903499
 20
18.08810177874716
 30
0.0
 40
1.0
100
AcDbArc
 50
0.0
 51
34.43898930880372
  0
ARC
  5
2A7
330
1F
100
AcDbEntity
  8
0
  6
Continuous
 62
     7
370
    18
100
AcDbCircle
 10
-84.00075685903499
 20
27.457950974401
 30
0.0
 40
1.0
100
AcDbArc
 50
180.0
 51
214.4389893088037
  0
ARC
  5
2A8
330
1F
100
AcDbEntity
  8
0
  6
Continuous
 62
     7
370
    18
100
AcDbCircle
 10
-83.60075685903502
 20
27.58192081353175
 30
0.0
 40
1.0
100
AcDbArc
 50
180.0
 51
214.4389893088037
  0
ARC
  5
2A9
330
1F
100
AcDbEntity
  8
0
  6
Continuous
 62
     7
370
    18
100
AcDbCircle
 10
-79.60075685903502
 20
18.21207161787791
 30
0.0
 40
1.0
100
AcDbArc
 50
0.0
 51
34.43898930880372
  0
ARC
  5
2AA
330
1F
100
AcDbEntity
  8
0
  6
Continuous
 62
     7
370
    18
100
AcDbCircle
 10
-77.60075685903502
 20
-4.728003784295169
 30
0.0
 40
1.0
100
AcDbArc
 50
270.0
 51
360.0
  0
ARC
  5
2AB
330
1F
100
AcDbEntity
  8
0
  6
Continuous
 62
     7
370
    18
100
AcDbCircle
 10
-77.60075685903502
 20
5.771996215704832
 30
0.0
 40
1.0
100
AcDbArc
 50
0.0
 51
90.00000000000003
  0
LINE
  5
2AC
330
1F
100
AcDbEntity
  8
0
  6
Continuous
 62
     7
370
    13
100
AcDbLine
 10
-209.0
 20
144.0
 30
0.0
 11
208.0
 21
144.0
 31
0.0
  0
LINE
  5
2AD
330
1F
100
AcDbEntity
  8
0
  6
Continuous
 62
     7
370
    13
100
AcDbLine
 10
209.0
 20
144.0
 30
0.0
 11
209.0
 21
-144.0
 31
0.0
  0
ELLIPSE
  5
2AE
330
1F
100
AcDbEntity
  8
0
  6
Continuous
 62
     7
370
    13
100
AcDbEllipse
 10
-88.60075685903502
 20
0.5219962157048315
 30
0.0
 11
0.0
 21
-5.0
 31
0.0
210
0.0
220
0.0
230
1.0
 40
0.4
 41
1.570771073532012
 42
3.141567400325238
  0
LINE
  5
2AF
330
1F
100
AcDbEntity
  8
0
  6
CENTER
 62
     7
370
    13
100
AcDbLine
 10
-97.3125
 20
0.5219962157048315
 30
0.0
 11
-70.1875
 21
0.5219962157048315
 31
0.0
  0
TEXT
  5
2B0
330
1F
100
AcDbEntity
  8
0
 62
     7
100
AcDbText
 10
-42.88599956035614
 20
-142.1000000238419
 30
0.0
 40
3.200000047683716
  1
確　認
 41
0.6507341227548625
  7
FdaStyle0
 72
     5
 11
-34.20000064373016
 21
-142.1000000238419
 31
0.0
100
AcDbText
  0
TEXT
  5
2B1
330
1F
100
AcDbEntity
  8
0
 62
     7
100
AcDbText
 10
-133.0859980583191
 20
-142.1000000238419
 30
0.0
 40
3.200000047683716
  1
変　　更　　履　　歴
 41
0.6667094916067029
  7
FdaStyle0
 72
     5
 11
-102.0000021457672
 21
-142.1000000238419
 31
0.0
100
AcDbText
  0
TEXT
  5
2B2
330
1F
100
AcDbEntity
  8
0
 62
     7
100
AcDbText
 10
-22.88599956035614
 20
-142.1000000238419
 30
0.0
 40
3.200000047683716
  1
承　認
 41
0.6507341227548625
  7
FdaStyle0
 72
     5
 11
-14.20000064373016
 21
-142.1000000238419
 31
0.0
100
AcDbText
  0
TEXT
  5
2B3
330
1F
100
AcDbEntity
  8
0
 62
     7
100
AcDbText
 10
-194.7859987020493
 20
-142.1000000238419
 30
0.0
 40
3.200000047683716
  1
年　　月　　日
 41
0.6638857294227287
  7
FdaStyle0
 72
     5
 11
-173.3000015020371
 21
-142.1000000238419
 31
0.0
100
AcDbText
  0
TEXT
  5
2B4
330
1F
100
AcDbEntity
  8
0
 62
     7
100
AcDbText
 10
-62.88599956035614
 20
-142.1000000238419
 30
0.0
 40
3.200000047683716
  1
変　更
 41
0.6507341227548625
  7
FdaStyle0
 72
     5
 11
-54.20000064373016
 21
-142.1000000238419
 31
0.0
100
AcDbText
  0
TEXT
  5
2B5
330
1F
100
AcDbEntity
  8
0
 62
     7
100
AcDbText
 10
-7.722242474555969
 20
-113.2508988380432
 30
0.0
 40
3.200000047683716
  1
脂
 41
0.5952383613302554
  7
FdaStyle0
 72
     5
 11
-5.436527132987976
 21
-113.2508988380432
 31
0.0
100
AcDbText
  0
TEXT
  5
2B6
330
1F
100
AcDbEntity
  8
0
 62
     7
100
AcDbText
 10
16.67142677307129
 20
-141.4000000953675
 30
0.0
 40
4.800000190734863
  1
等級Ｂ
 41
0.650685111584705
  7
FdaStyle0
 72
     5
 11
29.7000002861023
 21
-141.4000000953675
 31
0.0
100
AcDbText
  0
TEXT
  5
2B7
330
1F
100
AcDbEntity
  8
0
 62
     7
100
AcDbText
 10
-3.532894670963287
 20
-109.5989422202111
 30
0.0
 40
1.600000023841858
  1
呼び寸法の区分
 41
0.6638419652258267
  7
FdaStyle0
 72
     5
 11
7.209963142871857
 21
-109.5989422202111
 31
0.0
100
AcDbText
  0
TEXT
  5
2B8
330
1F
100
AcDbEntity
  8
0
 62
     7
100
AcDbText
 10
14.35905784368515
 20
-108.1675861477852
 30
0.0
 40
1.600000023841858
  1
等　級
 41
0.6506851076699728
  7
FdaStyle0
 72
     5
 11
18.70191556215286
 21
-108.1675861477852
 31
0.0
100
AcDbText
  0
TEXT
  5
2B9
330
1F
100
AcDbEntity
  8
0
 62
     7
100
AcDbText
 10
-3.871705293655396
 20
-133.154494047165
 30
0.0
 40
2.099999904632568
  1
６００を越え１２００以下
 41
0.6677525546183235
  7
FdaStyle0
 72
     5
 11
20.72829282283783
 21
-133.154494047165
 31
0.0
100
AcDbText
  0
TEXT
  5
2BA
330
1F
100
AcDbEntity
  8
0
 62
     7
100
AcDbText
 10
22.35077750682831
 20
-133.467561364174
 30
0.0
 40
3.200000047683716
  1
２．０
 41
0.6506851076699728
  7
FdaStyle0
 72
     5
 11
31.03649294376373
 21
-133.467561364174
 31
0.0
100
AcDbText
  0
TEXT
  5
2BB
330
1F
100
AcDbEntity
  8
0
 62
     7
100
AcDbText
 10
33.24964034557343
 20
-133.467561364174
 30
0.0
 40
3.200000047683716
  1
４．０
 41
0.6506851076699728
  7
FdaStyle0
 72
     5
 11
41.93535578250885
 21
-133.467561364174
 31
0.0
100
AcDbText
  0
TEXT
  5
2BC
330
1F
100
AcDbEntity
  8
0
 62
     7
100
AcDbText
 10
44.30646026134491
 20
-133.467561364174
 30
0.0
 40
3.200000047683716
  1
８．０
 41
0.6506851076699728
  7
FdaStyle0
 72
     5
 11
52.99217569828033
 21
-133.467561364174
 31
0.0
100
AcDbText
  0
TEXT
  5
2BD
330
1F
100
AcDbEntity
  8
0
 62
     7
100
AcDbText
 10
-1.818296074867249
 20
-129.0476748943329
 30
0.0
 40
2.099999904632568
  1
３００を越え６００以下
 41
0.6672599764882174
  7
FdaStyle0
 72
     5
 11
20.68170487880707
 21
-129.0476748943329
 31
0.0
100
AcDbText
  0
TEXT
  5
2BE
330
1F
100
AcDbEntity
  8
0
 62
     7
100
AcDbText
 10
-1.818296074867249
 20
-125.098811864853
 30
0.0
 40
2.099999904632568
  1
１２０を越え３００以下
 41
0.6672599764882174
  7
FdaStyle0
 72
     5
 11
20.68170487880707
 21
-125.098811864853
 31
0.0
100
AcDbText
  0
TEXT
  5
2BF
330
1F
100
AcDbEntity
  8
0
 62
     7
100
AcDbText
 10
0.3140902323648334
 20
-121.0709712505341
 30
0.0
 40
2.099999904632568
  1
３０を越え１２０以下
 41
0.6666668575574051
  7
FdaStyle0
 72
     5
 11
20.71409116219729
 21
-121.0709712505341
 31
0.0
100
AcDbText
  0
TEXT
  5
2C0
330
1F
100
AcDbEntity
  8
0
 62
     7
100
AcDbText
 10
4.499885678291321
 20
-117.122107744217
 30
0.0
 40
2.099999904632568
  1
６を越え３０以下
 41
0.665024823877213
  7
FdaStyle0
 72
     5
 11
20.69988656044006
 21
-117.122107744217
 31
0.0
100
AcDbText
  0
TEXT
  5
2C1
330
1F
100
AcDbEntity
  8
0
 62
     7
100
AcDbText
 10
15.00386297702789
 20
-113.2522212266922
 30
0.0
 40
2.099999904632568
  1
６以下
 41
0.6506851468173462
  7
FdaStyle0
 72
     5
 11
20.70386373996735
 21
-113.2522212266922
 31
0.0
100
AcDbText
  0
TEXT
  5
2C2
330
1F
100
AcDbEntity
  8
0
 62
     7
100
AcDbText
 10
44.30646026134491
 20
-129.4397217035294
 30
0.0
 40
3.200000047683716
  1
４．０
 41
0.6506851076699728
  7
FdaStyle0
 72
     5
 11
52.99217569828033
 21
-129.4397217035294
 31
0.0
100
AcDbText
  0
TEXT
  5
2C3
330
1F
100
AcDbEntity
  8
0
 62
     7
100
AcDbText
 10
44.30646026134491
 20
-125.4908577203751
 30
0.0
 40
3.200000047683716
  1
２．０
 41
0.6506851076699728
  7
FdaStyle0
 72
     5
 11
52.99217569828033
 21
-125.4908577203751
 31
0.0
100
AcDbText
  0
TEXT
  5
2C4
330
1F
100
AcDbEntity
  8
0
 62
     7
100
AcDbText
 10
44.30646026134491
 20
-121.5419937372208
 30
0.0
 40
3.200000047683716
  1
０．８
 41
0.6506851076699728
  7
FdaStyle0
 72
     5
 11
52.99217569828033
 21
-121.5419937372208
 31
0.0
100
AcDbText
  0
TEXT
  5
2C5
330
1F
100
AcDbEntity
  8
0
 62
     7
100
AcDbText
 10
44.28546798229218
 20
-117.5026160478592
 30
0.0
 40
3.200000047683716
  1
０．４
 41
0.6506851076699728
  7
FdaStyle0
 72
     5
 11
52.9711834192276
 21
-117.5026160478592
 31
0.0
100
AcDbText
  0
TEXT
  5
2C6
330
1F
100
AcDbEntity
  8
0
 62
     7
100
AcDbText
 10
44.28546798229218
 20
-113.5474480390549
 30
0.0
 40
3.200000047683716
  1
０．２
 41
0.6506851076699728
  7
FdaStyle0
 72
     5
 11
52.9711834192276
 21
-113.5474480390549
 31
0.0
100
AcDbText
  0
TEXT
  5
2C7
330
1F
100
AcDbEntity
  8
0
 62
     7
100
AcDbText
 10
33.24964034557343
 20
-129.5186992883683
 30
0.0
 40
3.200000047683716
  1
２．０
 41
0.6506851076699728
  7
FdaStyle0
 72
     5
 11
41.93535578250885
 21
-129.5186992883683
 31
0.0
100
AcDbText
  0
TEXT
  5
2C8
330
1F
100
AcDbEntity
  8
0
 62
     7
100
AcDbText
 10
33.24964034557343
 20
-125.569835305214
 30
0.0
 40
3.200000047683716
  1
０．８
 41
0.6506851076699728
  7
FdaStyle0
 72
     5
 11
41.93535578250885
 21
-125.569835305214
 31
0.0
100
AcDbText
  0
TEXT
  5
2C9
330
1F
100
AcDbEntity
  8
0
 62
     7
100
AcDbText
 10
33.24927413463593
 20
-121.5215774774552
 30
0.0
 40
3.200000047683716
  1
０．４
 41
0.6506851076699728
  7
FdaStyle0
 72
     5
 11
41.93498957157135
 21
-121.5215774774552
 31
0.0
100
AcDbText
  0
TEXT
  5
2CA
330
1F
100
AcDbEntity
  8
0
 62
     7
100
AcDbText
 10
33.24927413463593
 20
-117.5664092302323
 30
0.0
 40
3.200000047683716
  1
０．２
 41
0.6506851076699728
  7
FdaStyle0
 72
     5
 11
41.93498957157135
 21
-117.5664092302323
 31
0.0
100
AcDbText
  0
TEXT
  5
2CB
330
1F
100
AcDbEntity
  8
0
 62
     7
100
AcDbText
 10
33.24964034557343
 20
-113.6442667245865
 30
0.0
 40
3.200000047683716
  1
０．１
 41
0.6506851076699728
  7
FdaStyle0
 72
     5
 11
41.93535578250885
 21
-113.6442667245865
 31
0.0
100
AcDbText
  0
TEXT
  5
2CC
330
1F
100
AcDbEntity
  8
0
 62
     7
100
AcDbText
 10
22.35077750682831
 20
-129.4397217035294
 30
0.0
 40
3.200000047683716
  1
０．８
 41
0.6506851076699728
  7
FdaStyle0
 72
     5
 11
31.03649294376373
 21
-129.4397217035294
 31
0.0
100
AcDbText
  0
TEXT
  5
2CD
330
1F
100
AcDbEntity
  8
0
 62
     7
100
AcDbText
 10
22.35077750682831
 20
-125.4908577203751
 30
0.0
 40
3.200000047683716
  1
０．４
 41
0.6506851076699728
  7
FdaStyle0
 72
     5
 11
31.03649294376373
 21
-125.4908577203751
 31
0.0
100
AcDbText
  0
TEXT
  5
2CE
330
1F
100
AcDbEntity
  8
0
 62
     7
100
AcDbText
 10
22.34066665172577
 20
-121.5853697061539
 30
0.0
 40
3.200000047683716
  1
０．２
 41
0.6506851076699728
  7
FdaStyle0
 72
     5
 11
31.02638208866119
 21
-121.5853697061539
 31
0.0
100
AcDbText
  0
TEXT
  5
2CF
330
1F
100
AcDbEntity
  8
0
 62
     7
100
AcDbText
 10
22.34066665172577
 20
-117.7577883005143
 30
0.0
 40
3.200000047683716
  1
０．１
 41
0.6506851076699728
  7
FdaStyle0
 72
     5
 11
31.02638208866119
 21
-117.7577883005143
 31
0.0
100
AcDbText
  0
TEXT
  5
2D0
330
1F
100
AcDbEntity
  8
0
 62
     7
100
AcDbText
 10
21.80168396234512
 20
-113.6194936037064
 30
0.0
 40
3.200000047683716
  1
０．０５
 41
0.540378468969913
  7
FdaStyle0
 72
     5
 11
31.28441882133484
 21
-113.6194936037064
 31
0.0
100
AcDbText
  0
TEXT
  5
2D1
330
1F
100
AcDbEntity
  8
0
 62
     7
100
AcDbText
 10
44.0940922498703
 20
-109.5284868478775
 30
0.0
 40
3.200000047683716
  1
Ｃ（
 41
0.6382980671213554
  7
FdaStyle0
 72
     5
 11
49.57980763912201
 21
-109.5284868478775
 31
0.0
100
AcDbText
  0
TEXT
  5
2D2
330
1F
100
AcDbEntity
  8
0
 62
     7
100
AcDbText
 10
51.06552118062973
 20
-105.1284866929055
 30
0.0
 40
1.600000023841858
  1
＋
 41
0.5952383613302554
  7
FdaStyle0
 72
     5
 11
52.20837885141373
 21
-105.1284866929055
 31
0.0
100
AcDbText
  0
TEXT
  5
2D3
330
1F
100
AcDbEntity
  8
0
 62
     7
100
AcDbText
 10
51.06552118062973
 20
-107.5284867882729
 30
0.0
 40
1.600000023841858
  1
－
 41
0.5952383613302554
  7
FdaStyle0
 72
     5
 11
52.20837885141373
 21
-107.5284867882729
 31
0.0
100
AcDbText
  0
TEXT
  5
2D4
330
1F
100
AcDbEntity
  8
0
 62
     7
100
AcDbText
 10
52.09409236907959
 20
-109.5284868478775
 30
0.0
 40
3.200000047683716
  1
）
 41
0.5952383613302554
  7
FdaStyle0
 72
     5
 11
54.37980771064758
 21
-109.5284868478775
 31
0.0
100
AcDbText
  0
TEXT
  5
2D5
330
1F
100
AcDbEntity
  8
0
 62
     7
100
AcDbText
 10
-7.786035656929016
 20
-117.2060667276383
 30
0.0
 40
3.200000047683716
  1
成
 41
0.5952383613302554
  7
FdaStyle0
 72
     5
 11
-5.500320315361023
 21
-117.2060667276383
 31
0.0
100
AcDbText
  0
TEXT
  5
2D6
330
1F
100
AcDbEntity
  8
0
 62
     7
100
AcDbText
 10
-7.722242474555969
 20
-121.6715790033341
 30
0.0
 40
3.200000047683716
  1
形
 41
0.5952383613302554
  7
FdaStyle0
 72
     5
 11
-5.436527132987976
 21
-121.6715790033341
 31
0.0
100
AcDbText
  0
TEXT
  5
2D7
330
1F
100
AcDbEntity
  8
0
 62
     7
100
AcDbText
 10
-7.849828839302063
 20
-125.818126320839
 30
0.0
 40
3.200000047683716
  1
加
 41
0.5952383613302554
  7
FdaStyle0
 72
     5
 11
-5.56411349773407
 21
-125.818126320839
 31
0.0
100
AcDbText
  0
TEXT
  5
2D8
330
1F
100
AcDbEntity
  8
0
 62
     7
100
AcDbText
 10
-7.849828839302063
 20
-130.0284668207169
 30
0.0
 40
3.200000047683716
  1
工
 41
0.5952383613302554
  7
FdaStyle0
 72
     5
 11
-5.56411349773407
 21
-130.0284668207169
 31
0.0
100
AcDbText
  0
TEXT
  5
2D9
330
1F
100
AcDbEntity
  8
0
 62
     7
100
AcDbText
 10
-0.9678707718849182
 20
-105.4802961349488
 30
0.0
 40
3.0
  1
普　通　寸　法　規　格：単位（ｍｍ）
 41
0.6695465203665082
  7
FdaStyle0
 72
     5
 11
52.17498296499252
 21
-105.4802961349488
 31
0.0
100
AcDbText
  0
TEXT
  5
2DA
330
1F
100
AcDbEntity
  8
0
 62
     7
100
AcDbText
 10
22.08549392223358
 20
-109.7198659181595
 30
0.0
 40
3.200000047683716
  1
Ａ（
 41
0.6382980671213554
  7
FdaStyle0
 72
     5
 11
27.57120931148529
 21
-109.7198659181595
 31
0.0
100
AcDbText
  0
TEXT
  5
2DB
330
1F
100
AcDbEntity
  8
0
 62
     7
100
AcDbText
 10
29.05692285299301
 20
-105.3198657631874
 30
0.0
 40
1.600000023841858
  1
＋
 41
0.5952383613302554
  7
FdaStyle0
 72
     5
 11
30.19978052377701
 21
-105.3198657631874
 31
0.0
100
AcDbText
  0
TEXT
  5
2DC
330
1F
100
AcDbEntity
  8
0
 62
     7
100
AcDbText
 10
29.05692285299301
 20
-107.7198658585549
 30
0.0
 40
1.600000023841858
  1
－
 41
0.5952383613302554
  7
FdaStyle0
 72
     5
 11
30.19978052377701
 21
-107.7198658585549
 31
0.0
100
AcDbText
  0
TEXT
  5
2DD
330
1F
100
AcDbEntity
  8
0
 62
     7
100
AcDbText
 10
30.08549404144287
 20
-109.7198659181595
 30
0.0
 40
3.200000047683716
  1
）
 41
0.5952383613302554
  7
FdaStyle0
 72
     5
 11
32.37120938301086
 21
-109.7198659181595
 31
0.0
100
AcDbText
  0
TEXT
  5
2DE
330
1F
100
AcDbEntity
  8
0
 62
     7
100
AcDbText
 10
33.18548095226288
 20
-109.7198659181595
 30
0.0
 40
3.200000047683716
  1
Ｂ（
 41
0.6382980671213554
  7
FdaStyle0
 72
     5
 11
38.67119634151459
 21
-109.7198659181595
 31
0.0
100
AcDbText
  0
TEXT
  5
2DF
330
1F
100
AcDbEntity
  8
0
 62
     7
100
AcDbText
 10
40.15690988302231
 20
-105.3198657631874
 30
0.0
 40
1.600000023841858
  1
＋
 41
0.5952383613302554
  7
FdaStyle0
 72
     5
 11
41.29976755380631
 21
-105.3198657631874
 31
0.0
100
AcDbText
  0
TEXT
  5
2E0
330
1F
100
AcDbEntity
  8
0
 62
     7
100
AcDbText
 10
40.15690988302231
 20
-107.7198658585549
 30
0.0
 40
1.600000023841858
  1
－
 41
0.5952383613302554
  7
FdaStyle0
 72
     5
 11
41.29976755380631
 21
-107.7198658585549
 31
0.0
100
AcDbText
  0
TEXT
  5
2E1
330
1F
100
AcDbEntity
  8
0
 62
     7
100
AcDbText
 10
41.18548107147217
 20
-109.7198659181595
 30
0.0
 40
3.200000047683716
  1
）
 41
0.5952383613302554
  7
FdaStyle0
 72
     5
 11
43.47119641304016
 21
-109.7198659181595
 31
0.0
100
AcDbText
  0
TEXT
  5
2E2
330
1F
100
AcDbEntity
  8
0
 62
     7
100
AcDbText
 10
-7.786035656929016
 20
-109.3595238924027
 30
0.0
 40
3.200000047683716
  1
樹
 41
0.5952383613302554
  7
FdaStyle0
 72
     5
 11
-5.500320315361023
 21
-109.3595238924027
 31
0.0
100
AcDbText
  0
TEXT
  5
2E3
330
1F
100
AcDbEntity
  8
0
 62
     7
100
AcDbText
 10
54.43266966730675
 20
-120.3869298064862
 30
0.0
 40
2.299999952316284
  1
承認
 41
0.8282208880597839
  7
FdaStyle0
 72
     5
 11
59.83266976267419
 21
-120.3869298064862
 31
0.0
100
AcDbText
  0
TEXT
  5
2E4
330
1F
100
AcDbEntity
  8
0
 62
     7
100
AcDbText
 10
142.1520598751473
 20
-87.43445270859417
 30
0.0
 40
2.299999952316284
  1
設計図番
 41
0.8404558677421614
  7
FdaStyle0
 72
     5
 11
153.9520600658822
 21
-87.43445270859417
 31
0.0
100
AcDbText
  0
TEXT
  5
2E5
330
1F
100
AcDbEntity
  8
0
 62
     7
100
AcDbText
 10
142.2325933361632
 20
-98.22593648471417
 30
0.0
 40
2.299999952316284
  1
図面番号
 41
0.8404558677421614
  7
FdaStyle0
 72
     5
 11
154.032593526898
 21
-98.22593648471417
 31
0.0
100
AcDbText
  0
TEXT
  5
2E6
330
1F
100
AcDbEntity
  8
0
 62
     7
100
AcDbText
 10
142.1520598751473
 20
-109.1784871828658
 30
0.0
 40
2.299999952316284
  1
縮　　尺
 41
0.8404558677421614
  7
FdaStyle0
 72
     5
 11
153.9520600658822
 21
-109.1784871828658
 31
0.0
100
AcDbText
  0
TEXT
  5
2E7
330
1F
100
AcDbEntity
  8
0
 62
     7
100
AcDbText
 10
142.313126797179
 20
-120.2921048030491
 30
0.0
 40
2.299999952316284
  1
設計年月日
 41
0.8426966561525857
  7
FdaStyle0
 72
     5
 11
157.3131270355976
 21
-120.2921048030491
 31
0.0
100
AcDbText
  0
TEXT
  5
2E8
330
1F
100
AcDbEntity
  8
0
 62
     7
100
AcDbText
 10
76.30004210336084
 20
-120.3122068114545
 30
0.0
 40
2.299999952316284
  1
検図
 41
0.8282208880597839
  7
FdaStyle0
 72
     5
 11
81.70004219872827
 21
-120.3122068114545
 31
0.0
100
AcDbText
  0
TEXT
  5
2E9
330
1F
100
AcDbEntity
  8
0
 62
     7
100
AcDbText
 10
98.39695456605294
 20
-120.3122068114545
 30
0.0
 40
2.299999952316284
  1
担当
 41
0.8282208880597839
  7
FdaStyle0
 72
     5
 11
103.7969546614204
 21
-120.3122068114545
 31
0.0
100
AcDbText
  0
TEXT
  5
2EA
330
1F
100
AcDbEntity
  8
0
 62
     7
100
AcDbText
 10
120.3245420290309
 20
-120.3968693113115
 30
0.0
 40
2.299999952316284
  1
製図
 41
0.8282208880597839
  7
FdaStyle0
 72
     5
 11
125.7245421243984
 21
-120.3968693113115
 31
0.0
100
AcDbText
  0
TEXT
  5
2EB
330
1F
100
AcDbEntity
  8
0
 62
     7
100
AcDbText
 10
58.67100018262863
 20
-103.4000000953674
 30
0.0
 40
4.800000190734863
  1
材　質
 41
0.6507341528484536
  7
FdaStyle0
 72
     5
 11
71.69999974966049
 21
-103.4000000953674
 31
0.0
100
AcDbText
  0
TEXT
  5
2EC
330
1F
100
AcDbEntity
  8
0
 62
     7
100
AcDbText
 10
58.67100018262863
 20
-114.4000000953674
 30
0.0
 40
4.800000190734863
  1
色　調
 41
0.6507341528484536
  7
FdaStyle0
 72
     5
 11
71.69999974966049
 21
-114.4000000953674
 31
0.0
100
AcDbText
  0
TEXT
  5
2ED
330
1F
100
AcDbEntity
  8
0
 62
     7
100
AcDbText
 10
142.9488341641786
 20
-126.3817839434399
 30
0.0
 40
3.200000047683716
  1
１９９８．８．３１
 41
0.6659820335704381
  7
FdaStyle0
 72
     5
 11
170.8348340821626
 21
-126.3817839434399
 31
0.0
100
AcDbText
  0
TEXT
  5
2EE
330
1F
100
AcDbEntity
  8
0
 62
     7
100
AcDbText
 10
63.23251991714074
 20
-93.49484399319147
 30
0.0
 40
4.800000190734863
  1
１１５Ａフタ
 41
0.6622962303766914
  7
FdaStyle0
 72
     5
 11
90.66151898349358
 21
-93.49484399319147
 31
0.0
100
AcDbText
  0
TEXT
  5
2EF
330
1F
100
AcDbEntity
  8
0
 62
     7
100
AcDbText
 10
146.6601452719184
 20
-104.2431883640524
 30
0.0
 40
4.800000190734863
  1
３１１００Ａ
 41
0.6622962303766914
  7
FdaStyle0
 72
     5
 11
174.0891443382712
 21
-104.2431883640524
 31
0.0
100
AcDbText
  0
TEXT
  5
2F0
330
1F
100
AcDbEntity
  8
0
 62
     7
100
AcDbText
 10
160.5438693087143
 20
-115.8529646979928
 30
0.0
 40
4.800000190734863
  1
１／１
 41
0.6507341528484536
  7
FdaStyle0
 72
     5
 11
173.5728688757461
 21
-115.8529646979928
 31
0.0
100
AcDbText
  0
TEXT
  5
2F1
330
1F
100
AcDbEntity
  8
0
 62
     7
100
AcDbText
 10
125.3368158390648
 20
-125.1671053585254
 30
0.0
 40
4.800000190734863
  1
スヤマ
 41
0.6507341528484536
  7
FdaStyle0
 72
     5
 11
138.3658154060966
 21
-125.1671053585254
 31
0.0
100
AcDbText
  0
TEXT
  5
2F2
330
1F
100
AcDbEntity
  8
0
 62
     7
100
AcDbText
 10
-59.45513880956531
 20
59.13348380828751
 30
0.0
 40
3.200000047683716
  1
１
 41
0.5953124946060902
  7
FdaStyle0
 72
     5
 11
-57.16913879621387
 21
59.13348380828751
 31
0.0
100
AcDbText
  0
TEXT
  5
2F3
330
1F
100
AcDbEntity
  8
0
 62
     7
100
AcDbText
 10
-163.6651105594395
 20
-135.1859296720831
 30
0.0
 40
3.200000047683716
  1
寸法変更・ツマミ部の形状変更
 41
0.6685658502551949
  7
FdaStyle0
 72
     5
 11
-119.7791107010602
 21
-135.1859296720831
 31
0.0
100
AcDbText
  0
TEXT
  5
2F4
330
1F
100
AcDbEntity
  8
0
 62
     7
100
AcDbText
 10
-199.6472713634597
 20
-135.1859296720831
 30
0.0
 40
3.200000047683716
  1
２００１．４．１０
 41
0.6659820335704381
  7
FdaStyle0
 72
     5
 11
-171.7612714454756
 21
-135.1859296720831
 31
0.0
100
AcDbText
  0
TEXT
  5
2F5
330
1F
100
AcDbEntity
  8
0
 62
     7
100
AcDbText
 10
-64.13998493129884
 20
-134.8031407273595
 30
0.0
 40
3.200000047683716
  1
藤　原
 41
0.6507341856978458
  7
FdaStyle0
 72
     5
 11
-55.45398494178926
 21
-134.8031407273595
 31
0.0
100
AcDbText
  0
TEXT
  5
2F6
330
1F
100
AcDbEntity
  8
0
 62
     7
100
AcDbText
 10
-59.9145731964029
 20
-63.8466025789273
 30
0.0
 40
3.200000047683716
  1
１
 41
0.5953124946060902
  7
FdaStyle0
 72
     5
 11
-57.62857318305146
 21
-63.8466025789273
 31
0.0
100
AcDbText
  0
TEXT
  5
2F7
330
1F
100
AcDbEntity
  8
0
 62
     7
100
AcDbText
 10
-206.7853235327348
 20
-135.4884081956524
 30
0.0
 40
3.200000047683716
  1
１
 41
0.5953124946060902
  7
FdaStyle0
 72
     5
 11
-204.4993235193834
 21
-135.4884081956524
 31
0.0
100
AcDbText
  0
TEXT
  5
2F8
330
1F
100
AcDbEntity
  8
0
 62
     7
100
AcDbText
 10
63.37628952327529
 20
-125.8960527269464
 30
0.0
 40
4.800000190734863
  1
伊藤
 41
0.638352298885561
  7
FdaStyle0
 72
     5
 11
71.60528925720016
 21
-125.8960527269464
 31
0.0
100
AcDbText
  0
TEXT
  5
2F9
330
1F
100
AcDbEntity
  8
0
 62
     7
100
AcDbText
 10
-3.6052270569065
 20
-12.26339755943631
 30
0.0
 40
3.0
  1
２
 50
90.0
 41
0.595312515894572
  7
FdaStyle0
 72
     5
 11
-3.6052270569065
 21
-10.12027250221585
 31
0.0
100
AcDbText
  0
TEXT
  5
2FA
330
1F
100
AcDbEntity
  8
0
 62
     7
100
AcDbText
 10
-41.41318448334565
 20
-135.1653462431132
 30
0.0
 40
3.299999952316284
  1
狩野
 41
0.6383523704532877
  7
FdaStyle0
 72
     5
 11
-35.75574680119385
 21
-135.1653462431132
 31
0.0
100
AcDbText
  0
TEXT
  5
2FB
330
1F
100
AcDbEntity
  8
0
 62
     7
100
AcDbText
 10
-20.65813321382534
 20
-135.1653462431132
 30
0.0
 40
3.299999952316284
  1
東
 41
0.5953125365379488
  7
FdaStyle0
 72
     5
 11
-18.30069560319912
 21
-135.1653462431132
 31
0.0
100
AcDbText
  0
TEXT
  5
2FC
330
1F
100
AcDbEntity
  8
0
 62
     7
100
AcDbText
 10
-206.5328431451038
 20
-128.8494797115939
 30
0.0
 40
3.0
  1
２
 41
0.595312515894572
  7
FdaStyle0
 72
     5
 11
-204.3897180878834
 21
-128.8494797115939
 31
0.0
100
AcDbText
  0
TEXT
  5
2FD
330
1F
100
AcDbEntity
  8
0
 62
     7
100
AcDbText
 10
-199.6363019120568
 20
-128.3324608772997
 30
0.0
 40
3.299999952316284
  1
２００４．６．８
 41
0.6650681896792758
  7
FdaStyle0
 72
     5
 11
-174.1788638007515
 21
-128.3324608772997
 31
0.0
100
AcDbText
  0
TEXT
  5
2FE
330
1F
100
AcDbEntity
  8
0
 62
     7
100
AcDbText
 10
-163.6172861476284
 20
-128.4992155799128
 30
0.0
 40
3.299999952316284
  1
寸法変更
 41
0.6566125585995349
  7
FdaStyle0
 72
     5
 11
-151.3598483224255
 21
-128.4992155799128
 31
0.0
100
AcDbText
  0
TEXT
  5
2FF
330
1F
100
AcDbEntity
  8
0
 62
     7
100
AcDbText
 10
-64.98499265069872
 20
-128.3670359974186
 30
0.0
 40
3.299999952316284
  1
木村　雅
 41
0.6566125585995349
  7
FdaStyle0
 72
     5
 11
-52.72755482549577
 21
-128.3670359974186
 31
0.0
100
AcDbText
  0
TEXT
  5
300
330
1F
100
AcDbEntity
  8
0
 62
     7
100
AcDbText
 10
78.35221937690746
 20
-103.4615761362046
 30
0.0
 40
4.199999809265137
  1
ＡＢＳ，ＳＵＳ３０４
 41
0.6667095863279235
  7
FdaStyle0
 72
     5
 11
119.1525937656022
 21
-103.4615761362046
 31
0.0
100
AcDbText
  0
TEXT
  5
301
330
1F
100
AcDbEntity
  8
0
 62
     7
100
AcDbText
 10
-4.196632024548045
 20
-27.14469032013503
 30
0.0
 40
3.0
  1
φ８０
 50
90.0
 41
0.6507341995848847
  7
FdaStyle0
 72
     5
 11
-4.196632024548045
 21
-19.00156538212386
 31
0.0
100
AcDbText
  0
TEXT
  5
302
330
1F
100
AcDbEntity
  8
0
 62
     7
100
AcDbText
 10
-41.41318448334565
 20
-128.1653462431132
 30
0.0
 40
3.299999952316284
  1
大西
 41
0.6383523704532877
  7
FdaStyle0
 72
     5
 11
-35.75574680119385
 21
-128.1653462431132
 31
0.0
100
AcDbText
  0
TEXT
  5
303
330
1F
100
AcDbEntity
  8
0
 62
     7
100
AcDbText
 10
-25.36320504026918
 20
-128.1040738889648
 30
0.0
 40
3.299999952316284
  1
松村
 41
0.6383523704532877
  7
FdaStyle0
 72
     5
 11
-19.70576735811738
 21
-128.1040738889648
 31
0.0
100
AcDbText
  0
INSERT
  5
304
330
1F
100
AcDbEntity
  8
0
  6
Continuous
100
AcDbBlockReference
  2
DC_GROUP_1
 10
0.0
 20
0.0
 30
0.0
  0
INSERT
  5
305
330
1F
100
AcDbEntity
  8
0
  6
Continuous
100
AcDbBlockReference
  2
DC_GROUP_2
 10
0.0
 20
0.0
 30
0.0
  0
INSERT
  5
306
330
1F
100
AcDbEntity
  8
0
  6
Continuous
100
AcDbBlockReference
  2
DC_GROUP_3
 10
0.0
 20
0.0
 30
0.0
  0
INSERT
  5
307
330
1F
100
AcDbEntity
  8
0
  6
Continuous
100
AcDbBlockReference
  2
DC_GROUP_4
 10
0.0
 20
0.0
 30
0.0
  0
INSERT
  5
308
330
1F
100
AcDbEntity
  8
0
  6
Continuous
100
AcDbBlockReference
  2
DC_GROUP_5
 10
0.0
 20
0.0
 30
0.0
  0
INSERT
  5
309
330
1F
100
AcDbEntity
  8
0
  6
Continuous
100
AcDbBlockReference
  2
DC_GROUP_6
 10
0.0
 20
0.0
 30
0.0
  0
INSERT
  5
30A
330
1F
100
AcDbEntity
  8
0
  6
Continuous
100
AcDbBlockReference
  2
DC_FILL_GROUP_7
 10
0.0
 20
0.0
 30
0.0
  0
INSERT
  5
30B
330
1F
100
AcDbEntity
  8
0
  6
Continuous
100
AcDbBlockReference
  2
DC_GROUP_8
 10
0.0
 20
0.0
 30
0.0
  0
INSERT
  5
30C
330
1F
100
AcDbEntity
  8
0
  6
Continuous
100
AcDbBlockReference
  2
DC_GROUP_9
 10
0.0
 20
0.0
 30
0.0
  0
INSERT
  5
30D
330
1F
100
AcDbEntity
  8
0
  6
Continuous
100
AcDbBlockReference
  2
DC_GROUP_10
 10
0.0
 20
0.0
 30
0.0
  0
HATCH
  5
30E
330
1F
100
AcDbEntity
  8
0
 62
     0
100
AcDbHatch
 10
0.0
 20
0.0
 30
0.0
210
0.0
220
0.0
230
1.0
  2
SOLID
 70
     1
 71
     0
 91
        1
 92
        0
 93
        1
 72
     2
 10
-85.20075685903498
 20
57.37199621570483
 40
0.5
 50
0.0
 51
0.0
 73
     1
 97
        0
 75
     0
 76
     1
 98
        0
  0
INSERT
  5
30F
330
1F
100
AcDbEntity
  8
Layer0014
  6
Continuous
100
AcDbBlockReference
  2
DA_IMAGEDIMGROUP_1
 10
0.0
 20
0.0
 30
0.0
  0
INSERT
  5
310
330
1F
100
AcDbEntity
  8
Layer0014
  6
Continuous
100
AcDbBlockReference
  2
DA_IMAGEDIMGROUP_2
 10
0.0
 20
0.0
 30
0.0
  0
INSERT
  5
311
330
1F
100
AcDbEntity
  8
Layer0014
  6
Continuous
100
AcDbBlockReference
  2
DA_IMAGEDIMGROUP_3
 10
0.0
 20
0.0
 30
0.0
  0
INSERT
  5
312
330
1F
100
AcDbEntity
  8
Layer0014
  6
Continuous
100
AcDbBlockReference
  2
DA_IMAGEDIMGROUP_4
 10
0.0
 20
0.0
 30
0.0
  0
INSERT
  5
313
330
1F
100
AcDbEntity
  8
Layer0014
  6
Continuous
100
AcDbBlockReference
  2
DA_IMAGEDIMGROUP_5
 10
0.0
 20
0.0
 30
0.0
  0
INSERT
  5
314
330
1F
100
AcDbEntity
  8
Layer0014
  6
Continuous
100
AcDbBlockReference
  2
DA_IMAGEDIMGROUP_6
 10
0.0
 20
0.0
 30
0.0
  0
INSERT
  5
315
330
1F
100
AcDbEntity
  8
Layer0014
  6
Continuous
100
AcDbBlockReference
  2
DA_IMAGEDIMGROUP_7
 10
0.0
 20
0.0
 30
0.0
  0
INSERT
  5
316
330
1F
100
AcDbEntity
  8
Layer0014
  6
Continuous
100
AcDbBlockReference
  2
DA_IMAGEDIMGROUP_8
 10
0.0
 20
0.0
 30
0.0
  0
INSERT
  5
317
330
1F
100
AcDbEntity
  8
Layer0014
  6
Continuous
100
AcDbBlockReference
  2
DA_IMAGEDIMGROUP_9
 10
0.0
 20
0.0
 30
0.0
  0
INSERT
  5
318
330
1F
100
AcDbEntity
  8
Layer0014
  6
Continuous
100
AcDbBlockReference
  2
DA_IMAGEDIMGROUP_10
 10
0.0
 20
0.0
 30
0.0
  0
INSERT
  5
319
330
1F
100
AcDbEntity
  8
Layer0014
  6
Continuous
100
AcDbBlockReference
  2
DA_IMAGEDIMGROUP_11
 10
0.0
 20
0.0
 30
0.0
  0
LINE
  5
31A
330
1F
100
AcDbEntity
  8
Layer0014
  6
Continuous
 62
     7
370
    18
100
AcDbLine
 10
-86.600756859035
 20
57.37199621570483
 30
0.0
 11
-103.4858104403502
 21
57.37199621570483
 31
0.0
  0
LINE
  5
31B
330
1F
100
AcDbEntity
  8
Layer0014
  6
Continuous
 62
     7
370
    18
100
AcDbLine
 10
-82.400756859035
 20
-56.42798919219212
 30
0.0
 11
-60.39225086310438
 21
-56.42798919219212
 31
0.0
  0
LINE
  5
31C
330
1F
100
AcDbEntity
  8
Layer0014
  6
Continuous
 62
     7
370
    18
100
AcDbLine
 10
-76.60075685903502
 20
-65.50720436352619
 30
0.0
 11
-49.20842771364151
 21
-65.50720436352619
 31
0.0
  0
LINE
  5
31D
330
1F
100
AcDbEntity
  8
Layer0014
  6
Continuous
 62
     7
370
    18
100
AcDbLine
 10
-76.60075685903502
 20
57.37199621570483
 30
0.0
 11
-30.22675303182612
 21
57.37199621570483
 31
0.0
  0
TEXT
  5
31E
330
1F
100
AcDbEntity
  8
Layer0016
 62
     7
100
AcDbText
 10
-17.38303957783638
 20
-128.0150102609205
 30
0.0
 40
3.2
  1
６／８
 41
0.4246329038058136
  7
FdaStyle0
 72
     5
 11
-11.71503957783638
 21
-128.0150102609205
 31
0.0
100
AcDbText
  0
VIEWPORT
  5
48
330
1B
100
AcDbEntity
 67
     1
  8
0
100
AcDbViewport
 10
0.0
 20
0.0
 30
0.0
 40
1254.0
 41
864.0
 68
     1
 69
     1
 12
0.0
 22
0.0
 13
0.0
 23
0.0
 14
0.5
 24
0.5
 15
0.0
 25
0.0
 16
0.0
 26
0.0
 36
1.0
 17
0.0
 27
0.0
 37
0.0
 42
50.0
 43
0.0
 44
0.0
 45
864.0
 50
0.0
 51
0.0
 72
   100
 90
    32800
  1

281
     0
 71
     1
 74
     0
110
0.0
120
0.0
130
0.0
111
1.0
121
0.0
131
0.0
112
0.0
122
1.0
132
0.0
 79
     0
146
0.0
  0
ENDSEC
  0
SECTION
  2
OBJECTS
  0
DICTIONARY
  5
C
330
0
100
AcDbDictionary
281
     1
  3
ACAD_GROUP
350
D
  3
ACAD_LAYOUT
350
1A
  3
ACAD_MLINESTYLE
350
17
  3
ACAD_PLOTSETTINGS
350
19
  3
ACAD_PLOTSTYLENAME
350
E
  0
DICTIONARY
  5
D
102
{ACAD_REACTORS
330
C
102
}
330
C
100
AcDbDictionary
281
     1
  0
DICTIONARY
  5
1A
102
{ACAD_REACTORS
330
C
102
}
330
C
100
AcDbDictionary
281
     1
  3
Layout1
350
1E
  3
Layout2
350
26
  3
Model
350
22
  0
DICTIONARY
  5
17
102
{ACAD_REACTORS
330
C
102
}
330
C
100
AcDbDictionary
281
     1
  3
Standard
350
18
  0
DICTIONARY
  5
19
102
{ACAD_REACTORS
330
C
102
}
330
C
100
AcDbDictionary
281
     1
  0
ACDBDICTIONARYWDFLT
  5
E
102
{ACAD_REACTORS
330
C
102
}
330
C
100
AcDbDictionary
281
     1
  3
Normal
350
F
100
AcDbDictionaryWithDefault
340
F
  0
LAYOUT
  5
1E
102
{ACAD_REACTORS
330
1A
102
}
330
1A
100
AcDbPlotSettings
  1

  2

  4

  6

 40
0.0
 41
0.0
 42
0.0
 43
0.0
 44
0.0
 45
0.0
 46
0.0
 47
0.0
 48
0.0
 49
0.0
140
0.0
141
0.0
142
1.0
143
1.0
 70
   688
 72
     0
 73
     0
 74
     5
  7

 75
    16
147
1.0
148
0.0
149
0.0
100
AcDbLayout
  1
Layout1
 70
     1
 71
     1
 10
0.0
 20
0.0
 11
0.0
 21
0.0
 12
0.0
 22
0.0
 32
0.0
 14
0.0
 24
0.0
 34
0.0
 15
0.0
 25
0.0
 35
0.0
146
0.0
 13
0.0
 23
0.0
 33
0.0
 16
1.0
 26
0.0
 36
0.0
 17
0.0
 27
1.0
 37
0.0
 76
     0
330
1B
331
48
  0
LAYOUT
  5
26
102
{ACAD_REACTORS
330
1A
102
}
330
1A
100
AcDbPlotSettings
  1

  2

  4

  6

 40
0.0
 41
0.0
 42
0.0
 43
0.0
 44
0.0
 45
0.0
 46
0.0
 47
0.0
 48
0.0
 49
0.0
140
0.0
141
0.0
142
1.0
143
1.0
 70
   688
 72
     0
 73
     0
 74
     5
  7

 75
    16
147
1.0
148
0.0
149
0.0
100
AcDbLayout
  1
Layout2
 70
     1
 71
     2
 10
0.0
 20
0.0
 11
0.0
 21
0.0
 12
0.0
 22
0.0
 32
0.0
 14
0.0
 24
0.0
 34
0.0
 15
0.0
 25
0.0
 35
0.0
146
0.0
 13
0.0
 23
0.0
 33
0.0
 16
1.0
 26
0.0
 36
0.0
 17
0.0
 27
1.0
 37
0.0
 76
     0
330
23
  0
LAYOUT
  5
22
102
{ACAD_REACTORS
330
1A
102
}
330
1A
100
AcDbPlotSettings
  1

  2

  4

  6

 40
0.0
 41
0.0
 42
0.0
 43
0.0
 44
0.0
 45
0.0
 46
0.0
 47
0.0
 48
0.0
 49
0.0
140
0.0
141
0.0
142
1.0
143
1.0
 70
  1712
 72
     0
 73
     0
 74
     0
  7

 75
     0
147
1.0
148
0.0
149
0.0
100
AcDbLayout
  1
Model
 70
     1
 71
     0
 10
-209.0
 20
-144.0
 11
209.0
 21
144.0
 12
0.0
 22
0.0
 32
0.0
 14
-627.0
 24
-432.0
 34
0.0
 15
627.0
 25
432.0
 35
0.0
146
0.0
 13
0.0
 23
0.0
 33
0.0
 16
1.0
 26
0.0
 36
0.0
 17
0.0
 27
1.0
 37
0.0
 76
     0
330
1F
  0
MLINESTYLE
  5
18
102
{ACAD_REACTORS
330
17
102
}
330
17
100
AcDbMlineStyle
  2
Standard
 70
     0
  3

 62
   256
 51
90.0
 52
90.0
 71
     2
 49
0.5
 62
   256
  6
BYLAYER
 49
-0.5
 62
   256
  6
BYLAYER
  0
ACDBPLACEHOLDER
  5
F
102
{ACAD_REACTORS
330
E
102
}
330
E
  0
ENDSEC
  0
EOF
