  0
SECTION
  2
HEADER
  9
$ACADVER
  1
AC1014
  9
$ACADMAINTVER
 70
     9
  9
$DWGCODEPAGE
  3
ANSI_932
  9
$INSBASE
 10
0.0
 20
0.0
 30
0.0
  9
$EXTMIN
 10
-574.0075836181641
 20
-400.25
 30
0.0
  9
$EXTMAX
 10
565.9924163818359
 20
403.75
 30
0.0
  9
$LIMMIN
 10
-210.0
 20
-148.5
  9
$LIMMAX
 10
210.0
 20
148.5
  9
$ORTHOMODE
 70
     0
  9
$REGENMODE
 70
     1
  9
$FILLMODE
 70
     1
  9
$QTEXTMODE
 70
     0
  9
$MIRRTEXT
 70
     1
  9
$DRAGMODE
 70
     2
  9
$LTSCALE
 40
1.0
  9
$OSMODE
 70
    37
  9
$ATTMODE
 70
     1
  9
$TEXTSIZE
 40
0.2
  9
$TRACEWID
 40
0.05
  9
$TEXTSTYLE
  7
STANDARD
  9
$CLAYER
  8
0
  9
$CELTYPE
  6
BYLAYER
  9
$CECOLOR
 62
   256
  9
$CELTSCALE
 40
1.0
  9
$DELOBJ
 70
     1
  9
$DISPSILH
 70
     0
  9
$DIMSCALE
 40
1.0
  9
$DIMASZ
 40
2.5
  9
$DIMEXO
 40
0.0625
  9
$DIMDLI
 40
0.38
  9
$DIMRND
 40
0.0
  9
$DIMDLE
 40
0.0
  9
$DIMEXE
 40
0.18
  9
$DIMTP
 40
0.0
  9
$DIMTM
 40
0.0
  9
$DIMTXT
 40
0.18
  9
$DIMCEN
 40
0.09
  9
$DIMTSZ
 40
0.0
  9
$DIMTOL
 70
     0
  9
$DIMLIM
 70
     0
  9
$DIMTIH
 70
     1
  9
$DIMTOH
 70
     1
  9
$DIMSE1
 70
     0
  9
$DIMSE2
 70
     0
  9
$DIMTAD
 70
     3
  9
$DIMZIN
 70
     0
  9
$DIMBLK
  1

  9
$DIMASO
 70
     1
  9
$DIMSHO
 70
     1
  9
$DIMPOST
  1

  9
$DIMAPOST
  1

  9
$DIMALT
 70
     0
  9
$DIMALTD
 70
     2
  9
$DIMALTF
 40
25.4
  9
$DIMLFAC
 40
1.0
  9
$DIMTOFL
 70
     0
  9
$DIMTVP
 40
0.0
  9
$DIMTIX
 70
     0
  9
$DIMSOXD
 70
     0
  9
$DIMSAH
 70
     0
  9
$DIMBLK1
  1

  9
$DIMBLK2
  1

  9
$DIMSTYLE
  2
STANDARD
  9
$DIMCLRD
 70
     0
  9
$DIMCLRE
 70
     0
  9
$DIMCLRT
 70
     0
  9
$DIMTFAC
 40
1.0
  9
$DIMGAP
 40
0.09
  9
$DIMJUST
 70
     0
  9
$DIMSD1
 70
     0
  9
$DIMSD2
 70
     0
  9
$DIMTOLJ
 70
     1
  9
$DIMTZIN
 70
     0
  9
$DIMALTZ
 70
     0
  9
$DIMALTTZ
 70
     0
  9
$DIMFIT
 70
     3
  9
$DIMUPT
 70
     0
  9
$DIMUNIT
 70
     2
  9
$DIMDEC
 70
     4
  9
$DIMTDEC
 70
     4
  9
$DIMALTU
 70
     2
  9
$DIMALTTD
 70
     2
  9
$DIMTXSTY
  7
STANDARD
  9
$DIMAUNIT
 70
     0
  9
$LUNITS
 70
     2
  9
$LUPREC
 70
     4
  9
$SKETCHINC
 40
0.1
  9
$FILLETRAD
 40
0.5
  9
$AUNITS
 70
     0
  9
$AUPREC
 70
     0
  9
$MENU
  1
.
  9
$ELEVATION
 40
0.0
  9
$PELEVATION
 40
0.0
  9
$THICKNESS
 40
0.0
  9
$LIMCHECK
 70
     0
  9
$CHAMFERA
 40
0.5
  9
$CHAMFERB
 40
0.5
  9
$CHAMFERC
 40
1.0
  9
$CHAMFERD
 40
0.0
  9
$SKPOLY
 70
     0
  9
$TDCREATE
 40
2456161.434913866
  9
$TDUPDATE
 40
2456161.434913877
  9
$TDINDWG
 40
0.0000000116
  9
$TDUSRTIMER
 40
0.0000000116
  9
$USRTIMER
 70
     1
  9
$ANGBASE
 50
0.0
  9
$ANGDIR
 70
     0
  9
$PDMODE
 70
     0
  9
$PDSIZE
 40
1.0
  9
$PLINEWID
 40
0.0
  9
$COORDS
 70
     1
  9
$SPLFRAME
 70
     0
  9
$SPLINETYPE
 70
     6
  9
$SPLINESEGS
 70
     8
  9
$ATTDIA
 70
     0
  9
$ATTREQ
 70
     1
  9
$HANDLING
 70
     1
  9
$HANDSEED
  5
2AA
  9
$SURFTAB1
 70
     6
  9
$SURFTAB2
 70
     6
  9
$SURFTYPE
 70
     6
  9
$SURFU
 70
     6
  9
$SURFV
 70
     6
  9
$UCSNAME
  2

  9
$UCSORG
 10
0.0
 20
0.0
 30
0.0
  9
$UCSXDIR
 10
1.0
 20
0.0
 30
0.0
  9
$UCSYDIR
 10
0.0
 20
1.0
 30
0.0
  9
$PUCSNAME
  2

  9
$PUCSORG
 10
0.0
 20
0.0
 30
0.0
  9
$PUCSXDIR
 10
1.0
 20
0.0
 30
0.0
  9
$PUCSYDIR
 10
0.0
 20
1.0
 30
0.0
  9
$USERI1
 70
     0
  9
$USERI2
 70
     0
  9
$USERI3
 70
     0
  9
$USERI4
 70
     0
  9
$USERI5
 70
     0
  9
$USERR1
 40
0.0
  9
$USERR2
 40
0.0
  9
$USERR3
 40
0.0
  9
$USERR4
 40
0.0
  9
$USERR5
 40
0.0
  9
$WORLDVIEW
 70
     1
  9
$SHADEDGE
 70
     3
  9
$SHADEDIF
 70
    70
  9
$TILEMODE
 70
     1
  9
$MAXACTVP
 70
    64
  9
$PINSBASE
 10
0.0
 20
0.0
 30
0.0
  9
$PLIMCHECK
 70
     0
  9
$PEXTMIN
 10
1.000000000000000E+20
 20
1.000000000000000E+20
 30
1.000000000000000E+20
  9
$PEXTMAX
 10
-1.000000000000000E+20
 20
-1.000000000000000E+20
 30
-1.000000000000000E+20
  9
$PLIMMIN
 10
0.0
 20
0.0
  9
$PLIMMAX
 10
12.0
 20
9.0
  9
$UNITMODE
 70
     0
  9
$VISRETAIN
 70
     0
  9
$PLINEGEN
 70
     1
  9
$PSLTSCALE
 70
     0
  9
$TREEDEPTH
 70
  3020
  9
$PICKSTYLE
 70
     1
  9
$CMLSTYLE
  2
STANDARD
  9
$CMLJUST
 70
     0
  9
$CMLSCALE
 40
1.0
  9
$PROXYGRAPHICS
 70
     0
  9
$MEASUREMENT
 70
     1
  0
ENDSEC
  0
SECTION
  2
CLASSES
  0
CLASS
  1
ACDBDICTIONARYWDFLT
  2
AcDbDictionaryWithDefault
  3
ObjectDBX Classes
 90
        0
280
     0
281
     0
  0
CLASS
  1
XRECORD
  2
AcDbXrecord
  3
AutoCAD 2000
 90
        0
280
     0
281
     0
  0
CLASS
  1
LWPOLYLINE
  2
AcDbPolyline
  3
AutoCAD 2000
 90
        0
280
     0
281
     1
  0
CLASS
  1
HATCH
  2
AcDbHatch
  3
AutoCAD 2000
 90
        0
280
     0
281
     1
  0
CLASS
  1
ACDBPLACEHOLDER
  2
AcDbPlaceHolder
  3
ObjectDBX Classes
 90
        0
280
     0
281
     0
  0
CLASS
  1
LAYOUT
  2
AcDbLayout
  3
ObjectDBX Classes
 90
        0
280
     0
281
     0
  0
ENDSEC
  0
SECTION
  2
TABLES
  0
TABLE
  2
VPORT
  5
8
330
0
100
AcDbSymbolTable
 70
     1
  0
VPORT
  5
29
330
8
100
AcDbSymbolTableRecord
100
AcDbViewportTableRecord
  2
*ACTIVE
 70
     0
 10
0.0
 20
0.0
 11
1.0
 21
1.0
 12
0.0
 22
0.0
 13
0.0
 23
0.0
 14
0.5
 24
0.5
 15
0.5
 25
0.5
 16
0.0
 26
0.0
 36
1.0
 17
-4.007583618164066
 27
1.75
 37
0.0
 40
273.36
 41
1.417910447761194
 42
50.0
 43
0.0
 44
0.0
 50
0.0
 51
0.0
 71
     0
 72
  1000
 73
     1
 74
     1
 75
     0
 76
     0
 77
     0
 78
     0
  0
ENDTAB
  0
TABLE
  2
LTYPE
  5
5
330
0
100
AcDbSymbolTable
 70
    28
  0
LTYPE
  5
14
330
5
100
AcDbSymbolTableRecord
100
AcDbLinetypeTableRecord
  2
BYBLOCK
 70
     0
  3

 72
    65
 73
     0
 40
0.0
  0
LTYPE
  5
15
330
5
100
AcDbSymbolTableRecord
100
AcDbLinetypeTableRecord
  2
BYLAYER
 70
     0
  3

 72
    65
 73
     0
 40
0.0
  0
LTYPE
  5
16
330
5
100
AcDbSymbolTableRecord
100
AcDbLinetypeTableRecord
  2
CONTINUOUS
 70
     0
  3
Solid line
 72
    65
 73
     0
 40
0.0
  0
LTYPE
  5
2B
330
5
100
AcDbSymbolTableRecord
100
AcDbLinetypeTableRecord
  2
HIDDENX2
 70
     0
  3
CADPAC LINETYPE
 72
    65
 73
     2
 40
7.836411609498668
 49
5.877308707124001
 74
     0
 49
-1.959102902374667
 74
     0
  0
LTYPE
  5
2C
330
5
100
AcDbSymbolTableRecord
100
AcDbLinetypeTableRecord
  2
HIDDEN
 70
     0
  3
CADPAC LINETYPE
 72
    65
 73
     2
 40
5.877308707124001
 49
3.918205804749334
 74
     0
 49
-1.959102902374667
 74
     0
  0
LTYPE
  5
2D
330
5
100
AcDbSymbolTableRecord
100
AcDbLinetypeTableRecord
  2
HIDDEN2
 70
     0
  3
CADPAC LINETYPE
 72
    65
 73
     2
 40
4.897757255936668
 49
2.938654353562001
 74
     0
 49
-1.959102902374667
 74
     0
  0
LTYPE
  5
2E
330
5
100
AcDbSymbolTableRecord
100
AcDbLinetypeTableRecord
  2
DASHED
 70
     0
  3
CADPAC LINETYPE
 72
    65
 73
     2
 40
5.485488126649074
 49
3.918205804749334
 74
     0
 49
-1.567282321899739
 74
     0
  0
LTYPE
  5
2F
330
5
100
AcDbSymbolTableRecord
100
AcDbLinetypeTableRecord
  2
DASHED2
 70
     0
  3
CADPAC LINETYPE
 72
    65
 73
     2
 40
3.526385224274378
 49
2.350923482849595
 74
     0
 49
-1.175461741424783
 74
     0
  0
LTYPE
  5
30
330
5
100
AcDbSymbolTableRecord
100
AcDbLinetypeTableRecord
  2
DASHEDX2
 70
     0
  3
CADPAC LINETYPE
 72
    65
 73
     2
 40
9.403693931398379
 49
7.83641160949864
 74
     0
 49
-1.567282321899739
 74
     0
  0
LTYPE
  5
31
330
5
100
AcDbSymbolTableRecord
100
AcDbLinetypeTableRecord
  2
DOTX2
 70
     0
  3
CADPAC LINETYPE
 72
    65
 73
     2
 40
3.428430079155653
 49
0.0
 74
     0
 49
-3.428430079155653
 74
     0
  0
LTYPE
  5
32
330
5
100
AcDbSymbolTableRecord
100
AcDbLinetypeTableRecord
  2
DOT
 70
     0
  3
CADPAC LINETYPE
 72
    65
 73
     2
 40
2.742744063324523
 49
0.0
 74
     0
 49
-2.742744063324523
 74
     0
  0
LTYPE
  5
33
330
5
100
AcDbSymbolTableRecord
100
AcDbLinetypeTableRecord
  2
DOT2
 70
     0
  3
CADPAC LINETYPE
 72
    65
 73
     2
 40
2.057058047493392
 49
0.0
 74
     0
 49
-2.057058047493392
 74
     0
  0
LTYPE
  5
34
330
5
100
AcDbSymbolTableRecord
100
AcDbLinetypeTableRecord
  2
CENTERX2
 70
     0
  3
CADPAC LINETYPE
 72
    65
 73
     4
 40
11.754617414248
 49
4.897757255936668
 74
     0
 49
-2.448878627968334
 74
     0
 49
1.959102902374667
 74
     0
 49
-2.448878627968334
 74
     0
  0
LTYPE
  5
35
330
5
100
AcDbSymbolTableRecord
100
AcDbLinetypeTableRecord
  2
CENTER
 70
     0
  3
CADPAC LINETYPE
 72
    65
 73
     4
 40
9.011873350923469
 49
3.918205804749334
 74
     0
 49
-1.959102902374667
 74
     0
 49
1.1754617414248
 74
     0
 49
-1.959102902374667
 74
     0
  0
LTYPE
  5
36
330
5
100
AcDbSymbolTableRecord
100
AcDbLinetypeTableRecord
  2
CENTER2
 70
     0
  3
CADPAC LINETYPE
 72
    65
 73
     4
 40
6.269129287598934
 49
2.938654353562001
 74
     0
 49
-1.469327176781
 74
     0
 49
0.3918205804749335
 74
     0
 49
-1.469327176781
 74
     0
  0
LTYPE
  5
37
330
5
100
AcDbSymbolTableRecord
100
AcDbLinetypeTableRecord
  2
DASHDOTX2
 70
     0
  3
CADPAC LINETYPE
 72
    65
 73
     4
 40
18.80738786279682
 49
9.403693931398379
 74
     0
 49
-3.134564643799479
 74
     0
 49
3.134564643799479
 74
     0
 49
-3.134564643799479
 74
     0
  0
LTYPE
  5
38
330
5
100
AcDbSymbolTableRecord
100
AcDbLinetypeTableRecord
  2
DASHDOT
 70
     0
  3
CADPAC LINETYPE
 72
    65
 73
     4
 40
9.403693931398436
 49
4.701846965699218
 74
     0
 49
-1.567282321899739
 74
     0
 49
1.567282321899739
 74
     0
 49
-1.567282321899739
 74
     0
  0
LTYPE
  5
39
330
5
100
AcDbSymbolTableRecord
100
AcDbLinetypeTableRecord
  2
DASHDOT2
 70
     0
  3
CADPAC LINETYPE
 72
    65
 73
     4
 40
6.034036939313997
 49
3.526385224274414
 74
     0
 49
-1.175461741424805
 74
     0
 49
0.156728232189974
 74
     0
 49
-1.175461741424805
 74
     0
  0
LTYPE
  5
3A
330
5
100
AcDbSymbolTableRecord
100
AcDbLinetypeTableRecord
  2
DIVIDEX2
 70
     0
  3
CADPAC LINETYPE
 72
    65
 73
     6
 40
25.07651715039577
 49
9.403693931398379
 74
     0
 49
-3.134564643799479
 74
     0
 49
3.134564643799479
 74
     0
 49
-3.134564643799479
 74
     0
 49
3.134564643799479
 74
     0
 49
-3.134564643799479
 74
     0
  0
LTYPE
  5
3B
330
5
100
AcDbSymbolTableRecord
100
AcDbLinetypeTableRecord
  2
DIVIDE
 70
     0
  3
CADPAC LINETYPE
 72
    65
 73
     6
 40
12.53825857519792
 49
4.701846965699218
 74
     0
 49
-1.567282321899739
 74
     0
 49
1.567282321899739
 74
     0
 49
-1.567282321899739
 74
     0
 49
1.567282321899739
 74
     0
 49
-1.567282321899739
 74
     0
  0
LTYPE
  5
3C
330
5
100
AcDbSymbolTableRecord
100
AcDbLinetypeTableRecord
  2
DIVIDE2
 70
     0
  3
CADPAC LINETYPE
 72
    65
 73
     6
 40
9.403693931398436
 49
3.526385224274414
 74
     0
 49
-1.175461741424805
 74
     0
 49
1.175461741424805
 74
     0
 49
-1.175461741424805
 74
     0
 49
1.175461741424805
 74
     0
 49
-1.175461741424805
 74
     0
  0
LTYPE
  5
3D
330
5
100
AcDbSymbolTableRecord
100
AcDbLinetypeTableRecord
  2
BORDERX2
 70
     0
  3
CADPAC LINETYPE
 72
    65
 73
     6
 40
17.14215039577834
 49
4.897757255936668
 74
     0
 49
-2.448878627968334
 74
     0
 49
4.897757255936668
 74
     0
 49
-2.448878627968334
 74
     0
 49
0.0
 74
     0
 49
-2.448878627968334
 74
     0
  0
LTYPE
  5
3E
330
5
100
AcDbSymbolTableRecord
100
AcDbLinetypeTableRecord
  2
BORDER
 70
     0
  3
CADPAC LINETYPE
 72
    65
 73
     6
 40
13.71372031662267
 49
3.918205804749334
 74
     0
 49
-1.959102902374667
 74
     0
 49
3.918205804749334
 74
     0
 49
-1.959102902374667
 74
     0
 49
0.0
 74
     0
 49
-1.959102902374667
 74
     0
  0
LTYPE
  5
3F
330
5
100
AcDbSymbolTableRecord
100
AcDbLinetypeTableRecord
  2
BORDER2
 70
     0
  3
CADPAC LINETYPE
 72
    65
 73
     6
 40
10.18733509234826
 49
3.134564643799479
 74
     0
 49
-1.959102902374667
 74
     0
 49
1.175461741424783
 74
     0
 49
-1.959102902374667
 74
     0
 49
0.0
 74
     0
 49
-1.959102902374667
 74
     0
  0
LTYPE
  5
40
330
5
100
AcDbSymbolTableRecord
100
AcDbLinetypeTableRecord
  2
PHANTOMX2
 70
     0
  3
CADPAC LINETYPE
 72
    65
 73
     6
 40
14.69327176781
 49
4.897757255936668
 74
     0
 49
-1.959102902374667
 74
     0
 49
1.959102902374667
 74
     0
 49
-1.959102902374667
 74
     0
 49
1.959102902374667
 74
     0
 49
-1.959102902374667
 74
     0
  0
LTYPE
  5
41
330
5
100
AcDbSymbolTableRecord
100
AcDbLinetypeTableRecord
  2
PHANTOM
 70
     0
  3
CADPAC LINETYPE
 72
    65
 73
     6
 40
12.14643799472294
 49
3.918205804749334
 74
     0
 49
-1.959102902374667
 74
     0
 49
1.1754617414248
 74
     0
 49
-1.959102902374667
 74
     0
 49
1.1754617414248
 74
     0
 49
-1.959102902374667
 74
     0
  0
LTYPE
  5
42
330
5
100
AcDbSymbolTableRecord
100
AcDbLinetypeTableRecord
  2
PHANTOM2
 70
     0
  3
CADPAC LINETYPE
 72
    65
 73
     6
 40
10.38324538258574
 49
2.938654353562001
 74
     0
 49
-1.959102902374667
 74
     0
 49
0.7836411609498669
 74
     0
 49
-1.959102902374667
 74
     0
 49
0.7836411609498669
 74
     0
 49
-1.959102902374667
 74
     0
  0
LTYPE
  5
43
330
5
100
AcDbSymbolTableRecord
100
AcDbLinetypeTableRecord
  2
ACAD_ISO06W100
 70
     0
  3
CADPAC LINETYPE
 72
    65
 73
     8
 40
20.7664907651714
 49
9.403693931398379
 74
     0
 49
-1.959102902374667
 74
     0
 49
1.175461741424783
 74
     0
 49
-1.959102902374667
 74
     0
 49
1.175461741424783
 74
     0
 49
-1.959102902374667
 74
     0
 49
1.175461741424783
 74
     0
 49
-1.959102902374667
 74
     0
  0
LTYPE
  5
44
330
5
100
AcDbSymbolTableRecord
100
AcDbLinetypeTableRecord
  2
ACAD_ISO13W100
 70
     0
  3
CADPAC LINETYPE
 72
    65
 73
     8
 40
15.67282321899734
 49
3.918205804749334
 74
     0
 49
-1.959102902374667
 74
     0
 49
3.918205804749334
 74
     0
 49
-1.959102902374667
 74
     0
 49
0.0
 74
     0
 49
-1.959102902374667
 74
     0
 49
0.0
 74
     0
 49
-1.959102902374667
 74
     0
  0
LTYPE
  5
45
330
5
100
AcDbSymbolTableRecord
100
AcDbLinetypeTableRecord
  2
ACAD_ISO14W100
 70
     0
  3
CADPAC LINETYPE
 72
    65
 73
     8
 40
11.754617414248
 49
3.918205804749334
 74
     0
 49
-1.959102902374667
 74
     0
 49
0.0
 74
     0
 49
-1.959102902374667
 74
     0
 49
0.0
 74
     0
 49
-1.959102902374667
 74
     0
 49
0.0
 74
     0
 49
-1.959102902374667
 74
     0
  0
ENDTAB
  0
TABLE
  2
LAYER
  5
2
330
0
100
AcDbSymbolTable
 70
     3
  0
LAYER
  5
10
330
2
100
AcDbSymbolTableRecord
100
AcDbLayerTableRecord
  2
0
 70
     0
 62
     7
  6
CONTINUOUS
  0
LAYER
  5
46
330
2
100
AcDbSymbolTableRecord
100
AcDbLayerTableRecord
  2
LAYER0014
 70
     0
 62
     7
  6
CONTINUOUS
  0
LAYER
  5
47
330
2
100
AcDbSymbolTableRecord
100
AcDbLayerTableRecord
  2
ZUWAKU
 70
     0
 62
     7
  6
CONTINUOUS
  0
ENDTAB
  0
TABLE
  2
STYLE
  5
3
330
0
100
AcDbSymbolTable
 70
     2
  0
STYLE
  5
11
330
3
100
AcDbSymbolTableRecord
100
AcDbTextStyleTableRecord
  2
STANDARD
 70
     0
 40
0.0
 41
1.0
 50
0.0
 71
     0
 42
0.2
  3
txt
  4

  0
STYLE
  5
8D
330
3
100
AcDbSymbolTableRecord
100
AcDbTextStyleTableRecord
  2
FDASTYLE0
 70
     0
 40
0.0
 41
0.7786886875278265
 50
0.0
 71
     0
 42
0.2
  3
txt.shx
  4
bigfont
  0
ENDTAB
  0
TABLE
  2
VIEW
  5
6
330
0
100
AcDbSymbolTable
 70
     0
  0
ENDTAB
  0
TABLE
  2
UCS
  5
7
330
0
100
AcDbSymbolTable
 70
     0
  0
ENDTAB
  0
TABLE
  2
APPID
  5
9
330
0
100
AcDbSymbolTable
 70
     2
  0
APPID
  5
12
330
9
100
AcDbSymbolTableRecord
100
AcDbRegAppTableRecord
  2
ACAD
 70
     0
  0
APPID
  5
2A
330
9
100
AcDbSymbolTableRecord
100
AcDbRegAppTableRecord
  2
DAFUSIONOUT
 70
     0
  0
ENDTAB
  0
TABLE
  2
DIMSTYLE
  5
A
330
0
100
AcDbSymbolTable
 70
     1
  0
DIMSTYLE
105
27
330
A
100
AcDbSymbolTableRecord
100
AcDbDimStyleTableRecord
  2
STANDARD
 70
     0
  3

  4

  5

  6

  7

 40
1.0
 41
0.18
 42
0.0625
 43
0.38
 44
0.18
 45
0.0
 46
0.0
 47
0.0
 48
0.0
140
0.18
141
0.09
142
0.0
143
25.4
144
1.0
145
0.0
146
1.0
147
0.09
 71
     0
 72
     0
 73
     1
 74
     1
 75
     0
 76
     0
 77
     0
 78
     0
170
     0
171
     2
172
     0
173
     0
174
     0
175
     0
176
     0
177
     0
178
     0
270
     2
271
     4
272
     4
273
     2
274
     2
340
11
275
     0
280
     0
281
     0
282
     0
283
     1
284
     0
285
     0
286
     0
287
     3
288
     0
  0
ENDTAB
  0
TABLE
  2
BLOCK_RECORD
  5
1
330
0
100
AcDbSymbolTable
 70
    21
  0
BLOCK_RECORD
  5
1F
330
1
100
AcDbSymbolTableRecord
100
AcDbBlockTableRecord
  2
*MODEL_SPACE
  0
BLOCK_RECORD
  5
1B
330
1
100
AcDbSymbolTableRecord
100
AcDbBlockTableRecord
  2
*PAPER_SPACE
  0
BLOCK_RECORD
  5
49
330
1
100
AcDbSymbolTableRecord
100
AcDbBlockTableRecord
  2
DA_IMAGEDIMGROUP_1
  0
BLOCK_RECORD
  5
4C
330
1
100
AcDbSymbolTableRecord
100
AcDbBlockTableRecord
  2
DA_IMAGEDIMGROUP_2
  0
BLOCK_RECORD
  5
4F
330
1
100
AcDbSymbolTableRecord
100
AcDbBlockTableRecord
  2
DA_IMAGEDIMGROUP_3
  0
BLOCK_RECORD
  5
52
330
1
100
AcDbSymbolTableRecord
100
AcDbBlockTableRecord
  2
DA_IMAGEDIMGROUP_4
  0
BLOCK_RECORD
  5
55
330
1
100
AcDbSymbolTableRecord
100
AcDbBlockTableRecord
  2
DA_IMAGEDIMGROUP_5
  0
BLOCK_RECORD
  5
58
330
1
100
AcDbSymbolTableRecord
100
AcDbBlockTableRecord
  2
DA_IMAGEDIMGROUP_6
  0
BLOCK_RECORD
  5
5B
330
1
100
AcDbSymbolTableRecord
100
AcDbBlockTableRecord
  2
DA_IMAGEDIMGROUP_7
  0
BLOCK_RECORD
  5
5E
330
1
100
AcDbSymbolTableRecord
100
AcDbBlockTableRecord
  2
DC_GROUP_1
  0
BLOCK_RECORD
  5
61
330
1
100
AcDbSymbolTableRecord
100
AcDbBlockTableRecord
  2
DC_GROUP_2
  0
BLOCK_RECORD
  5
64
330
1
100
AcDbSymbolTableRecord
100
AcDbBlockTableRecord
  2
DC_GROUP_3
  0
BLOCK_RECORD
  5
67
330
1
100
AcDbSymbolTableRecord
100
AcDbBlockTableRecord
  2
DC_GROUP_4
  0
BLOCK_RECORD
  5
6A
330
1
100
AcDbSymbolTableRecord
100
AcDbBlockTableRecord
  2
DC_GROUP_5
  0
BLOCK_RECORD
  5
6D
330
1
100
AcDbSymbolTableRecord
100
AcDbBlockTableRecord
  2
DC_GROUP_6
  0
BLOCK_RECORD
  5
70
330
1
100
AcDbSymbolTableRecord
100
AcDbBlockTableRecord
  2
DC_GROUP_7
  0
BLOCK_RECORD
  5
73
330
1
100
AcDbSymbolTableRecord
100
AcDbBlockTableRecord
  2
DC_GROUP_8
  0
BLOCK_RECORD
  5
76
330
1
100
AcDbSymbolTableRecord
100
AcDbBlockTableRecord
  2
DC_GROUP_9
  0
BLOCK_RECORD
  5
79
330
1
100
AcDbSymbolTableRecord
100
AcDbBlockTableRecord
  2
DC_GROUP_10
  0
BLOCK_RECORD
  5
7C
330
1
100
AcDbSymbolTableRecord
100
AcDbBlockTableRecord
  2
DC_GROUP_11
  0
BLOCK_RECORD
  5
7F
330
1
100
AcDbSymbolTableRecord
100
AcDbBlockTableRecord
  2
DC_GROUP_12
  0
BLOCK_RECORD
  5
85
330
1
100
AcDbSymbolTableRecord
100
AcDbBlockTableRecord
  2
_OPEN30
  0
ENDTAB
  0
ENDSEC
  0
SECTION
  2
BLOCKS
  0
BLOCK
  5
20
330
1F
100
AcDbEntity
  8
0
100
AcDbBlockBegin
  2
*MODEL_SPACE
 70
     0
 71
     0
 10
0.0
 20
0.0
 30
0.0
  3
*MODEL_SPACE
  1

  0
ENDBLK
  5
21
330
1F
100
AcDbEntity
  8
0
100
AcDbBlockEnd
  0
BLOCK
  5
1C
330
1B
100
AcDbEntity
 67
     1
  8
0
100
AcDbBlockBegin
  2
*PAPER_SPACE
 70
     0
 71
     0
 10
0.0
 20
0.0
 30
0.0
  3
*PAPER_SPACE
  1

  0
ENDBLK
  5
1D
330
1B
100
AcDbEntity
 67
     1
  8
0
100
AcDbBlockEnd
  0
BLOCK
  5
4A
330
49
100
AcDbEntity
  8
0
100
AcDbBlockBegin
  2
DA_IMAGEDIMGROUP_1
 70
     0
 71
     0
 10
0.0
 20
0.0
 30
0.0
  3
DA_IMAGEDIMGROUP_1
  1

  0
LINE
  5
82
330
49
100
AcDbEntity
  8
LAYER0014
  6
CONTINUOUS
 62
     7
100
AcDbLine
 10
-94.61695861816406
 20
-38.1875
 30
0.0
 11
-94.61695861816406
 21
-20.93280029296875
 31
0.0
  0
LINE
  5
83
330
49
100
AcDbEntity
  8
LAYER0014
  6
CONTINUOUS
 62
     7
100
AcDbLine
 10
-16.61695861816406
 20
-38.1875
 30
0.0
 11
-16.61695861816406
 21
-20.93280029296875
 31
0.0
  0
LINE
  5
84
330
49
100
AcDbEntity
  8
LAYER0014
  6
CONTINUOUS
 62
     7
100
AcDbLine
 10
-94.61695861816406
 20
-23.21880149841309
 30
0.0
 11
-16.61695861816406
 21
-23.21880149841309
 31
0.0
  0
INSERT
  5
8B
330
49
100
AcDbEntity
  8
LAYER0014
 62
     7
100
AcDbBlockReference
  2
_OPEN30
 10
-94.61695861816406
 20
-23.21880149841309
 30
0.0
 41
3.000002787824364
 42
2.999989273978464
 50
180.0
  0
INSERT
  5
8C
330
49
100
AcDbEntity
  8
LAYER0014
 62
     7
100
AcDbBlockReference
  2
_OPEN30
 10
-16.61695861816406
 20
-23.21880149841309
 30
0.0
 41
3.000002787824364
 42
2.999989273978464
 50
360.0
  0
TEXT
  5
8E
330
49
100
AcDbEntity
  8
LAYER0014
 62
     7
100
AcDbText
 10
-67.15981644392014
 20
-22.41880142688751
 30
0.0
 40
3.200000047683716
  1
φ78
 41
0.7786886875278265
  7
FDASTYLE0
 72
     5
 11
-58.47410100698471
 21
-22.41880142688751
 31
0.0
100
AcDbText
  0
TEXT
  5
8F
330
49
100
AcDbEntity
  8
LAYER0014
 62
     7
100
AcDbText
 10
-57.55981630086899
 20
-20.41880136728287
 30
0.0
 40
1.600000023841858
  1
+
 41
0.7142860335963065
  7
FDASTYLE0
 72
     5
 11
-56.41695863008499
 21
-20.41880136728287
 31
0.0
100
AcDbText
  0
TEXT
  5
90
330
49
100
AcDbEntity
  8
LAYER0014
 62
     7
100
AcDbText
 10
-57.55981630086899
 20
-22.8188014626503
 30
0.0
 40
1.600000023841858
  1
-
 41
0.7142860335963065
  7
FDASTYLE0
 72
     5
 11
-56.41695863008499
 21
-22.8188014626503
 31
0.0
100
AcDbText
  0
TEXT
  5
91
330
49
100
AcDbEntity
  8
LAYER0014
 62
     7
100
AcDbText
 10
-55.95981627702713
 20
-22.41880142688751
 30
0.0
 40
3.200000047683716
  1
0.15
 41
0.7647060989096486
  7
FDASTYLE0
 72
     5
 11
-44.07410079240799
 21
-22.41880142688751
 31
0.0
100
AcDbText
  0
ENDBLK
  5
4B
330
49
100
AcDbEntity
  8
0
100
AcDbBlockEnd
  0
BLOCK
  5
4D
330
4C
100
AcDbEntity
  8
0
100
AcDbBlockBegin
  2
DA_IMAGEDIMGROUP_2
 70
     0
 71
     0
 10
0.0
 20
0.0
 30
0.0
  3
DA_IMAGEDIMGROUP_2
  1

  0
LINE
  5
92
330
4C
100
AcDbEntity
  8
LAYER0014
  6
CONTINUOUS
 62
     7
100
AcDbLine
 10
-84.61695861816406
 20
-52.1875
 30
0.0
 11
-84.61695861816406
 21
-69.39897918701172
 31
0.0
  0
LINE
  5
93
330
4C
100
AcDbEntity
  8
LAYER0014
  6
CONTINUOUS
 62
     7
100
AcDbLine
 10
-26.61695861816406
 20
-52.1875
 30
0.0
 11
-26.61695861816406
 21
-69.39897918701172
 31
0.0
  0
LINE
  5
94
330
4C
100
AcDbEntity
  8
LAYER0014
  6
CONTINUOUS
 62
     7
100
AcDbLine
 10
-84.61695861816406
 20
-67.11297607421875
 30
0.0
 11
-26.61695861816406
 21
-67.11297607421875
 31
0.0
  0
INSERT
  5
95
330
4C
100
AcDbEntity
  8
LAYER0014
 62
     7
100
AcDbBlockReference
  2
_OPEN30
 10
-84.61695861816406
 20
-67.11297607421875
 30
0.0
 41
3.000002787824364
 42
2.999989273978464
 50
180.0
  0
INSERT
  5
96
330
4C
100
AcDbEntity
  8
LAYER0014
 62
     7
100
AcDbBlockReference
  2
_OPEN30
 10
-26.61695861816406
 20
-67.11297607421875
 30
0.0
 41
3.000002787824364
 42
2.999989273978464
 50
360.0
  0
TEXT
  5
97
330
4C
100
AcDbEntity
  8
LAYER0014
 62
     7
100
AcDbText
 10
-59.95981633663178
 20
-66.31297600269318
 30
0.0
 40
3.200000047683716
  1
φ58
 41
0.7786886875278265
  7
FDASTYLE0
 72
     5
 11
-51.27410089969635
 21
-66.31297600269318
 31
0.0
100
AcDbText
  0
ENDBLK
  5
4E
330
4C
100
AcDbEntity
  8
0
100
AcDbBlockEnd
  0
BLOCK
  5
50
330
4F
100
AcDbEntity
  8
0
100
AcDbBlockBegin
  2
DA_IMAGEDIMGROUP_3
 70
     0
 71
     0
 10
0.0
 20
0.0
 30
0.0
  3
DA_IMAGEDIMGROUP_3
  1

  0
LINE
  5
98
330
4F
100
AcDbEntity
  8
LAYER0014
  6
CONTINUOUS
 62
     7
100
AcDbLine
 10
-87.11695861816406
 20
-38.1875
 30
0.0
 11
-87.11695861816406
 21
-79.38548278808594
 31
0.0
  0
LINE
  5
99
330
4F
100
AcDbEntity
  8
LAYER0014
  6
CONTINUOUS
 62
     7
100
AcDbLine
 10
-24.11695861816406
 20
-38.1875
 30
0.0
 11
-24.11695861816406
 21
-79.38548278808594
 31
0.0
  0
LINE
  5
9A
330
4F
100
AcDbEntity
  8
LAYER0014
  6
CONTINUOUS
 62
     7
100
AcDbLine
 10
-87.11695861816406
 20
-77.09947967529297
 30
0.0
 11
-24.11695861816406
 21
-77.09947967529297
 31
0.0
  0
INSERT
  5
9B
330
4F
100
AcDbEntity
  8
LAYER0014
 62
     7
100
AcDbBlockReference
  2
_OPEN30
 10
-87.11695861816406
 20
-77.09947967529297
 30
0.0
 41
3.000002787824364
 42
2.999989273978464
 50
180.0
  0
INSERT
  5
9C
330
4F
100
AcDbEntity
  8
LAYER0014
 62
     7
100
AcDbBlockReference
  2
_OPEN30
 10
-24.11695861816406
 20
-77.09947967529297
 30
0.0
 41
3.000002787824364
 42
2.999989273978464
 50
360.0
  0
TEXT
  5
9D
330
4F
100
AcDbEntity
  8
LAYER0014
 62
     7
100
AcDbText
 10
-59.95981633663178
 20
-76.2994796037674
 30
0.0
 40
3.200000047683716
  1
φ63
 41
0.7786886875278265
  7
FDASTYLE0
 72
     5
 11
-51.27410089969635
 21
-76.2994796037674
 31
0.0
100
AcDbText
  0
ENDBLK
  5
51
330
4F
100
AcDbEntity
  8
0
100
AcDbBlockEnd
  0
BLOCK
  5
53
330
52
100
AcDbEntity
  8
0
100
AcDbBlockBegin
  2
DA_IMAGEDIMGROUP_4
 70
     0
 71
     0
 10
0.0
 20
0.0
 30
0.0
  3
DA_IMAGEDIMGROUP_4
  1

  0
LINE
  5
9E
330
52
100
AcDbEntity
  8
LAYER0014
  6
CONTINUOUS
 62
     7
100
AcDbLine
 10
-94.61695861816406
 20
-38.1875
 30
0.0
 11
-111.9191131591797
 21
-38.1875
 31
0.0
  0
LINE
  5
9F
330
52
100
AcDbEntity
  8
LAYER0014
  6
CONTINUOUS
 62
     7
100
AcDbLine
 10
-82.94246673583984
 20
-52.1875
 30
0.0
 11
-111.9191131591797
 21
-52.1875
 31
0.0
  0
LINE
  5
A0
330
52
100
AcDbEntity
  8
LAYER0014
  6
CONTINUOUS
 62
     7
100
AcDbLine
 10
-109.6331176757813
 20
-38.1875
 30
0.0
 11
-109.6331176757813
 21
-52.1875
 31
0.0
  0
INSERT
  5
A1
330
52
100
AcDbEntity
  8
LAYER0014
 62
     7
100
AcDbBlockReference
  2
_OPEN30
 10
-109.6331176757813
 20
-38.1875
 30
0.0
 41
3.000002787824364
 42
2.999989273978464
 50
90.0
  0
INSERT
  5
A2
330
52
100
AcDbEntity
  8
LAYER0014
 62
     7
100
AcDbBlockReference
  2
_OPEN30
 10
-109.6331176757813
 20
-52.1875
 30
0.0
 41
3.000002787824364
 42
2.999989273978464
 50
270.0
  0
TEXT
  5
A3
330
52
100
AcDbEntity
  8
LAYER0014
 62
     7
100
AcDbText
 10
-110.4331177473068
 20
-55.13035780191422
 30
0.0
 40
3.200000047683716
  1
14
 50
90.0
 41
0.7500002444722064
  7
FDASTYLE0
 72
     5
 11
-110.4331177473068
 21
-49.64464241266251
 31
0.0
100
AcDbText
  0
TEXT
  5
A4
330
52
100
AcDbEntity
  8
LAYER0014
 62
     7
100
AcDbText
 10
-112.4331178069115
 20
-48.73035770654678
 30
0.0
 40
1.600000023841858
  1
+
 50
90.0
 41
0.7142860335963065
  7
FDASTYLE0
 72
     5
 11
-112.4331178069115
 21
-47.58750003576279
 31
0.0
100
AcDbText
  0
TEXT
  5
A5
330
52
100
AcDbEntity
  8
LAYER0014
 62
     7
100
AcDbText
 10
-110.033117711544
 20
-48.73035770654678
 30
0.0
 40
1.600000023841858
  1
-
 50
90.0
 41
0.7142860335963065
  7
FDASTYLE0
 72
     5
 11
-110.033117711544
 21
-47.58750003576279
 31
0.0
100
AcDbText
  0
TEXT
  5
A6
330
52
100
AcDbEntity
  8
LAYER0014
 62
     7
100
AcDbText
 10
-110.4331177473068
 20
-47.13035768270493
 30
0.0
 40
3.200000047683716
  1
0.15
 50
90.0
 41
0.7647060989096486
  7
FDASTYLE0
 72
     5
 11
-110.4331177473068
 21
-35.24464219808579
 31
0.0
100
AcDbText
  0
ENDBLK
  5
54
330
52
100
AcDbEntity
  8
0
100
AcDbBlockEnd
  0
BLOCK
  5
56
330
55
100
AcDbEntity
  8
0
100
AcDbBlockBegin
  2
DA_IMAGEDIMGROUP_5
 70
     0
 71
     0
 10
0.0
 20
0.0
 30
0.0
  3
DA_IMAGEDIMGROUP_5
  1

  0
LINE
  5
A7
330
55
100
AcDbEntity
  8
LAYER0014
  6
CONTINUOUS
 62
     7
100
AcDbLine
 10
-64.61695861816406
 20
43.29464340209961
 30
0.0
 11
-64.61695861816406
 21
99.67302703857422
 31
0.0
  0
LINE
  5
A8
330
55
100
AcDbEntity
  8
LAYER0014
  6
CONTINUOUS
 62
     7
100
AcDbLine
 10
-46.61695861816406
 20
43.29464340209961
 30
0.0
 11
-46.61695861816406
 21
99.67302703857422
 31
0.0
  0
LINE
  5
A9
330
55
100
AcDbEntity
  8
LAYER0014
  6
CONTINUOUS
 62
     7
100
AcDbLine
 10
-64.61695861816406
 20
97.38703155517578
 30
0.0
 11
-46.61695861816406
 21
97.38703155517578
 31
0.0
  0
INSERT
  5
AA
330
55
100
AcDbEntity
  8
LAYER0014
 62
     7
100
AcDbBlockReference
  2
_OPEN30
 10
-64.61695861816406
 20
97.38703155517578
 30
0.0
 41
3.000002787824364
 42
2.999989273978464
 50
180.0
  0
INSERT
  5
AB
330
55
100
AcDbEntity
  8
LAYER0014
 62
     7
100
AcDbBlockReference
  2
_OPEN30
 10
-46.61695861816406
 20
97.38703155517578
 30
0.0
 41
3.000002787824364
 42
2.999989273978464
 50
360.0
  0
TEXT
  5
AC
330
55
100
AcDbEntity
  8
LAYER0014
 62
     7
100
AcDbText
 10
-63.15981638431549
 20
98.18703162670136
 30
0.0
 40
3.200000047683716
  1
PCD18
 41
0.7674420720149037
  7
FDASTYLE0
 72
     5
 11
-48.07410085201263
 21
98.18703162670136
 31
0.0
100
AcDbText
  0
ENDBLK
  5
57
330
55
100
AcDbEntity
  8
0
100
AcDbBlockEnd
  0
BLOCK
  5
59
330
58
100
AcDbEntity
  8
0
100
AcDbBlockBegin
  2
DA_IMAGEDIMGROUP_6
 70
     0
 71
     0
 10
0.0
 20
0.0
 30
0.0
  3
DA_IMAGEDIMGROUP_6
  1

  0
LINE
  5
AD
330
58
100
AcDbEntity
  8
LAYER0014
  6
CONTINUOUS
 62
     7
100
AcDbLine
 10
-72.61695861816406
 20
43.29464340209961
 30
0.0
 11
-72.61695861816406
 21
109.5947570800781
 31
0.0
  0
LINE
  5
AE
330
58
100
AcDbEntity
  8
LAYER0014
  6
CONTINUOUS
 62
     7
100
AcDbLine
 10
-38.61695861816406
 20
43.29464340209961
 30
0.0
 11
-38.61695861816406
 21
109.5947570800781
 31
0.0
  0
LINE
  5
AF
330
58
100
AcDbEntity
  8
LAYER0014
  6
CONTINUOUS
 62
     7
100
AcDbLine
 10
-72.61695861816406
 20
107.3087615966797
 30
0.0
 11
-38.61695861816406
 21
107.3087615966797
 31
0.0
  0
INSERT
  5
B0
330
58
100
AcDbEntity
  8
LAYER0014
 62
     7
100
AcDbBlockReference
  2
_OPEN30
 10
-72.61695861816406
 20
107.3087615966797
 30
0.0
 41
3.000002787824364
 42
2.999989273978464
 50
180.0
  0
INSERT
  5
B1
330
58
100
AcDbEntity
  8
LAYER0014
 62
     7
100
AcDbBlockReference
  2
_OPEN30
 10
-38.61695861816406
 20
107.3087615966797
 30
0.0
 41
3.000002787824364
 42
2.999989273978464
 50
360.0
  0
TEXT
  5
B2
330
58
100
AcDbEntity
  8
LAYER0014
 62
     7
100
AcDbText
 10
-63.15981638431549
 20
108.1087616682053
 30
0.0
 40
3.200000047683716
  1
PCD34
 41
0.7674420720149037
  7
FDASTYLE0
 72
     5
 11
-48.07410085201263
 21
108.1087616682053
 31
0.0
100
AcDbText
  0
ENDBLK
  5
5A
330
58
100
AcDbEntity
  8
0
100
AcDbBlockEnd
  0
BLOCK
  5
5C
330
5B
100
AcDbEntity
  8
0
100
AcDbBlockBegin
  2
DA_IMAGEDIMGROUP_7
 70
     0
 71
     0
 10
0.0
 20
0.0
 30
0.0
  3
DA_IMAGEDIMGROUP_7
  1

  0
LINE
  5
B3
330
5B
100
AcDbEntity
  8
LAYER0014
  6
CONTINUOUS
 62
     7
100
AcDbLine
 10
-80.61695861816406
 20
43.29464340209961
 30
0.0
 11
-80.61695861816406
 21
119.764533996582
 31
0.0
  0
LINE
  5
B4
330
5B
100
AcDbEntity
  8
LAYER0014
  6
CONTINUOUS
 62
     7
100
AcDbLine
 10
-30.61695861816406
 20
43.29464340209961
 30
0.0
 11
-30.61695861816406
 21
119.764533996582
 31
0.0
  0
LINE
  5
B5
330
5B
100
AcDbEntity
  8
LAYER0014
  6
CONTINUOUS
 62
     7
100
AcDbLine
 10
-80.61695861816406
 20
117.4785308837891
 30
0.0
 11
-30.61695861816406
 21
117.4785308837891
 31
0.0
  0
INSERT
  5
B6
330
5B
100
AcDbEntity
  8
LAYER0014
 62
     7
100
AcDbBlockReference
  2
_OPEN30
 10
-80.61695861816406
 20
117.4785308837891
 30
0.0
 41
3.000002787824364
 42
2.999989273978464
 50
180.0
  0
INSERT
  5
B7
330
5B
100
AcDbEntity
  8
LAYER0014
 62
     7
100
AcDbBlockReference
  2
_OPEN30
 10
-30.61695861816406
 20
117.4785308837891
 30
0.0
 41
3.000002787824364
 42
2.999989273978464
 50
360.0
  0
TEXT
  5
B8
330
5B
100
AcDbEntity
  8
LAYER0014
 62
     7
100
AcDbText
 10
-63.15981638431549
 20
118.2785309553146
 30
0.0
 40
3.200000047683716
  1
PCD50
 41
0.7674420720149037
  7
FDASTYLE0
 72
     5
 11
-48.07410085201263
 21
118.2785309553146
 31
0.0
100
AcDbText
  0
ENDBLK
  5
5D
330
5B
100
AcDbEntity
  8
0
100
AcDbBlockEnd
  0
BLOCK
  5
5F
330
5E
100
AcDbEntity
  8
0
100
AcDbBlockBegin
  2
DC_GROUP_1
 70
     0
 71
     0
 10
0.0
 20
0.0
 30
0.0
  3
DC_GROUP_1
  1

  0
INSERT
  5
B9
330
5E
100
AcDbEntity
  8
ZUWAKU
  6
CONTINUOUS
100
AcDbBlockReference
  2
DC_GROUP_2
 10
0.0
 20
0.0
 30
0.0
  0
INSERT
  5
BA
330
5E
100
AcDbEntity
  8
ZUWAKU
  6
CONTINUOUS
100
AcDbBlockReference
  2
DC_GROUP_3
 10
0.0
 20
0.0
 30
0.0
  0
INSERT
  5
BB
330
5E
100
AcDbEntity
  8
ZUWAKU
  6
CONTINUOUS
100
AcDbBlockReference
  2
DC_GROUP_4
 10
0.0
 20
0.0
 30
0.0
  0
INSERT
  5
BC
330
5E
100
AcDbEntity
  8
ZUWAKU
  6
CONTINUOUS
100
AcDbBlockReference
  2
DC_GROUP_5
 10
0.0
 20
0.0
 30
0.0
  0
INSERT
  5
BD
330
5E
100
AcDbEntity
  8
ZUWAKU
  6
CONTINUOUS
100
AcDbBlockReference
  2
DC_GROUP_6
 10
0.0
 20
0.0
 30
0.0
  0
INSERT
  5
BE
330
5E
100
AcDbEntity
  8
ZUWAKU
  6
CONTINUOUS
100
AcDbBlockReference
  2
DC_GROUP_7
 10
0.0
 20
0.0
 30
0.0
  0
INSERT
  5
BF
330
5E
100
AcDbEntity
  8
ZUWAKU
  6
CONTINUOUS
100
AcDbBlockReference
  2
DC_GROUP_8
 10
0.0
 20
0.0
 30
0.0
  0
INSERT
  5
C0
330
5E
100
AcDbEntity
  8
ZUWAKU
  6
CONTINUOUS
100
AcDbBlockReference
  2
DC_GROUP_9
 10
0.0
 20
0.0
 30
0.0
  0
INSERT
  5
C1
330
5E
100
AcDbEntity
  8
ZUWAKU
  6
CONTINUOUS
100
AcDbBlockReference
  2
DC_GROUP_10
 10
0.0
 20
0.0
 30
0.0
  0
INSERT
  5
C2
330
5E
100
AcDbEntity
  8
ZUWAKU
  6
CONTINUOUS
100
AcDbBlockReference
  2
DC_GROUP_11
 10
0.0
 20
0.0
 30
0.0
  0
INSERT
  5
C3
330
5E
100
AcDbEntity
  8
ZUWAKU
  6
CONTINUOUS
100
AcDbBlockReference
  2
DC_GROUP_12
 10
0.0
 20
0.0
 30
0.0
  0
LINE
  5
C4
330
5E
100
AcDbEntity
  8
ZUWAKU
  6
CONTINUOUS
 62
     7
100
AcDbLine
 10
142.1087892274928
 20
-125.2805456568976
 30
0.0
 11
150.7087892274928
 21
-125.2805456568976
 31
0.0
  0
ENDBLK
  5
60
330
5E
100
AcDbEntity
  8
0
100
AcDbBlockEnd
  0
BLOCK
  5
62
330
61
100
AcDbEntity
  8
0
100
AcDbBlockBegin
  2
DC_GROUP_2
 70
     0
 71
     0
 10
0.0
 20
0.0
 30
0.0
  3
DC_GROUP_2
  1

  0
LINE
  5
C5
330
61
100
AcDbEntity
  8
ZUWAKU
  6
CONTINUOUS
 62
     7
100
AcDbLine
 10
89.35165183025544
 20
-124.6311630926134
 30
0.0
 11
91.59687354948625
 21
-124.6311630926134
 31
0.0
  0
LINE
  5
C6
330
61
100
AcDbEntity
  8
ZUWAKU
  6
CONTINUOUS
 62
     7
100
AcDbLine
 10
95.63878922749277
 20
-124.6311630926134
 30
0.0
 11
98.03878922749277
 21
-124.6311630926134
 31
0.0
  0
LINE
  5
C7
330
61
100
AcDbEntity
  8
ZUWAKU
  6
CONTINUOUS
 62
     7
100
AcDbLine
 10
89.46726168621129
 20
-124.1311630926134
 30
0.0
 11
91.76351566976581
 21
-124.1311630926134
 31
0.0
  0
LINE
  5
C8
330
61
100
AcDbEntity
  8
ZUWAKU
  6
CONTINUOUS
 62
     7
100
AcDbLine
 10
95.63878922749277
 20
-124.1311630926134
 30
0.0
 11
98.03878922749277
 21
-124.1311630926134
 31
0.0
  0
LINE
  5
C9
330
61
100
AcDbEntity
  8
ZUWAKU
  6
CONTINUOUS
 62
     7
100
AcDbLine
 10
89.5303266020278
 20
-123.6311630926134
 30
0.0
 11
91.89182732169002
 21
-123.6311630926134
 31
0.0
  0
LINE
  5
CA
330
61
100
AcDbEntity
  8
ZUWAKU
  6
CONTINUOUS
 62
     7
100
AcDbLine
 10
95.63878922749277
 20
-123.6311630926134
 30
0.0
 11
98.03878922749277
 21
-123.6311630926134
 31
0.0
  0
LINE
  5
CB
330
61
100
AcDbEntity
  8
ZUWAKU
  6
CONTINUOUS
 62
     7
100
AcDbLine
 10
89.54283584152765
 20
-123.1311630926134
 30
0.0
 11
91.9838245848816
 21
-123.1311630926134
 31
0.0
  0
LINE
  5
CC
330
61
100
AcDbEntity
  8
ZUWAKU
  6
CONTINUOUS
 62
     7
100
AcDbLine
 10
95.63878922749277
 20
-123.1311630926134
 30
0.0
 11
98.03878922749277
 21
-123.1311630926134
 31
0.0
  0
LINE
  5
CD
330
61
100
AcDbEntity
  8
ZUWAKU
  6
CONTINUOUS
 62
     7
100
AcDbLine
 10
84.0760435361791
 20
-122.6311630926134
 30
0.0
 11
98.03878922749277
 21
-122.6311630926134
 31
0.0
  0
LINE
  5
CE
330
61
100
AcDbEntity
  8
ZUWAKU
  6
CONTINUOUS
 62
     7
100
AcDbLine
 10
84.0760435361791
 20
-122.1311630926134
 30
0.0
 11
98.03878922749277
 21
-122.1311630926134
 31
0.0
  0
LINE
  5
CF
330
61
100
AcDbEntity
  8
ZUWAKU
  6
CONTINUOUS
 62
     7
100
AcDbLine
 10
84.0760435361791
 20
-121.6311630926134
 30
0.0
 11
98.03878922749277
 21
-121.6311630926134
 31
0.0
  0
LINE
  5
D0
330
61
100
AcDbEntity
  8
ZUWAKU
  6
CONTINUOUS
 62
     7
100
AcDbLine
 10
89.53878922749277
 20
-121.1311630926134
 30
0.0
 11
91.93878922749275
 21
-121.1311630926134
 31
0.0
  0
LINE
  5
D1
330
61
100
AcDbEntity
  8
ZUWAKU
  6
CONTINUOUS
 62
     7
100
AcDbLine
 10
89.53878922749277
 20
-120.6311630926134
 30
0.0
 11
91.93878922749275
 21
-120.6311630926134
 31
0.0
  0
LINE
  5
D2
330
61
100
AcDbEntity
  8
ZUWAKU
  6
CONTINUOUS
 62
     7
100
AcDbLine
 10
89.53878922749277
 20
-120.1311630926134
 30
0.0
 11
91.93878922749275
 21
-120.1311630926134
 31
0.0
  0
LINE
  5
D3
330
61
100
AcDbEntity
  8
ZUWAKU
  6
CONTINUOUS
 62
     7
100
AcDbLine
 10
85.93878922749275
 20
-125.1311630926134
 30
0.0
 11
93.93878922749275
 21
-125.1311630926134
 31
0.0
  0
LINE
  5
D4
330
61
100
AcDbEntity
  8
ZUWAKU
  6
CONTINUOUS
 62
     7
100
AcDbLine
 10
95.63878922749277
 20
-125.1311630926134
 30
0.0
 11
98.03878922749277
 21
-125.1311630926134
 31
0.0
  0
LINE
  5
D5
330
61
100
AcDbEntity
  8
ZUWAKU
  6
CONTINUOUS
 62
     7
100
AcDbLine
 10
85.93878922749275
 20
-125.6311630926134
 30
0.0
 11
93.93878922749275
 21
-125.6311630926134
 31
0.0
  0
LINE
  5
D6
330
61
100
AcDbEntity
  8
ZUWAKU
  6
CONTINUOUS
 62
     7
100
AcDbLine
 10
95.63878922749277
 20
-125.6311630926134
 30
0.0
 11
98.03878922749277
 21
-125.6311630926134
 31
0.0
  0
LINE
  5
D7
330
61
100
AcDbEntity
  8
ZUWAKU
  6
CONTINUOUS
 62
     7
100
AcDbLine
 10
85.93878922749275
 20
-126.1311630926134
 30
0.0
 11
93.93878922749275
 21
-126.1311630926134
 31
0.0
  0
LINE
  5
D8
330
61
100
AcDbEntity
  8
ZUWAKU
  6
CONTINUOUS
 62
     7
100
AcDbLine
 10
95.63878922749277
 20
-126.1311630926134
 30
0.0
 11
98.03878922749277
 21
-126.1311630926134
 31
0.0
  0
LINE
  5
D9
330
61
100
AcDbEntity
  8
ZUWAKU
  6
CONTINUOUS
 62
     7
100
AcDbLine
 10
104.096952737354
 20
-126.1311630926134
 30
0.0
 11
107.3341568938955
 21
-126.1311630926134
 31
0.0
  0
LINE
  5
DA
330
61
100
AcDbEntity
  8
ZUWAKU
  6
CONTINUOUS
 62
     7
100
AcDbLine
 10
88.23358426465478
 20
-126.6311630926134
 30
0.0
 11
90.47011079909177
 21
-126.6311630926134
 31
0.0
  0
LINE
  5
DB
330
61
100
AcDbEntity
  8
ZUWAKU
  6
CONTINUOUS
 62
     7
100
AcDbLine
 10
95.63878922749277
 20
-126.6311630926134
 30
0.0
 11
98.03878922749277
 21
-126.6311630926134
 31
0.0
  0
LINE
  5
DC
330
61
100
AcDbEntity
  8
ZUWAKU
  6
CONTINUOUS
 62
     7
100
AcDbLine
 10
103.3887392757907
 20
-126.6311630926134
 30
0.0
 11
106.8258040797377
 21
-126.6311630926134
 31
0.0
  0
LINE
  5
DD
330
61
100
AcDbEntity
  8
ZUWAKU
  6
CONTINUOUS
 62
     7
100
AcDbLine
 10
87.70433394702462
 20
-127.1311630926134
 30
0.0
 11
90.03730274952903
 21
-127.1311630926134
 31
0.0
  0
LINE
  5
DE
330
61
100
AcDbEntity
  8
ZUWAKU
  6
CONTINUOUS
 62
     7
100
AcDbLine
 10
95.63878922749277
 20
-127.1311630926134
 30
0.0
 11
98.03878922749277
 21
-127.1311630926134
 31
0.0
  0
LINE
  5
DF
330
61
100
AcDbEntity
  8
ZUWAKU
  6
CONTINUOUS
 62
     7
100
AcDbLine
 10
102.517791899602
 20
-127.1311630926134
 30
0.0
 11
106.2404911236216
 21
-127.1311630926134
 31
0.0
  0
LINE
  5
E0
330
61
100
AcDbEntity
  8
ZUWAKU
  6
CONTINUOUS
 62
     7
100
AcDbLine
 10
86.9652023607706
 20
-127.6311630926134
 30
0.0
 11
89.51516386938636
 21
-127.6311630926134
 31
0.0
  0
LINE
  5
E1
330
61
100
AcDbEntity
  8
ZUWAKU
  6
CONTINUOUS
 62
     7
100
AcDbLine
 10
95.63878922749277
 20
-127.6311630926134
 30
0.0
 11
98.03878922749277
 21
-127.6311630926134
 31
0.0
  0
LINE
  5
E2
330
61
100
AcDbEntity
  8
ZUWAKU
  6
CONTINUOUS
 62
     7
100
AcDbLine
 10
101.3605623070621
 20
-127.6311630926134
 30
0.0
 11
105.5552904444523
 21
-127.6311630926134
 31
0.0
  0
LINE
  5
E3
330
61
100
AcDbEntity
  8
ZUWAKU
  6
CONTINUOUS
 62
     7
100
AcDbLine
 10
85.65587841065769
 20
-128.1311630926134
 30
0.0
 11
88.87055784485733
 21
-128.1311630926134
 31
0.0
  0
LINE
  5
E4
330
61
100
AcDbEntity
  8
ZUWAKU
  6
CONTINUOUS
 62
     7
100
AcDbLine
 10
95.63878922749277
 20
-128.1311630926134
 30
0.0
 11
98.03878922749277
 21
-128.1311630926134
 31
0.0
  0
LINE
  5
E5
330
61
100
AcDbEntity
  8
ZUWAKU
  6
CONTINUOUS
 62
     7
100
AcDbLine
 10
99.30794755104421
 20
-128.1311630926134
 30
0.0
 11
104.7297615405369
 21
-128.1311630926134
 31
0.0
  0
LINE
  5
E6
330
61
100
AcDbEntity
  8
ZUWAKU
  6
CONTINUOUS
 62
     7
100
AcDbLine
 10
84.0760435361791
 20
-128.6311630926134
 30
0.0
 11
88.03391935692378
 21
-128.6311630926134
 31
0.0
  0
LINE
  5
E7
330
61
100
AcDbEntity
  8
ZUWAKU
  6
CONTINUOUS
 62
     7
100
AcDbLine
 10
95.66726396437906
 20
-128.6311630926134
 30
0.0
 11
103.6780576908944
 21
-128.6311630926134
 31
0.0
  0
LINE
  5
E8
330
61
100
AcDbEntity
  8
ZUWAKU
  6
CONTINUOUS
 62
     7
100
AcDbLine
 10
84.0760435361791
 20
-129.1311630926134
 30
0.0
 11
86.78940571638157
 21
-129.1311630926134
 31
0.0
  0
LINE
  5
E9
330
61
100
AcDbEntity
  8
ZUWAKU
  6
CONTINUOUS
 62
     7
100
AcDbLine
 10
97.22069417941867
 20
-129.1311630926134
 30
0.0
 11
102.1246274758548
 21
-129.1311630926134
 31
0.0
  0
ENDBLK
  5
63
330
61
100
AcDbEntity
  8
0
100
AcDbBlockEnd
  0
BLOCK
  5
65
330
64
100
AcDbEntity
  8
0
100
AcDbBlockBegin
  2
DC_GROUP_3
 70
     0
 71
     0
 10
0.0
 20
0.0
 30
0.0
  3
DC_GROUP_3
  1

  0
LINE
  5
EA
330
64
100
AcDbEntity
  8
ZUWAKU
  6
CONTINUOUS
 62
     7
100
AcDbLine
 10
100.0387892274928
 20
-124.4194543431024
 30
0.0
 11
111.4387892274928
 21
-124.4194543431024
 31
0.0
  0
LINE
  5
EB
330
64
100
AcDbEntity
  8
ZUWAKU
  6
CONTINUOUS
 62
     7
100
AcDbLine
 10
100.0387892274928
 20
-123.9194543431024
 30
0.0
 11
111.4387892274928
 21
-123.9194543431024
 31
0.0
  0
LINE
  5
EC
330
64
100
AcDbEntity
  8
ZUWAKU
  6
CONTINUOUS
 62
     7
100
AcDbLine
 10
100.0387892274928
 20
-124.9194543431024
 30
0.0
 11
111.4387892274928
 21
-124.9194543431024
 31
0.0
  0
ENDBLK
  5
66
330
64
100
AcDbEntity
  8
0
100
AcDbBlockEnd
  0
BLOCK
  5
68
330
67
100
AcDbEntity
  8
0
100
AcDbBlockBegin
  2
DC_GROUP_4
 70
     0
 71
     0
 10
0.0
 20
0.0
 30
0.0
  3
DC_GROUP_4
  1

  0
LINE
  5
ED
330
67
100
AcDbEntity
  8
ZUWAKU
  6
CONTINUOUS
 62
     7
100
AcDbLine
 10
113.868685242535
 20
-125.3
 30
0.0
 11
116.4387892274927
 21
-125.3
 31
0.0
  0
LINE
  5
EE
330
67
100
AcDbEntity
  8
ZUWAKU
  6
CONTINUOUS
 62
     7
100
AcDbLine
 10
116.9804261981854
 20
-125.3
 30
0.0
 11
117.6387892274927
 21
-125.3
 31
0.0
  0
LINE
  5
EF
330
67
100
AcDbEntity
  8
ZUWAKU
  6
CONTINUOUS
 62
     7
100
AcDbLine
 10
114.0326078302302
 20
-124.8
 30
0.0
 11
117.6387892274927
 21
-124.8
 31
0.0
  0
LINE
  5
F0
330
67
100
AcDbEntity
  8
ZUWAKU
  6
CONTINUOUS
 62
     7
100
AcDbLine
 10
114.1497493012434
 20
-124.3
 30
0.0
 11
117.4596077128393
 21
-124.3
 31
0.0
  0
LINE
  5
F1
330
67
100
AcDbEntity
  8
ZUWAKU
  6
CONTINUOUS
 62
     7
100
AcDbLine
 10
114.2228649176045
 20
-123.8
 30
0.0
 11
116.7096077128392
 21
-123.8
 31
0.0
  0
LINE
  5
F2
330
67
100
AcDbEntity
  8
ZUWAKU
  6
CONTINUOUS
 62
     7
100
AcDbLine
 10
112.9387892274928
 20
-123.3
 30
0.0
 11
117.6387892274928
 21
-123.3
 31
0.0
  0
LINE
  5
F3
330
67
100
AcDbEntity
  8
ZUWAKU
  6
CONTINUOUS
 62
     7
100
AcDbLine
 10
112.9387892274928
 20
-122.8
 30
0.0
 11
117.6387892274928
 21
-122.8
 31
0.0
  0
LINE
  5
F4
330
67
100
AcDbEntity
  8
ZUWAKU
  6
CONTINUOUS
 62
     7
100
AcDbLine
 10
115.0387892274928
 20
-122.3
 30
0.0
 11
116.4387892274928
 21
-122.3
 31
0.0
  0
LINE
  5
F5
330
67
100
AcDbEntity
  8
ZUWAKU
  6
CONTINUOUS
 62
     7
100
AcDbLine
 10
115.0387892274928
 20
-121.8
 30
0.0
 11
116.4387892274928
 21
-121.8
 31
0.0
  0
LINE
  5
F6
330
67
100
AcDbEntity
  8
ZUWAKU
  6
CONTINUOUS
 62
     7
100
AcDbLine
 10
113.6537221687955
 20
-125.8
 30
0.0
 11
116.4387892274927
 21
-125.8
 31
0.0
  0
LINE
  5
F7
330
67
100
AcDbEntity
  8
ZUWAKU
  6
CONTINUOUS
 62
     7
100
AcDbLine
 10
113.3813020865958
 20
-126.3
 30
0.0
 11
116.4387892274927
 21
-126.3
 31
0.0
  0
LINE
  5
F8
330
67
100
AcDbEntity
  8
ZUWAKU
  6
CONTINUOUS
 62
     7
100
AcDbLine
 10
113.0416255031697
 20
-126.8
 30
0.0
 11
116.4387892274927
 21
-126.8
 31
0.0
  0
LINE
  5
F9
330
67
100
AcDbEntity
  8
ZUWAKU
  6
CONTINUOUS
 62
     7
100
AcDbLine
 10
112.8387892274928
 20
-127.3
 30
0.0
 11
114.0551818242379
 21
-127.3
 31
0.0
  0
LINE
  5
FA
330
67
100
AcDbEntity
  8
ZUWAKU
  6
CONTINUOUS
 62
     7
100
AcDbLine
 10
114.8387892274928
 20
-127.3
 30
0.0
 11
116.4387892274927
 21
-127.3
 31
0.0
  0
LINE
  5
FB
330
67
100
AcDbEntity
  8
ZUWAKU
  6
CONTINUOUS
 62
     7
100
AcDbLine
 10
112.8387892274928
 20
-127.8
 30
0.0
 11
113.5059314330426
 21
-127.8
 31
0.0
  0
LINE
  5
FC
330
67
100
AcDbEntity
  8
ZUWAKU
  6
CONTINUOUS
 62
     7
100
AcDbLine
 10
114.8387892274928
 20
-127.8
 30
0.0
 11
116.4387892274927
 21
-127.8
 31
0.0
  0
LINE
  5
FD
330
67
100
AcDbEntity
  8
ZUWAKU
  6
CONTINUOUS
 62
     7
100
AcDbLine
 10
114.8387892274928
 20
-128.3
 30
0.0
 11
116.4387892274927
 21
-128.3
 31
0.0
  0
LINE
  5
FE
330
67
100
AcDbEntity
  8
ZUWAKU
  6
CONTINUOUS
 62
     7
100
AcDbLine
 10
114.8387892274928
 20
-128.8
 30
0.0
 11
116.4387892274927
 21
-128.8
 31
0.0
  0
ENDBLK
  5
69
330
67
100
AcDbEntity
  8
0
100
AcDbBlockEnd
  0
BLOCK
  5
6B
330
6A
100
AcDbEntity
  8
0
100
AcDbBlockBegin
  2
DC_GROUP_5
 70
     0
 71
     0
 10
0.0
 20
0.0
 30
0.0
  3
DC_GROUP_5
  1

  0
LINE
  5
FF
330
6A
100
AcDbEntity
  8
ZUWAKU
  6
CONTINUOUS
 62
     7
100
AcDbLine
 10
118.1387892274928
 20
-125.3
 30
0.0
 11
125.2387892274928
 21
-125.3
 31
0.0
  0
LINE
  5
100
330
6A
100
AcDbEntity
  8
ZUWAKU
  6
CONTINUOUS
 62
     7
100
AcDbLine
 10
118.1387892274928
 20
-124.8
 30
0.0
 11
125.2387892274928
 21
-124.8
 31
0.0
  0
LINE
  5
101
330
6A
100
AcDbEntity
  8
ZUWAKU
  6
CONTINUOUS
 62
     7
100
AcDbLine
 10
120.6387892274928
 20
-124.3
 30
0.0
 11
122.4387892274928
 21
-124.3
 31
0.0
  0
LINE
  5
102
330
6A
100
AcDbEntity
  8
ZUWAKU
  6
CONTINUOUS
 62
     7
100
AcDbLine
 10
120.6387892274928
 20
-123.8
 30
0.0
 11
122.4387892274928
 21
-123.8
 31
0.0
  0
LINE
  5
103
330
6A
100
AcDbEntity
  8
ZUWAKU
  6
CONTINUOUS
 62
     7
100
AcDbLine
 10
118.1387892274928
 20
-123.3
 30
0.0
 11
125.0387892274928
 21
-123.3
 31
0.0
  0
LINE
  5
104
330
6A
100
AcDbEntity
  8
ZUWAKU
  6
CONTINUOUS
 62
     7
100
AcDbLine
 10
118.1387892274928
 20
-122.8
 30
0.0
 11
125.0387892274928
 21
-122.8
 31
0.0
  0
LINE
  5
105
330
6A
100
AcDbEntity
  8
ZUWAKU
  6
CONTINUOUS
 62
     7
100
AcDbLine
 10
118.1387892274928
 20
-122.3
 30
0.0
 11
119.6987892274928
 21
-122.3
 31
0.0
  0
LINE
  5
106
330
6A
100
AcDbEntity
  8
ZUWAKU
  6
CONTINUOUS
 62
     7
100
AcDbLine
 10
120.6387892274928
 20
-122.3
 30
0.0
 11
122.4387892274928
 21
-122.3
 31
0.0
  0
LINE
  5
107
330
6A
100
AcDbEntity
  8
ZUWAKU
  6
CONTINUOUS
 62
     7
100
AcDbLine
 10
118.1387892274928
 20
-121.8
 30
0.0
 11
119.6987892274928
 21
-121.8
 31
0.0
  0
LINE
  5
108
330
6A
100
AcDbEntity
  8
ZUWAKU
  6
CONTINUOUS
 62
     7
100
AcDbLine
 10
120.6387892274928
 20
-121.8
 30
0.0
 11
122.4387892274928
 21
-121.8
 31
0.0
  0
LINE
  5
109
330
6A
100
AcDbEntity
  8
ZUWAKU
  6
CONTINUOUS
 62
     7
100
AcDbLine
 10
119.3710775742892
 20
-125.8
 30
0.0
 11
123.9699102013286
 21
-125.8
 31
0.0
  0
LINE
  5
10A
330
6A
100
AcDbEntity
  8
ZUWAKU
  6
CONTINUOUS
 62
     7
100
AcDbLine
 10
119.1946366841975
 20
-126.3
 30
0.0
 11
124.0763328057558
 21
-126.3
 31
0.0
  0
LINE
  5
10B
330
6A
100
AcDbEntity
  8
ZUWAKU
  6
CONTINUOUS
 62
     7
100
AcDbLine
 10
118.9369071141096
 20
-126.8
 30
0.0
 11
124.2532029804198
 21
-126.8
 31
0.0
  0
LINE
  5
10C
330
6A
100
AcDbEntity
  8
ZUWAKU
  6
CONTINUOUS
 62
     7
100
AcDbLine
 10
118.5774062470682
 20
-127.3
 30
0.0
 11
120.5436738121294
 21
-127.3
 31
0.0
  0
LINE
  5
10D
330
6A
100
AcDbEntity
  8
ZUWAKU
  6
CONTINUOUS
 62
     7
100
AcDbLine
 10
120.6387892274928
 20
-127.3
 30
0.0
 11
124.5114458130709
 21
-127.3
 31
0.0
  0
LINE
  5
10E
330
6A
100
AcDbEntity
  8
ZUWAKU
  6
CONTINUOUS
 62
     7
100
AcDbLine
 10
118.0735203197523
 20
-127.8
 30
0.0
 11
120.0855569632093
 21
-127.8
 31
0.0
  0
LINE
  5
10F
330
6A
100
AcDbEntity
  8
ZUWAKU
  6
CONTINUOUS
 62
     7
100
AcDbLine
 10
120.6387892274928
 20
-127.8
 30
0.0
 11
122.4387892274928
 21
-127.8
 31
0.0
  0
LINE
  5
110
330
6A
100
AcDbEntity
  8
ZUWAKU
  6
CONTINUOUS
 62
     7
100
AcDbLine
 10
122.7481828946584
 20
-127.8
 30
0.0
 11
124.8716218840728
 21
-127.8
 31
0.0
  0
LINE
  5
111
330
6A
100
AcDbEntity
  8
ZUWAKU
  6
CONTINUOUS
 62
     7
100
AcDbLine
 10
117.8387892274928
 20
-128.3
 30
0.0
 11
119.5020297014234
 21
-128.3
 31
0.0
  0
LINE
  5
112
330
6A
100
AcDbEntity
  8
ZUWAKU
  6
CONTINUOUS
 62
     7
100
AcDbLine
 10
120.6387892274928
 20
-128.3
 30
0.0
 11
122.4387892274928
 21
-128.3
 31
0.0
  0
LINE
  5
113
330
6A
100
AcDbEntity
  8
ZUWAKU
  6
CONTINUOUS
 62
     7
100
AcDbLine
 10
123.2524034851286
 20
-128.3
 30
0.0
 11
125.2387892274928
 21
-128.3
 31
0.0
  0
LINE
  5
114
330
6A
100
AcDbEntity
  8
ZUWAKU
  6
CONTINUOUS
 62
     7
100
AcDbLine
 10
117.8387892274928
 20
-128.8
 30
0.0
 11
118.7162450683756
 21
-128.8
 31
0.0
  0
LINE
  5
115
330
6A
100
AcDbEntity
  8
ZUWAKU
  6
CONTINUOUS
 62
     7
100
AcDbLine
 10
120.6387892274928
 20
-128.8
 30
0.0
 11
122.4387892274928
 21
-128.8
 31
0.0
  0
LINE
  5
116
330
6A
100
AcDbEntity
  8
ZUWAKU
  6
CONTINUOUS
 62
     7
100
AcDbLine
 10
124.019578369291
 20
-128.8
 30
0.0
 11
125.2387892274928
 21
-128.8
 31
0.0
  0
ENDBLK
  5
6C
330
6A
100
AcDbEntity
  8
0
100
AcDbBlockEnd
  0
BLOCK
  5
6E
330
6D
100
AcDbEntity
  8
0
100
AcDbBlockBegin
  2
DC_GROUP_6
 70
     0
 71
     0
 10
0.0
 20
0.0
 30
0.0
  3
DC_GROUP_6
  1

  0
LINE
  5
117
330
6D
100
AcDbEntity
  8
ZUWAKU
  6
CONTINUOUS
 62
     7
100
AcDbLine
 10
134.1387892274928
 20
-125.3
 30
0.0
 11
136.2887892274928
 21
-125.3
 31
0.0
  0
LINE
  5
118
330
6D
100
AcDbEntity
  8
ZUWAKU
  6
CONTINUOUS
 62
     7
100
AcDbLine
 10
134.1387892274928
 20
-124.8
 30
0.0
 11
136.2887892274928
 21
-124.8
 31
0.0
  0
LINE
  5
119
330
6D
100
AcDbEntity
  8
ZUWAKU
  6
CONTINUOUS
 62
     7
100
AcDbLine
 10
134.1387892274928
 20
-124.3
 30
0.0
 11
136.2887892274928
 21
-124.3
 31
0.0
  0
LINE
  5
11A
330
6D
100
AcDbEntity
  8
ZUWAKU
  6
CONTINUOUS
 62
     7
100
AcDbLine
 10
134.1387892274928
 20
-123.8
 30
0.0
 11
136.2887892274928
 21
-123.8
 31
0.0
  0
LINE
  5
11B
330
6D
100
AcDbEntity
  8
ZUWAKU
  6
CONTINUOUS
 62
     7
100
AcDbLine
 10
126.6387892274928
 20
-123.3
 30
0.0
 11
139.2087892274928
 21
-123.3
 31
0.0
  0
LINE
  5
11C
330
6D
100
AcDbEntity
  8
ZUWAKU
  6
CONTINUOUS
 62
     7
100
AcDbLine
 10
126.6387892274928
 20
-122.8
 30
0.0
 11
139.2087892274928
 21
-122.8
 31
0.0
  0
LINE
  5
11D
330
6D
100
AcDbEntity
  8
ZUWAKU
  6
CONTINUOUS
 62
     7
100
AcDbLine
 10
134.1387892274928
 20
-122.3
 30
0.0
 11
136.2887892274928
 21
-122.3
 31
0.0
  0
LINE
  5
11E
330
6D
100
AcDbEntity
  8
ZUWAKU
  6
CONTINUOUS
 62
     7
100
AcDbLine
 10
137.6887892274928
 20
-122.3
 30
0.0
 11
139.2087892274928
 21
-122.3
 31
0.0
  0
LINE
  5
11F
330
6D
100
AcDbEntity
  8
ZUWAKU
  6
CONTINUOUS
 62
     7
100
AcDbLine
 10
134.1387892274928
 20
-121.8
 30
0.0
 11
136.2887892274928
 21
-121.8
 31
0.0
  0
LINE
  5
120
330
6D
100
AcDbEntity
  8
ZUWAKU
  6
CONTINUOUS
 62
     7
100
AcDbLine
 10
137.6887892274928
 20
-121.8
 30
0.0
 11
139.2087892274928
 21
-121.8
 31
0.0
  0
LINE
  5
121
330
6D
100
AcDbEntity
  8
ZUWAKU
  6
CONTINUOUS
 62
     7
100
AcDbLine
 10
134.1387892274928
 20
-125.8
 30
0.0
 11
136.2887892274928
 21
-125.8
 31
0.0
  0
LINE
  5
122
330
6D
100
AcDbEntity
  8
ZUWAKU
  6
CONTINUOUS
 62
     7
100
AcDbLine
 10
134.1387892274928
 20
-126.3
 30
0.0
 11
136.2887892274928
 21
-126.3
 31
0.0
  0
LINE
  5
123
330
6D
100
AcDbEntity
  8
ZUWAKU
  6
CONTINUOUS
 62
     7
100
AcDbLine
 10
134.1387892274928
 20
-126.8
 30
0.0
 11
136.2887892274928
 21
-126.8
 31
0.0
  0
LINE
  5
124
330
6D
100
AcDbEntity
  8
ZUWAKU
  6
CONTINUOUS
 62
     7
100
AcDbLine
 10
137.6282608853097
 20
-126.8
 30
0.0
 11
139.0738484742114
 21
-126.8
 31
0.0
  0
LINE
  5
125
330
6D
100
AcDbEntity
  8
ZUWAKU
  6
CONTINUOUS
 62
     7
100
AcDbLine
 10
134.1387892274928
 20
-127.3
 30
0.0
 11
136.2887892274928
 21
-127.3
 31
0.0
  0
LINE
  5
126
330
6D
100
AcDbEntity
  8
ZUWAKU
  6
CONTINUOUS
 62
     7
100
AcDbLine
 10
137.4138773770978
 20
-127.3
 30
0.0
 11
138.827646646738
 21
-127.3
 31
0.0
  0
LINE
  5
127
330
6D
100
AcDbEntity
  8
ZUWAKU
  6
CONTINUOUS
 62
     7
100
AcDbLine
 10
134.1387892274928
 20
-127.8
 30
0.0
 11
136.2887892274928
 21
-127.8
 31
0.0
  0
LINE
  5
128
330
6D
100
AcDbEntity
  8
ZUWAKU
  6
CONTINUOUS
 62
     7
100
AcDbLine
 10
136.9870764636824
 20
-127.8
 30
0.0
 11
138.4831923048909
 21
-127.8
 31
0.0
  0
LINE
  5
129
330
6D
100
AcDbEntity
  8
ZUWAKU
  6
CONTINUOUS
 62
     7
100
AcDbLine
 10
134.1387892274928
 20
-128.3
 30
0.0
 11
138.002177995675
 21
-128.3
 31
0.0
  0
LINE
  5
12A
330
6D
100
AcDbEntity
  8
ZUWAKU
  6
CONTINUOUS
 62
     7
100
AcDbLine
 10
134.1387892274928
 20
-128.8
 30
0.0
 11
137.2842412730539
 21
-128.8
 31
0.0
  0
ENDBLK
  5
6F
330
6D
100
AcDbEntity
  8
0
100
AcDbBlockEnd
  0
BLOCK
  5
71
330
70
100
AcDbEntity
  8
0
100
AcDbBlockBegin
  2
DC_GROUP_7
 70
     0
 71
     0
 10
0.0
 20
0.0
 30
0.0
  3
DC_GROUP_7
  1

  0
LINE
  5
12B
330
70
100
AcDbEntity
  8
ZUWAKU
  6
CONTINUOUS
 62
     7
100
AcDbLine
 10
129.3387892274928
 20
-127.0
 30
0.0
 11
131.4387892274928
 21
-127.0
 31
0.0
  0
LINE
  5
12C
330
70
100
AcDbEntity
  8
ZUWAKU
  6
CONTINUOUS
 62
     7
100
AcDbLine
 10
129.3387892274928
 20
-126.5
 30
0.0
 11
131.4387892274928
 21
-126.5
 31
0.0
  0
LINE
  5
12D
330
70
100
AcDbEntity
  8
ZUWAKU
  6
CONTINUOUS
 62
     7
100
AcDbLine
 10
129.3387892274928
 20
-126.0
 30
0.0
 11
131.4387892274928
 21
-126.0
 31
0.0
  0
LINE
  5
12E
330
70
100
AcDbEntity
  8
ZUWAKU
  6
CONTINUOUS
 62
     7
100
AcDbLine
 10
126.6387892274928
 20
-125.5
 30
0.0
 11
133.2387892274928
 21
-125.5
 31
0.0
  0
LINE
  5
12F
330
70
100
AcDbEntity
  8
ZUWAKU
  6
CONTINUOUS
 62
     7
100
AcDbLine
 10
126.6387892274928
 20
-125.0
 30
0.0
 11
133.2387892274928
 21
-125.0
 31
0.0
  0
LINE
  5
130
330
70
100
AcDbEntity
  8
ZUWAKU
  6
CONTINUOUS
 62
     7
100
AcDbLine
 10
126.6387892274928
 20
-127.5
 30
0.0
 11
133.2387892274928
 21
-127.5
 31
0.0
  0
LINE
  5
131
330
70
100
AcDbEntity
  8
ZUWAKU
  6
CONTINUOUS
 62
     7
100
AcDbLine
 10
126.6387892274928
 20
-128.0
 30
0.0
 11
133.2387892274928
 21
-128.0
 31
0.0
  0
LINE
  5
132
330
70
100
AcDbEntity
  8
ZUWAKU
  6
CONTINUOUS
 62
     7
100
AcDbLine
 10
126.6387892274928
 20
-128.5
 30
0.0
 11
132.8181096258466
 21
-128.5
 31
0.0
  0
LINE
  5
133
330
70
100
AcDbEntity
  8
ZUWAKU
  6
CONTINUOUS
 62
     7
100
AcDbLine
 10
126.6387892274928
 20
-129.0
 30
0.0
 11
130.401216022673
 21
-129.0
 31
0.0
  0
ENDBLK
  5
72
330
70
100
AcDbEntity
  8
0
100
AcDbBlockEnd
  0
BLOCK
  5
74
330
73
100
AcDbEntity
  8
0
100
AcDbBlockBegin
  2
DC_GROUP_8
 70
     0
 71
     0
 10
0.0
 20
0.0
 30
0.0
  3
DC_GROUP_8
  1

  0
LINE
  5
134
330
73
100
AcDbEntity
  8
ZUWAKU
  6
CONTINUOUS
 62
     7
100
AcDbLine
 10
161.9087892274928
 20
-125.3
 30
0.0
 11
163.8087892274928
 21
-125.3
 31
0.0
  0
LINE
  5
135
330
73
100
AcDbEntity
  8
ZUWAKU
  6
CONTINUOUS
 62
     7
100
AcDbLine
 10
161.9087892274928
 20
-124.8
 30
0.0
 11
163.8087892274928
 21
-124.8
 31
0.0
  0
LINE
  5
136
330
73
100
AcDbEntity
  8
ZUWAKU
  6
CONTINUOUS
 62
     7
100
AcDbLine
 10
161.9087892274928
 20
-124.3
 30
0.0
 11
163.8087892274928
 21
-124.3
 31
0.0
  0
LINE
  5
137
330
73
100
AcDbEntity
  8
ZUWAKU
  6
CONTINUOUS
 62
     7
100
AcDbLine
 10
160.1087892274928
 20
-123.8
 30
0.0
 11
165.4087892274928
 21
-123.8
 31
0.0
  0
LINE
  5
138
330
73
100
AcDbEntity
  8
ZUWAKU
  6
CONTINUOUS
 62
     7
100
AcDbLine
 10
160.1087892274928
 20
-123.3
 30
0.0
 11
165.4087892274928
 21
-123.3
 31
0.0
  0
LINE
  5
139
330
73
100
AcDbEntity
  8
ZUWAKU
  6
CONTINUOUS
 62
     7
100
AcDbLine
 10
160.1087892274928
 20
-122.8
 30
0.0
 11
165.4087892274928
 21
-122.8
 31
0.0
  0
LINE
  5
13A
330
73
100
AcDbEntity
  8
ZUWAKU
  6
CONTINUOUS
 62
     7
100
AcDbLine
 10
161.9087892274928
 20
-122.3
 30
0.0
 11
163.8087892274928
 21
-122.3
 31
0.0
  0
LINE
  5
13B
330
73
100
AcDbEntity
  8
ZUWAKU
  6
CONTINUOUS
 62
     7
100
AcDbLine
 10
161.9087892274928
 20
-121.8
 30
0.0
 11
163.8087892274928
 21
-121.8
 31
0.0
  0
LINE
  5
13C
330
73
100
AcDbEntity
  8
ZUWAKU
  6
CONTINUOUS
 62
     7
100
AcDbLine
 10
161.9087892274928
 20
-125.8
 30
0.0
 11
163.8087892274928
 21
-125.8
 31
0.0
  0
LINE
  5
13D
330
73
100
AcDbEntity
  8
ZUWAKU
  6
CONTINUOUS
 62
     7
100
AcDbLine
 10
161.9087892274928
 20
-126.3
 30
0.0
 11
163.8087892274928
 21
-126.3
 31
0.0
  0
LINE
  5
13E
330
73
100
AcDbEntity
  8
ZUWAKU
  6
CONTINUOUS
 62
     7
100
AcDbLine
 10
161.9087892274928
 20
-126.8
 30
0.0
 11
163.8087892274928
 21
-126.8
 31
0.0
  0
LINE
  5
13F
330
73
100
AcDbEntity
  8
ZUWAKU
  6
CONTINUOUS
 62
     7
100
AcDbLine
 10
159.9087892274928
 20
-127.3
 30
0.0
 11
165.9087892274928
 21
-127.3
 31
0.0
  0
LINE
  5
140
330
73
100
AcDbEntity
  8
ZUWAKU
  6
CONTINUOUS
 62
     7
100
AcDbLine
 10
159.9087892274928
 20
-127.8
 30
0.0
 11
165.9087892274928
 21
-127.8
 31
0.0
  0
LINE
  5
141
330
73
100
AcDbEntity
  8
ZUWAKU
  6
CONTINUOUS
 62
     7
100
AcDbLine
 10
159.9087892274928
 20
-128.3
 30
0.0
 11
165.9087892274928
 21
-128.3
 31
0.0
  0
LINE
  5
142
330
73
100
AcDbEntity
  8
ZUWAKU
  6
CONTINUOUS
 62
     7
100
AcDbLine
 10
159.9087892274928
 20
-128.8
 30
0.0
 11
165.9087892274928
 21
-128.8
 31
0.0
  0
ENDBLK
  5
75
330
73
100
AcDbEntity
  8
0
100
AcDbBlockEnd
  0
BLOCK
  5
77
330
76
100
AcDbEntity
  8
0
100
AcDbBlockBegin
  2
DC_GROUP_9
 70
     0
 71
     0
 10
0.0
 20
0.0
 30
0.0
  3
DC_GROUP_9
  1

  0
LINE
  5
143
330
76
100
AcDbEntity
  8
ZUWAKU
  6
CONTINUOUS
 62
     7
100
AcDbLine
 10
142.0290123179159
 20
-122.9012995588781
 30
0.0
 11
146.1751909132499
 21
-122.9012995588781
 31
0.0
  0
LINE
  5
144
330
76
100
AcDbEntity
  8
ZUWAKU
  6
CONTINUOUS
 62
     7
100
AcDbLine
 10
146.2461840856813
 20
-122.9012995588781
 30
0.0
 11
150.4121204135419
 21
-122.9012995588781
 31
0.0
  0
LINE
  5
145
330
76
100
AcDbEntity
  8
ZUWAKU
  6
CONTINUOUS
 62
     7
100
AcDbLine
 10
143.1401471465979
 20
-122.4012995588781
 30
0.0
 11
149.2860266898551
 21
-122.4012995588781
 31
0.0
  0
LINE
  5
146
330
76
100
AcDbEntity
  8
ZUWAKU
  6
CONTINUOUS
 62
     7
100
AcDbLine
 10
143.8732368535464
 20
-121.9012995588781
 30
0.0
 11
148.5474608550474
 21
-121.9012995588781
 31
0.0
  0
LINE
  5
147
330
76
100
AcDbEntity
  8
ZUWAKU
  6
CONTINUOUS
 62
     7
100
AcDbLine
 10
140.7087892274928
 20
-123.4012995588781
 30
0.0
 11
145.2579846816768
 21
-123.4012995588781
 31
0.0
  0
LINE
  5
148
330
76
100
AcDbEntity
  8
ZUWAKU
  6
CONTINUOUS
 62
     7
100
AcDbLine
 10
147.2611423250065
 20
-123.4012995588781
 30
0.0
 11
152.7087892274928
 21
-123.4012995588781
 31
0.0
  0
LINE
  5
149
330
76
100
AcDbEntity
  8
ZUWAKU
  6
CONTINUOUS
 62
     7
100
AcDbLine
 10
140.7087892274928
 20
-123.9012995588781
 30
0.0
 11
144.0034845361646
 21
-123.9012995588781
 31
0.0
  0
LINE
  5
14A
330
76
100
AcDbEntity
  8
ZUWAKU
  6
CONTINUOUS
 62
     7
100
AcDbLine
 10
148.6320196162848
 20
-123.9012995588781
 30
0.0
 11
152.7087892274928
 21
-123.9012995588781
 31
0.0
  0
ENDBLK
  5
78
330
76
100
AcDbEntity
  8
0
100
AcDbBlockEnd
  0
BLOCK
  5
7A
330
79
100
AcDbEntity
  8
0
100
AcDbBlockBegin
  2
DC_GROUP_10
 70
     0
 71
     0
 10
0.0
 20
0.0
 30
0.0
  3
DC_GROUP_10
  1

  0
LINE
  5
14B
330
79
100
AcDbEntity
  8
ZUWAKU
  6
CONTINUOUS
 62
     7
100
AcDbLine
 10
155.9296195342282
 20
-125.3
 30
0.0
 11
158.5233251552711
 21
-125.3
 31
0.0
  0
LINE
  5
14C
330
79
100
AcDbEntity
  8
ZUWAKU
  6
CONTINUOUS
 62
     7
100
AcDbLine
 10
156.5159704357345
 20
-124.8
 30
0.0
 11
158.7540620573268
 21
-124.8
 31
0.0
  0
LINE
  5
14D
330
79
100
AcDbEntity
  8
ZUWAKU
  6
CONTINUOUS
 62
     7
100
AcDbLine
 10
156.8823930458762
 20
-124.3
 30
0.0
 11
159.042953129825
 21
-124.3
 31
0.0
  0
LINE
  5
14E
330
79
100
AcDbEntity
  8
ZUWAKU
  6
CONTINUOUS
 62
     7
100
AcDbLine
 10
154.1087892274928
 20
-123.8
 30
0.0
 11
159.2555433256213
 21
-123.8
 31
0.0
  0
LINE
  5
14F
330
79
100
AcDbEntity
  8
ZUWAKU
  6
CONTINUOUS
 62
     7
100
AcDbLine
 10
154.1087892274928
 20
-123.3
 30
0.0
 11
159.4027096544478
 21
-123.3
 31
0.0
  0
LINE
  5
150
330
79
100
AcDbEntity
  8
ZUWAKU
  6
CONTINUOUS
 62
     7
100
AcDbLine
 10
154.1087892274928
 20
-122.8
 30
0.0
 11
159.4907805858327
 21
-122.8
 31
0.0
  0
LINE
  5
151
330
79
100
AcDbEntity
  8
ZUWAKU
  6
CONTINUOUS
 62
     7
100
AcDbLine
 10
156.1087892274928
 20
-122.3
 30
0.0
 11
157.7087892274928
 21
-122.3
 31
0.0
  0
LINE
  5
152
330
79
100
AcDbEntity
  8
ZUWAKU
  6
CONTINUOUS
 62
     7
100
AcDbLine
 10
156.1087892274928
 20
-121.8
 30
0.0
 11
157.7087892274928
 21
-121.8
 31
0.0
  0
LINE
  5
153
330
79
100
AcDbEntity
  8
ZUWAKU
  6
CONTINUOUS
 62
     7
100
AcDbLine
 10
154.1087892274928
 20
-125.8
 30
0.0
 11
159.5087892274928
 21
-125.8
 31
0.0
  0
LINE
  5
154
330
79
100
AcDbEntity
  8
ZUWAKU
  6
CONTINUOUS
 62
     7
100
AcDbLine
 10
154.1087892274928
 20
-126.3
 30
0.0
 11
157.7087892274928
 21
-126.3
 31
0.0
  0
LINE
  5
155
330
79
100
AcDbEntity
  8
ZUWAKU
  6
CONTINUOUS
 62
     7
100
AcDbLine
 10
157.986182519373
 20
-126.3
 30
0.0
 11
159.5087892274928
 21
-126.3
 31
0.0
  0
LINE
  5
156
330
79
100
AcDbEntity
  8
ZUWAKU
  6
CONTINUOUS
 62
     7
100
AcDbLine
 10
154.1087892274928
 20
-126.8
 30
0.0
 11
154.7315921200447
 21
-126.8
 31
0.0
  0
LINE
  5
157
330
79
100
AcDbEntity
  8
ZUWAKU
  6
CONTINUOUS
 62
     7
100
AcDbLine
 10
156.1087892274928
 20
-126.8
 30
0.0
 11
157.7087892274928
 21
-126.8
 31
0.0
  0
LINE
  5
158
330
79
100
AcDbEntity
  8
ZUWAKU
  6
CONTINUOUS
 62
     7
100
AcDbLine
 10
156.1087892274928
 20
-127.3
 30
0.0
 11
157.7087892274928
 21
-127.3
 31
0.0
  0
LINE
  5
159
330
79
100
AcDbEntity
  8
ZUWAKU
  6
CONTINUOUS
 62
     7
100
AcDbLine
 10
156.1087892274928
 20
-127.8
 30
0.0
 11
157.7087892274928
 21
-127.8
 31
0.0
  0
LINE
  5
15A
330
79
100
AcDbEntity
  8
ZUWAKU
  6
CONTINUOUS
 62
     7
100
AcDbLine
 10
156.1087892274928
 20
-128.3
 30
0.0
 11
157.7087892274928
 21
-128.3
 31
0.0
  0
LINE
  5
15B
330
79
100
AcDbEntity
  8
ZUWAKU
  6
CONTINUOUS
 62
     7
100
AcDbLine
 10
156.1087892274928
 20
-128.8
 30
0.0
 11
157.7087892274928
 21
-128.8
 31
0.0
  0
ENDBLK
  5
7B
330
79
100
AcDbEntity
  8
0
100
AcDbBlockEnd
  0
BLOCK
  5
7D
330
7C
100
AcDbEntity
  8
0
100
AcDbBlockBegin
  2
DC_GROUP_11
 70
     0
 71
     0
 10
0.0
 20
0.0
 30
0.0
  3
DC_GROUP_11
  1

  0
LINE
  5
15C
330
7C
100
AcDbEntity
  8
ZUWAKU
  6
CONTINUOUS
 62
     7
100
AcDbLine
 10
154.1087892274928
 20
-125.7861668241051
 30
0.0
 11
154.2923523112661
 21
-125.7861668241051
 31
0.0
  0
LINE
  5
15D
330
7C
100
AcDbEntity
  8
ZUWAKU
  6
CONTINUOUS
 62
     7
100
AcDbLine
 10
154.1087892274928
 20
-126.8024216486367
 30
0.0
 11
154.5759951332523
 21
-126.8024216486367
 31
0.0
  0
LINE
  5
15E
330
7C
100
AcDbEntity
  8
ZUWAKU
  6
CONTINUOUS
 62
     7
100
AcDbLine
 10
154.1087892274928
 20
-122.6194543431024
 30
0.0
 11
154.1087892274928
 21
-123.8194543431024
 31
0.0
  0
LINE
  5
15F
330
7C
100
AcDbEntity
  8
ZUWAKU
  6
CONTINUOUS
 62
     7
100
AcDbLine
 10
157.7087892274928
 20
-121.4194543431024
 30
0.0
 11
157.7087892274928
 21
-122.6194543431024
 31
0.0
  0
LINE
  5
160
330
7C
100
AcDbEntity
  8
ZUWAKU
  6
CONTINUOUS
 62
     7
100
AcDbLine
 10
159.9087892274928
 20
-129.1805456568976
 30
0.0
 11
165.9087892274928
 21
-129.1805456568976
 31
0.0
  0
LINE
  5
161
330
7C
100
AcDbEntity
  8
ZUWAKU
  6
CONTINUOUS
 62
     7
100
AcDbLine
 10
156.1087892274928
 20
-126.5616802321412
 30
0.0
 11
156.1087892274928
 21
-129.1805456568976
 31
0.0
  0
LINE
  5
162
330
7C
100
AcDbEntity
  8
ZUWAKU
  6
CONTINUOUS
 62
     7
100
AcDbLine
 10
154.1087892274928
 20
-123.8194543431024
 30
0.0
 11
157.1087892274928
 21
-123.8194543431024
 31
0.0
  0
LINE
  5
163
330
7C
100
AcDbEntity
  8
ZUWAKU
  6
CONTINUOUS
 62
     7
100
AcDbLine
 10
157.7087892274928
 20
-122.6194543431024
 30
0.0
 11
159.5087892274928
 21
-122.6194543431024
 31
0.0
  0
LINE
  5
164
330
7C
100
AcDbEntity
  8
ZUWAKU
  6
CONTINUOUS
 62
     7
100
AcDbLine
 10
154.1087892274928
 20
-122.6194543431024
 30
0.0
 11
156.1087892274928
 21
-122.6194543431024
 31
0.0
  0
LINE
  5
165
330
7C
100
AcDbEntity
  8
ZUWAKU
  6
CONTINUOUS
 62
     7
100
AcDbLine
 10
163.8087892274928
 20
-123.8194543431024
 30
0.0
 11
165.4087892274928
 21
-123.8194543431024
 31
0.0
  0
LINE
  5
166
330
7C
100
AcDbEntity
  8
ZUWAKU
  6
CONTINUOUS
 62
     7
100
AcDbLine
 10
163.8087892274928
 20
-122.6194543431024
 30
0.0
 11
165.4087892274928
 21
-122.6194543431024
 31
0.0
  0
LINE
  5
167
330
7C
100
AcDbEntity
  8
ZUWAKU
  6
CONTINUOUS
 62
     7
100
AcDbLine
 10
163.8087892274928
 20
-123.8194543431024
 30
0.0
 11
163.8087892274928
 21
-127.2194543431024
 31
0.0
  0
LINE
  5
168
330
7C
100
AcDbEntity
  8
ZUWAKU
  6
CONTINUOUS
 62
     7
100
AcDbLine
 10
163.8087892274928
 20
-127.2194543431024
 30
0.0
 11
165.9087892274928
 21
-127.2194543431024
 31
0.0
  0
LINE
  5
169
330
7C
100
AcDbEntity
  8
ZUWAKU
  6
CONTINUOUS
 62
     7
100
AcDbLine
 10
156.1087892274928
 20
-121.4194543431024
 30
0.0
 11
157.7087892274928
 21
-121.4194543431024
 31
0.0
  0
LINE
  5
16A
330
7C
100
AcDbEntity
  8
ZUWAKU
  6
CONTINUOUS
 62
     7
100
AcDbLine
 10
159.9087892274928
 20
-127.2194543431024
 30
0.0
 11
161.9087892274928
 21
-127.2194543431024
 31
0.0
  0
LINE
  5
16B
330
7C
100
AcDbEntity
  8
ZUWAKU
  6
CONTINUOUS
 62
     7
100
AcDbLine
 10
161.9087892274928
 20
-123.8194543431024
 30
0.0
 11
161.9087892274928
 21
-127.2194543431024
 31
0.0
  0
LINE
  5
16C
330
7C
100
AcDbEntity
  8
ZUWAKU
  6
CONTINUOUS
 62
     7
100
AcDbLine
 10
160.1087892274928
 20
-123.8194543431024
 30
0.0
 11
161.9087892274928
 21
-123.8194543431024
 31
0.0
  0
LINE
  5
16D
330
7C
100
AcDbEntity
  8
ZUWAKU
  6
CONTINUOUS
 62
     7
100
AcDbLine
 10
161.9087892274928
 20
-121.4194543431024
 30
0.0
 11
163.8087892274928
 21
-121.4194543431024
 31
0.0
  0
LINE
  5
16E
330
7C
100
AcDbEntity
  8
ZUWAKU
  6
CONTINUOUS
 62
     7
100
AcDbLine
 10
160.1087892274928
 20
-122.6194543431024
 30
0.0
 11
161.9087892274928
 21
-122.6194543431024
 31
0.0
  0
LINE
  5
16F
330
7C
100
AcDbEntity
  8
ZUWAKU
  6
CONTINUOUS
 62
     7
100
AcDbLine
 10
156.1087892274928
 20
-129.1805456568976
 30
0.0
 11
157.7087892274928
 21
-129.1805456568976
 31
0.0
  0
LINE
  5
170
330
7C
100
AcDbEntity
  8
ZUWAKU
  6
CONTINUOUS
 62
     7
100
AcDbLine
 10
165.9087892274928
 20
-127.2194543431024
 30
0.0
 11
165.9087892274928
 21
-129.1805456568976
 31
0.0
  0
LINE
  5
171
330
7C
100
AcDbEntity
  8
ZUWAKU
  6
CONTINUOUS
 62
     7
100
AcDbLine
 10
148.5087892274928
 20
-127.5805456568976
 30
0.0
 11
148.3087892274928
 21
-127.3805456568977
 31
0.0
  0
LINE
  5
172
330
7C
100
AcDbEntity
  8
ZUWAKU
  6
CONTINUOUS
 62
     7
100
AcDbLine
 10
163.8087892274928
 20
-121.4194543431024
 30
0.0
 11
163.8087892274928
 21
-122.6194543431024
 31
0.0
  0
LINE
  5
173
330
7C
100
AcDbEntity
  8
ZUWAKU
  6
CONTINUOUS
 62
     7
100
AcDbLine
 10
165.4087892274928
 20
-122.6194543431024
 30
0.0
 11
165.4087892274928
 21
-123.8194543431024
 31
0.0
  0
LINE
  5
174
330
7C
100
AcDbEntity
  8
ZUWAKU
  6
CONTINUOUS
 62
     7
100
AcDbLine
 10
159.9087892274928
 20
-127.2194543431024
 30
0.0
 11
159.9087892274928
 21
-129.1805456568976
 31
0.0
  0
LINE
  5
175
330
7C
100
AcDbEntity
  8
ZUWAKU
  6
CONTINUOUS
 62
     7
100
AcDbLine
 10
152.7087892274928
 20
-128.3805456568976
 30
0.0
 11
152.7087892274928
 21
-129.1805456568976
 31
0.0
  0
LINE
  5
176
330
7C
100
AcDbEntity
  8
ZUWAKU
  6
CONTINUOUS
 62
     7
100
AcDbLine
 10
161.9087892274928
 20
-121.4194543431024
 30
0.0
 11
161.9087892274928
 21
-122.6194543431024
 31
0.0
  0
LINE
  5
177
330
7C
100
AcDbEntity
  8
ZUWAKU
  6
CONTINUOUS
 62
     7
100
AcDbLine
 10
145.1087892274926
 20
-127.3805456568975
 30
0.0
 11
144.7087892274926
 21
-128.1805456568976
 31
0.0
  0
LINE
  5
178
330
7C
100
AcDbEntity
  8
ZUWAKU
  6
CONTINUOUS
 62
     7
100
AcDbLine
 10
145.1087892274928
 20
-127.3805456568976
 30
0.0
 11
148.3087892274928
 21
-127.3805456568976
 31
0.0
  0
LINE
  5
179
330
7C
100
AcDbEntity
  8
ZUWAKU
  6
CONTINUOUS
 62
     7
100
AcDbLine
 10
150.9087892274928
 20
-127.3805456568976
 30
0.0
 11
152.7087892274928
 21
-127.3805456568976
 31
0.0
  0
LINE
  5
17A
330
7C
100
AcDbEntity
  8
ZUWAKU
  6
CONTINUOUS
 62
     7
100
AcDbLine
 10
142.7087892274926
 20
-127.3805456568975
 30
0.0
 11
141.7087892274926
 21
-129.1805456568975
 31
0.0
  0
LINE
  5
17B
330
7C
100
AcDbEntity
  8
ZUWAKU
  6
CONTINUOUS
 62
     7
100
AcDbLine
 10
160.1087892274928
 20
-122.6194543431024
 30
0.0
 11
160.1087892274928
 21
-123.8194543431024
 31
0.0
  0
LINE
  5
17C
330
7C
100
AcDbEntity
  8
ZUWAKU
  6
CONTINUOUS
 62
     7
100
AcDbLine
 10
152.7087892274928
 20
-123.1805456568976
 30
0.0
 11
152.7087892274928
 21
-124.3831447746538
 31
0.0
  0
LINE
  5
17D
330
7C
100
AcDbEntity
  8
ZUWAKU
  6
CONTINUOUS
 62
     7
100
AcDbLine
 10
140.7087892274928
 20
-123.1805456568976
 30
0.0
 11
140.7087892274928
 21
-124.3831447746538
 31
0.0
  0
LINE
  5
17E
330
7C
100
AcDbEntity
  8
ZUWAKU
  6
CONTINUOUS
 62
     7
100
AcDbLine
 10
159.5087892274928
 20
-125.7805456568976
 30
0.0
 11
159.5087892274928
 21
-126.7805456568976
 31
0.0
  0
LINE
  5
17F
330
7C
100
AcDbEntity
  8
ZUWAKU
  6
CONTINUOUS
 62
     7
100
AcDbLine
 10
156.1087892274928
 20
-121.4194543431024
 30
0.0
 11
156.1087892274928
 21
-122.6194543431024
 31
0.0
  0
LINE
  5
180
330
7C
100
AcDbEntity
  8
ZUWAKU
  6
CONTINUOUS
 62
     7
100
AcDbLine
 10
140.7087892274928
 20
-124.3831447746538
 30
0.0
 11
140.9367708050626
 21
-124.3831447746538
 31
0.0
  0
LINE
  5
181
330
7C
100
AcDbEntity
  8
ZUWAKU
  6
CONTINUOUS
 62
     7
100
AcDbLine
 10
157.7087892274928
 20
-126.2805456568976
 30
0.0
 11
157.7087892274928
 21
-129.1805456568976
 31
0.0
  0
LINE
  5
182
330
7C
100
AcDbEntity
  8
ZUWAKU
  6
CONTINUOUS
 62
     7
100
AcDbLine
 10
144.7087892274928
 20
-128.1805456568976
 30
0.0
 11
146.4016584769222
 21
-128.1805456568976
 31
0.0
  0
LINE
  5
183
330
7C
100
AcDbEntity
  8
ZUWAKU
  6
CONTINUOUS
 62
     7
100
AcDbLine
 10
140.7087892274928
 20
-127.3805456568976
 30
0.0
 11
142.7087892274928
 21
-127.3805456568976
 31
0.0
  0
LINE
  5
184
330
7C
100
AcDbEntity
  8
ZUWAKU
  6
CONTINUOUS
 62
     7
100
AcDbLine
 10
140.7087892274928
 20
-126.3805456568976
 30
0.0
 11
152.7087892274928
 21
-126.3805456568976
 31
0.0
  0
LINE
  5
185
330
7C
100
AcDbEntity
  8
ZUWAKU
  6
CONTINUOUS
 62
     7
100
AcDbLine
 10
142.1087892274928
 20
-125.7805456568976
 30
0.0
 11
150.7087892274928
 21
-125.7805456568976
 31
0.0
  0
LINE
  5
186
330
7C
100
AcDbEntity
  8
ZUWAKU
  6
CONTINUOUS
 62
     7
100
AcDbLine
 10
151.4419344835188
 20
-124.3831447746538
 30
0.0
 11
152.7087892274928
 21
-124.3831447746538
 31
0.0
  0
LINE
  5
187
330
7C
100
AcDbEntity
  8
ZUWAKU
  6
CONTINUOUS
 62
     7
100
AcDbLine
 10
142.1087892274928
 20
-124.7805456568976
 30
0.0
 11
150.7087892274928
 21
-124.7805456568976
 31
0.0
  0
LINE
  5
188
330
7C
100
AcDbEntity
  8
ZUWAKU
  6
CONTINUOUS
 62
     7
100
AcDbLine
 10
150.7087892274928
 20
-124.7805456568976
 30
0.0
 11
150.7087892274928
 21
-125.7805456568976
 31
0.0
  0
LINE
  5
189
330
7C
100
AcDbEntity
  8
ZUWAKU
  6
CONTINUOUS
 62
     7
100
AcDbLine
 10
142.1087892274928
 20
-124.7805456568976
 30
0.0
 11
142.1087892274928
 21
-125.7805456568976
 31
0.0
  0
LINE
  5
18A
330
7C
100
AcDbEntity
  8
ZUWAKU
  6
CONTINUOUS
 62
     7
100
AcDbLine
 10
152.7087892274928
 20
-126.3805456568976
 30
0.0
 11
152.7087892274928
 21
-127.3805456568976
 31
0.0
  0
LINE
  5
18B
330
7C
100
AcDbEntity
  8
ZUWAKU
  6
CONTINUOUS
 62
     7
100
AcDbLine
 10
140.7087892274928
 20
-126.3805456568976
 30
0.0
 11
140.7087892274928
 21
-127.3805456568976
 31
0.0
  0
LINE
  5
18C
330
7C
100
AcDbEntity
  8
ZUWAKU
  6
CONTINUOUS
 62
     7
100
AcDbLine
 10
152.2710592695303
 20
-123.1965342528391
 30
0.0
 11
152.7087892274928
 21
-123.1965342528391
 31
0.0
  0
LINE
  5
18D
330
7C
100
AcDbEntity
  8
ZUWAKU
  6
CONTINUOUS
 62
     7
100
AcDbLine
 10
144.4087892274928
 20
-121.4194543431024
 30
0.0
 11
148.0087892274928
 21
-121.4194543431024
 31
0.0
  0
LINE
  5
18E
330
7C
100
AcDbEntity
  8
ZUWAKU
  6
CONTINUOUS
 62
     7
100
AcDbLine
 10
114.8387892274928
 20
-129.1805456568976
 30
0.0
 11
116.4387892274928
 21
-129.1805456568976
 31
0.0
  0
LINE
  5
18F
330
7C
100
AcDbEntity
  8
ZUWAKU
  6
CONTINUOUS
 62
     7
100
AcDbLine
 10
120.6387892274928
 20
-129.1805456568976
 30
0.0
 11
122.4387892274928
 21
-129.1805456568976
 31
0.0
  0
LINE
  5
190
330
7C
100
AcDbEntity
  8
ZUWAKU
  6
CONTINUOUS
 62
     7
100
AcDbLine
 10
137.6887892274928
 20
-126.4805456568976
 30
0.0
 11
139.1887892274928
 21
-126.4805456568976
 31
0.0
  0
LINE
  5
191
330
7C
100
AcDbEntity
  8
ZUWAKU
  6
CONTINUOUS
 62
     7
100
AcDbLine
 10
136.2887892274928
 20
-123.6194543431024
 30
0.0
 11
139.2087892274928
 21
-123.6194543431024
 31
0.0
  0
LINE
  5
192
330
7C
100
AcDbEntity
  8
ZUWAKU
  6
CONTINUOUS
 62
     7
100
AcDbLine
 10
137.6887892274928
 20
-121.4194543431024
 30
0.0
 11
139.2087892274928
 21
-121.4194543431024
 31
0.0
  0
LINE
  5
193
330
7C
100
AcDbEntity
  8
ZUWAKU
  6
CONTINUOUS
 62
     7
100
AcDbLine
 10
131.4387892274928
 20
-125.7194543431024
 30
0.0
 11
133.2387892274928
 21
-125.7194543431024
 31
0.0
  0
LINE
  5
194
330
7C
100
AcDbEntity
  8
ZUWAKU
  6
CONTINUOUS
 62
     7
100
AcDbLine
 10
126.6387892274928
 20
-125.7194543431024
 30
0.0
 11
129.3387892274928
 21
-125.7194543431024
 31
0.0
  0
LINE
  5
195
330
7C
100
AcDbEntity
  8
ZUWAKU
  6
CONTINUOUS
 62
     7
100
AcDbLine
 10
126.6387892274928
 20
-123.6194543431024
 30
0.0
 11
126.6387892274928
 21
-122.6194543431024
 31
0.0
  0
LINE
  5
196
330
7C
100
AcDbEntity
  8
ZUWAKU
  6
CONTINUOUS
 62
     7
100
AcDbLine
 10
134.1387892274928
 20
-129.1805456568976
 30
0.0
 11
136.2887892274927
 21
-129.1805456568976
 31
0.0
  0
LINE
  5
197
330
7C
100
AcDbEntity
  8
ZUWAKU
  6
CONTINUOUS
 62
     7
100
AcDbLine
 10
131.4387892274928
 20
-127.1194543431024
 30
0.0
 11
133.2387892274928
 21
-127.1194543431024
 31
0.0
  0
LINE
  5
198
330
7C
100
AcDbEntity
  8
ZUWAKU
  6
CONTINUOUS
 62
     7
100
AcDbLine
 10
126.6387892274928
 20
-127.1194543431024
 30
0.0
 11
126.6387892274928
 21
-129.1805456568976
 31
0.0
  0
LINE
  5
199
330
7C
100
AcDbEntity
  8
ZUWAKU
  6
CONTINUOUS
 62
     7
100
AcDbLine
 10
134.1387892274928
 20
-123.6194543431024
 30
0.0
 11
134.1387892274928
 21
-129.1805456568976
 31
0.0
  0
LINE
  5
19A
330
7C
100
AcDbEntity
  8
ZUWAKU
  6
CONTINUOUS
 62
     7
100
AcDbLine
 10
126.6387892274928
 20
-127.1194543431024
 30
0.0
 11
129.3387892274928
 21
-127.1194543431024
 31
0.0
  0
LINE
  5
19B
330
7C
100
AcDbEntity
  8
ZUWAKU
  6
CONTINUOUS
 62
     7
100
AcDbLine
 10
133.2387892274928
 20
-127.1194543431024
 30
0.0
 11
133.2387892274928
 21
-128.3805456568976
 31
0.0
  0
LINE
  5
19C
330
7C
100
AcDbEntity
  8
ZUWAKU
  6
CONTINUOUS
 62
     7
100
AcDbLine
 10
136.2887892274928
 20
-123.6194543431024
 30
0.0
 11
136.2887892274928
 21
-128.1805456568976
 31
0.0
  0
LINE
  5
19D
330
7C
100
AcDbEntity
  8
ZUWAKU
  6
CONTINUOUS
 62
     7
100
AcDbLine
 10
131.4387892274928
 20
-125.7194543431024
 30
0.0
 11
131.4387892274928
 21
-127.1194543431024
 31
0.0
  0
LINE
  5
19E
330
7C
100
AcDbEntity
  8
ZUWAKU
  6
CONTINUOUS
 62
     7
100
AcDbLine
 10
129.3387892274928
 20
-125.7194543431024
 30
0.0
 11
129.3387892274928
 21
-127.1194543431024
 31
0.0
  0
LINE
  5
19F
330
7C
100
AcDbEntity
  8
ZUWAKU
  6
CONTINUOUS
 62
     7
100
AcDbLine
 10
136.2887892274928
 20
-122.6194543431024
 30
0.0
 11
137.6887892274928
 21
-122.6194543431024
 31
0.0
  0
LINE
  5
1A0
330
7C
100
AcDbEntity
  8
ZUWAKU
  6
CONTINUOUS
 62
     7
100
AcDbLine
 10
125.2387892274928
 20
-124.4194543431024
 30
0.0
 11
125.2387892274928
 21
-125.5194543431024
 31
0.0
  0
LINE
  5
1A1
330
7C
100
AcDbEntity
  8
ZUWAKU
  6
CONTINUOUS
 62
     7
100
AcDbLine
 10
126.6387892274928
 20
-124.8194543431024
 30
0.0
 11
126.6387892274928
 21
-125.7194543431024
 31
0.0
  0
LINE
  5
1A2
330
7C
100
AcDbEntity
  8
ZUWAKU
  6
CONTINUOUS
 62
     7
100
AcDbLine
 10
141.7087892274928
 20
-129.1805456568976
 30
0.0
 11
145.1896056390397
 21
-129.1805456568976
 31
0.0
  0
LINE
  5
1A3
330
7C
100
AcDbEntity
  8
ZUWAKU
  6
CONTINUOUS
 62
     7
100
AcDbLine
 10
126.6387892274928
 20
-124.8194543431024
 30
0.0
 11
133.2387892274928
 21
-124.8194543431024
 31
0.0
  0
LINE
  5
1A4
330
7C
100
AcDbEntity
  8
ZUWAKU
  6
CONTINUOUS
 62
     7
100
AcDbLine
 10
114.8387892274928
 20
-126.8069023297954
 30
0.0
 11
114.8387892274928
 21
-129.1805456568976
 31
0.0
  0
LINE
  5
1A5
330
7C
100
AcDbEntity
  8
ZUWAKU
  6
CONTINUOUS
 62
     7
100
AcDbLine
 10
125.2387892274928
 20
-128.1805456568976
 30
0.0
 11
125.2387892274928
 21
-129.1805456568976
 31
0.0
  0
LINE
  5
1A6
330
7C
100
AcDbEntity
  8
ZUWAKU
  6
CONTINUOUS
 62
     7
100
AcDbLine
 10
117.8387892274928
 20
-127.9805456568976
 30
0.0
 11
117.8387892274928
 21
-129.1805456568976
 31
0.0
  0
LINE
  5
1A7
330
7C
100
AcDbEntity
  8
ZUWAKU
  6
CONTINUOUS
 62
     7
100
AcDbLine
 10
112.8387892274928
 20
-127.0538225185832
 30
0.0
 11
112.8387892274928
 21
-128.2069023297954
 31
0.0
  0
LINE
  5
1A8
330
7C
100
AcDbEntity
  8
ZUWAKU
  6
CONTINUOUS
 62
     7
100
AcDbLine
 10
116.4387892274928
 20
-123.6194543431024
 30
0.0
 11
117.6387892274928
 21
-123.6194543431024
 31
0.0
  0
LINE
  5
1A9
330
7C
100
AcDbEntity
  8
ZUWAKU
  6
CONTINUOUS
 62
     7
100
AcDbLine
 10
122.4387892274928
 20
-123.6194543431024
 30
0.0
 11
125.0387892274928
 21
-123.6194543431024
 31
0.0
  0
LINE
  5
1AA
330
7C
100
AcDbEntity
  8
ZUWAKU
  6
CONTINUOUS
 62
     7
100
AcDbLine
 10
123.9387892274928
 20
-125.5194543431024
 30
0.0
 11
125.2387892274928
 21
-125.5194543431024
 31
0.0
  0
LINE
  5
1AB
330
7C
100
AcDbEntity
  8
ZUWAKU
  6
CONTINUOUS
 62
     7
100
AcDbLine
 10
122.4387892274928
 20
-124.4194543431024
 30
0.0
 11
125.2387892274928
 21
-124.4194543431024
 31
0.0
  0
LINE
  5
1AC
330
7C
100
AcDbEntity
  8
ZUWAKU
  6
CONTINUOUS
 62
     7
100
AcDbLine
 10
122.4387892274928
 20
-127.3805456568976
 30
0.0
 11
122.4387892274928
 21
-129.1805456568976
 31
0.0
  0
LINE
  5
1AD
330
7C
100
AcDbEntity
  8
ZUWAKU
  6
CONTINUOUS
 62
     7
100
AcDbLine
 10
120.6387892274928
 20
-127.1805456568976
 30
0.0
 11
120.6387892274928
 21
-129.1805456568976
 31
0.0
  0
LINE
  5
1AE
330
7C
100
AcDbEntity
  8
ZUWAKU
  6
CONTINUOUS
 62
     7
100
AcDbLine
 10
118.1387892274928
 20
-124.4194543431024
 30
0.0
 11
118.1387892274928
 21
-125.5194543431024
 31
0.0
  0
LINE
  5
1AF
330
7C
100
AcDbEntity
  8
ZUWAKU
  6
CONTINUOUS
 62
     7
100
AcDbLine
 10
116.4387892274928
 20
-125.1194543431024
 30
0.0
 11
116.4387892274928
 21
-129.1805456568976
 31
0.0
  0
LINE
  5
1B0
330
7C
100
AcDbEntity
  8
ZUWAKU
  6
CONTINUOUS
 62
     7
100
AcDbLine
 10
114.4387892274928
 20
-126.8069023297954
 30
0.0
 11
114.8387892274928
 21
-126.8069023297954
 31
0.0
  0
LINE
  5
1B1
330
7C
100
AcDbEntity
  8
ZUWAKU
  6
CONTINUOUS
 62
     7
100
AcDbLine
 10
117.6387892274928
 20
-124.4194543431024
 30
0.0
 11
117.6387892274928
 21
-125.5194543431024
 31
0.0
  0
LINE
  5
1B2
330
7C
100
AcDbEntity
  8
ZUWAKU
  6
CONTINUOUS
 62
     7
100
AcDbLine
 10
118.1387892274928
 20
-123.6194543431024
 30
0.0
 11
120.6387892274928
 21
-123.6194543431024
 31
0.0
  0
LINE
  5
1B3
330
7C
100
AcDbEntity
  8
ZUWAKU
  6
CONTINUOUS
 62
     7
100
AcDbLine
 10
122.4387892274928
 20
-122.6194543431024
 30
0.0
 11
125.0387892274928
 21
-122.6194543431024
 31
0.0
  0
LINE
  5
1B4
330
7C
100
AcDbEntity
  8
ZUWAKU
  6
CONTINUOUS
 62
     7
100
AcDbLine
 10
119.6987892274928
 20
-122.6194543431024
 30
0.0
 11
120.6387892274928
 21
-122.6194543431024
 31
0.0
  0
LINE
  5
1B5
330
7C
100
AcDbEntity
  8
ZUWAKU
  6
CONTINUOUS
 62
     7
100
AcDbLine
 10
120.6387892274928
 20
-121.4194543431024
 30
0.0
 11
122.4387892274928
 21
-121.4194543431024
 31
0.0
  0
LINE
  5
1B6
330
7C
100
AcDbEntity
  8
ZUWAKU
  6
CONTINUOUS
 62
     7
100
AcDbLine
 10
116.4387892274928
 20
-122.6194543431024
 30
0.0
 11
117.6387892274928
 21
-122.6194543431024
 31
0.0
  0
LINE
  5
1B7
330
7C
100
AcDbEntity
  8
ZUWAKU
  6
CONTINUOUS
 62
     7
100
AcDbLine
 10
116.4387892274927
 20
-125.1194543431025
 30
0.0
 11
117.6387892274927
 21
-125.5194543431024
 31
0.0
  0
LINE
  5
1B8
330
7C
100
AcDbEntity
  8
ZUWAKU
  6
CONTINUOUS
 62
     7
100
AcDbLine
 10
116.4387892274928
 20
-123.6194543431023
 30
0.0
 11
117.6387892274927
 21
-124.4194543431023
 31
0.0
  0
LINE
  5
1B9
330
7C
100
AcDbEntity
  8
ZUWAKU
  6
CONTINUOUS
 62
     7
100
AcDbLine
 10
122.4387892274928
 20
-123.6194543431024
 30
0.0
 11
122.4387892274928
 21
-124.4194543431024
 31
0.0
  0
LINE
  5
1BA
330
7C
100
AcDbEntity
  8
ZUWAKU
  6
CONTINUOUS
 62
     7
100
AcDbLine
 10
118.1387892274928
 20
-121.4194543431024
 30
0.0
 11
118.1387892274928
 21
-123.6194543431024
 31
0.0
  0
LINE
  5
1BB
330
7C
100
AcDbEntity
  8
ZUWAKU
  6
CONTINUOUS
 62
     7
100
AcDbLine
 10
126.6387892274928
 20
-129.1805456568976
 30
0.0
 11
128.4924832097059
 21
-129.1805456568976
 31
0.0
  0
LINE
  5
1BC
330
7C
100
AcDbEntity
  8
ZUWAKU
  6
CONTINUOUS
 62
     7
100
AcDbLine
 10
134.1387892274928
 20
-121.4194543431024
 30
0.0
 11
136.2887892274928
 21
-121.4194543431024
 31
0.0
  0
LINE
  5
1BD
330
7C
100
AcDbEntity
  8
ZUWAKU
  6
CONTINUOUS
 62
     7
100
AcDbLine
 10
134.1387892274928
 20
-121.4194543431024
 30
0.0
 11
134.1387892274928
 21
-122.6194543431024
 31
0.0
  0
LINE
  5
1BE
330
7C
100
AcDbEntity
  8
ZUWAKU
  6
CONTINUOUS
 62
     7
100
AcDbLine
 10
118.1387892274928
 20
-125.5194543431024
 30
0.0
 11
119.4387892274928
 21
-125.5194543431024
 31
0.0
  0
LINE
  5
1BF
330
7C
100
AcDbEntity
  8
ZUWAKU
  6
CONTINUOUS
 62
     7
100
AcDbLine
 10
118.1387892274928
 20
-124.4194543431024
 30
0.0
 11
120.6387892274928
 21
-124.4194543431024
 31
0.0
  0
LINE
  5
1C0
330
7C
100
AcDbEntity
  8
ZUWAKU
  6
CONTINUOUS
 62
     7
100
AcDbLine
 10
120.6387892274928
 20
-123.6194543431024
 30
0.0
 11
120.6387892274928
 21
-124.4194543431024
 31
0.0
  0
LINE
  5
1C1
330
7C
100
AcDbEntity
  8
ZUWAKU
  6
CONTINUOUS
 62
     7
100
AcDbLine
 10
139.2087892274928
 20
-121.4194543431024
 30
0.0
 11
139.2087892274928
 21
-123.6194543431024
 31
0.0
  0
LINE
  5
1C2
330
7C
100
AcDbEntity
  8
ZUWAKU
  6
CONTINUOUS
 62
     7
100
AcDbLine
 10
137.6887892274928
 20
-121.4194543431024
 30
0.0
 11
137.6887892274928
 21
-122.6194543431024
 31
0.0
  0
LINE
  5
1C3
330
7C
100
AcDbEntity
  8
ZUWAKU
  6
CONTINUOUS
 62
     7
100
AcDbLine
 10
136.2887892274928
 20
-121.4194543431024
 30
0.0
 11
136.2887892274928
 21
-122.6194543431024
 31
0.0
  0
LINE
  5
1C4
330
7C
100
AcDbEntity
  8
ZUWAKU
  6
CONTINUOUS
 62
     7
100
AcDbLine
 10
126.6387892274928
 20
-122.6194543431024
 30
0.0
 11
134.1387892274928
 21
-122.6194543431024
 31
0.0
  0
LINE
  5
1C5
330
7C
100
AcDbEntity
  8
ZUWAKU
  6
CONTINUOUS
 62
     7
100
AcDbLine
 10
126.6387892274928
 20
-123.6194543431024
 30
0.0
 11
134.1387892274928
 21
-123.6194543431024
 31
0.0
  0
LINE
  5
1C6
330
7C
100
AcDbEntity
  8
ZUWAKU
  6
CONTINUOUS
 62
     7
100
AcDbLine
 10
126.6387892274928
 20
-125.7194543431024
 30
0.0
 11
129.3387892274928
 21
-125.7194543431024
 31
0.0
  0
LINE
  5
1C7
330
7C
100
AcDbEntity
  8
ZUWAKU
  6
CONTINUOUS
 62
     7
100
AcDbLine
 10
125.0387892274928
 20
-122.6194543431024
 30
0.0
 11
125.0387892274928
 21
-123.6194543431024
 31
0.0
  0
LINE
  5
1C8
330
7C
100
AcDbEntity
  8
ZUWAKU
  6
CONTINUOUS
 62
     7
100
AcDbLine
 10
154.1087892274928
 20
-125.7805456568976
 30
0.0
 11
154.1087892274928
 21
-126.8024216486367
 31
0.0
  0
LINE
  5
1C9
330
7C
100
AcDbEntity
  8
ZUWAKU
  6
CONTINUOUS
 62
     7
100
AcDbLine
 10
115.0387892274928
 20
-121.4194543431024
 30
0.0
 11
116.4387892274928
 21
-121.4194543431024
 31
0.0
  0
LINE
  5
1CA
330
7C
100
AcDbEntity
  8
ZUWAKU
  6
CONTINUOUS
 62
     7
100
AcDbLine
 10
119.6987892274928
 20
-121.4194543431024
 30
0.0
 11
119.6987892274928
 21
-122.6194543431024
 31
0.0
  0
LINE
  5
1CB
330
7C
100
AcDbEntity
  8
ZUWAKU
  6
CONTINUOUS
 62
     7
100
AcDbLine
 10
118.1387892274928
 20
-121.4194543431024
 30
0.0
 11
119.6987892274928
 21
-121.4194543431024
 31
0.0
  0
LINE
  5
1CC
330
7C
100
AcDbEntity
  8
ZUWAKU
  6
CONTINUOUS
 62
     7
100
AcDbLine
 10
120.6387892274928
 20
-121.4194543431024
 30
0.0
 11
120.6387892274928
 21
-122.6194543431024
 31
0.0
  0
LINE
  5
1CD
330
7C
100
AcDbEntity
  8
ZUWAKU
  6
CONTINUOUS
 62
     7
100
AcDbLine
 10
122.4387892274928
 20
-121.4194543431024
 30
0.0
 11
122.4387892274928
 21
-122.6194543431024
 31
0.0
  0
LINE
  5
1CE
330
7C
100
AcDbEntity
  8
ZUWAKU
  6
CONTINUOUS
 62
     7
100
AcDbLine
 10
117.6387892274928
 20
-122.6194543431024
 30
0.0
 11
117.6387892274928
 21
-123.6194543431024
 31
0.0
  0
LINE
  5
1CF
330
7C
100
AcDbEntity
  8
ZUWAKU
  6
CONTINUOUS
 62
     7
100
AcDbLine
 10
112.9387892274928
 20
-123.6194543431024
 30
0.0
 11
114.2387892274928
 21
-123.6194543431024
 31
0.0
  0
LINE
  5
1D0
330
7C
100
AcDbEntity
  8
ZUWAKU
  6
CONTINUOUS
 62
     7
100
AcDbLine
 10
85.93878922749275
 20
-124.8194543431024
 30
0.0
 11
89.29376277483095
 21
-124.8194543431024
 31
0.0
  0
LINE
  5
1D1
330
7C
100
AcDbEntity
  8
ZUWAKU
  6
CONTINUOUS
 62
     7
100
AcDbLine
 10
91.93878922749275
 20
-121.4194543431024
 30
0.0
 11
98.03878922749277
 21
-121.4194543431024
 31
0.0
  0
LINE
  5
1D2
330
7C
100
AcDbEntity
  8
ZUWAKU
  6
CONTINUOUS
 62
     7
100
AcDbLine
 10
85.93878922749275
 20
-124.8194543431023
 30
0.0
 11
85.93878922749275
 21
-126.6194543431024
 31
0.0
  0
LINE
  5
1D3
330
7C
100
AcDbEntity
  8
ZUWAKU
  6
CONTINUOUS
 62
     7
100
AcDbLine
 10
112.9387892274928
 20
-122.6194543431024
 30
0.0
 11
115.0387892274928
 21
-122.6194543431024
 31
0.0
  0
LINE
  5
1D4
330
7C
100
AcDbEntity
  8
ZUWAKU
  6
CONTINUOUS
 62
     7
100
AcDbLine
 10
85.93878922749275
 20
-126.6194543431024
 30
0.0
 11
88.2442606981582
 21
-126.6194543431024
 31
0.0
  0
LINE
  5
1D5
330
7C
100
AcDbEntity
  8
ZUWAKU
  6
CONTINUOUS
 62
     7
100
AcDbLine
 10
93.93878922749275
 20
-124.8194543431024
 30
0.0
 11
93.93878922749275
 21
-126.6194543431024
 31
0.0
  0
LINE
  5
1D6
330
7C
100
AcDbEntity
  8
ZUWAKU
  6
CONTINUOUS
 62
     7
100
AcDbLine
 10
91.99956405890859
 20
-123.0194543431024
 30
0.0
 11
95.63878922749277
 21
-123.0194543431024
 31
0.0
  0
LINE
  5
1D7
330
7C
100
AcDbEntity
  8
ZUWAKU
  6
CONTINUOUS
 62
     7
100
AcDbLine
 10
133.2387892274928
 20
-124.8194543431024
 30
0.0
 11
133.2387892274928
 21
-125.7194543431024
 31
0.0
  0
LINE
  5
1D8
330
7C
100
AcDbEntity
  8
ZUWAKU
  6
CONTINUOUS
 62
     7
100
AcDbLine
 10
116.4387892274928
 20
-121.4194543431024
 30
0.0
 11
116.4387892274928
 21
-122.6194543431024
 31
0.0
  0
LINE
  5
1D9
330
7C
100
AcDbEntity
  8
ZUWAKU
  6
CONTINUOUS
 62
     7
100
AcDbLine
 10
104.2387892274928
 20
-126.0194543431024
 30
0.0
 11
107.4387892274928
 21
-126.0194543431024
 31
0.0
  0
LINE
  5
1DA
330
7C
100
AcDbEntity
  8
ZUWAKU
  6
CONTINUOUS
 62
     7
100
AcDbLine
 10
100.0387892274928
 20
-125.4194543431024
 30
0.0
 11
111.4387892274928
 21
-125.4194543431024
 31
0.0
  0
LINE
  5
1DB
330
7C
100
AcDbEntity
  8
ZUWAKU
  6
CONTINUOUS
 62
     7
100
AcDbLine
 10
100.0387892274928
 20
-123.4194543431024
 30
0.0
 11
111.4387892274928
 21
-123.4194543431024
 31
0.0
  0
LINE
  5
1DC
330
7C
100
AcDbEntity
  8
ZUWAKU
  6
CONTINUOUS
 62
     7
100
AcDbLine
 10
111.4387892274928
 20
-123.4194543431024
 30
0.0
 11
111.4387892274928
 21
-125.4194543431024
 31
0.0
  0
LINE
  5
1DD
330
7C
100
AcDbEntity
  8
ZUWAKU
  6
CONTINUOUS
 62
     7
100
AcDbLine
 10
100.0387892274928
 20
-123.4194543431024
 30
0.0
 11
100.0387892274928
 21
-125.4194543431024
 31
0.0
  0
LINE
  5
1DE
330
7C
100
AcDbEntity
  8
ZUWAKU
  6
CONTINUOUS
 62
     7
100
AcDbLine
 10
98.03878922749277
 20
-121.4194543431024
 30
0.0
 11
98.03878922749277
 21
-128.2194543431024
 31
0.0
  0
LINE
  5
1DF
330
7C
100
AcDbEntity
  8
ZUWAKU
  6
CONTINUOUS
 62
     7
100
AcDbLine
 10
95.63878922749277
 20
-123.0194543431024
 30
0.0
 11
95.63878922749277
 21
-128.6194543431024
 31
0.0
  0
LINE
  5
1E0
330
7C
100
AcDbEntity
  8
ZUWAKU
  6
CONTINUOUS
 62
     7
100
AcDbLine
 10
84.0760435361791
 20
-123.0194543431024
 30
0.0
 11
89.53878922749277
 21
-123.0194543431024
 31
0.0
  0
LINE
  5
1E1
330
7C
100
AcDbEntity
  8
ZUWAKU
  6
CONTINUOUS
 62
     7
100
AcDbLine
 10
89.53878922749277
 20
-119.8194543431023
 30
0.0
 11
89.53878922749277
 21
-121.4194543431024
 31
0.0
  0
LINE
  5
1E2
330
7C
100
AcDbEntity
  8
ZUWAKU
  6
CONTINUOUS
 62
     7
100
AcDbLine
 10
91.93878922749275
 20
-119.8194543431023
 30
0.0
 11
91.93878922749275
 21
-121.4194543431024
 31
0.0
  0
LINE
  5
1E3
330
7C
100
AcDbEntity
  8
ZUWAKU
  6
CONTINUOUS
 62
     7
100
AcDbLine
 10
89.53878922749277
 20
-119.8194543431024
 30
0.0
 11
91.93878922749275
 21
-119.8194543431024
 31
0.0
  0
LINE
  5
1E4
330
7C
100
AcDbEntity
  8
ZUWAKU
  6
CONTINUOUS
 62
     7
100
AcDbLine
 10
84.0760435361791
 20
-121.4194543431024
 30
0.0
 11
84.0760435361791
 21
-123.0194543431024
 31
0.0
  0
LINE
  5
1E5
330
7C
100
AcDbEntity
  8
ZUWAKU
  6
CONTINUOUS
 62
     7
100
AcDbLine
 10
84.0760435361791
 20
-121.4194543431024
 30
0.0
 11
89.53878922749277
 21
-121.4194543431024
 31
0.0
  0
LINE
  5
1E6
330
7C
100
AcDbEntity
  8
ZUWAKU
  6
CONTINUOUS
 62
     7
100
AcDbLine
 10
91.52363043348402
 20
-124.8194543431024
 30
0.0
 11
93.93878922749275
 21
-124.8194543431024
 31
0.0
  0
LINE
  5
1E7
330
7C
100
AcDbEntity
  8
ZUWAKU
  6
CONTINUOUS
 62
     7
100
AcDbLine
 10
115.0387892274928
 20
-121.4194543431024
 30
0.0
 11
115.0387892274928
 21
-122.6194543431024
 31
0.0
  0
LINE
  5
1E8
330
7C
100
AcDbEntity
  8
ZUWAKU
  6
CONTINUOUS
 62
     7
100
AcDbLine
 10
112.9387892274928
 20
-122.6194543431024
 30
0.0
 11
112.9387892274928
 21
-123.6194543431024
 31
0.0
  0
LINE
  5
1E9
330
7C
100
AcDbEntity
  8
ZUWAKU
  6
CONTINUOUS
 62
     7
100
AcDbLine
 10
90.47934460249795
 20
-126.6194543431024
 30
0.0
 11
93.93878922749275
 21
-126.6194543431024
 31
0.0
  0
LINE
  5
1EA
330
7C
100
AcDbEntity
  8
ZUWAKU
  6
CONTINUOUS
 62
     7
100
AcDbLine
 10
150.7087892274928
 20
-129.1805456568976
 30
0.0
 11
152.7087892274928
 21
-129.1805456568976
 31
0.0
  0
LINE
  5
1EB
330
7C
100
AcDbEntity
  8
ZUWAKU
  6
CONTINUOUS
 62
     7
100
AcDbLine
 10
84.0760435361791
 20
-128.2342821983328
 30
0.0
 11
84.0760435361791
 21
-129.4194543431024
 31
0.0
  0
ARC
  5
1EC
330
7C
100
AcDbEntity
  8
ZUWAKU
  6
CONTINUOUS
 62
     7
100
AcDbCircle
 10
157.5678128564076
 20
-130.2780605928041
 30
0.0
 40
4.0
100
AcDbArc
 50
60.9715340609843
 51
87.98024394550768
  0
ARC
  5
1ED
330
7C
100
AcDbEntity
  8
ZUWAKU
  6
CONTINUOUS
 62
     7
100
AcDbCircle
 10
154.9233892779577
 20
-122.2532477036166
 30
0.0
 40
4.6
100
AcDbArc
 50
318.8442436704028
 51
355.4338431265014
  0
ARC
  5
1EE
330
7C
100
AcDbEntity
  8
ZUWAKU
  6
CONTINUOUS
 62
     7
100
AcDbCircle
 10
158.1730302629359
 20
-127.2690845339868
 30
0.0
 40
2.0
100
AcDbArc
 50
48.09638755561873
 51
83.86317369123302
  0
ARC
  5
1EF
330
7C
100
AcDbEntity
  8
ZUWAKU
  6
CONTINUOUS
 62
     7
100
AcDbCircle
 10
154.5759951332523
 20
-121.8024216486367
 30
0.0
 40
5.0
100
AcDbArc
 50
270.0
 51
287.8519707863945
  0
ARC
  5
1F0
330
7C
100
AcDbEntity
  8
ZUWAKU
  6
CONTINUOUS
 62
     7
100
AcDbCircle
 10
154.2923523112661
 20
-122.7861668241051
 30
0.0
 40
3.0
100
AcDbArc
 50
270.0
 51
339.8530457328942
  0
ARC
  5
1F1
330
7C
100
AcDbEntity
  8
ZUWAKU
  6
CONTINUOUS
 62
     7
100
AcDbCircle
 10
146.4016584769222
 20
-124.1805456568976
 30
0.0
 40
4.0
100
AcDbArc
 50
270.0
 51
301.7883306170518
  0
ARC
  5
1F2
330
7C
100
AcDbEntity
  8
ZUWAKU
  6
CONTINUOUS
 62
     7
100
AcDbCircle
 10
152.6414933924968
 20
-126.3816781598903
 30
0.0
 40
2.0
100
AcDbArc
 50
209.9625441683634
 51
271.9282476334827
  0
ARC
  5
1F3
330
7C
100
AcDbEntity
  8
ZUWAKU
  6
CONTINUOUS
 62
     7
100
AcDbCircle
 10
145.1896056390397
 20
-119.1805456568976
 30
0.0
 40
10.0
100
AcDbArc
 50
270.0
 51
293.073918065631
  0
ARC
  5
1F4
330
7C
100
AcDbEntity
  8
ZUWAKU
  6
CONTINUOUS
 62
     7
100
AcDbCircle
 10
150.7087892274928
 20
-127.1805456568976
 30
0.0
 40
2.0
100
AcDbArc
 50
216.8698976458439
 51
270.0
  0
ARC
  5
1F5
330
7C
100
AcDbEntity
  8
ZUWAKU
  6
CONTINUOUS
 62
     7
100
AcDbCircle
 10
140.135160797336
 20
-117.2080294012382
 30
0.0
 40
6.0
100
AcDbArc
 50
275.4861271989983
 51
315.4200248778122
  0
ARC
  5
1F6
330
7C
100
AcDbEntity
  8
ZUWAKU
  6
CONTINUOUS
 62
     7
100
AcDbCircle
 10
152.2710592695303
 20
-117.1965342528391
 30
0.0
 40
6.0
100
AcDbArc
 50
224.7342935204538
 51
270.0
  0
ARC
  5
1F7
330
7C
100
AcDbEntity
  8
ZUWAKU
  6
CONTINUOUS
 62
     7
100
AcDbCircle
 10
152.0507766650404
 20
-112.3986000941914
 30
0.0
 40
12.0
100
AcDbArc
 50
240.8674112692758
 51
267.0917440539539
  0
ARC
  5
1F8
330
7C
100
AcDbEntity
  8
ZUWAKU
  6
CONTINUOUS
 62
     7
100
AcDbCircle
 10
140.9367708050626
 20
-114.3831447746538
 30
0.0
 40
10.0
100
AcDbArc
 50
270.0
 51
301.8165888069296
  0
ARC
  5
1F9
330
7C
100
AcDbEntity
  8
ZUWAKU
  6
CONTINUOUS
 62
     7
100
AcDbCircle
 10
135.3709211224123
 20
-125.2872799144038
 30
0.0
 40
4.0
100
AcDbArc
 50
283.265695396094
 51
342.6434876261313
  0
ARC
  5
1FA
330
7C
100
AcDbEntity
  8
ZUWAKU
  6
CONTINUOUS
 62
     7
100
AcDbCircle
 10
135.6999893382007
 20
-126.2691810421865
 30
0.0
 40
2.0
100
AcDbArc
 50
287.1215589227386
 51
353.9335213805733
  0
ARC
  5
1FB
330
7C
100
AcDbEntity
  8
ZUWAKU
  6
CONTINUOUS
 62
     7
100
AcDbCircle
 10
127.5656362185993
 20
-109.2020333335269
 30
0.0
 40
20.0
100
AcDbArc
 50
272.6561723599371
 51
286.4786265979867
  0
ARC
  5
1FC
330
7C
100
AcDbEntity
  8
ZUWAKU
  6
CONTINUOUS
 62
     7
100
AcDbCircle
 10
127.9274872537172
 20
-125.2189746339814
 30
0.0
 40
4.0
100
AcDbArc
 50
184.3081130703794
 51
227.7648830848148
  0
ARC
  5
1FD
330
7C
100
AcDbEntity
  8
ZUWAKU
  6
CONTINUOUS
 62
     7
100
AcDbCircle
 10
125.8056904352332
 20
-125.220921555968
 30
0.0
 40
4.0
100
AcDbArc
 50
212.6772418063084
 51
261.8523056494763
  0
ARC
  5
1FE
330
7C
100
AcDbEntity
  8
ZUWAKU
  6
CONTINUOUS
 62
     7
100
AcDbCircle
 10
115.519118309685
 20
-124.7218454815092
 30
0.0
 40
4.0
100
AcDbArc
 50
305.4447563754824
 51
348.4979955985226
  0
ARC
  5
1FF
330
7C
100
AcDbEntity
  8
ZUWAKU
  6
CONTINUOUS
 62
     7
100
AcDbCircle
 10
111.099487532667
 20
-124.6048432499945
 30
0.0
 40
4.0
100
AcDbArc
 50
295.7741858394136
 51
326.5976644920056
  0
ARC
  5
200
330
7C
100
AcDbEntity
  8
ZUWAKU
  6
CONTINUOUS
 62
     7
100
AcDbCircle
 10
115.8978070123108
 20
-123.5031705556429
 30
0.0
 40
6.0
100
AcDbArc
 50
288.8745432034554
 51
322.2008123804935
  0
ARC
  5
201
330
7C
100
AcDbEntity
  8
ZUWAKU
  6
CONTINUOUS
 62
     7
100
AcDbCircle
 10
108.2547126912937
 20
-123.1826156899224
 30
0.0
 40
6.0
100
AcDbArc
 50
319.8192422116139
 51
355.8248039544737
  0
ARC
  5
202
330
7C
100
AcDbEntity
  8
ZUWAKU
  6
CONTINUOUS
 62
     7
100
AcDbCircle
 10
84.54440036820793
 20
-123.2562663407956
 30
0.0
 40
5.0
100
AcDbArc
 50
264.6251462956196
 51
317.7290360759776
  0
ARC
  5
203
330
7C
100
AcDbEntity
  8
ZUWAKU
  6
CONTINUOUS
 62
     7
100
AcDbCircle
 10
99.6726601952347
 20
-118.8500995043927
 30
0.0
 40
10.56940911068407
100
AcDbArc
 50
247.5637467185126
 51
317.2881390123424
  0
ARC
  5
204
330
7C
100
AcDbEntity
  8
ZUWAKU
  6
CONTINUOUS
 62
     7
100
AcDbCircle
 10
97.98078440566087
 20
-118.2196225724852
 30
0.0
 40
10.0
100
AcDbArc
 50
270.3323450119129
 51
308.7409648643439
  0
ARC
  5
205
330
7C
100
AcDbEntity
  8
ZUWAKU
  6
CONTINUOUS
 62
     7
100
AcDbCircle
 10
84.66428719850421
 20
-122.0428718421244
 30
0.0
 40
7.4
100
AcDbArc
 50
337.9624692219032
 51
352.416518898312
  0
ARC
  5
206
330
7C
100
AcDbEntity
  8
ZUWAKU
  6
CONTINUOUS
 62
     7
100
AcDbCircle
 10
84.54440036820793
 20
-123.2562663407956
 30
0.0
 40
5.0
100
AcDbArc
 50
341.7817433502872
 51
362.7146811743762
  0
ARC
  5
207
330
7C
100
AcDbEntity
  8
ZUWAKU
  6
CONTINUOUS
 62
     7
100
AcDbCircle
 10
84.66428719850421
 20
-122.0428718421244
 30
0.0
 40
7.4
100
AcDbArc
 50
265.4406112814197
 51
321.7964493072675
  0
ENDBLK
  5
7E
330
7C
100
AcDbEntity
  8
0
100
AcDbBlockEnd
  0
BLOCK
  5
80
330
7F
100
AcDbEntity
  8
0
100
AcDbBlockBegin
  2
DC_GROUP_12
 70
     0
 71
     0
 10
0.0
 20
0.0
 30
0.0
  3
DC_GROUP_12
  1

  0
LINE
  5
208
330
7F
100
AcDbEntity
  8
ZUWAKU
  6
CONTINUOUS
 62
     7
100
AcDbLine
 10
142.4865670052704
 20
-127.7805456568976
 30
0.0
 11
144.9087892274927
 21
-127.7805456568976
 31
0.0
  0
LINE
  5
209
330
7F
100
AcDbEntity
  8
ZUWAKU
  6
CONTINUOUS
 62
     7
100
AcDbLine
 10
148.1452180543385
 20
-127.7805456568976
 30
0.0
 11
151.2120985115011
 21
-127.7805456568976
 31
0.0
  0
LINE
  5
20A
330
7F
100
AcDbEntity
  8
ZUWAKU
  6
CONTINUOUS
 62
     7
100
AcDbLine
 10
140.7087892274928
 20
-127.2805456568976
 30
0.0
 11
152.7087892274928
 21
-127.2805456568976
 31
0.0
  0
LINE
  5
20B
330
7F
100
AcDbEntity
  8
ZUWAKU
  6
CONTINUOUS
 62
     7
100
AcDbLine
 10
140.7087892274928
 20
-126.7805456568976
 30
0.0
 11
152.7087892274928
 21
-126.7805456568976
 31
0.0
  0
LINE
  5
20C
330
7F
100
AcDbEntity
  8
ZUWAKU
  6
CONTINUOUS
 62
     7
100
AcDbLine
 10
142.2087892274926
 20
-128.2805456568976
 30
0.0
 11
152.013558500323
 21
-128.2805456568976
 31
0.0
  0
LINE
  5
20D
330
7F
100
AcDbEntity
  8
ZUWAKU
  6
CONTINUOUS
 62
     7
100
AcDbLine
 10
141.9310114497148
 20
-128.7805456568976
 30
0.0
 11
147.9896056390397
 21
-128.7805456568976
 31
0.0
  0
LINE
  5
20E
330
7F
100
AcDbEntity
  8
ZUWAKU
  6
CONTINUOUS
 62
     7
100
AcDbLine
 10
149.5087892274927
 20
-128.7805456568976
 30
0.0
 11
152.7087892274928
 21
-128.7805456568976
 31
0.0
  0
ENDBLK
  5
81
330
7F
100
AcDbEntity
  8
0
100
AcDbBlockEnd
  0
BLOCK
  5
86
330
85
100
AcDbEntity
  8
0
100
AcDbBlockBegin
  2
_OPEN30
 70
     0
 71
     0
 10
0.0
 20
0.0
 30
0.0
  3
_OPEN30
  1

  0
LINE
  5
88
330
85
100
AcDbEntity
  8
0
  6
BYBLOCK
 62
     0
100
AcDbLine
 10
-1.0
 20
0.267949
 30
0.0
 11
0.0
 21
0.0
 31
0.0
  0
LINE
  5
89
330
85
100
AcDbEntity
  8
0
  6
BYBLOCK
 62
     0
100
AcDbLine
 10
0.0
 20
0.0
 30
0.0
 11
-1.0
 21
-0.267949
 31
0.0
  0
LINE
  5
8A
330
85
100
AcDbEntity
  8
0
  6
BYBLOCK
 62
     0
100
AcDbLine
 10
0.0
 20
0.0
 30
0.0
 11
-1.0
 21
0.0
 31
0.0
  0
ENDBLK
  5
87
330
85
100
AcDbEntity
  8
0
100
AcDbBlockEnd
  0
ENDSEC
  0
SECTION
  2
ENTITIES
  0
LINE
  5
20F
330
1F
100
AcDbEntity
  8
0
  6
CONTINUOUS
 62
     7
100
AcDbLine
 10
-194.0075836181641
 20
135.75
 30
0.0
 11
185.9924163818359
 21
135.75
 31
0.0
  0
LINE
  5
210
330
1F
100
AcDbEntity
  8
0
  6
CONTINUOUS
 62
     7
100
AcDbLine
 10
-194.0075836181641
 20
-132.25
 30
0.0
 11
185.9924163818359
 21
-132.25
 31
0.0
  0
LINE
  5
211
330
1F
100
AcDbEntity
  8
0
  6
CONTINUOUS
 62
     7
100
AcDbLine
 10
-194.0075836181641
 20
135.75
 30
0.0
 11
-194.0075836181641
 21
-132.25
 31
0.0
  0
LINE
  5
212
330
1F
100
AcDbEntity
  8
0
  6
CONTINUOUS
 62
     7
100
AcDbLine
 10
185.9924163818359
 20
135.75
 30
0.0
 11
185.9924163818359
 21
-132.25
 31
0.0
  0
LINE
  5
213
330
1F
100
AcDbEntity
  8
0
  6
CONTINUOUS
 62
     7
100
AcDbLine
 10
64.99241638183594
 20
-73.25
 30
0.0
 11
185.9924163818359
 21
-73.25
 31
0.0
  0
LINE
  5
214
330
1F
100
AcDbEntity
  8
0
  6
CONTINUOUS
 62
     7
100
AcDbLine
 10
64.99241638183594
 20
-73.25
 30
0.0
 11
64.99241638183594
 21
-132.25
 31
0.0
  0
LINE
  5
215
330
1F
100
AcDbEntity
  8
0
  6
CONTINUOUS
 62
     7
100
AcDbLine
 10
64.99241638183594
 20
-84.25
 30
0.0
 11
185.9924163818359
 21
-84.25
 31
0.0
  0
LINE
  5
216
330
1F
100
AcDbEntity
  8
0
  6
CONTINUOUS
 62
     7
100
AcDbLine
 10
64.99241638183594
 20
-95.25
 30
0.0
 11
185.9924163818359
 21
-95.25
 31
0.0
  0
LINE
  5
217
330
1F
100
AcDbEntity
  8
0
  6
CONTINUOUS
 62
     7
100
AcDbLine
 10
64.99241638183594
 20
-106.25
 30
0.0
 11
185.9924163818359
 21
-106.25
 31
0.0
  0
LINE
  5
218
330
1F
100
AcDbEntity
  8
0
  6
CONTINUOUS
 62
     7
100
AcDbLine
 10
64.99241638183594
 20
-117.25
 30
0.0
 11
185.9924163818359
 21
-117.25
 31
0.0
  0
LINE
  5
219
330
1F
100
AcDbEntity
  8
0
  6
CONTINUOUS
 62
     7
100
AcDbLine
 10
151.9924163818359
 20
-73.25
 30
0.0
 11
151.9924163818359
 21
-117.25
 31
0.0
  0
LINE
  5
21A
330
1F
100
AcDbEntity
  8
0
  6
CONTINUOUS
 62
     7
100
AcDbLine
 10
122.9924163818359
 20
-106.25
 30
0.0
 11
122.9924163818359
 21
-117.25
 31
0.0
  0
LINE
  5
21B
330
1F
100
AcDbEntity
  8
0
  6
CONTINUOUS
 62
     7
100
AcDbLine
 10
93.99241638183594
 20
-106.25
 30
0.0
 11
93.99241638183594
 21
-117.25
 31
0.0
  0
LINE
  5
21C
330
1F
100
AcDbEntity
  8
0
  6
CENTER
 62
     7
100
AcDbLine
 10
-55.61695861816406
 20
93.90178680419922
 30
0.0
 11
-55.61695861816406
 21
-8.285714149475098
 31
0.0
  0
LINE
  5
21D
330
1F
100
AcDbEntity
  8
0
  6
CENTER
 62
     7
100
AcDbLine
 10
-55.61695861816406
 20
-31.23122787475586
 30
0.0
 11
-55.61695861816406
 21
-58.63605880737305
 31
0.0
  0
LINE
  5
21E
330
1F
100
AcDbEntity
  8
0
  6
CENTER
 62
     7
100
AcDbLine
 10
-106.2240982055664
 20
43.29464340209961
 30
0.0
 11
-3.063387215137482
 21
43.29464340209961
 31
0.0
  0
LINE
  5
21F
330
1F
100
AcDbEntity
  8
0
  6
CONTINUOUS
 62
     7
100
AcDbLine
 10
-55.61695861816406
 20
-38.1875
 30
0.0
 11
-16.61695861816406
 21
-38.1875
 31
0.0
  0
LINE
  5
220
330
1F
100
AcDbEntity
  8
0
  6
CONTINUOUS
 62
     7
100
AcDbLine
 10
-46.61695861816406
 20
-42.1875
 30
0.0
 11
-46.61695861816406
 21
-43.27141952514648
 31
0.0
  0
LINE
  5
221
330
1F
100
AcDbEntity
  8
0
  6
CONTINUOUS
 62
     7
100
AcDbLine
 10
-55.61695861816406
 20
-41.1875
 30
0.0
 11
-47.61695861816406
 21
-41.1875
 31
0.0
  0
LINE
  5
222
330
1F
100
AcDbEntity
  8
0
  6
CONTINUOUS
 62
     7
100
AcDbLine
 10
-51.61695861816406
 20
-49.1875
 30
0.0
 11
-51.61695861816406
 21
-51.6875
 31
0.0
  0
LINE
  5
223
330
1F
100
AcDbEntity
  8
0
  6
CONTINUOUS
 62
     7
100
AcDbLine
 10
-55.61695861816406
 20
-42.1875
 30
0.0
 11
-51.61695861816406
 21
-42.1875
 31
0.0
  0
LINE
  5
224
330
1F
100
AcDbEntity
  8
0
  6
CONTINUOUS
 62
     7
100
AcDbLine
 10
-50.61695848824272
 20
-41.18749995531064
 30
0.0
 11
-51.6169568695482
 21
-42.18749833661612
 31
0.0
  0
LINE
  5
225
330
1F
100
AcDbEntity
  8
0
  6
CONTINUOUS
 62
     7
100
AcDbLine
 10
-55.61695861816406
 20
-51.6875
 30
0.0
 11
-28.29145240783691
 21
-51.6875
 31
0.0
  0
LINE
  5
226
330
1F
100
AcDbEntity
  8
0
  6
CONTINUOUS
 62
     7
100
AcDbLine
 10
-22.95037289614884
 20
-38.6875
 30
0.0
 11
-16.61695861816406
 21
-38.6875
 31
0.0
  0
LINE
  5
227
330
1F
100
AcDbEntity
  8
0
  6
CONTINUOUS
 62
     7
100
AcDbLine
 10
-16.61695861816406
 20
-38.1875
 30
0.0
 11
-16.61695861816406
 21
-38.6875
 31
0.0
  0
LINE
  5
228
330
1F
100
AcDbEntity
  8
0
  6
CONTINUOUS
 62
     7
100
AcDbLine
 10
-94.61695861816406
 20
-38.1875
 30
0.0
 11
-94.61695861816406
 21
-38.6875
 31
0.0
  0
LINE
  5
229
330
1F
100
AcDbEntity
  8
0
  6
CONTINUOUS
 62
     7
100
AcDbLine
 10
-94.61695861816406
 20
-38.6875
 30
0.0
 11
-55.61695861816406
 21
-38.6875
 31
0.0
  0
LINE
  5
22A
330
1F
100
AcDbEntity
  8
0
  6
CONTINUOUS
 62
     7
100
AcDbLine
 10
-55.61695861816406
 20
-52.1875
 30
0.0
 11
-28.2805927244968
 21
-52.1875
 31
0.0
  0
LINE
  5
22B
330
1F
100
AcDbEntity
  8
0
  6
CONTINUOUS
 62
     7
100
AcDbLine
 10
-24.3441560458912
 20
-39.91436610972653
 30
0.0
 11
-26.31402871452788
 21
-50.55167852036461
 31
0.0
  0
LINE
  5
22C
330
1F
100
AcDbEntity
  8
0
  6
CONTINUOUS
 62
     7
100
AcDbLine
 10
-24.83579704838343
 20
-39.82332147963538
 30
0.0
 11
-26.80566971702011
 21
-50.46063389027346
 31
0.0
  0
LINE
  5
22D
330
1F
100
AcDbEntity
  8
0
  6
CONTINUOUS
 62
     7
100
AcDbLine
 10
-55.61695861816406
 20
-38.1875
 30
0.0
 11
-94.61695861816406
 21
-38.1875
 31
0.0
  0
LINE
  5
22E
330
1F
100
AcDbEntity
  8
0
  6
CONTINUOUS
 62
     7
100
AcDbLine
 10
-86.88976119043693
 20
-39.91436610972653
 30
0.0
 11
-84.91988852180025
 21
-50.5516785203646
 31
0.0
  0
LINE
  5
22F
330
1F
100
AcDbEntity
  8
0
  6
CONTINUOUS
 62
     7
100
AcDbLine
 10
-55.61695861816406
 20
-52.1875
 30
0.0
 11
-82.95332451183133
 21
-52.1875
 31
0.0
  0
CIRCLE
  5
230
330
1F
100
AcDbEntity
  8
0
  6
CONTINUOUS
 62
     7
100
AcDbCircle
 10
-55.61695861816406
 20
43.29464340209961
 30
0.0
 40
39.0
  0
CIRCLE
  5
231
330
1F
100
AcDbEntity
  8
0
  6
CONTINUOUS
 62
     7
100
AcDbCircle
 10
-55.61695861816406
 20
43.29464340209961
 30
0.0
 40
31.5
  0
CIRCLE
  5
232
330
1F
100
AcDbEntity
  8
0
  6
CONTINUOUS
 62
     7
100
AcDbCircle
 10
-55.61695861816406
 20
43.29464340209961
 30
0.0
 40
29.0
  0
CIRCLE
  5
233
330
1F
100
AcDbEntity
  8
0
  6
CONTINUOUS
 62
     7
100
AcDbCircle
 10
-55.61695861816406
 20
43.29464340209961
 30
0.0
 40
9.0
  0
ARC
  5
234
330
1F
100
AcDbEntity
  8
0
  6
CONTINUOUS
 62
     7
100
AcDbCircle
 10
-60.11695861816406
 20
51.08887100219727
 30
0.0
 40
2.5
100
AcDbArc
 50
22.01644372345015
 51
217.983561247611
  0
ARC
  5
235
330
1F
100
AcDbEntity
  8
0
  6
CONTINUOUS
 62
     7
100
AcDbCircle
 10
-64.61695861816406
 20
43.29464340209961
 30
0.0
 40
2.5
100
AcDbArc
 50
82.01644710064956
 51
277.9835629172631
  0
ARC
  5
236
330
1F
100
AcDbEntity
  8
0
  6
CONTINUOUS
 62
     7
100
AcDbCircle
 10
-60.11695861816406
 20
35.50041580200195
 30
0.0
 40
2.5
100
AcDbArc
 50
142.0164487703017
 51
337.9835509265369
  0
ARC
  5
237
330
1F
100
AcDbEntity
  8
0
  6
CONTINUOUS
 62
     7
100
AcDbCircle
 10
-51.11695861816406
 20
35.50041580200195
 30
0.0
 40
2.5
100
AcDbArc
 50
202.0164404220411
 51
397.9835562386547
  0
ARC
  5
238
330
1F
100
AcDbEntity
  8
0
  6
CONTINUOUS
 62
     7
100
AcDbCircle
 10
-46.61695861816406
 20
43.29464340209961
 30
0.0
 40
2.5
100
AcDbArc
 50
262.0164420916932
 51
457.9835579083068
  0
ARC
  5
239
330
1F
100
AcDbEntity
  8
0
  6
CONTINUOUS
 62
     7
100
AcDbCircle
 10
-51.11695861816406
 20
51.08887100219727
 30
0.0
 40
2.5
100
AcDbArc
 50
322.0164437613453
 51
517.9835595779589
  0
CIRCLE
  5
23A
330
1F
100
AcDbEntity
  8
0
  6
CONTINUOUS
 62
     7
100
AcDbCircle
 10
-55.61695861816406
 20
43.29464340209961
 30
0.0
 40
4.5
  0
CIRCLE
  5
23B
330
1F
100
AcDbEntity
  8
0
  6
CONTINUOUS
 62
     7
100
AcDbCircle
 10
-70.33939361572266
 20
51.79464340209961
 30
0.0
 40
2.5
  0
CIRCLE
  5
23C
330
1F
100
AcDbEntity
  8
0
  6
CONTINUOUS
 62
     7
100
AcDbCircle
 10
-79.39337158203125
 20
51.02006912231445
 30
0.0
 40
2.5
  0
CIRCLE
  5
23D
330
1F
100
AcDbEntity
  8
0
  6
CONTINUOUS
 62
     7
100
AcDbCircle
 10
-72.61695861816406
 20
43.29464340209961
 30
0.0
 40
2.5
  0
CIRCLE
  5
23E
330
1F
100
AcDbEntity
  8
0
  6
CONTINUOUS
 62
     7
100
AcDbCircle
 10
-70.33939361572266
 20
34.79464340209961
 30
0.0
 40
2.5
  0
CIRCLE
  5
23F
330
1F
100
AcDbEntity
  8
0
  6
CONTINUOUS
 62
     7
100
AcDbCircle
 10
-64.11695861816406
 20
28.57221031188965
 30
0.0
 40
2.5
  0
CIRCLE
  5
240
330
1F
100
AcDbEntity
  8
0
  6
CONTINUOUS
 62
     7
100
AcDbCircle
 10
-55.61695861816406
 20
26.29464340209961
 30
0.0
 40
2.5
  0
CIRCLE
  5
241
330
1F
100
AcDbEntity
  8
0
  6
CONTINUOUS
 62
     7
100
AcDbCircle
 10
-47.11695861816406
 20
28.57221031188965
 30
0.0
 40
2.5
  0
CIRCLE
  5
242
330
1F
100
AcDbEntity
  8
0
  6
CONTINUOUS
 62
     7
100
AcDbCircle
 10
-40.89452743530273
 20
34.79464340209961
 30
0.0
 40
2.5
  0
CIRCLE
  5
243
330
1F
100
AcDbEntity
  8
0
  6
CONTINUOUS
 62
     7
100
AcDbCircle
 10
-38.61695861816406
 20
43.29464340209961
 30
0.0
 40
2.5
  0
CIRCLE
  5
244
330
1F
100
AcDbEntity
  8
0
  6
CONTINUOUS
 62
     7
100
AcDbCircle
 10
-40.89452743530273
 20
51.79464340209961
 30
0.0
 40
2.5
  0
CIRCLE
  5
245
330
1F
100
AcDbEntity
  8
0
  6
CONTINUOUS
 62
     7
100
AcDbCircle
 10
-47.11695861816406
 20
58.01707458496094
 30
0.0
 40
2.5
  0
CIRCLE
  5
246
330
1F
100
AcDbEntity
  8
0
  6
CONTINUOUS
 62
     7
100
AcDbCircle
 10
-55.61695861816406
 20
60.29464340209961
 30
0.0
 40
2.5
  0
CIRCLE
  5
247
330
1F
100
AcDbEntity
  8
0
  6
CONTINUOUS
 62
     7
100
AcDbCircle
 10
-64.11695861816406
 20
58.01707458496094
 30
0.0
 40
2.5
  0
CIRCLE
  5
248
330
1F
100
AcDbEntity
  8
0
  6
CONTINUOUS
 62
     7
100
AcDbCircle
 10
-80.61695861816406
 20
43.29464340209961
 30
0.0
 40
2.5
  0
CIRCLE
  5
249
330
1F
100
AcDbEntity
  8
0
  6
CONTINUOUS
 62
     7
100
AcDbCircle
 10
-79.39337158203125
 20
35.56921768188477
 30
0.0
 40
2.5
  0
CIRCLE
  5
24A
330
1F
100
AcDbEntity
  8
0
  6
CONTINUOUS
 62
     7
100
AcDbCircle
 10
-75.84238433837891
 20
28.60001182556152
 30
0.0
 40
2.5
  0
CIRCLE
  5
24B
330
1F
100
AcDbEntity
  8
0
  6
CONTINUOUS
 62
     7
100
AcDbCircle
 10
-70.31159210205078
 20
23.06921768188477
 30
0.0
 40
2.5
  0
CIRCLE
  5
24C
330
1F
100
AcDbEntity
  8
0
  6
CONTINUOUS
 62
     7
100
AcDbCircle
 10
-63.34238433837891
 20
19.51823043823242
 30
0.0
 40
2.5
  0
CIRCLE
  5
24D
330
1F
100
AcDbEntity
  8
0
  6
CONTINUOUS
 62
     7
100
AcDbCircle
 10
-55.61695861816406
 20
18.29464340209961
 30
0.0
 40
2.5
  0
CIRCLE
  5
24E
330
1F
100
AcDbEntity
  8
0
  6
CONTINUOUS
 62
     7
100
AcDbCircle
 10
-47.89153289794922
 20
19.51823043823242
 30
0.0
 40
2.5
  0
CIRCLE
  5
24F
330
1F
100
AcDbEntity
  8
0
  6
CONTINUOUS
 62
     7
100
AcDbCircle
 10
-40.92232894897461
 20
23.06921768188477
 30
0.0
 40
2.5
  0
CIRCLE
  5
250
330
1F
100
AcDbEntity
  8
0
  6
CONTINUOUS
 62
     7
100
AcDbCircle
 10
-35.39153289794922
 20
28.60001182556152
 30
0.0
 40
2.5
  0
CIRCLE
  5
251
330
1F
100
AcDbEntity
  8
0
  6
CONTINUOUS
 62
     7
100
AcDbCircle
 10
-31.84054565429688
 20
35.56921768188477
 30
0.0
 40
2.5
  0
CIRCLE
  5
252
330
1F
100
AcDbEntity
  8
0
  6
CONTINUOUS
 62
     7
100
AcDbCircle
 10
-30.61695861816406
 20
43.29464340209961
 30
0.0
 40
2.5
  0
CIRCLE
  5
253
330
1F
100
AcDbEntity
  8
0
  6
CONTINUOUS
 62
     7
100
AcDbCircle
 10
-31.84054565429688
 20
51.02006912231445
 30
0.0
 40
2.5
  0
CIRCLE
  5
254
330
1F
100
AcDbEntity
  8
0
  6
CONTINUOUS
 62
     7
100
AcDbCircle
 10
-35.39153289794922
 20
57.98927307128906
 30
0.0
 40
2.5
  0
CIRCLE
  5
255
330
1F
100
AcDbEntity
  8
0
  6
CONTINUOUS
 62
     7
100
AcDbCircle
 10
-40.92232894897461
 20
63.52006912231445
 30
0.0
 40
2.5
  0
CIRCLE
  5
256
330
1F
100
AcDbEntity
  8
0
  6
CONTINUOUS
 62
     7
100
AcDbCircle
 10
-47.89153289794922
 20
67.07105255126953
 30
0.0
 40
2.5
  0
CIRCLE
  5
257
330
1F
100
AcDbEntity
  8
0
  6
CONTINUOUS
 62
     7
100
AcDbCircle
 10
-55.61695861816406
 20
68.29463958740234
 30
0.0
 40
2.5
  0
CIRCLE
  5
258
330
1F
100
AcDbEntity
  8
0
  6
CONTINUOUS
 62
     7
100
AcDbCircle
 10
-63.34238433837891
 20
67.07105255126953
 30
0.0
 40
2.5
  0
CIRCLE
  5
259
330
1F
100
AcDbEntity
  8
0
  6
CONTINUOUS
 62
     7
100
AcDbCircle
 10
-70.31159210205078
 20
63.52006912231445
 30
0.0
 40
2.5
  0
CIRCLE
  5
25A
330
1F
100
AcDbEntity
  8
0
  6
CONTINUOUS
 62
     7
100
AcDbCircle
 10
-75.84238433837891
 20
57.98927307128906
 30
0.0
 40
2.5
  0
ARC
  5
25B
330
1F
100
AcDbEntity
  8
0
  6
CONTINUOUS
 62
     7
100
AcDbCircle
 10
-46.61695861816406
 20
-49.1875
 30
0.0
 40
5.0
100
AcDbArc
 50
99.5940687032716
 51
180.0000050089563
  0
ARC
  5
25C
330
1F
100
AcDbEntity
  8
0
  6
CONTINUOUS
 62
     7
100
AcDbCircle
 10
-47.61695861816406
 20
-42.1875
 30
0.0
 40
1.0
100
AcDbArc
 50
0.0
 51
90.00000250447816
  0
ARC
  5
25D
330
1F
100
AcDbEntity
  8
0
  6
CONTINUOUS
 62
     7
100
AcDbCircle
 10
-47.61695861816406
 20
-43.27141952514648
 30
0.0
 40
1.0
100
AcDbArc
 50
279.5940705245045
 51
360.0
  0
ARC
  5
25E
330
1F
100
AcDbEntity
  8
0
  6
CONTINUOUS
 62
     7
100
AcDbCircle
 10
-55.61695861816406
 20
-48.6875
 30
0.0
 40
4.5
100
AcDbArc
 50
231.0575578294782
 51
308.94244057666
  0
ARC
  5
25F
330
1F
100
AcDbEntity
  8
0
  6
CONTINUOUS
 62
     7
100
AcDbCircle
 10
-28.2805927244968
 20
-50.1875
 30
0.0
 40
2.0
100
AcDbArc
 50
270.0
 51
349.5085229876684
  0
ARC
  5
260
330
1F
100
AcDbEntity
  8
0
  6
CONTINUOUS
 62
     7
100
AcDbCircle
 10
-28.2805927244968
 20
-50.1875
 30
0.0
 40
1.5
100
AcDbArc
 50
270.0
 51
349.5085229876684
  0
ARC
  5
261
330
1F
100
AcDbEntity
  8
0
  6
CONTINUOUS
 62
     7
100
AcDbCircle
 10
-22.86923303841451
 20
-40.1875
 30
0.0
 40
2.0
100
AcDbArc
 50
90.00000000000003
 51
169.5085229876683
  0
ARC
  5
262
330
1F
100
AcDbEntity
  8
0
  6
CONTINUOUS
 62
     7
100
AcDbCircle
 10
-22.86923303841451
 20
-40.1875
 30
0.0
 40
1.499999999999998
100
AcDbArc
 50
90.00000000000003
 51
169.5085229876683
  0
ARC
  5
263
330
1F
100
AcDbEntity
  8
0
  6
CONTINUOUS
 62
     7
100
AcDbCircle
 10
-82.95332451183133
 20
-50.1875
 30
0.0
 40
2.0
100
AcDbArc
 50
190.4914770123318
 51
270.0000000000001
  0
ARC
  5
264
330
1F
100
AcDbEntity
  8
0
  6
CONTINUOUS
 62
     7
100
AcDbCircle
 10
-88.36468419791362
 20
-40.1875
 30
0.0
 40
1.499999999999998
100
AcDbArc
 50
10.49147701233175
 51
90.00000000000003
  0
LINE
  5
265
330
1F
100
AcDbEntity
  8
0
  6
CONTINUOUS
 62
     7
100
AcDbLine
 10
80.69683074951172
 20
-64.779541015625
 30
0.0
 11
147.5737152099609
 21
-64.779541015625
 31
0.0
  0
LINE
  5
266
330
1F
100
AcDbEntity
  8
0
  6
CONTINUOUS
 62
     7
100
AcDbLine
 10
84.99241638183594
 20
-84.25
 30
0.0
 11
84.99241638183594
 21
-106.25
 31
0.0
  0
TEXT
  5
267
330
1F
100
AcDbEntity
  8
0
 62
     7
100
AcDbText
 10
81.39978051185608
 20
-63.63426065444946
 30
0.0
 40
4.800000190734863
  1
エ－スＭ本体とのカンゴウあり
 41
0.6685238310723864
  7
FDASTYLE0
 72
     5
 11
147.2283561229706
 21
-63.63426065444946
 31
0.0
100
AcDbText
  0
TEXT
  5
268
330
1F
100
AcDbEntity
  8
0
 62
     7
100
AcDbText
 10
97.3535463809967
 20
-81.03836679458618
 30
0.0
 40
4.800000190734863
  1
エ－スＭ皿
 41
0.6600001663367191
  7
FDASTYLE0
 72
     5
 11
119.9821202754974
 21
-81.03836679458618
 31
0.0
100
AcDbText
  0
TEXT
  5
269
330
1F
100
AcDbEntity
  8
0
 62
     7
100
AcDbText
 10
68.02440667152405
 20
-91.67420816421509
 30
0.0
 40
4.800000190734863
  1
材　質
 41
0.650685111584705
  7
FDASTYLE0
 72
     5
 11
81.05298018455505
 21
-91.67420816421509
 31
0.0
100
AcDbText
  0
TEXT
  5
26A
330
1F
100
AcDbEntity
  8
0
 62
     7
100
AcDbText
 10
68.18555474281311
 20
-102.6323456764221
 30
0.0
 40
4.800000190734863
  1
色　調
 41
0.650685111584705
  7
FDASTYLE0
 72
     5
 11
81.21412825584412
 21
-102.6323456764221
 31
0.0
100
AcDbText
  0
TEXT
  5
26B
330
1F
100
AcDbEntity
  8
0
 62
     7
100
AcDbText
 10
86.87885308265686
 20
-91.51306009292603
 30
0.0
 40
4.800000190734863
  1
ＳＵＳ３０４
 41
0.6622518187178339
  7
FDASTYLE0
 72
     5
 11
114.3074271678925
 21
-91.51306009292603

 31
0.0
100
AcDbText
  0
TEXT
  5
26C
330
1F
100
AcDbEntity
  8
0
 62
     7
100
AcDbText
 10
163.2635271549225
 20
-103.1157898902893
 30
0.0
 40
4.800000190734863
  1
１／１
 41
0.650685111584705
  7
FDASTYLE0
 72
     5
 11
176.2921006679535
 21
-103.1157898902893
 31
0.0
100
AcDbText
  0
TEXT
  5
26D
330
1F
100
AcDbEntity
  8
0
 62
     7
100
AcDbText
 10
136.8350756168366
 20
-113.268187046051
 30
0.0
 40
4.800000190734863
  1
竜田
 41
0.6382980714498162
  7
FDASTYLE0
 72
     5
 11
145.0636489391327
 21
-113.268187046051
 31
0.0
100
AcDbText
  0
TEXT
  5
26E
330
1F
100
AcDbEntity
  8
0
 62
     7
100
AcDbText
 10
159.0004833936691
 20
-91.3576523065567
 30
0.0
 40
3.200000047683716
  1
３５０３８
 41
0.6600001627207069
  7
FDASTYLE0
 72
     5
 11
174.086198925972
 21
-91.3576523065567
 31
0.0
100
AcDbText
  0
TEXT
  5
26F
330
1F
100
AcDbEntity
  8
0
 62
     7
100
AcDbText
 10
153.843714594841
 20
-113.2739349603653
 30
0.0
 40
3.200000047683716
  1
１９９３．９．１
 41
0.6650247862105616
  7
FDASTYLE0
 72
     5
 11
178.529430270195
 21
-113.2739349603653
 31
0.0
100
AcDbText
  0
TEXT
  5
270
330
1F
100
AcDbEntity
  8
0
 62
     7
100
AcDbText
 10
78.83507561683655
 20
-113.268187046051
 30
0.0
 40
4.800000190734863
  1
伊藤
 41
0.6382980714498162
  7
FDASTYLE0
 72
     5
 11
87.06364893913269
 21
-113.268187046051
 31
0.0
100
AcDbText
  0
INSERT
  5
271
330
1F
100
AcDbEntity
  8
LAYER0014
  6
CONTINUOUS
100
AcDbBlockReference
  2
DA_IMAGEDIMGROUP_1
 10
0.0
 20
0.0
 30
0.0
  0
INSERT
  5
272
330
1F
100
AcDbEntity
  8
LAYER0014
  6
CONTINUOUS
100
AcDbBlockReference
  2
DA_IMAGEDIMGROUP_2
 10
0.0
 20
0.0
 30
0.0
  0
INSERT
  5
273
330
1F
100
AcDbEntity
  8
LAYER0014
  6
CONTINUOUS
100
AcDbBlockReference
  2
DA_IMAGEDIMGROUP_3
 10
0.0
 20
0.0
 30
0.0
  0
INSERT
  5
274
330
1F
100
AcDbEntity
  8
LAYER0014
  6
CONTINUOUS
100
AcDbBlockReference
  2
DA_IMAGEDIMGROUP_4
 10
0.0
 20
0.0
 30
0.0
  0
INSERT
  5
275
330
1F
100
AcDbEntity
  8
LAYER0014
  6
CONTINUOUS
100
AcDbBlockReference
  2
DA_IMAGEDIMGROUP_5
 10
0.0
 20
0.0
 30
0.0
  0
INSERT
  5
276
330
1F
100
AcDbEntity
  8
LAYER0014
  6
CONTINUOUS
100
AcDbBlockReference
  2
DA_IMAGEDIMGROUP_6
 10
0.0
 20
0.0
 30
0.0
  0
INSERT
  5
277
330
1F
100
AcDbEntity
  8
LAYER0014
  6
CONTINUOUS
100
AcDbBlockReference
  2
DA_IMAGEDIMGROUP_7
 10
0.0
 20
0.0
 30
0.0
  0
LINE
  5
278
330
1F
100
AcDbEntity
  8
LAYER0014
  6
CONTINUOUS
 62
     7
100
AcDbLine
 10
-77.85413569195984
 20
27.11581470082798
 30
0.0
 11
-100.663906671608
 21
10.28757137772611
 31
0.0
  0
LINE
  5
279
330
1F
100
AcDbEntity
  8
LAYER0014
  6
CONTINUOUS
 62
     7
100
AcDbLine
 10
-73.83062990801062
 20
30.08421514661139
 30
0.0
 11
-77.85413569195984
 21
27.11581470082798
 31
0.0
  0
LINE
  5
27A
330
1F
100
AcDbEntity
  8
LAYER0014
  6
CONTINUOUS
 62
     7
100
AcDbLine
 10
-23.96377618357422
 20
-38.51358981621357
 30
0.0
 11
-29.64402812448554
 21
-29.82664895653961
 31
0.0
  0
LINE
  5
27B
330
1F
100
AcDbEntity
  8
LAYER0014
  6
CONTINUOUS
 62
     7
100
AcDbLine
 10
-22.86923303841451
 20
-40.1875
 30
0.0
 11
-23.96377618357423
 21
-38.51358981621358
 31
0.0
  0
LINE
  5
27C
330
1F
100
AcDbEntity
  8
LAYER0014
  6
CONTINUOUS
 62
     7
100
AcDbLine
 10
-26.73415034852278
 20
-51.45577283255293
 30
0.0
 11
-17.73229823463315
 21
-58.83839804774382
 31
0.0
  0
LINE
  5
27D
330
1F
100
AcDbEntity
  8
LAYER0014
  6
CONTINUOUS
 62
     7
100
AcDbLine
 10
-28.28059272449679
 20
-50.18749999999999
 30
0.0
 11
-26.73415034852278
 21
-51.45577283255293
 31
0.0
  0
LINE
  5
27E
330
1F
100
AcDbEntity
  8
LAYER0014
  6
CONTINUOUS
 62
     7
100
AcDbLine
 10
-73.83062990801062
 20
30.08421514661139
 30
0.0
 11
-67.79537123208679
 21
34.53681581528651
 31
0.0
  0
INSERT
  5
27F
330
1F
100
AcDbEntity
  8
LAYER0014
 62
     7
100
AcDbBlockReference
  2
_OPEN30
 10
-73.83062990801062
 20
30.08421514661139
 30
0.0
 41
3.000002787824364
 42
2.999989273978464
 50
216.4185957389018
  0
LINE
  5
280
330
1F
100
AcDbEntity
  8
LAYER0014
  6
CONTINUOUS
 62
     7
100
AcDbLine
 10
-83.88939436788367
 20
22.66321403215286
 30
0.0
 11
-77.85413569195984
 21
27.11581470082798
 31
0.0
  0
INSERT
  5
281
330
1F
100
AcDbEntity
  8
LAYER0014
 62
     7
100
AcDbBlockReference
  2
_OPEN30
 10
-77.85413569195984
 20
27.11581470082798
 30
0.0
 41
3.000002787824364
 42
2.999989273978464
 50
36.41859573890184
  0
LINE
  5
282
330
1F
100
AcDbEntity
  8
LAYER0014
  6
CONTINUOUS
 62
     7
100
AcDbLine
 10
-28.06831297792317
 20
-32.23642662701452
 30
0.0
 11
-23.96377618357423
 21
-38.51358981621358
 31
0.0
  0
INSERT
  5
283
330
1F
100
AcDbEntity
  8
LAYER0014
 62
     7
100
AcDbBlockReference
  2
_OPEN30
 10
-23.96377618357423
 20
-38.51358981621358
 30
0.0
 41
3.000002787824364
 42
2.999989273978464
 50
303.1800320577442
  0
LINE
  5
284
330
1F
100
AcDbEntity
  8
LAYER0014
  6
CONTINUOUS
 62
     7
100
AcDbLine
 10
-20.93499143862024
 20
-56.21179595462646
 30
0.0
 11
-26.73415034852278
 21
-51.45577283255293
 31
0.0
  0
INSERT
  5
285
330
1F
100
AcDbEntity
  8
LAYER0014
 62
     7
100
AcDbBlockReference
  2
_OPEN30
 10
-26.73415034852278
 20
-51.45577283255293
 30
0.0
 41
3.000002787824364
 42
2.999989273978464
 50
140.6440365341112
  0
TEXT
  5
286
330
1F
100
AcDbEntity
  8
LAYER0014
 62
     7
100
AcDbText
 10
-101.1400889399509
 20
10.93345534763808
 30
0.0
 40
3.200000047683716
  1
φ5-38
 50
36.4
 41
0.7783020625966062
  7
FDASTYLE0
 72
     5
 11
-88.99769007932457
 21
19.88560386243741
 31
0.0
100
AcDbText
  0
TEXT
  5
287
330
1F
100
AcDbEntity
  8
LAYER0014
 62
     7
100
AcDbText
 10
-28.97541666219708
 20
-29.38912167646338
 30
0.0
 40
3.200000047683716
  1
R2
 50
-56.80000000000004
 41
0.7500683550525603
  7
FDASTYLE0
 72
     5
 11
-25.97148481733366
 21
-33.97961070129625
 31
0.0
100
AcDbText
  0
TEXT
  5
288
330
1F
100
AcDbEntity
  8
LAYER0014
 62
     7
100
AcDbText
 10
-21.4650677283621
 20
-54.7397091912665
 30
0.0
 40
3.200000047683716
  1
R2
 50
-39.40000000000001
 41
0.7500683550525595
  7
FDASTYLE0
 72
     5
 11
-17.22585134305023
 21
-58.22184078760213
 31
0.0
100
AcDbText
  0
INSERT
  5
289
330
1F
100
AcDbEntity
  8
0
  6
CONTINUOUS
100
AcDbBlockReference
  2
DC_GROUP_1
 10
0.0
 20
0.0
 30
0.0
  0
VIEWPORT
  5
48
330
1B
100
AcDbEntity
 67
     1
  8
0
100
AcDbViewport
 10
-4.007583618164063
 20
1.75
 30
0.0
 40
1140.0
 41
804.0
 68
     1
 69
     1
1001
ACAD
1000
MVIEW
1002
{
1070
    16
1010
0.0
1020
0.0
1030
0.0
1010
0.0
1020
0.0
1030
1.0
1040
0.0
1040
804.0
1040
-4.007583618164063
1040
1.75
1040
50.0
1040
0.0
1040
0.0
1070
     0
1070
   100
1070
     0
1070
     1
1070
     0
1070
     0
1070
     0
1070
     0
1040
0.0
1040
0.0
1040
0.0
1040
0.5
1040
0.5
1040
0.0
1040
0.0
1070
     0
1002
{
1002
}
1002
}
  0
ENDSEC
  0
SECTION
  2
OBJECTS
  0
DICTIONARY
  5
C
330
0
100
AcDbDictionary
  3
ACAD_GROUP
350
D
  3
ACAD_LAYOUT
350
1A
  3
ACAD_MLINESTYLE
350
17
  3
ACAD_PLOTSETTINGS
350
19
  3
ACDBHEADERROUNDTRIPXREC
350
28A
  0
DICTIONARY
  5
D
102
{ACAD_REACTORS
330
C
102
}
330
C
100
AcDbDictionary
  0
DICTIONARY
  5
1A
102
{ACAD_REACTORS
330
C
102
}
330
C
100
AcDbDictionary
  0
DICTIONARY
  5
17
102
{ACAD_REACTORS
330
C
102
}
330
C
100
AcDbDictionary
  3
STANDARD
350
18
  0
DICTIONARY
  5
19
102
{ACAD_REACTORS
330
C
102
}
330
C
100
AcDbDictionary
  0
DICTIONARY
  5
28A
102
{ACAD_REACTORS
330
C
102
}
330
C
100
AcDbDictionary
  3
CEPSNTYPE
350
293
  3
DIMSTYLEDATA
350
2A9
  3
FINGERPRINTGUID
350
294
  3
HYPERLINKBASE
350
28D
  3
INSUNITS
350
292
  3
LAYOUTDICT
350
28F
  3
LWETCUNION
350
291
  3
PLOTSETDICT
350
290
  3
PSVPSCALE
350
296
  3
PUCSBASE
350
299
  3
PUCSORGBACK
350
29F
  3
PUCSORGBOTTOM
350
29B
  3
PUCSORGFRONT
350
29E
  3
PUCSORGLEFT
350
29C
  3
PUCSORGRIGHT
350
29D
  3
PUCSORGTOP
350
29A
  3
PUCSORTHOREF
350
297
  3
PUCSORTHOVIEW
350
298
  3
STYLESHEET
350
28E
  3
TSTACKALIGN
350
28B
  3
TSTACKSIZE
350
28C
  3
UCSBASE
350
2A2
  3
UCSORGBACK
350
2A8
  3
UCSORGBOTTOM
350
2A4
  3
UCSORGFRONT
350
2A7
  3
UCSORGLEFT
350
2A5
  3
UCSORGRIGHT
350
2A6
  3
UCSORGTOP
350
2A3
  3
UCSORTHOREF
350
2A0
  3
UCSORTHOVIEW
350
2A1
  3
VERSIONGUID
350
295
  0
MLINESTYLE
  5
18
102
{ACAD_REACTORS
330
17
102
}
330
17
100
AcDbMlineStyle
  2
Standard
 70
     0
  3

 62
   256
 51
90.0
 52
90.0
 71
     2
 49
0.5
 62
   256
  6
BYLAYER
 49
-0.5
 62
   256
  6
BYLAYER
  0
XRECORD
  5
293
102
{ACAD_REACTORS
330
28A
102
}
330
28A
100
AcDbXrecord
 90
        0
  0
XRECORD
  5
2A9
102
{ACAD_REACTORS
330
28A
102
}
330
28A
100
AcDbXrecord
1000
DSTYLE
1002
{
1070
   171
 70
     2
1070
   143
 40
25.4
1070
   274
 70
     2
1070
   141
 40
0.09
1070
   271
 70
     4
1070
    43
 40
0.38
1070
    44
 40
0.18
1070
   278
 70
    46
1070
    42
 40
0.0625
1070
   147
 40
0.09
1070
    77
 70
     3
1070
   272
 70
     4
1070
    73
 70
     1
1070
   172
 70
     0
1070
    74
 70
     1
1070
   283
 70
     1
1070
   340
340
11
1070
   140
 40
0.18
1070
   284
 70
     0
1070
    78
 70
     0
1002
}
  0
XRECORD
  5
294
102
{ACAD_REACTORS
330
28A
102
}
330
28A
100
AcDbXrecord
  1
{DE09ECE1-2BE4-4065-ABED-B06B5C37753C}
  0
XRECORD
  5
28D
102
{ACAD_REACTORS
330
28A
102
}
330
28A
100
AcDbXrecord
  1

  0
XRECORD
  5
292
102
{ACAD_REACTORS
330
28A
102
}
330
28A
100
AcDbXrecord
 90
        4
  0
XRECORD
  5
28F
102
{ACAD_REACTORS
330
28A
102
}
330
28A
100
AcDbXrecord
340
1A
  0
XRECORD
  5
291
102
{ACAD_REACTORS
330
28A
102
}
330
28A
100
AcDbXrecord
 90
    10781
  0
XRECORD
  5
290
102
{ACAD_REACTORS
330
28A
102
}
330
28A
100
AcDbXrecord
340
19
  0
XRECORD
  5
296
102
{ACAD_REACTORS
330
28A
102
}
330
28A
100
AcDbXrecord
 40
0.0
  0
XRECORD
  5
299
102
{ACAD_REACTORS
330
28A
102
}
330
28A
100
AcDbXrecord
340
0
  0
XRECORD
  5
29F
102
{ACAD_REACTORS
330
28A
102
}
330
28A
100
AcDbXrecord
 10
0.0
 20
0.0
 30
0.0
  0
XRECORD
  5
29B
102
{ACAD_REACTORS
330
28A
102
}
330
28A
100
AcDbXrecord
 10
0.0
 20
0.0
 30
0.0
  0
XRECORD
  5
29E
102
{ACAD_REACTORS
330
28A
102
}
330
28A
100
AcDbXrecord
 10
0.0
 20
0.0
 30
0.0
  0
XRECORD
  5
29C
102
{ACAD_REACTORS
330
28A
102
}
330
28A
100
AcDbXrecord
 10
0.0
 20
0.0
 30
0.0
  0
XRECORD
  5
29D
102
{ACAD_REACTORS
330
28A
102
}
330
28A
100
AcDbXrecord
 10
0.0
 20
0.0
 30
0.0
  0
XRECORD
  5
29A
102
{ACAD_REACTORS
330
28A
102
}
330
28A
100
AcDbXrecord
 10
0.0
 20
0.0
 30
0.0
  0
XRECORD
  5
297
102
{ACAD_REACTORS
330
28A
102
}
330
28A
100
AcDbXrecord
340
0
  0
XRECORD
  5
298
102
{ACAD_REACTORS
330
28A
102
}
330
28A
100
AcDbXrecord
 70
     0
  0
XRECORD
  5
28E
102
{ACAD_REACTORS
330
28A
102
}
330
28A
100
AcDbXrecord
  1

  0
XRECORD
  5
28B
102
{ACAD_REACTORS
330
28A
102
}
330
28A
100
AcDbXrecord
 90
        1
  0
XRECORD
  5
28C
102
{ACAD_REACTORS
330
28A
102
}
330
28A
100
AcDbXrecord
 90
       70
  0
XRECORD
  5
2A2
102
{ACAD_REACTORS
330
28A
102
}
330
28A
100
AcDbXrecord
340
0
  0
XRECORD
  5
2A8
102
{ACAD_REACTORS
330
28A
102
}
330
28A
100
AcDbXrecord
 10
0.0
 20
0.0
 30
0.0
  0
XRECORD
  5
2A4
102
{ACAD_REACTORS
330
28A
102
}
330
28A
100
AcDbXrecord
 10
0.0
 20
0.0
 30
0.0
  0
XRECORD
  5
2A7
102
{ACAD_REACTORS
330
28A
102
}
330
28A
100
AcDbXrecord
 10
0.0
 20
0.0
 30
0.0
  0
XRECORD
  5
2A5
102
{ACAD_REACTORS
330
28A
102
}
330
28A
100
AcDbXrecord
 10
0.0
 20
0.0
 30
0.0
  0
XRECORD
  5
2A6
102
{ACAD_REACTORS
330
28A
102
}
330
28A
100
AcDbXrecord
 10
0.0
 20
0.0
 30
0.0
  0
XRECORD
  5
2A3
102
{ACAD_REACTORS
330
28A
102
}
330
28A
100
AcDbXrecord
 10
0.0
 20
0.0
 30
0.0
  0
XRECORD
  5
2A0
102
{ACAD_REACTORS
330
28A
102
}
330
28A
100
AcDbXrecord
340
0
  0
XRECORD
  5
2A1
102
{ACAD_REACTORS
330
28A
102
}
330
28A
100
AcDbXrecord
 70
     0
  0
XRECORD
  5
295
102
{ACAD_REACTORS
330
28A
102
}
330
28A
100
AcDbXrecord
  1
{FAEB1C32-E019-11D5-929B-00C0DF256EC4}
  0
ENDSEC
  0
EOF
