  0
SECTION
  2
HEADER
  9
$ACADVER
  1
AC1014
  9
$ACADMAINTVER
 70
     9
  9
$DWGCODEPAGE
  3
ANSI_932
  9
$INSBASE
 10
0.0
 20
0.0
 30
0.0
  9
$EXTMIN
 10
-630.0
 20
-445.5
 30
0.0
  9
$EXTMAX
 10
630.0
 20
445.5
 30
0.0
  9
$LIMMIN
 10
-210.0
 20
-148.5
  9
$LIMMAX
 10
210.0
 20
148.5
  9
$ORTHOMODE
 70
     0
  9
$REGENMODE
 70
     1
  9
$FILLMODE
 70
     1
  9
$QTEXTMODE
 70
     0
  9
$MIRRTEXT
 70
     1
  9
$DRAGMODE
 70
     2
  9
$LTSCALE
 40
1.0
  9
$OSMODE
 70
    37
  9
$ATTMODE
 70
     1
  9
$TEXTSIZE
 40
0.2
  9
$TRACEWID
 40
0.05
  9
$TEXTSTYLE
  7
STANDARD
  9
$CLAYER
  8
0
  9
$CELTYPE
  6
BYLAYER
  9
$CECOLOR
 62
   256
  9
$CELTSCALE
 40
1.0
  9
$DELOBJ
 70
     1
  9
$DISPSILH
 70
     0
  9
$DIMSCALE
 40
1.0
  9
$DIMASZ
 40
2.5
  9
$DIMEXO
 40
0.0625
  9
$DIMDLI
 40
0.38
  9
$DIMRND
 40
0.0
  9
$DIMDLE
 40
0.0
  9
$DIMEXE
 40
0.18
  9
$DIMTP
 40
0.0
  9
$DIMTM
 40
0.0
  9
$DIMTXT
 40
0.18
  9
$DIMCEN
 40
0.09
  9
$DIMTSZ
 40
0.0
  9
$DIMTOL
 70
     0
  9
$DIMLIM
 70
     0
  9
$DIMTIH
 70
     1
  9
$DIMTOH
 70
     1
  9
$DIMSE1
 70
     0
  9
$DIMSE2
 70
     0
  9
$DIMTAD
 70
     3
  9
$DIMZIN
 70
     0
  9
$DIMBLK
  1

  9
$DIMASO
 70
     1
  9
$DIMSHO
 70
     1
  9
$DIMPOST
  1

  9
$DIMAPOST
  1

  9
$DIMALT
 70
     0
  9
$DIMALTD
 70
     2
  9
$DIMALTF
 40
25.4
  9
$DIMLFAC
 40
1.0
  9
$DIMTOFL
 70
     0
  9
$DIMTVP
 40
0.0
  9
$DIMTIX
 70
     0
  9
$DIMSOXD
 70
     0
  9
$DIMSAH
 70
     0
  9
$DIMBLK1
  1

  9
$DIMBLK2
  1

  9
$DIMSTYLE
  2
STANDARD
  9
$DIMCLRD
 70
     0
  9
$DIMCLRE
 70
     0
  9
$DIMCLRT
 70
     0
  9
$DIMTFAC
 40
1.0
  9
$DIMGAP
 40
0.09
  9
$DIMJUST
 70
     0
  9
$DIMSD1
 70
     0
  9
$DIMSD2
 70
     0
  9
$DIMTOLJ
 70
     1
  9
$DIMTZIN
 70
     0
  9
$DIMALTZ
 70
     0
  9
$DIMALTTZ
 70
     0
  9
$DIMFIT
 70
     3
  9
$DIMUPT
 70
     0
  9
$DIMUNIT
 70
     2
  9
$DIMDEC
 70
     4
  9
$DIMTDEC
 70
     4
  9
$DIMALTU
 70
     2
  9
$DIMALTTD
 70
     2
  9
$DIMTXSTY
  7
STANDARD
  9
$DIMAUNIT
 70
     0
  9
$LUNITS
 70
     2
  9
$LUPREC
 70
     4
  9
$SKETCHINC
 40
0.1
  9
$FILLETRAD
 40
0.5
  9
$AUNITS
 70
     0
  9
$AUPREC
 70
     0
  9
$MENU
  1
.
  9
$ELEVATION
 40
0.0
  9
$PELEVATION
 40
0.0
  9
$THICKNESS
 40
0.0
  9
$LIMCHECK
 70
     0
  9
$CHAMFERA
 40
0.5
  9
$CHAMFERB
 40
0.5
  9
$CHAMFERC
 40
1.0
  9
$CHAMFERD
 40
0.0
  9
$SKPOLY
 70
     0
  9
$TDCREATE
 40
2456315.464330255
  9
$TDUPDATE
 40
2456315.464330266
  9
$TDINDWG
 40
0.0000000116
  9
$TDUSRTIMER
 40
0.0000000116
  9
$USRTIMER
 70
     1
  9
$ANGBASE
 50
0.0
  9
$ANGDIR
 70
     0
  9
$PDMODE
 70
     0
  9
$PDSIZE
 40
1.0
  9
$PLINEWID
 40
0.0
  9
$COORDS
 70
     1
  9
$SPLFRAME
 70
     0
  9
$SPLINETYPE
 70
     6
  9
$SPLINESEGS
 70
     8
  9
$ATTDIA
 70
     0
  9
$ATTREQ
 70
     1
  9
$HANDLING
 70
     1
  9
$HANDSEED
  5
597
  9
$SURFTAB1
 70
     6
  9
$SURFTAB2
 70
     6
  9
$SURFTYPE
 70
     6
  9
$SURFU
 70
     6
  9
$SURFV
 70
     6
  9
$UCSNAME
  2

  9
$UCSORG
 10
0.0
 20
0.0
 30
0.0
  9
$UCSXDIR
 10
1.0
 20
0.0
 30
0.0
  9
$UCSYDIR
 10
0.0
 20
1.0
 30
0.0
  9
$PUCSNAME
  2

  9
$PUCSORG
 10
0.0
 20
0.0
 30
0.0
  9
$PUCSXDIR
 10
1.0
 20
0.0
 30
0.0
  9
$PUCSYDIR
 10
0.0
 20
1.0
 30
0.0
  9
$USERI1
 70
     0
  9
$USERI2
 70
     0
  9
$USERI3
 70
     0
  9
$USERI4
 70
     0
  9
$USERI5
 70
     0
  9
$USERR1
 40
0.0
  9
$USERR2
 40
0.0
  9
$USERR3
 40
0.0
  9
$USERR4
 40
0.0
  9
$USERR5
 40
0.0
  9
$WORLDVIEW
 70
     1
  9
$SHADEDGE
 70
     3
  9
$SHADEDIF
 70
    70
  9
$TILEMODE
 70
     1
  9
$MAXACTVP
 70
    64
  9
$PINSBASE
 10
0.0
 20
0.0
 30
0.0
  9
$PLIMCHECK
 70
     0
  9
$PEXTMIN
 10
1.000000000000000E+20
 20
1.000000000000000E+20
 30
1.000000000000000E+20
  9
$PEXTMAX
 10
-1.000000000000000E+20
 20
-1.000000000000000E+20
 30
-1.000000000000000E+20
  9
$PLIMMIN
 10
0.0
 20
0.0
  9
$PLIMMAX
 10
12.0
 20
9.0
  9
$UNITMODE
 70
     0
  9
$VISRETAIN
 70
     0
  9
$PLINEGEN
 70
     1
  9
$PSLTSCALE
 70
     0
  9
$TREEDEPTH
 70
  3020
  9
$PICKSTYLE
 70
     1
  9
$CMLSTYLE
  2
STANDARD
  9
$CMLJUST
 70
     0
  9
$CMLSCALE
 40
1.0
  9
$PROXYGRAPHICS
 70
     0
  9
$MEASUREMENT
 70
     1
  0
ENDSEC
  0
SECTION
  2
CLASSES
  0
CLASS
  1
ACDBDICTIONARYWDFLT
  2
AcDbDictionaryWithDefault
  3
ObjectDBX Classes
 90
        0
280
     0
281
     0
  0
CLASS
  1
XRECORD
  2
AcDbXrecord
  3
AutoCAD 2000
 90
        0
280
     0
281
     0
  0
CLASS
  1
LWPOLYLINE
  2
AcDbPolyline
  3
AutoCAD 2000
 90
        0
280
     0
281
     1
  0
CLASS
  1
HATCH
  2
AcDbHatch
  3
AutoCAD 2000
 90
        0
280
     0
281
     1
  0
CLASS
  1
ACDBPLACEHOLDER
  2
AcDbPlaceHolder
  3
ObjectDBX Classes
 90
        0
280
     0
281
     0
  0
CLASS
  1
LAYOUT
  2
AcDbLayout
  3
ObjectDBX Classes
 90
        0
280
     0
281
     0
  0
ENDSEC
  0
SECTION
  2
TABLES
  0
TABLE
  2
VPORT
  5
8
330
0
100
AcDbSymbolTable
 70
     1
  0
VPORT
  5
29
330
8
100
AcDbSymbolTableRecord
100
AcDbViewportTableRecord
  2
*ACTIVE
 70
     0
 10
0.0
 20
0.0
 11
1.0
 21
1.0
 12
0.0
 22
0.0
 13
0.0
 23
0.0
 14
0.5
 24
0.5
 15
0.5
 25
0.5
 16
0.0
 26
0.0
 36
1.0
 17
-0.0000000000000036
 27
0.0
 37
0.0
 40
302.94
 41
1.414141414141414
 42
50.0
 43
0.0
 44
0.0
 50
0.0
 51
0.0
 71
     0
 72
  1000
 73
     1
 74
     1
 75
     0
 76
     0
 77
     0
 78
     0
  0
ENDTAB
  0
TABLE
  2
LTYPE
  5
5
330
0
100
AcDbSymbolTable
 70
    28
  0
LTYPE
  5
14
330
5
100
AcDbSymbolTableRecord
100
AcDbLinetypeTableRecord
  2
BYBLOCK
 70
     0
  3

 72
    65
 73
     0
 40
0.0
  0
LTYPE
  5
15
330
5
100
AcDbSymbolTableRecord
100
AcDbLinetypeTableRecord
  2
BYLAYER
 70
     0
  3

 72
    65
 73
     0
 40
0.0
  0
LTYPE
  5
16
330
5
100
AcDbSymbolTableRecord
100
AcDbLinetypeTableRecord
  2
CONTINUOUS
 70
     0
  3
Solid line
 72
    65
 73
     0
 40
0.0
  0
LTYPE
  5
2B
330
5
100
AcDbSymbolTableRecord
100
AcDbLinetypeTableRecord
  2
HIDDENX2
 70
     0
  3
CADPAC LINETYPE
 72
    65
 73
     2
 40
11.8510497096222
 49
8.888287282216652
 74
     0
 49
-2.962762427405551
 74
     0
  0
LTYPE
  5
2C
330
5
100
AcDbSymbolTableRecord
100
AcDbLinetypeTableRecord
  2
HIDDEN
 70
     0
  3
CADPAC LINETYPE
 72
    65
 73
     2
 40
8.888287282216652
 49
5.925524854811101
 74
     0
 49
-2.962762427405551
 74
     0
  0
LTYPE
  5
2D
330
5
100
AcDbSymbolTableRecord
100
AcDbLinetypeTableRecord
  2
HIDDEN2
 70
     0
  3
CADPAC LINETYPE
 72
    65
 73
     2
 40
7.406906068513877
 49
4.444143641108326
 74
     0
 49
-2.962762427405551
 74
     0
  0
LTYPE
  5
2E
330
5
100
AcDbSymbolTableRecord
100
AcDbLinetypeTableRecord
  2
DASHED
 70
     0
  3
CADPAC LINETYPE
 72
    65
 73
     2
 40
8.295734796735474
 49
5.925524854811101
 74
     0
 49
-2.370209941924372
 74
     0
  0
LTYPE
  5
2F
330
5
100
AcDbSymbolTableRecord
100
AcDbLinetypeTableRecord
  2
DASHED2
 70
     0
  3
CADPAC LINETYPE
 72
    65
 73
     2
 40
5.332972369329923
 49
3.555314912886615
 74
     0
 49
-1.777657456443308
 74
     0
  0
LTYPE
  5
30
330
5
100
AcDbSymbolTableRecord
100
AcDbLinetypeTableRecord
  2
DASHEDX2
 70
     0
  3
CADPAC LINETYPE
 72
    65
 73
     2
 40
14.22125965154658
 49
11.8510497096222
 74
     0
 49
-2.370209941924372
 74
     0
  0
LTYPE
  5
31
330
5
100
AcDbSymbolTableRecord
100
AcDbLinetypeTableRecord
  2
DOTX2
 70
     0
  3
CADPAC LINETYPE
 72
    65
 73
     2
 40
5.184834247959671
 49
0.0
 74
     0
 49
-5.184834247959671
 74
     0
  0
LTYPE
  5
32
330
5
100
AcDbSymbolTableRecord
100
AcDbLinetypeTableRecord
  2
DOT
 70
     0
  3
CADPAC LINETYPE
 72
    65
 73
     2
 40
4.147867398367737
 49
0.0
 74
     0
 49
-4.147867398367737
 74
     0
  0
LTYPE
  5
33
330
5
100
AcDbSymbolTableRecord
100
AcDbLinetypeTableRecord
  2
DOT2
 70
     0
  3
CADPAC LINETYPE
 72
    65
 73
     2
 40
3.110900548775803
 49
0.0
 74
     0
 49
-3.110900548775803
 74
     0
  0
LTYPE
  5
34
330
5
100
AcDbSymbolTableRecord
100
AcDbLinetypeTableRecord
  2
CENTERX2
 70
     0
  3
CADPAC LINETYPE
 72
    65
 73
     4
 40
17.7765745644333
 49
7.406906068513877
 74
     0
 49
-3.703453034256938
 74
     0
 49
2.962762427405551
 74
     0
 49
-3.703453034256938
 74
     0
  0
LTYPE
  5
35
330
5
100
AcDbSymbolTableRecord
100
AcDbLinetypeTableRecord
  2
CENTER
 70
     0
  3
CADPAC LINETYPE
 72
    65
 73
     4
 40
13.62870716606553
 49
5.925524854811101
 74
     0
 49
-2.962762427405551
 74
     0
 49
1.77765745644333
 74
     0
 49
-2.962762427405551
 74
     0
  0
LTYPE
  5
36
330
5
100
AcDbSymbolTableRecord
100
AcDbLinetypeTableRecord
  2
CENTER2
 70
     0
  3
CADPAC LINETYPE
 72
    65
 73
     4
 40
9.480839767697763
 49
4.444143641108326
 74
     0
 49
-2.222071820554163
 74
     0
 49
0.5925524854811102
 74
     0
 49
-2.222071820554163
 74
     0
  0
LTYPE
  5
37
330
5
100
AcDbSymbolTableRecord
100
AcDbLinetypeTableRecord
  2
DASHDOTX2
 70
     0
  3
CADPAC LINETYPE
 72
    65
 73
     4
 40
28.44251930309321
 49
14.22125965154663
 74
     0
 49
-4.740419883848858
 74
     0
 49
4.740419883848858
 74
     0
 49
-4.740419883848858
 74
     0
  0
LTYPE
  5
38
330
5
100
AcDbSymbolTableRecord
100
AcDbLinetypeTableRecord
  2
DASHDOT
 70
     0
  3
CADPAC LINETYPE
 72
    65
 73
     4
 40
14.2212596515464
 49
7.110629825773287
 74
     0
 49
-2.370209941924372
 74
     0
 49
2.370209941924372
 74
     0
 49
-2.370209941924372
 74
     0
  0
LTYPE
  5
39
330
5
100
AcDbSymbolTableRecord
100
AcDbLinetypeTableRecord
  2
DASHDOT2
 70
     0
  3
CADPAC LINETYPE
 72
    65
 73
     4
 40
9.125308276408962
 49
5.332972369329966
 74
     0
 49
-1.777657456443279
 74
     0
 49
0.2370209941924373
 74
     0
 49
-1.777657456443279
 74
     0
  0
LTYPE
  5
3A
330
5
100
AcDbSymbolTableRecord
100
AcDbLinetypeTableRecord
  2
DIVIDEX2
 70
     0
  3
CADPAC LINETYPE
 72
    65
 73
     6
 40
37.92335907079092
 49
14.22125965154663
 74
     0
 49
-4.740419883848858
 74
     0
 49
4.740419883848858
 74
     0
 49
-4.740419883848858
 74
     0
 49
4.740419883848858
 74
     0
 49
-4.740419883848858
 74
     0
  0
LTYPE
  5
3B
330
5
100
AcDbSymbolTableRecord
100
AcDbLinetypeTableRecord
  2
DIVIDE
 70
     0
  3
CADPAC LINETYPE
 72
    65
 73
     6
 40
18.96167953539515
 49
7.110629825773287
 74
     0
 49
-2.370209941924372
 74
     0
 49
2.370209941924372
 74
     0
 49
-2.370209941924372
 74
     0
 49
2.370209941924372
 74
     0
 49
-2.370209941924372
 74
     0
  0
LTYPE
  5
3C
330
5
100
AcDbSymbolTableRecord
100
AcDbLinetypeTableRecord
  2
DIVIDE2
 70
     0
  3
CADPAC LINETYPE
 72
    65
 73
     6
 40
14.22125965154636
 49
5.332972369329966
 74
     0
 49
-1.777657456443279
 74
     0
 49
1.777657456443279
 74
     0
 49
-1.777657456443279
 74
     0
 49
1.777657456443279
 74
     0
 49
-1.777657456443279
 74
     0
  0
LTYPE
  5
3D
330
5
100
AcDbSymbolTableRecord
100
AcDbLinetypeTableRecord
  2
BORDERX2
 70
     0
  3
CADPAC LINETYPE
 72
    65
 73
     6
 40
25.92417123979857
 49
7.406906068513877
 74
     0
 49
-3.703453034256938
 74
     0
 49
7.406906068513877
 74
     0
 49
-3.703453034256938
 74
     0
 49
0.0
 74
     0
 49
-3.703453034256938
 74
     0
  0
LTYPE
  5
3E
330
5
100
AcDbSymbolTableRecord
100
AcDbLinetypeTableRecord
  2
BORDER
 70
     0
  3
CADPAC LINETYPE
 72
    65
 73
     6
 40
20.73933699183885
 49
5.925524854811101
 74
     0
 49
-2.962762427405551
 74
     0
 49
5.925524854811101
 74
     0
 49
-2.962762427405551
 74
     0
 49
0.0
 74
     0
 49
-2.962762427405551
 74
     0
  0
LTYPE
  5
3F
330
5
100
AcDbSymbolTableRecord
100
AcDbLinetypeTableRecord
  2
BORDER2
 70
     0
  3
CADPAC LINETYPE
 72
    65
 73
     6
 40
15.4063646225087
 49
4.740419883848858
 74
     0
 49
-2.962762427405494
 74
     0
 49
1.777657456443308
 74
     0
 49
-2.962762427405494
 74
     0
 49
0.0
 74
     0
 49
-2.962762427405551
 74
     0
  0
LTYPE
  5
40
330
5
100
AcDbSymbolTableRecord
100
AcDbLinetypeTableRecord
  2
PHANTOMX2
 70
     0
  3
CADPAC LINETYPE
 72
    65
 73
     6
 40
22.22071820554163
 49
7.406906068513877
 74
     0
 49
-2.962762427405551
 74
     0
 49
2.962762427405551
 74
     0
 49
-2.962762427405551
 74
     0
 49
2.962762427405551
 74
     0
 49
-2.962762427405551
 74
     0
  0
LTYPE
  5
41
330
5
100
AcDbSymbolTableRecord
100
AcDbLinetypeTableRecord
  2
PHANTOM
 70
     0
  3
CADPAC LINETYPE
 72
    65
 73
     6
 40
18.36912704991442
 49
5.925524854811101
 74
     0
 49
-2.962762427405551
 74
     0
 49
1.77765745644333
 74
     0
 49
-2.962762427405551
 74
     0
 49
1.77765745644333
 74
     0
 49
-2.962762427405551
 74
     0
  0
LTYPE
  5
42
330
5
100
AcDbSymbolTableRecord
100
AcDbLinetypeTableRecord
  2
PHANTOM2
 70
     0
  3
CADPAC LINETYPE
 72
    65
 73
     6
 40
15.70264086524942
 49
4.444143641108326
 74
     0
 49
-2.962762427405551
 74
     0
 49
1.18510497096222
 74
     0
 49
-2.962762427405551
 74
     0
 49
1.18510497096222
 74
     0
 49
-2.962762427405551
 74
     0
  0
LTYPE
  5
43
330
5
100
AcDbSymbolTableRecord
100
AcDbLinetypeTableRecord
  2
ACAD_ISO06W100
 70
     0
  3
CADPAC LINETYPE
 72
    65
 73
     8
 40
31.40528173049853
 49
14.22125965154663
 74
     0
 49
-2.962762427405494
 74
     0
 49
1.777657456443308
 74
     0
 49
-2.962762427405494
 74
     0
 49
1.777657456443308
 74
     0
 49
-2.962762427405494
 74
     0
 49
1.777657456443308
 74
     0
 49
-2.962762427405494
 74
     0
  0
LTYPE
  5
44
330
5
100
AcDbSymbolTableRecord
100
AcDbLinetypeTableRecord
  2
ACAD_ISO13W100
 70
     0
  3
CADPAC LINETYPE
 72
    65
 73
     8
 40
23.70209941924441
 49
5.925524854811101
 74
     0
 49
-2.962762427405551
 74
     0
 49
5.925524854811101
 74
     0
 49
-2.962762427405551
 74
     0
 49
0.0
 74
     0
 49
-2.962762427405551
 74
     0
 49
0.0
 74
     0
 49
-2.962762427405551
 74
     0
  0
LTYPE
  5
45
330
5
100
AcDbSymbolTableRecord
100
AcDbLinetypeTableRecord
  2
ACAD_ISO14W100
 70
     0
  3
CADPAC LINETYPE
 72
    65
 73
     8
 40
17.7765745644333
 49
5.925524854811101
 74
     0
 49
-2.962762427405551
 74
     0
 49
0.0
 74
     0
 49
-2.962762427405551
 74
     0
 49
0.0
 74
     0
 49
-2.962762427405551
 74
     0
 49
0.0
 74
     0
 49
-2.962762427405551
 74
     0
  0
ENDTAB
  0
TABLE
  2
LAYER
  5
2
330
0
100
AcDbSymbolTable
 70
     4
  0
LAYER
  5
10
330
2
100
AcDbSymbolTableRecord
100
AcDbLayerTableRecord
  2
0
 70
     0
 62
     7
  6
CONTINUOUS
  0
LAYER
  5
46
330
2
100
AcDbSymbolTableRecord
100
AcDbLayerTableRecord
  2
LAYER0014
 70
     0
 62
     7
  6
CONTINUOUS
  0
LAYER
  5
47
330
2
100
AcDbSymbolTableRecord
100
AcDbLayerTableRecord
  2
LAYER0015
 70
     0
 62
     7
  6
CONTINUOUS
  0
LAYER
  5
48
330
2
100
AcDbSymbolTableRecord
100
AcDbLayerTableRecord
  2
ZUWAKU
 70
     0
 62
     7
  6
CONTINUOUS
  0
ENDTAB
  0
TABLE
  2
STYLE
  5
3
330
0
100
AcDbSymbolTable
 70
     2
  0
STYLE
  5
11
330
3
100
AcDbSymbolTableRecord
100
AcDbTextStyleTableRecord
  2
STANDARD
 70
     0
 40
0.0
 41
1.0
 50
0.0
 71
     0
 42
0.2
  3
txt
  4

  0
STYLE
  5
223
330
3
100
AcDbSymbolTableRecord
100
AcDbTextStyleTableRecord
  2
FDASTYLE0
 70
     0
 40
0.0
 41
0.7999999999999924
 50
0.0
 71
     0
 42
0.2
  3
txt.shx
  4
bigfont
  0
ENDTAB
  0
TABLE
  2
VIEW
  5
6
330
0
100
AcDbSymbolTable
 70
     0
  0
ENDTAB
  0
TABLE
  2
UCS
  5
7
330
0
100
AcDbSymbolTable
 70
     0
  0
ENDTAB
  0
TABLE
  2
APPID
  5
9
330
0
100
AcDbSymbolTable
 70
     2
  0
APPID
  5
12
330
9
100
AcDbSymbolTableRecord
100
AcDbRegAppTableRecord
  2
ACAD
 70
     0
  0
APPID
  5
2A
330
9
100
AcDbSymbolTableRecord
100
AcDbRegAppTableRecord
  2
DAFUSIONOUT
 70
     0
  0
ENDTAB
  0
TABLE
  2
DIMSTYLE
  5
A
330
0
100
AcDbSymbolTable
 70
     1
  0
DIMSTYLE
105
27
330
A
100
AcDbSymbolTableRecord
100
AcDbDimStyleTableRecord
  2
STANDARD
 70
     0
  3

  4

  5

  6

  7

 40
1.0
 41
0.18
 42
0.0625
 43
0.38
 44
0.18
 45
0.0
 46
0.0
 47
0.0
 48
0.0
140
0.18
141
0.09
142
0.0
143
25.4
144
1.0
145
0.0
146
1.0
147
0.09
 71
     0
 72
     0
 73
     1
 74
     1
 75
     0
 76
     0
 77
     0
 78
     0
170
     0
171
     2
172
     0
173
     0
174
     0
175
     0
176
     0
177
     0
178
     0
270
     2
271
     4
272
     4
273
     2
274
     2
340
11
275
     0
280
     0
281
     0
282
     0
283
     1
284
     0
285
     0
286
     0
287
     3
288
     0
  0
ENDTAB
  0
TABLE
  2
BLOCK_RECORD
  5
1
330
0
100
AcDbSymbolTable
 70
    42
  0
BLOCK_RECORD
  5
1F
330
1
100
AcDbSymbolTableRecord
100
AcDbBlockTableRecord
  2
*MODEL_SPACE
  0
BLOCK_RECORD
  5
1B
330
1
100
AcDbSymbolTableRecord
100
AcDbBlockTableRecord
  2
*PAPER_SPACE
  0
BLOCK_RECORD
  5
4A
330
1
100
AcDbSymbolTableRecord
100
AcDbBlockTableRecord
  2
DC_GROUP_1
  0
BLOCK_RECORD
  5
4D
330
1
100
AcDbSymbolTableRecord
100
AcDbBlockTableRecord
  2
DC_GROUP_2
  0
BLOCK_RECORD
  5
50
330
1
100
AcDbSymbolTableRecord
100
AcDbBlockTableRecord
  2
DC_GROUP_3
  0
BLOCK_RECORD
  5
53
330
1
100
AcDbSymbolTableRecord
100
AcDbBlockTableRecord
  2
DC_GROUP_4
  0
BLOCK_RECORD
  5
56
330
1
100
AcDbSymbolTableRecord
100
AcDbBlockTableRecord
  2
DC_GROUP_5
  0
BLOCK_RECORD
  5
59
330
1
100
AcDbSymbolTableRecord
100
AcDbBlockTableRecord
  2
DC_GROUP_6
  0
BLOCK_RECORD
  5
5C
330
1
100
AcDbSymbolTableRecord
100
AcDbBlockTableRecord
  2
DC_GROUP_7
  0
BLOCK_RECORD
  5
5F
330
1
100
AcDbSymbolTableRecord
100
AcDbBlockTableRecord
  2
DC_GROUP_8
  0
BLOCK_RECORD
  5
62
330
1
100
AcDbSymbolTableRecord
100
AcDbBlockTableRecord
  2
DC_GROUP_9
  0
BLOCK_RECORD
  5
65
330
1
100
AcDbSymbolTableRecord
100
AcDbBlockTableRecord
  2
DC_GROUP_10
  0
BLOCK_RECORD
  5
68
330
1
100
AcDbSymbolTableRecord
100
AcDbBlockTableRecord
  2
DC_GROUP_11
  0
BLOCK_RECORD
  5
6B
330
1
100
AcDbSymbolTableRecord
100
AcDbBlockTableRecord
  2
DC_GROUP_12
  0
BLOCK_RECORD
  5
6E
330
1
100
AcDbSymbolTableRecord
100
AcDbBlockTableRecord
  2
DC_GROUP_13
  0
BLOCK_RECORD
  5
71
330
1
100
AcDbSymbolTableRecord
100
AcDbBlockTableRecord
  2
DC_GROUP_14
  0
BLOCK_RECORD
  5
74
330
1
100
AcDbSymbolTableRecord
100
AcDbBlockTableRecord
  2
DC_GROUP_15
  0
BLOCK_RECORD
  5
77
330
1
100
AcDbSymbolTableRecord
100
AcDbBlockTableRecord
  2
DC_GROUP_16
  0
BLOCK_RECORD
  5
7A
330
1
100
AcDbSymbolTableRecord
100
AcDbBlockTableRecord
  2
DC_GROUP_17
  0
BLOCK_RECORD
  5
7D
330
1
100
AcDbSymbolTableRecord
100
AcDbBlockTableRecord
  2
DC_GROUP_18
  0
BLOCK_RECORD
  5
80
330
1
100
AcDbSymbolTableRecord
100
AcDbBlockTableRecord
  2
DC_GROUP_19
  0
BLOCK_RECORD
  5
83
330
1
100
AcDbSymbolTableRecord
100
AcDbBlockTableRecord
  2
DA_IMAGEDIMGROUP_1
  0
BLOCK_RECORD
  5
86
330
1
100
AcDbSymbolTableRecord
100
AcDbBlockTableRecord
  2
DA_IMAGEDIMGROUP_2
  0
BLOCK_RECORD
  5
89
330
1
100
AcDbSymbolTableRecord
100
AcDbBlockTableRecord
  2
DA_IMAGEDIMGROUP_3
  0
BLOCK_RECORD
  5
8C
330
1
100
AcDbSymbolTableRecord
100
AcDbBlockTableRecord
  2
DA_IMAGEDIMGROUP_4
  0
BLOCK_RECORD
  5
8F
330
1
100
AcDbSymbolTableRecord
100
AcDbBlockTableRecord
  2
DA_IMAGEDIMGROUP_5
  0
BLOCK_RECORD
  5
92
330
1
100
AcDbSymbolTableRecord
100
AcDbBlockTableRecord
  2
DC_GROUP_20
  0
BLOCK_RECORD
  5
95
330
1
100
AcDbSymbolTableRecord
100
AcDbBlockTableRecord
  2
DC_GROUP_21
  0
BLOCK_RECORD
  5
98
330
1
100
AcDbSymbolTableRecord
100
AcDbBlockTableRecord
  2
DA_IMAGEDIMGROUP_6
  0
BLOCK_RECORD
  5
9B
330
1
100
AcDbSymbolTableRecord
100
AcDbBlockTableRecord
  2
DA_IMAGEDIMGROUP_7
  0
BLOCK_RECORD
  5
9E
330
1
100
AcDbSymbolTableRecord
100
AcDbBlockTableRecord
  2
DA_IMAGEDIMGROUP_8
  0
BLOCK_RECORD
  5
A1
330
1
100
AcDbSymbolTableRecord
100
AcDbBlockTableRecord
  2
DA_IMAGEDIMGROUP_9
  0
BLOCK_RECORD
  5
A4
330
1
100
AcDbSymbolTableRecord
100
AcDbBlockTableRecord
  2
DA_IMAGEDIMGROUP_10
  0
BLOCK_RECORD
  5
A7
330
1
100
AcDbSymbolTableRecord
100
AcDbBlockTableRecord
  2
DA_IMAGEDIMGROUP_11
  0
BLOCK_RECORD
  5
AA
330
1
100
AcDbSymbolTableRecord
100
AcDbBlockTableRecord
  2
DA_IMAGEDIMGROUP_12
  0
BLOCK_RECORD
  5
AD
330
1
100
AcDbSymbolTableRecord
100
AcDbBlockTableRecord
  2
DC_GROUP_22
  0
BLOCK_RECORD
  5
B0
330
1
100
AcDbSymbolTableRecord
100
AcDbBlockTableRecord
  2
DC_GROUP_23
  0
BLOCK_RECORD
  5
B3
330
1
100
AcDbSymbolTableRecord
100
AcDbBlockTableRecord
  2
DC_GROUP_24
  0
BLOCK_RECORD
  5
B6
330
1
100
AcDbSymbolTableRecord
100
AcDbBlockTableRecord
  2
DA_IMAGEDIMGROUP_13
  0
BLOCK_RECORD
  5
B9
330
1
100
AcDbSymbolTableRecord
100
AcDbBlockTableRecord
  2
DC_GROUP_25
  0
BLOCK_RECORD
  5
BC
330
1
100
AcDbSymbolTableRecord
100
AcDbBlockTableRecord
  2
DA_IMAGEDIMGROUP_14
  0
BLOCK_RECORD
  5
BF
330
1
100
AcDbSymbolTableRecord
100
AcDbBlockTableRecord
  2
DA_IMAGEDIMGROUP_15
  0
BLOCK_RECORD
  5
239
330
1
100
AcDbSymbolTableRecord
100
AcDbBlockTableRecord
  2
_OPEN30
  0
ENDTAB
  0
ENDSEC
  0
SECTION
  2
BLOCKS
  0
BLOCK
  5
20
330
1F
100
AcDbEntity
  8
0
100
AcDbBlockBegin
  2
*MODEL_SPACE
 70
     0
 71
     0
 10
0.0
 20
0.0
 30
0.0
  3
*MODEL_SPACE
  1

  0
ENDBLK
  5
21
330
1F
100
AcDbEntity
  8
0
100
AcDbBlockEnd
  0
BLOCK
  5
1C
330
1B
100
AcDbEntity
 67
     1
  8
0
100
AcDbBlockBegin
  2
*PAPER_SPACE
 70
     0
 71
     0
 10
0.0
 20
0.0
 30
0.0
  3
*PAPER_SPACE
  1

  0
ENDBLK
  5
1D
330
1B
100
AcDbEntity
 67
     1
  8
0
100
AcDbBlockEnd
  0
BLOCK
  5
4B
330
4A
100
AcDbEntity
  8
0
100
AcDbBlockBegin
  2
DC_GROUP_1
 70
     0
 71
     0
 10
0.0
 20
0.0
 30
0.0
  3
DC_GROUP_1
  1

  0
INSERT
  5
C2
330
4A
100
AcDbEntity
  8
ZUWAKU
  6
CONTINUOUS
100
AcDbBlockReference
  2
DC_GROUP_2
 10
0.0
 20
0.0
 30
0.0
  0
INSERT
  5
C3
330
4A
100
AcDbEntity
  8
ZUWAKU
  6
CONTINUOUS
100
AcDbBlockReference
  2
DC_GROUP_3
 10
0.0
 20
0.0
 30
0.0
  0
INSERT
  5
C4
330
4A
100
AcDbEntity
  8
ZUWAKU
  6
CONTINUOUS
100
AcDbBlockReference
  2
DC_GROUP_4
 10
0.0
 20
0.0
 30
0.0
  0
INSERT
  5
C5
330
4A
100
AcDbEntity
  8
ZUWAKU
  6
CONTINUOUS
100
AcDbBlockReference
  2
DC_GROUP_5
 10
0.0
 20
0.0
 30
0.0
  0
INSERT
  5
C6
330
4A
100
AcDbEntity
  8
ZUWAKU
  6
CONTINUOUS
100
AcDbBlockReference
  2
DC_GROUP_6
 10
0.0
 20
0.0
 30
0.0
  0
INSERT
  5
C7
330
4A
100
AcDbEntity
  8
ZUWAKU
  6
CONTINUOUS
100
AcDbBlockReference
  2
DC_GROUP_7
 10
0.0
 20
0.0
 30
0.0
  0
INSERT
  5
C8
330
4A
100
AcDbEntity
  8
ZUWAKU
  6
CONTINUOUS
100
AcDbBlockReference
  2
DC_GROUP_8
 10
0.0
 20
0.0
 30
0.0
  0
INSERT
  5
C9
330
4A
100
AcDbEntity
  8
ZUWAKU
  6
CONTINUOUS
100
AcDbBlockReference
  2
DC_GROUP_9
 10
0.0
 20
0.0
 30
0.0
  0
INSERT
  5
CA
330
4A
100
AcDbEntity
  8
ZUWAKU
  6
CONTINUOUS
100
AcDbBlockReference
  2
DC_GROUP_10
 10
0.0
 20
0.0
 30
0.0
  0
INSERT
  5
CB
330
4A
100
AcDbEntity
  8
ZUWAKU
  6
CONTINUOUS
100
AcDbBlockReference
  2
DC_GROUP_11
 10
0.0
 20
0.0
 30
0.0
  0
INSERT
  5
CC
330
4A
100
AcDbEntity
  8
ZUWAKU
  6
CONTINUOUS
100
AcDbBlockReference
  2
DC_GROUP_12
 10
0.0
 20
0.0
 30
0.0
  0
LINE
  5
CD
330
4A
100
AcDbEntity
  8
ZUWAKU
  6
CONTINUOUS
 62
     7
100
AcDbLine
 10
148.6163728456568
 20
-131.5305456568976
 30
0.0
 11
157.2163728456568
 21
-131.5305456568976
 31
0.0
  0
ENDBLK
  5
4C
330
4A
100
AcDbEntity
  8
0
100
AcDbBlockEnd
  0
BLOCK
  5
4E
330
4D
100
AcDbEntity
  8
0
100
AcDbBlockBegin
  2
DC_GROUP_2
 70
     0
 71
     0
 10
0.0
 20
0.0
 30
0.0
  3
DC_GROUP_2
  1

  0
LINE
  5
CE
330
4D
100
AcDbEntity
  8
ZUWAKU
  6
CONTINUOUS
 62
     7
100
AcDbLine
 10
95.8592354484195
 20
-130.8811630926134
 30
0.0
 11
98.10445716765031
 21
-130.8811630926134
 31
0.0
  0
LINE
  5
CF
330
4D
100
AcDbEntity
  8
ZUWAKU
  6
CONTINUOUS
 62
     7
100
AcDbLine
 10
102.1463728456568
 20
-130.8811630926134
 30
0.0
 11
104.5463728456568
 21
-130.8811630926134
 31
0.0
  0
LINE
  5
D0
330
4D
100
AcDbEntity
  8
ZUWAKU
  6
CONTINUOUS
 62
     7
100
AcDbLine
 10
95.97484530437535
 20
-130.3811630926134
 30
0.0
 11
98.27109928792987
 21
-130.3811630926134
 31
0.0
  0
LINE
  5
D1
330
4D
100
AcDbEntity
  8
ZUWAKU
  6
CONTINUOUS
 62
     7
100
AcDbLine
 10
102.1463728456568
 20
-130.3811630926134
 30
0.0
 11
104.5463728456568
 21
-130.3811630926134
 31
0.0
  0
LINE
  5
D2
330
4D
100
AcDbEntity
  8
ZUWAKU
  6
CONTINUOUS
 62
     7
100
AcDbLine
 10
96.03791022019186
 20
-129.8811630926134
 30
0.0
 11
98.39941093985408
 21
-129.8811630926134
 31
0.0
  0
LINE
  5
D3
330
4D
100
AcDbEntity
  8
ZUWAKU
  6
CONTINUOUS
 62
     7
100
AcDbLine
 10
102.1463728456568
 20
-129.8811630926134
 30
0.0
 11
104.5463728456568
 21
-129.8811630926134
 31
0.0
  0
LINE
  5
D4
330
4D
100
AcDbEntity
  8
ZUWAKU
  6
CONTINUOUS
 62
     7
100
AcDbLine
 10
96.05041945969171
 20
-129.3811630926134
 30
0.0
 11
98.49140820304567
 21
-129.3811630926134
 31
0.0
  0
LINE
  5
D5
330
4D
100
AcDbEntity
  8
ZUWAKU
  6
CONTINUOUS
 62
     7
100
AcDbLine
 10
102.1463728456568
 20
-129.3811630926134
 30
0.0
 11
104.5463728456568
 21
-129.3811630926134
 31
0.0
  0
LINE
  5
D6
330
4D
100
AcDbEntity
  8
ZUWAKU
  6
CONTINUOUS
 62
     7
100
AcDbLine
 10
90.58362715434316
 20
-128.8811630926134
 30
0.0
 11
104.5463728456568
 21
-128.8811630926134
 31
0.0
  0
LINE
  5
D7
330
4D
100
AcDbEntity
  8
ZUWAKU
  6
CONTINUOUS
 62
     7
100
AcDbLine
 10
90.58362715434316
 20
-128.3811630926134
 30
0.0
 11
104.5463728456568
 21
-128.3811630926134
 31
0.0
  0
LINE
  5
D8
330
4D
100
AcDbEntity
  8
ZUWAKU
  6
CONTINUOUS
 62
     7
100
AcDbLine
 10
90.58362715434316
 20
-127.8811630926134
 30
0.0
 11
104.5463728456568
 21
-127.8811630926134
 31
0.0
  0
LINE
  5
D9
330
4D
100
AcDbEntity
  8
ZUWAKU
  6
CONTINUOUS
 62
     7
100
AcDbLine
 10
96.04637284565683
 20
-127.3811630926134
 30
0.0
 11
98.44637284565681
 21
-127.3811630926134
 31
0.0
  0
LINE
  5
DA
330
4D
100
AcDbEntity
  8
ZUWAKU
  6
CONTINUOUS
 62
     7
100
AcDbLine
 10
96.04637284565683
 20
-126.8811630926134
 30
0.0
 11
98.44637284565681
 21
-126.8811630926134
 31
0.0
  0
LINE
  5
DB
330
4D
100
AcDbEntity
  8
ZUWAKU
  6
CONTINUOUS
 62
     7
100
AcDbLine
 10
96.04637284565683
 20
-126.3811630926134
 30
0.0
 11
98.44637284565681
 21
-126.3811630926134
 31
0.0
  0
LINE
  5
DC
330
4D
100
AcDbEntity
  8
ZUWAKU
  6
CONTINUOUS
 62
     7
100
AcDbLine
 10
92.44637284565681
 20
-131.3811630926134
 30
0.0
 11
100.4463728456568
 21
-131.3811630926134
 31
0.0
  0
LINE
  5
DD
330
4D
100
AcDbEntity
  8
ZUWAKU
  6
CONTINUOUS
 62
     7
100
AcDbLine
 10
102.1463728456568
 20
-131.3811630926134
 30
0.0
 11
104.5463728456568
 21
-131.3811630926134
 31
0.0
  0
LINE
  5
DE
330
4D
100
AcDbEntity
  8
ZUWAKU
  6
CONTINUOUS
 62
     7
100
AcDbLine
 10
92.44637284565681
 20
-131.8811630926134
 30
0.0
 11
100.4463728456568
 21
-131.8811630926134
 31
0.0
  0
LINE
  5
DF
330
4D
100
AcDbEntity
  8
ZUWAKU
  6
CONTINUOUS
 62
     7
100
AcDbLine
 10
102.1463728456568
 20
-131.8811630926134
 30
0.0
 11
104.5463728456568
 21
-131.8811630926134
 31
0.0
  0
LINE
  5
E0
330
4D
100
AcDbEntity
  8
ZUWAKU
  6
CONTINUOUS
 62
     7
100
AcDbLine
 10
92.44637284565681
 20
-132.3811630926134
 30
0.0
 11
100.4463728456568
 21
-132.3811630926134
 31
0.0
  0
LINE
  5
E1
330
4D
100
AcDbEntity
  8
ZUWAKU
  6
CONTINUOUS
 62
     7
100
AcDbLine
 10
102.1463728456568
 20
-132.3811630926134
 30
0.0
 11
104.5463728456568
 21
-132.3811630926134
 31
0.0
  0
LINE
  5
E2
330
4D
100
AcDbEntity
  8
ZUWAKU
  6
CONTINUOUS
 62
     7
100
AcDbLine
 10
110.604536355518
 20
-132.3811630926134
 30
0.0
 11
113.8417405120595
 21
-132.3811630926134
 31
0.0
  0
LINE
  5
E3
330
4D
100
AcDbEntity
  8
ZUWAKU
  6
CONTINUOUS
 62
     7
100
AcDbLine
 10
94.74116788281884
 20
-132.8811630926134
 30
0.0
 11
96.97769441725583
 21
-132.8811630926134
 31
0.0
  0
LINE
  5
E4
330
4D
100
AcDbEntity
  8
ZUWAKU
  6
CONTINUOUS
 62
     7
100
AcDbLine
 10
102.1463728456568
 20
-132.8811630926134
 30
0.0
 11
104.5463728456568
 21
-132.8811630926134
 31
0.0
  0
LINE
  5
E5
330
4D
100
AcDbEntity
  8
ZUWAKU
  6
CONTINUOUS
 62
     7
100
AcDbLine
 10
109.8963228939548
 20
-132.8811630926134
 30
0.0
 11
113.3333876979017
 21
-132.8811630926134
 31
0.0
  0
LINE
  5
E6
330
4D
100
AcDbEntity
  8
ZUWAKU
  6
CONTINUOUS
 62
     7
100
AcDbLine
 10
94.21191756518869
 20
-133.3811630926134
 30
0.0
 11
96.5448863676931
 21
-133.3811630926134
 31
0.0
  0
LINE
  5
E7
330
4D
100
AcDbEntity
  8
ZUWAKU
  6
CONTINUOUS
 62
     7
100
AcDbLine
 10
102.1463728456568
 20
-133.3811630926134
 30
0.0
 11
104.5463728456568
 21
-133.3811630926134
 31
0.0
  0
LINE
  5
E8
330
4D
100
AcDbEntity
  8
ZUWAKU
  6
CONTINUOUS
 62
     7
100
AcDbLine
 10
109.025375517766
 20
-133.3811630926134
 30
0.0
 11
112.7480747417856
 21
-133.3811630926134
 31
0.0
  0
LINE
  5
E9
330
4D
100
AcDbEntity
  8
ZUWAKU
  6
CONTINUOUS
 62
     7
100
AcDbLine
 10
93.47278597893467
 20
-133.8811630926134
 30
0.0
 11
96.02274748755042
 21
-133.8811630926134
 31
0.0
  0
LINE
  5
EA
330
4D
100
AcDbEntity
  8
ZUWAKU
  6
CONTINUOUS
 62
     7
100
AcDbLine
 10
102.1463728456568
 20
-133.8811630926134
 30
0.0
 11
104.5463728456568
 21
-133.8811630926134
 31
0.0
  0
LINE
  5
EB
330
4D
100
AcDbEntity
  8
ZUWAKU
  6
CONTINUOUS
 62
     7
100
AcDbLine
 10
107.8681459252262
 20
-133.8811630926134
 30
0.0
 11
112.0628740626163
 21
-133.8811630926134
 31
0.0
  0
LINE
  5
EC
330
4D
100
AcDbEntity
  8
ZUWAKU
  6
CONTINUOUS
 62
     7
100
AcDbLine
 10
92.16346202882176
 20
-134.3811630926134
 30
0.0
 11
95.37814146302139
 21
-134.3811630926134
 31
0.0
  0
LINE
  5
ED
330
4D
100
AcDbEntity
  8
ZUWAKU
  6
CONTINUOUS
 62
     7
100
AcDbLine
 10
102.1463728456568
 20
-134.3811630926134
 30
0.0
 11
104.5463728456568
 21
-134.3811630926134
 31
0.0
  0
LINE
  5
EE
330
4D
100
AcDbEntity
  8
ZUWAKU
  6
CONTINUOUS
 62
     7
100
AcDbLine
 10
105.8155311692083
 20
-134.3811630926134
 30
0.0
 11
111.2373451587009
 21
-134.3811630926134
 31
0.0
  0
LINE
  5
EF
330
4D
100
AcDbEntity
  8
ZUWAKU
  6
CONTINUOUS
 62
     7
100
AcDbLine
 10
90.58362715434316
 20
-134.8811630926134
 30
0.0
 11
94.54150297508784
 21
-134.8811630926134
 31
0.0
  0
LINE
  5
F0
330
4D
100
AcDbEntity
  8
ZUWAKU
  6
CONTINUOUS
 62
     7
100
AcDbLine
 10
102.1748475825431
 20
-134.8811630926134
 30
0.0
 11
110.1856413090584
 21
-134.8811630926134
 31
0.0
  0
LINE
  5
F1
330
4D
100
AcDbEntity
  8
ZUWAKU
  6
CONTINUOUS
 62
     7
100
AcDbLine
 10
90.58362715434316
 20
-135.3811630926134
 30
0.0
 11
93.29698933454563
 21
-135.3811630926134
 31
0.0
  0
LINE
  5
F2
330
4D
100
AcDbEntity
  8
ZUWAKU
  6
CONTINUOUS
 62
     7
100
AcDbLine
 10
103.7282777975827
 20
-135.3811630926134
 30
0.0
 11
108.6322110940188
 21
-135.3811630926134
 31
0.0
  0
ENDBLK
  5
4F
330
4D
100
AcDbEntity
  8
0
100
AcDbBlockEnd
  0
BLOCK
  5
51
330
50
100
AcDbEntity
  8
0
100
AcDbBlockBegin
  2
DC_GROUP_3
 70
     0
 71
     0
 10
0.0
 20
0.0
 30
0.0
  3
DC_GROUP_3
  1

  0
LINE
  5
F3
330
50
100
AcDbEntity
  8
ZUWAKU
  6
CONTINUOUS
 62
     7
100
AcDbLine
 10
106.5463728456568
 20
-130.6694543431024
 30
0.0
 11
117.9463728456568
 21
-130.6694543431024
 31
0.0
  0
LINE
  5
F4
330
50
100
AcDbEntity
  8
ZUWAKU
  6
CONTINUOUS
 62
     7
100
AcDbLine
 10
106.5463728456568
 20
-130.1694543431024
 30
0.0
 11
117.9463728456568
 21
-130.1694543431024
 31
0.0
  0
LINE
  5
F5
330
50
100
AcDbEntity
  8
ZUWAKU
  6
CONTINUOUS
 62
     7
100
AcDbLine
 10
106.5463728456568
 20
-131.1694543431024
 30
0.0
 11
117.9463728456568
 21
-131.1694543431024
 31
0.0
  0
ENDBLK
  5
52
330
50
100
AcDbEntity
  8
0
100
AcDbBlockEnd
  0
BLOCK
  5
54
330
53
100
AcDbEntity
  8
0
100
AcDbBlockBegin
  2
DC_GROUP_4
 70
     0
 71
     0
 10
0.0
 20
0.0
 30
0.0
  3
DC_GROUP_4
  1

  0
LINE
  5
F6
330
53
100
AcDbEntity
  8
ZUWAKU
  6
CONTINUOUS
 62
     7
100
AcDbLine
 10
120.3762688606991
 20
-131.55
 30
0.0
 11
122.9463728456568
 21
-131.55
 31
0.0
  0
LINE
  5
F7
330
53
100
AcDbEntity
  8
ZUWAKU
  6
CONTINUOUS
 62
     7
100
AcDbLine
 10
123.4880098163495
 20
-131.55
 30
0.0
 11
124.1463728456568
 21
-131.55
 31
0.0
  0
LINE
  5
F8
330
53
100
AcDbEntity
  8
ZUWAKU
  6
CONTINUOUS
 62
     7
100
AcDbLine
 10
120.5401914483943
 20
-131.05
 30
0.0
 11
124.1463728456568
 21
-131.05
 31
0.0
  0
LINE
  5
F9
330
53
100
AcDbEntity
  8
ZUWAKU
  6
CONTINUOUS
 62
     7
100
AcDbLine
 10
120.6573329194075
 20
-130.55
 30
0.0
 11
123.9671913310034
 21
-130.55
 31
0.0
  0
LINE
  5
FA
330
53
100
AcDbEntity
  8
ZUWAKU
  6
CONTINUOUS
 62
     7
100
AcDbLine
 10
120.7304485357685
 20
-130.05
 30
0.0
 11
123.2171913310033
 21
-130.05
 31
0.0
  0
LINE
  5
FB
330
53
100
AcDbEntity
  8
ZUWAKU
  6
CONTINUOUS
 62
     7
100
AcDbLine
 10
119.4463728456568
 20
-129.55
 30
0.0
 11
124.1463728456568
 21
-129.55
 31
0.0
  0
LINE
  5
FC
330
53
100
AcDbEntity
  8
ZUWAKU
  6
CONTINUOUS
 62
     7
100
AcDbLine
 10
119.4463728456568
 20
-129.05
 30
0.0
 11
124.1463728456568
 21
-129.05
 31
0.0
  0
LINE
  5
FD
330
53
100
AcDbEntity
  8
ZUWAKU
  6
CONTINUOUS
 62
     7
100
AcDbLine
 10
121.5463728456568
 20
-128.55
 30
0.0
 11
122.9463728456568
 21
-128.55
 31
0.0
  0
LINE
  5
FE
330
53
100
AcDbEntity
  8
ZUWAKU
  6
CONTINUOUS
 62
     7
100
AcDbLine
 10
121.5463728456568
 20
-128.05
 30
0.0
 11
122.9463728456568
 21
-128.05
 31
0.0
  0
LINE
  5
FF
330
53
100
AcDbEntity
  8
ZUWAKU
  6
CONTINUOUS
 62
     7
100
AcDbLine
 10
120.1613057869596
 20
-132.05
 30
0.0
 11
122.9463728456568
 21
-132.05
 31
0.0
  0
LINE
  5
100
330
53
100
AcDbEntity
  8
ZUWAKU
  6
CONTINUOUS
 62
     7
100
AcDbLine
 10
119.8888857047598
 20
-132.55
 30
0.0
 11
122.9463728456568
 21
-132.55
 31
0.0
  0
LINE
  5
101
330
53
100
AcDbEntity
  8
ZUWAKU
  6
CONTINUOUS
 62
     7
100
AcDbLine
 10
119.5492091213338
 20
-133.05
 30
0.0
 11
122.9463728456568
 21
-133.05
 31
0.0
  0
LINE
  5
102
330
53
100
AcDbEntity
  8
ZUWAKU
  6
CONTINUOUS
 62
     7
100
AcDbLine
 10
119.3463728456568
 20
-133.55
 30
0.0
 11
120.5627654424019
 21
-133.55
 31
0.0
  0
LINE
  5
103
330
53
100
AcDbEntity
  8
ZUWAKU
  6
CONTINUOUS
 62
     7
100
AcDbLine
 10
121.3463728456568
 20
-133.55
 30
0.0
 11
122.9463728456568
 21
-133.55
 31
0.0
  0
LINE
  5
104
330
53
100
AcDbEntity
  8
ZUWAKU
  6
CONTINUOUS
 62
     7
100
AcDbLine
 10
119.3463728456568
 20
-134.05
 30
0.0
 11
120.0135150512066
 21
-134.05
 31
0.0
  0
LINE
  5
105
330
53
100
AcDbEntity
  8
ZUWAKU
  6
CONTINUOUS
 62
     7
100
AcDbLine
 10
121.3463728456568
 20
-134.05
 30
0.0
 11
122.9463728456568
 21
-134.05
 31
0.0
  0
LINE
  5
106
330
53
100
AcDbEntity
  8
ZUWAKU
  6
CONTINUOUS
 62
     7
100
AcDbLine
 10
121.3463728456568
 20
-134.55
 30
0.0
 11
122.9463728456568
 21
-134.55
 31
0.0
  0
LINE
  5
107
330
53
100
AcDbEntity
  8
ZUWAKU
  6
CONTINUOUS
 62
     7
100
AcDbLine
 10
121.3463728456568
 20
-135.05
 30
0.0
 11
122.9463728456568
 21
-135.05
 31
0.0
  0
ENDBLK
  5
55
330
53
100
AcDbEntity
  8
0
100
AcDbBlockEnd
  0
BLOCK
  5
57
330
56
100
AcDbEntity
  8
0
100
AcDbBlockBegin
  2
DC_GROUP_5
 70
     0
 71
     0
 10
0.0
 20
0.0
 30
0.0
  3
DC_GROUP_5
  1

  0
LINE
  5
108
330
56
100
AcDbEntity
  8
ZUWAKU
  6
CONTINUOUS
 62
     7
100
AcDbLine
 10
124.6463728456568
 20
-131.55
 30
0.0
 11
131.7463728456568
 21
-131.55
 31
0.0
  0
LINE
  5
109
330
56
100
AcDbEntity
  8
ZUWAKU
  6
CONTINUOUS
 62
     7
100
AcDbLine
 10
124.6463728456568
 20
-131.05
 30
0.0
 11
131.7463728456568
 21
-131.05
 31
0.0
  0
LINE
  5
10A
330
56
100
AcDbEntity
  8
ZUWAKU
  6
CONTINUOUS
 62
     7
100
AcDbLine
 10
127.1463728456568
 20
-130.55
 30
0.0
 11
128.9463728456568
 21
-130.55
 31
0.0
  0
LINE
  5
10B
330
56
100
AcDbEntity
  8
ZUWAKU
  6
CONTINUOUS
 62
     7
100
AcDbLine
 10
127.1463728456568
 20
-130.05
 30
0.0
 11
128.9463728456568
 21
-130.05
 31
0.0
  0
LINE
  5
10C
330
56
100
AcDbEntity
  8
ZUWAKU
  6
CONTINUOUS
 62
     7
100
AcDbLine
 10
124.6463728456568
 20
-129.55
 30
0.0
 11
131.5463728456568
 21
-129.55
 31
0.0
  0
LINE
  5
10D
330
56
100
AcDbEntity
  8
ZUWAKU
  6
CONTINUOUS
 62
     7
100
AcDbLine
 10
124.6463728456568
 20
-129.05
 30
0.0
 11
131.5463728456568
 21
-129.05
 31
0.0
  0
LINE
  5
10E
330
56
100
AcDbEntity
  8
ZUWAKU
  6
CONTINUOUS
 62
     7
100
AcDbLine
 10
124.6463728456568
 20
-128.55
 30
0.0
 11
126.2063728456568
 21
-128.55
 31
0.0
  0
LINE
  5
10F
330
56
100
AcDbEntity
  8
ZUWAKU
  6
CONTINUOUS
 62
     7
100
AcDbLine
 10
127.1463728456568
 20
-128.55
 30
0.0
 11
128.9463728456568
 21
-128.55
 31
0.0
  0
LINE
  5
110
330
56
100
AcDbEntity
  8
ZUWAKU
  6
CONTINUOUS
 62
     7
100
AcDbLine
 10
124.6463728456568
 20
-128.05
 30
0.0
 11
126.2063728456568
 21
-128.05
 31
0.0
  0
LINE
  5
111
330
56
100
AcDbEntity
  8
ZUWAKU
  6
CONTINUOUS
 62
     7
100
AcDbLine
 10
127.1463728456568
 20
-128.05
 30
0.0
 11
128.9463728456568
 21
-128.05
 31
0.0
  0
LINE
  5
112
330
56
100
AcDbEntity
  8
ZUWAKU
  6
CONTINUOUS
 62
     7
100
AcDbLine
 10
125.8786611924532
 20
-132.05
 30
0.0
 11
130.4774938194927
 21
-132.05
 31
0.0
  0
LINE
  5
113
330
56
100
AcDbEntity
  8
ZUWAKU
  6
CONTINUOUS
 62
     7
100
AcDbLine
 10
125.7022203023616
 20
-132.55
 30
0.0
 11
130.5839164239199
 21
-132.55
 31
0.0
  0
LINE
  5
114
330
56
100
AcDbEntity
  8
ZUWAKU
  6
CONTINUOUS
 62
     7
100
AcDbLine
 10
125.4444907322737
 20
-133.05
 30
0.0
 11
130.7607865985839
 21
-133.05
 31
0.0
  0
LINE
  5
115
330
56
100
AcDbEntity
  8
ZUWAKU
  6
CONTINUOUS
 62
     7
100
AcDbLine
 10
125.0849898652322
 20
-133.55
 30
0.0
 11
127.0512574302935
 21
-133.55
 31
0.0
  0
LINE
  5
116
330
56
100
AcDbEntity
  8
ZUWAKU
  6
CONTINUOUS
 62
     7
100
AcDbLine
 10
127.1463728456568
 20
-133.55
 30
0.0
 11
131.019029431235
 21
-133.55
 31
0.0
  0
LINE
  5
117
330
56
100
AcDbEntity
  8
ZUWAKU
  6
CONTINUOUS
 62
     7
100
AcDbLine
 10
124.5811039379163
 20
-134.05
 30
0.0
 11
126.5931405813734
 21
-134.05
 31
0.0
  0
LINE
  5
118
330
56
100
AcDbEntity
  8
ZUWAKU
  6
CONTINUOUS
 62
     7
100
AcDbLine
 10
127.1463728456568
 20
-134.05
 30
0.0
 11
128.9463728456568
 21
-134.05
 31
0.0
  0
LINE
  5
119
330
56
100
AcDbEntity
  8
ZUWAKU
  6
CONTINUOUS
 62
     7
100
AcDbLine
 10
129.2557665128225
 20
-134.05
 30
0.0
 11
131.3792055022369
 21
-134.05
 31
0.0
  0
LINE
  5
11A
330
56
100
AcDbEntity
  8
ZUWAKU
  6
CONTINUOUS
 62
     7
100
AcDbLine
 10
124.3463728456568
 20
-134.55
 30
0.0
 11
126.0096133195874
 21
-134.55
 31
0.0
  0
LINE
  5
11B
330
56
100
AcDbEntity
  8
ZUWAKU
  6
CONTINUOUS
 62
     7
100
AcDbLine
 10
127.1463728456568
 20
-134.55
 30
0.0
 11
128.9463728456568
 21
-134.55
 31
0.0
  0
LINE
  5
11C
330
56
100
AcDbEntity
  8
ZUWAKU
  6
CONTINUOUS
 62
     7
100
AcDbLine
 10
129.7599871032927
 20
-134.55
 30
0.0
 11
131.7463728456568
 21
-134.55
 31
0.0
  0
LINE
  5
11D
330
56
100
AcDbEntity
  8
ZUWAKU
  6
CONTINUOUS
 62
     7
100
AcDbLine
 10
124.3463728456568
 20
-135.05
 30
0.0
 11
125.2238286865397
 21
-135.05
 31
0.0
  0
LINE
  5
11E
330
56
100
AcDbEntity
  8
ZUWAKU
  6
CONTINUOUS
 62
     7
100
AcDbLine
 10
127.1463728456568
 20
-135.05
 30
0.0
 11
128.9463728456568
 21
-135.05
 31
0.0
  0
LINE
  5
11F
330
56
100
AcDbEntity
  8
ZUWAKU
  6
CONTINUOUS
 62
     7
100
AcDbLine
 10
130.5271619874551
 20
-135.05
 30
0.0
 11
131.7463728456568
 21
-135.05
 31
0.0
  0
ENDBLK
  5
58
330
56
100
AcDbEntity
  8
0
100
AcDbBlockEnd
  0
BLOCK
  5
5A
330
59
100
AcDbEntity
  8
0
100
AcDbBlockBegin
  2
DC_GROUP_6
 70
     0
 71
     0
 10
0.0
 20
0.0
 30
0.0
  3
DC_GROUP_6
  1

  0
LINE
  5
120
330
59
100
AcDbEntity
  8
ZUWAKU
  6
CONTINUOUS
 62
     7
100
AcDbLine
 10
140.6463728456568
 20
-131.55
 30
0.0
 11
142.7963728456568
 21
-131.55
 31
0.0
  0
LINE
  5
121
330
59
100
AcDbEntity
  8
ZUWAKU
  6
CONTINUOUS
 62
     7
100
AcDbLine
 10
140.6463728456568
 20
-131.05
 30
0.0
 11
142.7963728456568
 21
-131.05
 31
0.0
  0
LINE
  5
122
330
59
100
AcDbEntity
  8
ZUWAKU
  6
CONTINUOUS
 62
     7
100
AcDbLine
 10
140.6463728456568
 20
-130.55
 30
0.0
 11
142.7963728456568
 21
-130.55
 31
0.0
  0
LINE
  5
123
330
59
100
AcDbEntity
  8
ZUWAKU
  6
CONTINUOUS
 62
     7
100
AcDbLine
 10
140.6463728456568
 20
-130.05
 30
0.0
 11
142.7963728456568
 21
-130.05
 31
0.0
  0
LINE
  5
124
330
59
100
AcDbEntity
  8
ZUWAKU
  6
CONTINUOUS
 62
     7
100
AcDbLine
 10
133.1463728456568
 20
-129.55
 30
0.0
 11
145.7163728456568
 21
-129.55
 31
0.0
  0
LINE
  5
125
330
59
100
AcDbEntity
  8
ZUWAKU
  6
CONTINUOUS
 62
     7
100
AcDbLine
 10
133.1463728456568
 20
-129.05
 30
0.0
 11
145.7163728456568
 21
-129.05
 31
0.0
  0
LINE
  5
126
330
59
100
AcDbEntity
  8
ZUWAKU
  6
CONTINUOUS
 62
     7
100
AcDbLine
 10
140.6463728456568
 20
-128.55
 30
0.0
 11
142.7963728456568
 21
-128.55
 31
0.0
  0
LINE
  5
127
330
59
100
AcDbEntity
  8
ZUWAKU
  6
CONTINUOUS
 62
     7
100
AcDbLine
 10
144.1963728456568
 20
-128.55
 30
0.0
 11
145.7163728456568
 21
-128.55
 31
0.0
  0
LINE
  5
128
330
59
100
AcDbEntity
  8
ZUWAKU
  6
CONTINUOUS
 62
     7
100
AcDbLine
 10
140.6463728456568
 20
-128.05
 30
0.0
 11
142.7963728456568
 21
-128.05
 31
0.0
  0
LINE
  5
129
330
59
100
AcDbEntity
  8
ZUWAKU
  6
CONTINUOUS
 62
     7
100
AcDbLine
 10
144.1963728456568
 20
-128.05
 30
0.0
 11
145.7163728456568
 21
-128.05
 31
0.0
  0
LINE
  5
12A
330
59
100
AcDbEntity
  8
ZUWAKU
  6
CONTINUOUS
 62
     7
100
AcDbLine
 10
140.6463728456568
 20
-132.05
 30
0.0
 11
142.7963728456568
 21
-132.05
 31
0.0
  0
LINE
  5
12B
330
59
100
AcDbEntity
  8
ZUWAKU
  6
CONTINUOUS
 62
     7
100
AcDbLine
 10
140.6463728456568
 20
-132.55
 30
0.0
 11
142.7963728456568
 21
-132.55
 31
0.0
  0
LINE
  5
12C
330
59
100
AcDbEntity
  8
ZUWAKU
  6
CONTINUOUS
 62
     7
100
AcDbLine
 10
140.6463728456568
 20
-133.05
 30
0.0
 11
142.7963728456568
 21
-133.05
 31
0.0
  0
LINE
  5
12D
330
59
100
AcDbEntity
  8
ZUWAKU
  6
CONTINUOUS
 62
     7
100
AcDbLine
 10
144.1358445034737
 20
-133.05
 30
0.0
 11
145.5814320923754
 21
-133.05
 31
0.0
  0
LINE
  5
12E
330
59
100
AcDbEntity
  8
ZUWAKU
  6
CONTINUOUS
 62
     7
100
AcDbLine
 10
140.6463728456568
 20
-133.55
 30
0.0
 11
142.7963728456568
 21
-133.55
 31
0.0
  0
LINE
  5
12F
330
59
100
AcDbEntity
  8
ZUWAKU
  6
CONTINUOUS
 62
     7
100
AcDbLine
 10
143.9214609952618
 20
-133.55
 30
0.0
 11
145.3352302649021
 21
-133.55
 31
0.0
  0
LINE
  5
130
330
59
100
AcDbEntity
  8
ZUWAKU
  6
CONTINUOUS
 62
     7
100
AcDbLine
 10
140.6463728456568
 20
-134.05
 30
0.0
 11
142.7963728456568
 21
-134.05
 31
0.0
  0
LINE
  5
131
330
59
100
AcDbEntity
  8
ZUWAKU
  6
CONTINUOUS
 62
     7
100
AcDbLine
 10
143.4946600818465
 20
-134.05
 30
0.0
 11
144.990775923055
 21
-134.05
 31
0.0
  0
LINE
  5
132
330
59
100
AcDbEntity
  8
ZUWAKU
  6
CONTINUOUS
 62
     7
100
AcDbLine
 10
140.6463728456568
 20
-134.55
 30
0.0
 11
144.5097616138391
 21
-134.55
 31
0.0
  0
LINE
  5
133
330
59
100
AcDbEntity
  8
ZUWAKU
  6
CONTINUOUS
 62
     7
100
AcDbLine
 10
140.6463728456568
 20
-135.05
 30
0.0
 11
143.7918248912179
 21
-135.05
 31
0.0
  0
ENDBLK
  5
5B
330
59
100
AcDbEntity
  8
0
100
AcDbBlockEnd
  0
BLOCK
  5
5D
330
5C
100
AcDbEntity
  8
0
100
AcDbBlockBegin
  2
DC_GROUP_7
 70
     0
 71
     0
 10
0.0
 20
0.0
 30
0.0
  3
DC_GROUP_7
  1

  0
LINE
  5
134
330
5C
100
AcDbEntity
  8
ZUWAKU
  6
CONTINUOUS
 62
     7
100
AcDbLine
 10
135.8463728456568
 20
-133.25
 30
0.0
 11
137.9463728456568
 21
-133.25
 31
0.0
  0
LINE
  5
135
330
5C
100
AcDbEntity
  8
ZUWAKU
  6
CONTINUOUS
 62
     7
100
AcDbLine
 10
135.8463728456568
 20
-132.75
 30
0.0
 11
137.9463728456568
 21
-132.75
 31
0.0
  0
LINE
  5
136
330
5C
100
AcDbEntity
  8
ZUWAKU
  6
CONTINUOUS
 62
     7
100
AcDbLine
 10
135.8463728456568
 20
-132.25
 30
0.0
 11
137.9463728456568
 21
-132.25
 31
0.0
  0
LINE
  5
137
330
5C
100
AcDbEntity
  8
ZUWAKU
  6
CONTINUOUS
 62
     7
100
AcDbLine
 10
133.1463728456568
 20
-131.75
 30
0.0
 11
139.7463728456568
 21
-131.75
 31
0.0
  0
LINE
  5
138
330
5C
100
AcDbEntity
  8
ZUWAKU
  6
CONTINUOUS
 62
     7
100
AcDbLine
 10
133.1463728456568
 20
-131.25
 30
0.0
 11
139.7463728456568
 21
-131.25
 31
0.0
  0
LINE
  5
139
330
5C
100
AcDbEntity
  8
ZUWAKU
  6
CONTINUOUS
 62
     7
100
AcDbLine
 10
133.1463728456568
 20
-133.75
 30
0.0
 11
139.7463728456568
 21
-133.75
 31
0.0
  0
LINE
  5
13A
330
5C
100
AcDbEntity
  8
ZUWAKU
  6
CONTINUOUS
 62
     7
100
AcDbLine
 10
133.1463728456568
 20
-134.25
 30
0.0
 11
139.7463728456568
 21
-134.25
 31
0.0
  0
LINE
  5
13B
330
5C
100
AcDbEntity
  8
ZUWAKU
  6
CONTINUOUS
 62
     7
100
AcDbLine
 10
133.1463728456568
 20
-134.75
 30
0.0
 11
139.3256932440106
 21
-134.75
 31
0.0
  0
LINE
  5
13C
330
5C
100
AcDbEntity
  8
ZUWAKU
  6
CONTINUOUS
 62
     7
100
AcDbLine
 10
133.1463728456568
 20
-135.25
 30
0.0
 11
136.9087996408371
 21
-135.25
 31
0.0
  0
ENDBLK
  5
5E
330
5C
100
AcDbEntity
  8
0
100
AcDbBlockEnd
  0
BLOCK
  5
60
330
5F
100
AcDbEntity
  8
0
100
AcDbBlockBegin
  2
DC_GROUP_8
 70
     0
 71
     0
 10
0.0
 20
0.0
 30
0.0
  3
DC_GROUP_8
  1

  0
LINE
  5
13D
330
5F
100
AcDbEntity
  8
ZUWAKU
  6
CONTINUOUS
 62
     7
100
AcDbLine
 10
168.4163728456568
 20
-131.55
 30
0.0
 11
170.3163728456568
 21
-131.55
 31
0.0
  0
LINE
  5
13E
330
5F
100
AcDbEntity
  8
ZUWAKU
  6
CONTINUOUS
 62
     7
100
AcDbLine
 10
168.4163728456568
 20
-131.05
 30
0.0
 11
170.3163728456568
 21
-131.05
 31
0.0
  0
LINE
  5
13F
330
5F
100
AcDbEntity
  8
ZUWAKU
  6
CONTINUOUS
 62
     7
100
AcDbLine
 10
168.4163728456568
 20
-130.55
 30
0.0
 11
170.3163728456568
 21
-130.55
 31
0.0
  0
LINE
  5
140
330
5F
100
AcDbEntity
  8
ZUWAKU
  6
CONTINUOUS
 62
     7
100
AcDbLine
 10
166.6163728456568
 20
-130.05
 30
0.0
 11
171.9163728456568
 21
-130.05
 31
0.0
  0
LINE
  5
141
330
5F
100
AcDbEntity
  8
ZUWAKU
  6
CONTINUOUS
 62
     7
100
AcDbLine
 10
166.6163728456568
 20
-129.55
 30
0.0
 11
171.9163728456568
 21
-129.55
 31
0.0
  0
LINE
  5
142
330
5F
100
AcDbEntity
  8
ZUWAKU
  6
CONTINUOUS
 62
     7
100
AcDbLine
 10
166.6163728456568
 20
-129.05
 30
0.0
 11
171.9163728456568
 21
-129.05
 31
0.0
  0
LINE
  5
143
330
5F
100
AcDbEntity
  8
ZUWAKU
  6
CONTINUOUS
 62
     7
100
AcDbLine
 10
168.4163728456568
 20
-128.55
 30
0.0
 11
170.3163728456568
 21
-128.55
 31
0.0
  0
LINE
  5
144
330
5F
100
AcDbEntity
  8
ZUWAKU
  6
CONTINUOUS
 62
     7
100
AcDbLine
 10
168.4163728456568
 20
-128.05
 30
0.0
 11
170.3163728456568
 21
-128.05
 31
0.0
  0
LINE
  5
145
330
5F
100
AcDbEntity
  8
ZUWAKU
  6
CONTINUOUS
 62
     7
100
AcDbLine
 10
168.4163728456568
 20
-132.05
 30
0.0
 11
170.3163728456568
 21
-132.05
 31
0.0
  0
LINE
  5
146
330
5F
100
AcDbEntity
  8
ZUWAKU
  6
CONTINUOUS
 62
     7
100
AcDbLine
 10
168.4163728456568
 20
-132.55
 30
0.0
 11
170.3163728456568
 21
-132.55
 31
0.0
  0
LINE
  5
147
330
5F
100
AcDbEntity
  8
ZUWAKU
  6
CONTINUOUS
 62
     7
100
AcDbLine
 10
168.4163728456568
 20
-133.05
 30
0.0
 11
170.3163728456568
 21
-133.05
 31
0.0
  0
LINE
  5
148
330
5F
100
AcDbEntity
  8
ZUWAKU
  6
CONTINUOUS
 62
     7
100
AcDbLine
 10
166.4163728456568
 20
-133.55
 30
0.0
 11
172.4163728456568
 21
-133.55
 31
0.0
  0
LINE
  5
149
330
5F
100
AcDbEntity
  8
ZUWAKU
  6
CONTINUOUS
 62
     7
100
AcDbLine
 10
166.4163728456568
 20
-134.05
 30
0.0
 11
172.4163728456568
 21
-134.05
 31
0.0
  0
LINE
  5
14A
330
5F
100
AcDbEntity
  8
ZUWAKU
  6
CONTINUOUS
 62
     7
100
AcDbLine
 10
166.4163728456568
 20
-134.55
 30
0.0
 11
172.4163728456568
 21
-134.55
 31
0.0
  0
LINE
  5
14B
330
5F
100
AcDbEntity
  8
ZUWAKU
  6
CONTINUOUS
 62
     7
100
AcDbLine
 10
166.4163728456568
 20
-135.05
 30
0.0
 11
172.4163728456568
 21
-135.05
 31
0.0
  0
ENDBLK
  5
61
330
5F
100
AcDbEntity
  8
0
100
AcDbBlockEnd
  0
BLOCK
  5
63
330
62
100
AcDbEntity
  8
0
100
AcDbBlockBegin
  2
DC_GROUP_9
 70
     0
 71
     0
 10
0.0
 20
0.0
 30
0.0
  3
DC_GROUP_9
  1

  0
LINE
  5
14C
330
62
100
AcDbEntity
  8
ZUWAKU
  6
CONTINUOUS
 62
     7
100
AcDbLine
 10
148.53659593608
 20
-129.1512995588781
 30
0.0
 11
152.6827745314139
 21
-129.1512995588781
 31
0.0
  0
LINE
  5
14D
330
62
100
AcDbEntity
  8
ZUWAKU
  6
CONTINUOUS
 62
     7
100
AcDbLine
 10
152.7537677038454
 20
-129.1512995588781
 30
0.0
 11
156.919704031706
 21
-129.1512995588781
 31
0.0
  0
LINE
  5
14E
330
62
100
AcDbEntity
  8
ZUWAKU
  6
CONTINUOUS
 62
     7
100
AcDbLine
 10
149.647730764762
 20
-128.6512995588781
 30
0.0
 11
155.7936103080192
 21
-128.6512995588781
 31
0.0
  0
LINE
  5
14F
330
62
100
AcDbEntity
  8
ZUWAKU
  6
CONTINUOUS
 62
     7
100
AcDbLine
 10
150.3808204717105
 20
-128.1512995588781
 30
0.0
 11
155.0550444732114
 21
-128.1512995588781
 31
0.0
  0
LINE
  5
150
330
62
100
AcDbEntity
  8
ZUWAKU
  6
CONTINUOUS
 62
     7
100
AcDbLine
 10
147.2163728456568
 20
-129.6512995588781
 30
0.0
 11
151.7655682998408
 21
-129.6512995588781
 31
0.0
  0
LINE
  5
151
330
62
100
AcDbEntity
  8
ZUWAKU
  6
CONTINUOUS
 62
     7
100
AcDbLine
 10
153.7687259431705
 20
-129.6512995588781
 30
0.0
 11
159.2163728456568
 21
-129.6512995588781
 31
0.0
  0
LINE
  5
152
330
62
100
AcDbEntity
  8
ZUWAKU
  6
CONTINUOUS
 62
     7
100
AcDbLine
 10
147.2163728456568
 20
-130.1512995588781
 30
0.0
 11
150.5110681543286
 21
-130.1512995588781
 31
0.0
  0
LINE
  5
153
330
62
100
AcDbEntity
  8
ZUWAKU
  6
CONTINUOUS
 62
     7
100
AcDbLine
 10
155.1396032344489
 20
-130.1512995588781
 30
0.0
 11
159.2163728456568
 21
-130.1512995588781
 31
0.0
  0
ENDBLK
  5
64
330
62
100
AcDbEntity
  8
0
100
AcDbBlockEnd
  0
BLOCK
  5
66
330
65
100
AcDbEntity
  8
0
100
AcDbBlockBegin
  2
DC_GROUP_10
 70
     0
 71
     0
 10
0.0
 20
0.0
 30
0.0
  3
DC_GROUP_10
  1

  0
LINE
  5
154
330
65
100
AcDbEntity
  8
ZUWAKU
  6
CONTINUOUS
 62
     7
100
AcDbLine
 10
162.4372031523923
 20
-131.55
 30
0.0
 11
165.0309087734352
 21
-131.55
 31
0.0
  0
LINE
  5
155
330
65
100
AcDbEntity
  8
ZUWAKU
  6
CONTINUOUS
 62
     7
100
AcDbLine
 10
163.0235540538986
 20
-131.05
 30
0.0
 11
165.2616456754909
 21
-131.05
 31
0.0
  0
LINE
  5
156
330
65
100
AcDbEntity
  8
ZUWAKU
  6
CONTINUOUS
 62
     7
100
AcDbLine
 10
163.3899766640403
 20
-130.55
 30
0.0
 11
165.5505367479891
 21
-130.55
 31
0.0
  0
LINE
  5
157
330
65
100
AcDbEntity
  8
ZUWAKU
  6
CONTINUOUS
 62
     7
100
AcDbLine
 10
160.6163728456568
 20
-130.05
 30
0.0
 11
165.7631269437853
 21
-130.05
 31
0.0
  0
LINE
  5
158
330
65
100
AcDbEntity
  8
ZUWAKU
  6
CONTINUOUS
 62
     7
100
AcDbLine
 10
160.6163728456568
 20
-129.55
 30
0.0
 11
165.9102932726119
 21
-129.55
 31
0.0
  0
LINE
  5
159
330
65
100
AcDbEntity
  8
ZUWAKU
  6
CONTINUOUS
 62
     7
100
AcDbLine
 10
160.6163728456568
 20
-129.05
 30
0.0
 11
165.9983642039967
 21
-129.05
 31
0.0
  0
LINE
  5
15A
330
65
100
AcDbEntity
  8
ZUWAKU
  6
CONTINUOUS
 62
     7
100
AcDbLine
 10
162.6163728456568
 20
-128.55
 30
0.0
 11
164.2163728456568
 21
-128.55
 31
0.0
  0
LINE
  5
15B
330
65
100
AcDbEntity
  8
ZUWAKU
  6
CONTINUOUS
 62
     7
100
AcDbLine
 10
162.6163728456568
 20
-128.05
 30
0.0
 11
164.2163728456568
 21
-128.05
 31
0.0
  0
LINE
  5
15C
330
65
100
AcDbEntity
  8
ZUWAKU
  6
CONTINUOUS
 62
     7
100
AcDbLine
 10
160.6163728456568
 20
-132.05
 30
0.0
 11
166.0163728456568
 21
-132.05
 31
0.0
  0
LINE
  5
15D
330
65
100
AcDbEntity
  8
ZUWAKU
  6
CONTINUOUS
 62
     7
100
AcDbLine
 10
160.6163728456568
 20
-132.55
 30
0.0
 11
164.2163728456568
 21
-132.55
 31
0.0
  0
LINE
  5
15E
330
65
100
AcDbEntity
  8
ZUWAKU
  6
CONTINUOUS
 62
     7
100
AcDbLine
 10
164.4937661375371
 20
-132.55
 30
0.0
 11
166.0163728456568
 21
-132.55
 31
0.0
  0
LINE
  5
15F
330
65
100
AcDbEntity
  8
ZUWAKU
  6
CONTINUOUS
 62
     7
100
AcDbLine
 10
160.6163728456568
 20
-133.05
 30
0.0
 11
161.2391757382088
 21
-133.05
 31
0.0
  0
LINE
  5
160
330
65
100
AcDbEntity
  8
ZUWAKU
  6
CONTINUOUS
 62
     7
100
AcDbLine
 10
162.6163728456568
 20
-133.05
 30
0.0
 11
164.2163728456568
 21
-133.05
 31
0.0
  0
LINE
  5
161
330
65
100
AcDbEntity
  8
ZUWAKU
  6
CONTINUOUS
 62
     7
100
AcDbLine
 10
162.6163728456568
 20
-133.55
 30
0.0
 11
164.2163728456568
 21
-133.55
 31
0.0
  0
LINE
  5
162
330
65
100
AcDbEntity
  8
ZUWAKU
  6
CONTINUOUS
 62
     7
100
AcDbLine
 10
162.6163728456568
 20
-134.05
 30
0.0
 11
164.2163728456568
 21
-134.05
 31
0.0
  0
LINE
  5
163
330
65
100
AcDbEntity
  8
ZUWAKU
  6
CONTINUOUS
 62
     7
100
AcDbLine
 10
162.6163728456568
 20
-134.55
 30
0.0
 11
164.2163728456568
 21
-134.55
 31
0.0
  0
LINE
  5
164
330
65
100
AcDbEntity
  8
ZUWAKU
  6
CONTINUOUS
 62
     7
100
AcDbLine
 10
162.6163728456568
 20
-135.05
 30
0.0
 11
164.2163728456568
 21
-135.05
 31
0.0
  0
ENDBLK
  5
67
330
65
100
AcDbEntity
  8
0
100
AcDbBlockEnd
  0
BLOCK
  5
69
330
68
100
AcDbEntity
  8
0
100
AcDbBlockBegin
  2
DC_GROUP_11
 70
     0
 71
     0
 10
0.0
 20
0.0
 30
0.0
  3
DC_GROUP_11
  1

  0
LINE
  5
165
330
68
100
AcDbEntity
  8
ZUWAKU
  6
CONTINUOUS
 62
     7
100
AcDbLine
 10
160.6163728456568
 20
-132.0361668241051
 30
0.0
 11
160.7999359294301
 21
-132.0361668241051
 31
0.0
  0
LINE
  5
166
330
68
100
AcDbEntity
  8
ZUWAKU
  6
CONTINUOUS
 62
     7
100
AcDbLine
 10
160.6163728456568
 20
-133.0524216486367
 30
0.0
 11
161.0835787514163
 21
-133.0524216486367
 31
0.0
  0
LINE
  5
167
330
68
100
AcDbEntity
  8
ZUWAKU
  6
CONTINUOUS
 62
     7
100
AcDbLine
 10
160.6163728456568
 20
-128.8694543431024
 30
0.0
 11
160.6163728456568
 21
-130.0694543431024
 31
0.0
  0
LINE
  5
168
330
68
100
AcDbEntity
  8
ZUWAKU
  6
CONTINUOUS
 62
     7
100
AcDbLine
 10
164.2163728456568
 20
-127.6694543431024
 30
0.0
 11
164.2163728456568
 21
-128.8694543431024
 31
0.0
  0
LINE
  5
169
330
68
100
AcDbEntity
  8
ZUWAKU
  6
CONTINUOUS
 62
     7
100
AcDbLine
 10
166.4163728456568
 20
-135.4305456568976
 30
0.0
 11
172.4163728456568
 21
-135.4305456568976
 31
0.0
  0
LINE
  5
16A
330
68
100
AcDbEntity
  8
ZUWAKU
  6
CONTINUOUS
 62
     7
100
AcDbLine
 10
162.6163728456568
 20
-132.8116802321412
 30
0.0
 11
162.6163728456568
 21
-135.4305456568976
 31
0.0
  0
LINE
  5
16B
330
68
100
AcDbEntity
  8
ZUWAKU
  6
CONTINUOUS
 62
     7
100
AcDbLine
 10
160.6163728456568
 20
-130.0694543431024
 30
0.0
 11
163.6163728456568
 21
-130.0694543431024
 31
0.0
  0
LINE
  5
16C
330
68
100
AcDbEntity
  8
ZUWAKU
  6
CONTINUOUS
 62
     7
100
AcDbLine
 10
164.2163728456568
 20
-128.8694543431024
 30
0.0
 11
166.0163728456568
 21
-128.8694543431024
 31
0.0
  0
LINE
  5
16D
330
68
100
AcDbEntity
  8
ZUWAKU
  6
CONTINUOUS
 62
     7
100
AcDbLine
 10
160.6163728456568
 20
-128.8694543431024
 30
0.0
 11
162.6163728456568
 21
-128.8694543431024
 31
0.0
  0
LINE
  5
16E
330
68
100
AcDbEntity
  8
ZUWAKU
  6
CONTINUOUS
 62
     7
100
AcDbLine
 10
170.3163728456568
 20
-130.0694543431024
 30
0.0
 11
171.9163728456568
 21
-130.0694543431024
 31
0.0
  0
LINE
  5
16F
330
68
100
AcDbEntity
  8
ZUWAKU
  6
CONTINUOUS
 62
     7
100
AcDbLine
 10
170.3163728456568
 20
-128.8694543431024
 30
0.0
 11
171.9163728456568
 21
-128.8694543431024
 31
0.0
  0
LINE
  5
170
330
68
100
AcDbEntity
  8
ZUWAKU
  6
CONTINUOUS
 62
     7
100
AcDbLine
 10
170.3163728456568
 20
-130.0694543431024
 30
0.0
 11
170.3163728456568
 21
-133.4694543431024
 31
0.0
  0
LINE
  5
171
330
68
100
AcDbEntity
  8
ZUWAKU
  6
CONTINUOUS
 62
     7
100
AcDbLine
 10
170.3163728456568
 20
-133.4694543431024
 30
0.0
 11
172.4163728456568
 21
-133.4694543431024
 31
0.0
  0
LINE
  5
172
330
68
100
AcDbEntity
  8
ZUWAKU
  6
CONTINUOUS
 62
     7
100
AcDbLine
 10
162.6163728456568
 20
-127.6694543431024
 30
0.0
 11
164.2163728456568
 21
-127.6694543431024
 31
0.0
  0
LINE
  5
173
330
68
100
AcDbEntity
  8
ZUWAKU
  6
CONTINUOUS
 62
     7
100
AcDbLine
 10
166.4163728456568
 20
-133.4694543431024
 30
0.0
 11
168.4163728456568
 21
-133.4694543431024
 31
0.0
  0
LINE
  5
174
330
68
100
AcDbEntity
  8
ZUWAKU
  6
CONTINUOUS
 62
     7
100
AcDbLine
 10
168.4163728456568
 20
-130.0694543431024
 30
0.0
 11
168.4163728456568
 21
-133.4694543431024
 31
0.0
  0
LINE
  5
175
330
68
100
AcDbEntity
  8
ZUWAKU
  6
CONTINUOUS
 62
     7
100
AcDbLine
 10
166.6163728456568
 20
-130.0694543431024
 30
0.0
 11
168.4163728456568
 21
-130.0694543431024
 31
0.0
  0
LINE
  5
176
330
68
100
AcDbEntity
  8
ZUWAKU
  6
CONTINUOUS
 62
     7
100
AcDbLine
 10
168.4163728456568
 20
-127.6694543431024
 30
0.0
 11
170.3163728456568
 21
-127.6694543431024
 31
0.0
  0
LINE
  5
177
330
68
100
AcDbEntity
  8
ZUWAKU
  6
CONTINUOUS
 62
     7
100
AcDbLine
 10
166.6163728456568
 20
-128.8694543431024
 30
0.0
 11
168.4163728456568
 21
-128.8694543431024
 31
0.0
  0
LINE
  5
178
330
68
100
AcDbEntity
  8
ZUWAKU
  6
CONTINUOUS
 62
     7
100
AcDbLine
 10
162.6163728456568
 20
-135.4305456568976
 30
0.0
 11
164.2163728456568
 21
-135.4305456568976
 31
0.0
  0
LINE
  5
179
330
68
100
AcDbEntity
  8
ZUWAKU
  6
CONTINUOUS
 62
     7
100
AcDbLine
 10
172.4163728456568
 20
-133.4694543431024
 30
0.0
 11
172.4163728456568
 21
-135.4305456568976
 31
0.0
  0
LINE
  5
17A
330
68
100
AcDbEntity
  8
ZUWAKU
  6
CONTINUOUS
 62
     7
100
AcDbLine
 10
155.0163728456568
 20
-133.8305456568976
 30
0.0
 11
154.8163728456569
 21
-133.6305456568977
 31
0.0
  0
LINE
  5
17B
330
68
100
AcDbEntity
  8
ZUWAKU
  6
CONTINUOUS
 62
     7
100
AcDbLine
 10
170.3163728456568
 20
-127.6694543431024
 30
0.0
 11
170.3163728456568
 21
-128.8694543431024
 31
0.0
  0
LINE
  5
17C
330
68
100
AcDbEntity
  8
ZUWAKU
  6
CONTINUOUS
 62
     7
100
AcDbLine
 10
171.9163728456568
 20
-128.8694543431024
 30
0.0
 11
171.9163728456568
 21
-130.0694543431024
 31
0.0
  0
LINE
  5
17D
330
68
100
AcDbEntity
  8
ZUWAKU
  6
CONTINUOUS
 62
     7
100
AcDbLine
 10
166.4163728456568
 20
-133.4694543431024
 30
0.0
 11
166.4163728456568
 21
-135.4305456568976
 31
0.0
  0
LINE
  5
17E
330
68
100
AcDbEntity
  8
ZUWAKU
  6
CONTINUOUS
 62
     7
100
AcDbLine
 10
159.2163728456568
 20
-134.6305456568976
 30
0.0
 11
159.2163728456568
 21
-135.4305456568976
 31
0.0
  0
LINE
  5
17F
330
68
100
AcDbEntity
  8
ZUWAKU
  6
CONTINUOUS
 62
     7
100
AcDbLine
 10
168.4163728456568
 20
-127.6694543431024
 30
0.0
 11
168.4163728456568
 21
-128.8694543431024
 31
0.0
  0
LINE
  5
180
330
68
100
AcDbEntity
  8
ZUWAKU
  6
CONTINUOUS
 62
     7
100
AcDbLine
 10
151.6163728456567
 20
-133.6305456568975
 30
0.0
 11
151.2163728456567
 21
-134.4305456568976
 31
0.0
  0
LINE
  5
181
330
68
100
AcDbEntity
  8
ZUWAKU
  6
CONTINUOUS
 62
     7
100
AcDbLine
 10
151.6163728456568
 20
-133.6305456568976
 30
0.0
 11
154.8163728456568
 21
-133.6305456568976
 31
0.0
  0
LINE
  5
182
330
68
100
AcDbEntity
  8
ZUWAKU
  6
CONTINUOUS
 62
     7
100
AcDbLine
 10
157.4163728456568
 20
-133.6305456568976
 30
0.0
 11
159.2163728456568
 21
-133.6305456568976
 31
0.0
  0
LINE
  5
183
330
68
100
AcDbEntity
  8
ZUWAKU
  6
CONTINUOUS
 62
     7
100
AcDbLine
 10
149.2163728456567
 20
-133.6305456568975
 30
0.0
 11
148.2163728456567
 21
-135.4305456568975
 31
0.0
  0
LINE
  5
184
330
68
100
AcDbEntity
  8
ZUWAKU
  6
CONTINUOUS
 62
     7
100
AcDbLine
 10
166.6163728456568
 20
-128.8694543431024
 30
0.0
 11
166.6163728456568
 21
-130.0694543431024
 31
0.0
  0
LINE
  5
185
330
68
100
AcDbEntity
  8
ZUWAKU
  6
CONTINUOUS
 62
     7
100
AcDbLine
 10
159.2163728456568
 20
-129.4305456568976
 30
0.0
 11
159.2163728456568
 21
-130.6331447746538
 31
0.0
  0
LINE
  5
186
330
68
100
AcDbEntity
  8
ZUWAKU
  6
CONTINUOUS
 62
     7
100
AcDbLine
 10
147.2163728456568
 20
-129.4305456568976
 30
0.0
 11
147.2163728456568
 21
-130.6331447746538
 31
0.0
  0
LINE
  5
187
330
68
100
AcDbEntity
  8
ZUWAKU
  6
CONTINUOUS
 62
     7
100
AcDbLine
 10
166.0163728456568
 20
-132.0305456568976
 30
0.0
 11
166.0163728456568
 21
-133.0305456568976
 31
0.0
  0
LINE
  5
188
330
68
100
AcDbEntity
  8
ZUWAKU
  6
CONTINUOUS
 62
     7
100
AcDbLine
 10
162.6163728456568
 20
-127.6694543431024
 30
0.0
 11
162.6163728456568
 21
-128.8694543431024
 31
0.0
  0
LINE
  5
189
330
68
100
AcDbEntity
  8
ZUWAKU
  6
CONTINUOUS
 62
     7
100
AcDbLine
 10
147.2163728456568
 20
-130.6331447746538
 30
0.0
 11
147.4443544232267
 21
-130.6331447746538
 31
0.0
  0
LINE
  5
18A
330
68
100
AcDbEntity
  8
ZUWAKU
  6
CONTINUOUS
 62
     7
100
AcDbLine
 10
164.2163728456568
 20
-132.5305456568976
 30
0.0
 11
164.2163728456568
 21
-135.4305456568976
 31
0.0
  0
LINE
  5
18B
330
68
100
AcDbEntity
  8
ZUWAKU
  6
CONTINUOUS
 62
     7
100
AcDbLine
 10
151.2163728456568
 20
-134.4305456568976
 30
0.0
 11
152.9092420950863
 21
-134.4305456568976
 31
0.0
  0
LINE
  5
18C
330
68
100
AcDbEntity
  8
ZUWAKU
  6
CONTINUOUS
 62
     7
100
AcDbLine
 10
147.2163728456568
 20
-133.6305456568976
 30
0.0
 11
149.2163728456568
 21
-133.6305456568976
 31
0.0
  0
LINE
  5
18D
330
68
100
AcDbEntity
  8
ZUWAKU
  6
CONTINUOUS
 62
     7
100
AcDbLine
 10
147.2163728456568
 20
-132.6305456568976
 30
0.0
 11
159.2163728456568
 21
-132.6305456568976
 31
0.0
  0
LINE
  5
18E
330
68
100
AcDbEntity
  8
ZUWAKU
  6
CONTINUOUS
 62
     7
100
AcDbLine
 10
148.6163728456568
 20
-132.0305456568976
 30
0.0
 11
157.2163728456568
 21
-132.0305456568976
 31
0.0
  0
LINE
  5
18F
330
68
100
AcDbEntity
  8
ZUWAKU
  6
CONTINUOUS
 62
     7
100
AcDbLine
 10
157.9495181016829
 20
-130.6331447746538
 30
0.0
 11
159.2163728456568
 21
-130.6331447746538
 31
0.0
  0
LINE
  5
190
330
68
100
AcDbEntity
  8
ZUWAKU
  6
CONTINUOUS
 62
     7
100
AcDbLine
 10
148.6163728456568
 20
-131.0305456568976
 30
0.0
 11
157.2163728456568
 21
-131.0305456568976
 31
0.0
  0
LINE
  5
191
330
68
100
AcDbEntity
  8
ZUWAKU
  6
CONTINUOUS
 62
     7
100
AcDbLine
 10
157.2163728456568
 20
-131.0305456568976
 30
0.0
 11
157.2163728456568
 21
-132.0305456568976
 31
0.0
  0
LINE
  5
192
330
68
100
AcDbEntity
  8
ZUWAKU
  6
CONTINUOUS
 62
     7
100
AcDbLine
 10
148.6163728456568
 20
-131.0305456568976
 30
0.0
 11
148.6163728456568
 21
-132.0305456568976
 31
0.0
  0
LINE
  5
193
330
68
100
AcDbEntity
  8
ZUWAKU
  6
CONTINUOUS
 62
     7
100
AcDbLine
 10
159.2163728456568
 20
-132.6305456568976
 30
0.0
 11
159.2163728456568
 21
-133.6305456568976
 31
0.0
  0
LINE
  5
194
330
68
100
AcDbEntity
  8
ZUWAKU
  6
CONTINUOUS
 62
     7
100
AcDbLine
 10
147.2163728456568
 20
-132.6305456568976
 30
0.0
 11
147.2163728456568
 21
-133.6305456568976
 31
0.0
  0
LINE
  5
195
330
68
100
AcDbEntity
  8
ZUWAKU
  6
CONTINUOUS
 62
     7
100
AcDbLine
 10
158.7786428876944
 20
-129.4465342528391
 30
0.0
 11
159.2163728456568
 21
-129.4465342528391
 31
0.0
  0
LINE
  5
196
330
68
100
AcDbEntity
  8
ZUWAKU
  6
CONTINUOUS
 62
     7
100
AcDbLine
 10
150.9163728456568
 20
-127.6694543431024
 30
0.0
 11
154.5163728456568
 21
-127.6694543431024
 31
0.0
  0
LINE
  5
197
330
68
100
AcDbEntity
  8
ZUWAKU
  6
CONTINUOUS
 62
     7
100
AcDbLine
 10
121.3463728456568
 20
-135.4305456568976
 30
0.0
 11
122.9463728456568
 21
-135.4305456568976
 31
0.0
  0
LINE
  5
198
330
68
100
AcDbEntity
  8
ZUWAKU
  6
CONTINUOUS
 62
     7
100
AcDbLine
 10
127.1463728456568
 20
-135.4305456568976
 30
0.0
 11
128.9463728456568
 21
-135.4305456568976
 31
0.0
  0
LINE
  5
199
330
68
100
AcDbEntity
  8
ZUWAKU
  6
CONTINUOUS
 62
     7
100
AcDbLine
 10
144.1963728456568
 20
-132.7305456568976
 30
0.0
 11
145.6963728456568
 21
-132.7305456568976
 31
0.0
  0
LINE
  5
19A
330
68
100
AcDbEntity
  8
ZUWAKU
  6
CONTINUOUS
 62
     7
100
AcDbLine
 10
142.7963728456568
 20
-129.8694543431024
 30
0.0
 11
145.7163728456568
 21
-129.8694543431024
 31
0.0
  0
LINE
  5
19B
330
68
100
AcDbEntity
  8
ZUWAKU
  6
CONTINUOUS
 62
     7
100
AcDbLine
 10
144.1963728456568
 20
-127.6694543431024
 30
0.0
 11
145.7163728456568
 21
-127.6694543431024
 31
0.0
  0
LINE
  5
19C
330
68
100
AcDbEntity
  8
ZUWAKU
  6
CONTINUOUS
 62
     7
100
AcDbLine
 10
137.9463728456568
 20
-131.9694543431024
 30
0.0
 11
139.7463728456568
 21
-131.9694543431024
 31
0.0
  0
LINE
  5
19D
330
68
100
AcDbEntity
  8
ZUWAKU
  6
CONTINUOUS
 62
     7
100
AcDbLine
 10
133.1463728456568
 20
-131.9694543431024
 30
0.0
 11
135.8463728456568
 21
-131.9694543431024
 31
0.0
  0
LINE
  5
19E
330
68
100
AcDbEntity
  8
ZUWAKU
  6
CONTINUOUS
 62
     7
100
AcDbLine
 10
133.1463728456568
 20
-129.8694543431024
 30
0.0
 11
133.1463728456568
 21
-128.8694543431024
 31
0.0
  0
LINE
  5
19F
330
68
100
AcDbEntity
  8
ZUWAKU
  6
CONTINUOUS
 62
     7
100
AcDbLine
 10
140.6463728456568
 20
-135.4305456568976
 30
0.0
 11
142.7963728456568
 21
-135.4305456568976
 31
0.0
  0
LINE
  5
1A0
330
68
100
AcDbEntity
  8
ZUWAKU
  6
CONTINUOUS
 62
     7
100
AcDbLine
 10
137.9463728456568
 20
-133.3694543431024
 30
0.0
 11
139.7463728456568
 21
-133.3694543431024
 31
0.0
  0
LINE
  5
1A1
330
68
100
AcDbEntity
  8
ZUWAKU
  6
CONTINUOUS
 62
     7
100
AcDbLine
 10
133.1463728456568
 20
-133.3694543431024
 30
0.0
 11
133.1463728456568
 21
-135.4305456568976
 31
0.0
  0
LINE
  5
1A2
330
68
100
AcDbEntity
  8
ZUWAKU
  6
CONTINUOUS
 62
     7
100
AcDbLine
 10
140.6463728456568
 20
-129.8694543431024
 30
0.0
 11
140.6463728456568
 21
-135.4305456568976
 31
0.0
  0
LINE
  5
1A3
330
68
100
AcDbEntity
  8
ZUWAKU
  6
CONTINUOUS
 62
     7
100
AcDbLine
 10
133.1463728456568
 20
-133.3694543431024
 30
0.0
 11
135.8463728456568
 21
-133.3694543431024
 31
0.0
  0
LINE
  5
1A4
330
68
100
AcDbEntity
  8
ZUWAKU
  6
CONTINUOUS
 62
     7
100
AcDbLine
 10
139.7463728456568
 20
-133.3694543431024
 30
0.0
 11
139.7463728456568
 21
-134.6305456568976
 31
0.0
  0
LINE
  5
1A5
330
68
100
AcDbEntity
  8
ZUWAKU
  6
CONTINUOUS
 62
     7
100
AcDbLine
 10
142.7963728456568
 20
-129.8694543431024
 30
0.0
 11
142.7963728456568
 21
-134.4305456568976
 31
0.0
  0
LINE
  5
1A6
330
68
100
AcDbEntity
  8
ZUWAKU
  6
CONTINUOUS
 62
     7
100
AcDbLine
 10
137.9463728456568
 20
-131.9694543431024
 30
0.0
 11
137.9463728456568
 21
-133.3694543431024
 31
0.0
  0
LINE
  5
1A7
330
68
100
AcDbEntity
  8
ZUWAKU
  6
CONTINUOUS
 62
     7
100
AcDbLine
 10
135.8463728456568
 20
-131.9694543431024
 30
0.0
 11
135.8463728456568
 21
-133.3694543431024
 31
0.0
  0
LINE
  5
1A8
330
68
100
AcDbEntity
  8
ZUWAKU
  6
CONTINUOUS
 62
     7
100
AcDbLine
 10
142.7963728456568
 20
-128.8694543431024
 30
0.0
 11
144.1963728456568
 21
-128.8694543431024
 31
0.0
  0
LINE
  5
1A9
330
68
100
AcDbEntity
  8
ZUWAKU
  6
CONTINUOUS
 62
     7
100
AcDbLine
 10
131.7463728456568
 20
-130.6694543431024
 30
0.0
 11
131.7463728456568
 21
-131.7694543431024
 31
0.0
  0
LINE
  5
1AA
330
68
100
AcDbEntity
  8
ZUWAKU
  6
CONTINUOUS
 62
     7
100
AcDbLine
 10
133.1463728456568
 20
-131.0694543431024
 30
0.0
 11
133.1463728456568
 21
-131.9694543431024
 31
0.0
  0
LINE
  5
1AB
330
68
100
AcDbEntity
  8
ZUWAKU
  6
CONTINUOUS
 62
     7
100
AcDbLine
 10
148.2163728456568
 20
-135.4305456568976
 30
0.0
 11
151.6971892572037
 21
-135.4305456568976
 31
0.0
  0
LINE
  5
1AC
330
68
100
AcDbEntity
  8
ZUWAKU
  6
CONTINUOUS
 62
     7
100
AcDbLine
 10
133.1463728456568
 20
-131.0694543431024
 30
0.0
 11
139.7463728456568
 21
-131.0694543431024
 31
0.0
  0
LINE
  5
1AD
330
68
100
AcDbEntity
  8
ZUWAKU
  6
CONTINUOUS
 62
     7
100
AcDbLine
 10
121.3463728456568
 20
-133.0569023297954
 30
0.0
 11
121.3463728456568
 21
-135.4305456568976
 31
0.0
  0
LINE
  5
1AE
330
68
100
AcDbEntity
  8
ZUWAKU
  6
CONTINUOUS
 62
     7
100
AcDbLine
 10
131.7463728456568
 20
-134.4305456568976
 30
0.0
 11
131.7463728456568
 21
-135.4305456568976
 31
0.0
  0
LINE
  5
1AF
330
68
100
AcDbEntity
  8
ZUWAKU
  6
CONTINUOUS
 62
     7
100
AcDbLine
 10
124.3463728456568
 20
-134.2305456568976
 30
0.0
 11
124.3463728456568
 21
-135.4305456568976
 31
0.0
  0
LINE
  5
1B0
330
68
100
AcDbEntity
  8
ZUWAKU
  6
CONTINUOUS
 62
     7
100
AcDbLine
 10
119.3463728456568
 20
-133.3038225185832
 30
0.0
 11
119.3463728456568
 21
-134.4569023297954
 31
0.0
  0
LINE
  5
1B1
330
68
100
AcDbEntity
  8
ZUWAKU
  6
CONTINUOUS
 62
     7
100
AcDbLine
 10
122.9463728456568
 20
-129.8694543431024
 30
0.0
 11
124.1463728456568
 21
-129.8694543431024
 31
0.0
  0
LINE
  5
1B2
330
68
100
AcDbEntity
  8
ZUWAKU
  6
CONTINUOUS
 62
     7
100
AcDbLine
 10
128.9463728456568
 20
-129.8694543431024
 30
0.0
 11
131.5463728456568
 21
-129.8694543431024
 31
0.0
  0
LINE
  5
1B3
330
68
100
AcDbEntity
  8
ZUWAKU
  6
CONTINUOUS
 62
     7
100
AcDbLine
 10
130.4463728456568
 20
-131.7694543431024
 30
0.0
 11
131.7463728456568
 21
-131.7694543431024
 31
0.0
  0
LINE
  5
1B4
330
68
100
AcDbEntity
  8
ZUWAKU
  6
CONTINUOUS
 62
     7
100
AcDbLine
 10
128.9463728456568
 20
-130.6694543431024
 30
0.0
 11
131.7463728456568
 21
-130.6694543431024
 31
0.0
  0
LINE
  5
1B5
330
68
100
AcDbEntity
  8
ZUWAKU
  6
CONTINUOUS
 62
     7
100
AcDbLine
 10
128.9463728456568
 20
-133.6305456568976
 30
0.0
 11
128.9463728456568
 21
-135.4305456568976
 31
0.0
  0
LINE
  5
1B6
330
68
100
AcDbEntity
  8
ZUWAKU
  6
CONTINUOUS
 62
     7
100
AcDbLine
 10
127.1463728456568
 20
-133.4305456568976
 30
0.0
 11
127.1463728456568
 21
-135.4305456568976
 31
0.0
  0
LINE
  5
1B7
330
68
100
AcDbEntity
  8
ZUWAKU
  6
CONTINUOUS
 62
     7
100
AcDbLine
 10
124.6463728456568
 20
-130.6694543431024
 30
0.0
 11
124.6463728456568
 21
-131.7694543431024
 31
0.0
  0
LINE
  5
1B8
330
68
100
AcDbEntity
  8
ZUWAKU
  6
CONTINUOUS
 62
     7
100
AcDbLine
 10
122.9463728456568
 20
-131.3694543431024
 30
0.0
 11
122.9463728456568
 21
-135.4305456568976
 31
0.0
  0
LINE
  5
1B9
330
68
100
AcDbEntity
  8
ZUWAKU
  6
CONTINUOUS
 62
     7
100
AcDbLine
 10
120.9463728456568
 20
-133.0569023297954
 30
0.0
 11
121.3463728456568
 21
-133.0569023297954
 31
0.0
  0
LINE
  5
1BA
330
68
100
AcDbEntity
  8
ZUWAKU
  6
CONTINUOUS
 62
     7
100
AcDbLine
 10
124.1463728456568
 20
-130.6694543431024
 30
0.0
 11
124.1463728456568
 21
-131.7694543431024
 31
0.0
  0
LINE
  5
1BB
330
68
100
AcDbEntity
  8
ZUWAKU
  6
CONTINUOUS
 62
     7
100
AcDbLine
 10
124.6463728456568
 20
-129.8694543431024
 30
0.0
 11
127.1463728456568
 21
-129.8694543431024
 31
0.0
  0
LINE
  5
1BC
330
68
100
AcDbEntity
  8
ZUWAKU
  6
CONTINUOUS
 62
     7
100
AcDbLine
 10
128.9463728456568
 20
-128.8694543431024
 30
0.0
 11
131.5463728456568
 21
-128.8694543431024
 31
0.0
  0
LINE
  5
1BD
330
68
100
AcDbEntity
  8
ZUWAKU
  6
CONTINUOUS
 62
     7
100
AcDbLine
 10
126.2063728456568
 20
-128.8694543431024
 30
0.0
 11
127.1463728456568
 21
-128.8694543431024
 31
0.0
  0
LINE
  5
1BE
330
68
100
AcDbEntity
  8
ZUWAKU
  6
CONTINUOUS
 62
     7
100
AcDbLine
 10
127.1463728456568
 20
-127.6694543431024
 30
0.0
 11
128.9463728456568
 21
-127.6694543431024
 31
0.0
  0
LINE
  5
1BF
330
68
100
AcDbEntity
  8
ZUWAKU
  6
CONTINUOUS
 62
     7
100
AcDbLine
 10
122.9463728456568
 20
-128.8694543431024
 30
0.0
 11
124.1463728456568
 21
-128.8694543431024
 31
0.0
  0
LINE
  5
1C0
330
68
100
AcDbEntity
  8
ZUWAKU
  6
CONTINUOUS
 62
     7
100
AcDbLine
 10
122.9463728456568
 20
-131.3694543431025
 30
0.0
 11
124.1463728456568
 21
-131.7694543431024
 31
0.0
  0
LINE
  5
1C1
330
68
100
AcDbEntity
  8
ZUWAKU
  6
CONTINUOUS
 62
     7
100
AcDbLine
 10
122.9463728456569
 20
-129.8694543431023
 30
0.0
 11
124.1463728456568
 21
-130.6694543431023
 31
0.0
  0
LINE
  5
1C2
330
68
100
AcDbEntity
  8
ZUWAKU
  6
CONTINUOUS
 62
     7
100
AcDbLine
 10
128.9463728456568
 20
-129.8694543431024
 30
0.0
 11
128.9463728456568
 21
-130.6694543431024
 31
0.0
  0
LINE
  5
1C3
330
68
100
AcDbEntity
  8
ZUWAKU
  6
CONTINUOUS
 62
     7
100
AcDbLine
 10
124.6463728456568
 20
-127.6694543431024
 30
0.0
 11
124.6463728456568
 21
-129.8694543431024
 31
0.0
  0
LINE
  5
1C4
330
68
100
AcDbEntity
  8
ZUWAKU
  6
CONTINUOUS
 62
     7
100
AcDbLine
 10
133.1463728456568
 20
-135.4305456568976
 30
0.0
 11
135.0000668278699
 21
-135.4305456568976
 31
0.0
  0
LINE
  5
1C5
330
68
100
AcDbEntity
  8
ZUWAKU
  6
CONTINUOUS
 62
     7
100
AcDbLine
 10
140.6463728456568
 20
-127.6694543431024
 30
0.0
 11
142.7963728456568
 21
-127.6694543431024
 31
0.0
  0
LINE
  5
1C6
330
68
100
AcDbEntity
  8
ZUWAKU
  6
CONTINUOUS
 62
     7
100
AcDbLine
 10
140.6463728456568
 20
-127.6694543431024
 30
0.0
 11
140.6463728456568
 21
-128.8694543431024
 31
0.0
  0
LINE
  5
1C7
330
68
100
AcDbEntity
  8
ZUWAKU
  6
CONTINUOUS
 62
     7
100
AcDbLine
 10
124.6463728456568
 20
-131.7694543431024
 30
0.0
 11
125.9463728456568
 21
-131.7694543431024
 31
0.0
  0
LINE
  5
1C8
330
68
100
AcDbEntity
  8
ZUWAKU
  6
CONTINUOUS
 62
     7
100
AcDbLine
 10
124.6463728456568
 20
-130.6694543431024
 30
0.0
 11
127.1463728456568
 21
-130.6694543431024
 31
0.0
  0
LINE
  5
1C9
330
68
100
AcDbEntity
  8
ZUWAKU
  6
CONTINUOUS
 62
     7
100
AcDbLine
 10
127.1463728456568
 20
-129.8694543431024
 30
0.0
 11
127.1463728456568
 21
-130.6694543431024
 31
0.0
  0
LINE
  5
1CA
330
68
100
AcDbEntity
  8
ZUWAKU
  6
CONTINUOUS
 62
     7
100
AcDbLine
 10
145.7163728456568
 20
-127.6694543431024
 30
0.0
 11
145.7163728456568
 21
-129.8694543431024
 31
0.0
  0
LINE
  5
1CB
330
68
100
AcDbEntity
  8
ZUWAKU
  6
CONTINUOUS
 62
     7
100
AcDbLine
 10
144.1963728456568
 20
-127.6694543431024
 30
0.0
 11
144.1963728456568
 21
-128.8694543431024
 31
0.0
  0
LINE
  5
1CC
330
68
100
AcDbEntity
  8
ZUWAKU
  6
CONTINUOUS
 62
     7
100
AcDbLine
 10
142.7963728456568
 20
-127.6694543431024
 30
0.0
 11
142.7963728456568
 21
-128.8694543431024
 31
0.0
  0
LINE
  5
1CD
330
68
100
AcDbEntity
  8
ZUWAKU
  6
CONTINUOUS
 62
     7
100
AcDbLine
 10
133.1463728456568
 20
-128.8694543431024
 30
0.0
 11
140.6463728456568
 21
-128.8694543431024
 31
0.0
  0
LINE
  5
1CE
330
68
100
AcDbEntity
  8
ZUWAKU
  6
CONTINUOUS
 62
     7
100
AcDbLine
 10
133.1463728456568
 20
-129.8694543431024
 30
0.0
 11
140.6463728456568
 21
-129.8694543431024
 31
0.0
  0
LINE
  5
1CF
330
68
100
AcDbEntity
  8
ZUWAKU
  6
CONTINUOUS
 62
     7
100
AcDbLine
 10
133.1463728456568
 20
-131.9694543431024
 30
0.0
 11
135.8463728456568
 21
-131.9694543431024
 31
0.0
  0
LINE
  5
1D0
330
68
100
AcDbEntity
  8
ZUWAKU
  6
CONTINUOUS
 62
     7
100
AcDbLine
 10
131.5463728456568
 20
-128.8694543431024
 30
0.0
 11
131.5463728456568
 21
-129.8694543431024
 31
0.0
  0
LINE
  5
1D1
330
68
100
AcDbEntity
  8
ZUWAKU
  6
CONTINUOUS
 62
     7
100
AcDbLine
 10
160.6163728456568
 20
-132.0305456568976
 30
0.0
 11
160.6163728456568
 21
-133.0524216486367
 31
0.0
  0
LINE
  5
1D2
330
68
100
AcDbEntity
  8
ZUWAKU
  6
CONTINUOUS
 62
     7
100
AcDbLine
 10
121.5463728456568
 20
-127.6694543431024
 30
0.0
 11
122.9463728456568
 21
-127.6694543431024
 31
0.0
  0
LINE
  5
1D3
330
68
100
AcDbEntity
  8
ZUWAKU
  6
CONTINUOUS
 62
     7
100
AcDbLine
 10
126.2063728456568
 20
-127.6694543431024
 30
0.0
 11
126.2063728456568
 21
-128.8694543431024
 31
0.0
  0
LINE
  5
1D4
330
68
100
AcDbEntity
  8
ZUWAKU
  6
CONTINUOUS
 62
     7
100
AcDbLine
 10
124.6463728456568
 20
-127.6694543431024
 30
0.0
 11
126.2063728456568
 21
-127.6694543431024
 31
0.0
  0
LINE
  5
1D5
330
68
100
AcDbEntity
  8
ZUWAKU
  6
CONTINUOUS
 62
     7
100
AcDbLine
 10
127.1463728456568
 20
-127.6694543431024
 30
0.0
 11
127.1463728456568
 21
-128.8694543431024
 31
0.0
  0
LINE
  5
1D6
330
68
100
AcDbEntity
  8
ZUWAKU
  6
CONTINUOUS
 62
     7
100
AcDbLine
 10
128.9463728456568
 20
-127.6694543431024
 30
0.0
 11
128.9463728456568
 21
-128.8694543431024
 31
0.0
  0
LINE
  5
1D7
330
68
100
AcDbEntity
  8
ZUWAKU
  6
CONTINUOUS
 62
     7
100
AcDbLine
 10
124.1463728456568
 20
-128.8694543431024
 30
0.0
 11
124.1463728456568
 21
-129.8694543431024
 31
0.0
  0
LINE
  5
1D8
330
68
100
AcDbEntity
  8
ZUWAKU
  6
CONTINUOUS
 62
     7
100
AcDbLine
 10
119.4463728456568
 20
-129.8694543431024
 30
0.0
 11
120.7463728456568
 21
-129.8694543431024
 31
0.0
  0
LINE
  5
1D9
330
68
100
AcDbEntity
  8
ZUWAKU
  6
CONTINUOUS
 62
     7
100
AcDbLine
 10
92.44637284565681
 20
-131.0694543431024
 30
0.0
 11
95.80134639299502
 21
-131.0694543431024
 31
0.0
  0
LINE
  5
1DA
330
68
100
AcDbEntity
  8
ZUWAKU
  6
CONTINUOUS
 62
     7
100
AcDbLine
 10
98.44637284565681
 20
-127.6694543431024
 30
0.0
 11
104.5463728456568
 21
-127.6694543431024
 31
0.0
  0
LINE
  5
1DB
330
68
100
AcDbEntity
  8
ZUWAKU
  6
CONTINUOUS
 62
     7
100
AcDbLine
 10
92.44637284565681
 20
-131.0694543431023
 30
0.0
 11
92.44637284565681
 21
-132.8694543431024
 31
0.0
  0
LINE
  5
1DC
330
68
100
AcDbEntity
  8
ZUWAKU
  6
CONTINUOUS
 62
     7
100
AcDbLine
 10
119.4463728456568
 20
-128.8694543431024
 30
0.0
 11
121.5463728456568
 21
-128.8694543431024
 31
0.0
  0
LINE
  5
1DD
330
68
100
AcDbEntity
  8
ZUWAKU
  6
CONTINUOUS
 62
     7
100
AcDbLine
 10
92.44637284565681
 20
-132.8694543431024
 30
0.0
 11
94.75184431632226
 21
-132.8694543431024
 31
0.0
  0
LINE
  5
1DE
330
68
100
AcDbEntity
  8
ZUWAKU
  6
CONTINUOUS
 62
     7
100
AcDbLine
 10
100.4463728456568
 20
-131.0694543431024
 30
0.0
 11
100.4463728456568
 21
-132.8694543431024
 31
0.0
  0
LINE
  5
1DF
330
68
100
AcDbEntity
  8
ZUWAKU
  6
CONTINUOUS
 62
     7
100
AcDbLine
 10
98.50714767707265
 20
-129.2694543431024
 30
0.0
 11
102.1463728456568
 21
-129.2694543431024
 31
0.0
  0
LINE
  5
1E0
330
68
100
AcDbEntity
  8
ZUWAKU
  6
CONTINUOUS
 62
     7
100
AcDbLine
 10
139.7463728456568
 20
-131.0694543431024
 30
0.0
 11
139.7463728456568
 21
-131.9694543431024
 31
0.0
  0
LINE
  5
1E1
330
68
100
AcDbEntity
  8
ZUWAKU
  6
CONTINUOUS
 62
     7
100
AcDbLine
 10
122.9463728456568
 20
-127.6694543431024
 30
0.0
 11
122.9463728456568
 21
-128.8694543431024
 31
0.0
  0
LINE
  5
1E2
330
68
100
AcDbEntity
  8
ZUWAKU
  6
CONTINUOUS
 62
     7
100
AcDbLine
 10
110.7463728456568
 20
-132.2694543431024
 30
0.0
 11
113.9463728456568
 21
-132.2694543431024
 31
0.0
  0
LINE
  5
1E3
330
68
100
AcDbEntity
  8
ZUWAKU
  6
CONTINUOUS
 62
     7
100
AcDbLine
 10
106.5463728456568
 20
-131.6694543431024
 30
0.0
 11
117.9463728456568
 21
-131.6694543431024
 31
0.0
  0
LINE
  5
1E4
330
68
100
AcDbEntity
  8
ZUWAKU
  6
CONTINUOUS
 62
     7
100
AcDbLine
 10
106.5463728456568
 20
-129.6694543431024
 30
0.0
 11
117.9463728456568
 21
-129.6694543431024
 31
0.0
  0
LINE
  5
1E5
330
68
100
AcDbEntity
  8
ZUWAKU
  6
CONTINUOUS
 62
     7
100
AcDbLine
 10
117.9463728456568
 20
-129.6694543431024
 30
0.0
 11
117.9463728456568
 21
-131.6694543431024
 31
0.0
  0
LINE
  5
1E6
330
68
100
AcDbEntity
  8
ZUWAKU
  6
CONTINUOUS
 62
     7
100
AcDbLine
 10
106.5463728456568
 20
-129.6694543431024
 30
0.0
 11
106.5463728456568
 21
-131.6694543431024
 31
0.0
  0
LINE
  5
1E7
330
68
100
AcDbEntity
  8
ZUWAKU
  6
CONTINUOUS
 62
     7
100
AcDbLine
 10
104.5463728456568
 20
-127.6694543431024
 30
0.0
 11
104.5463728456568
 21
-134.4694543431024
 31
0.0
  0
LINE
  5
1E8
330
68
100
AcDbEntity
  8
ZUWAKU
  6
CONTINUOUS
 62
     7
100
AcDbLine
 10
102.1463728456568
 20
-129.2694543431024
 30
0.0
 11
102.1463728456568
 21
-134.8694543431024
 31
0.0
  0
LINE
  5
1E9
330
68
100
AcDbEntity
  8
ZUWAKU
  6
CONTINUOUS
 62
     7
100
AcDbLine
 10
90.58362715434316
 20
-129.2694543431024
 30
0.0
 11
96.04637284565683
 21
-129.2694543431024
 31
0.0
  0
LINE
  5
1EA
330
68
100
AcDbEntity
  8
ZUWAKU
  6
CONTINUOUS
 62
     7
100
AcDbLine
 10
96.04637284565683
 20
-126.0694543431023
 30
0.0
 11
96.04637284565683
 21
-127.6694543431024
 31
0.0
  0
LINE
  5
1EB
330
68
100
AcDbEntity
  8
ZUWAKU
  6
CONTINUOUS
 62
     7
100
AcDbLine
 10
98.44637284565681
 20
-126.0694543431023
 30
0.0
 11
98.44637284565681
 21
-127.6694543431024
 31
0.0
  0
LINE
  5
1EC
330
68
100
AcDbEntity
  8
ZUWAKU
  6
CONTINUOUS
 62
     7
100
AcDbLine
 10
96.04637284565683
 20
-126.0694543431024
 30
0.0
 11
98.44637284565681
 21
-126.0694543431024
 31
0.0
  0
LINE
  5
1ED
330
68
100
AcDbEntity
  8
ZUWAKU
  6
CONTINUOUS
 62
     7
100
AcDbLine
 10
90.58362715434316
 20
-127.6694543431024
 30
0.0
 11
90.58362715434316
 21
-129.2694543431024
 31
0.0
  0
LINE
  5
1EE
330
68
100
AcDbEntity
  8
ZUWAKU
  6
CONTINUOUS
 62
     7
100
AcDbLine
 10
90.58362715434316
 20
-127.6694543431024
 30
0.0
 11
96.04637284565683
 21
-127.6694543431024
 31
0.0
  0
LINE
  5
1EF
330
68
100
AcDbEntity
  8
ZUWAKU
  6
CONTINUOUS
 62
     7
100
AcDbLine
 10
98.03121405164808
 20
-131.0694543431024
 30
0.0
 11
100.4463728456568
 21
-131.0694543431024
 31
0.0
  0
LINE
  5
1F0
330
68
100
AcDbEntity
  8
ZUWAKU
  6
CONTINUOUS
 62
     7
100
AcDbLine
 10
121.5463728456568
 20
-127.6694543431024
 30
0.0
 11
121.5463728456568
 21
-128.8694543431024
 31
0.0
  0
LINE
  5
1F1
330
68
100
AcDbEntity
  8
ZUWAKU
  6
CONTINUOUS
 62
     7
100
AcDbLine
 10
119.4463728456568
 20
-128.8694543431024
 30
0.0
 11
119.4463728456568
 21
-129.8694543431024
 31
0.0
  0
LINE
  5
1F2
330
68
100
AcDbEntity
  8
ZUWAKU
  6
CONTINUOUS
 62
     7
100
AcDbLine
 10
96.98692822066201
 20
-132.8694543431024
 30
0.0
 11
100.4463728456568
 21
-132.8694543431024
 31
0.0
  0
LINE
  5
1F3
330
68
100
AcDbEntity
  8
ZUWAKU
  6
CONTINUOUS
 62
     7
100
AcDbLine
 10
157.2163728456568
 20
-135.4305456568976
 30
0.0
 11
159.2163728456568
 21
-135.4305456568976
 31
0.0
  0
LINE
  5
1F4
330
68
100
AcDbEntity
  8
ZUWAKU
  6
CONTINUOUS
 62
     7
100
AcDbLine
 10
90.58362715434316
 20
-134.4842821983328
 30
0.0
 11
90.58362715434316
 21
-135.6694543431024
 31
0.0
  0
ARC
  5
1F5
330
68
100
AcDbEntity
  8
ZUWAKU
  6
CONTINUOUS
 62
     7
100
AcDbCircle
 10
164.0753964745717
 20
-136.5280605928041
 30
0.0
 40
4.0
100
AcDbArc
 50
60.9715340609843
 51
87.98024394550768
  0
ARC
  5
1F6
330
68
100
AcDbEntity
  8
ZUWAKU
  6
CONTINUOUS
 62
     7
100
AcDbCircle
 10
161.4309728961217
 20
-128.5032477036166
 30
0.0
 40
4.6
100
AcDbArc
 50
318.8442436704028
 51
355.4338431265014
  0
ARC
  5
1F7
330
68
100
AcDbEntity
  8
ZUWAKU
  6
CONTINUOUS
 62
     7
100
AcDbCircle
 10
164.6806138811
 20
-133.5190845339868
 30
0.0
 40
2.0
100
AcDbArc
 50
48.09638755561873
 51
83.86317369123302
  0
ARC
  5
1F8
330
68
100
AcDbEntity
  8
ZUWAKU
  6
CONTINUOUS
 62
     7
100
AcDbCircle
 10
161.0835787514163
 20
-128.0524216486367
 30
0.0
 40
5.0
100
AcDbArc
 50
270.0
 51
287.8519707863945
  0
ARC
  5
1F9
330
68
100
AcDbEntity
  8
ZUWAKU
  6
CONTINUOUS
 62
     7
100
AcDbCircle
 10
160.7999359294301
 20
-129.0361668241051
 30
0.0
 40
3.0
100
AcDbArc
 50
270.0
 51
339.8530457328942
  0
ARC
  5
1FA
330
68
100
AcDbEntity
  8
ZUWAKU
  6
CONTINUOUS
 62
     7
100
AcDbCircle
 10
152.9092420950863
 20
-130.4305456568976
 30
0.0
 40
4.0
100
AcDbArc
 50
270.0
 51
301.7883306170518
  0
ARC
  5
1FB
330
68
100
AcDbEntity
  8
ZUWAKU
  6
CONTINUOUS
 62
     7
100
AcDbCircle
 10
159.1490770106609
 20
-132.6316781598903
 30
0.0
 40
2.0
100
AcDbArc
 50
209.9625441683634
 51
271.9282476334827
  0
ARC
  5
1FC
330
68
100
AcDbEntity
  8
ZUWAKU
  6
CONTINUOUS
 62
     7
100
AcDbCircle
 10
151.6971892572037
 20
-125.4305456568976
 30
0.0
 40
10.0
100
AcDbArc
 50
270.0
 51
293.073918065631
  0
ARC
  5
1FD
330
68
100
AcDbEntity
  8
ZUWAKU
  6
CONTINUOUS
 62
     7
100
AcDbCircle
 10
157.2163728456568
 20
-133.4305456568976
 30
0.0
 40
2.0
100
AcDbArc
 50
216.8698976458439
 51
270.0
  0
ARC
  5
1FE
330
68
100
AcDbEntity
  8
ZUWAKU
  6
CONTINUOUS
 62
     7
100
AcDbCircle
 10
146.6427444155
 20
-123.4580294012382
 30
0.0
 40
6.0
100
AcDbArc
 50
275.4861271989983
 51
315.4200248778122
  0
ARC
  5
1FF
330
68
100
AcDbEntity
  8
ZUWAKU
  6
CONTINUOUS
 62
     7
100
AcDbCircle
 10
158.7786428876944
 20
-123.4465342528391
 30
0.0
 40
6.0
100
AcDbArc
 50
224.7342935204538
 51
270.0
  0
ARC
  5
200
330
68
100
AcDbEntity
  8
ZUWAKU
  6
CONTINUOUS
 62
     7
100
AcDbCircle
 10
158.5583602832044
 20
-118.6486000941914
 30
0.0
 40
12.0
100
AcDbArc
 50
240.8674112692758
 51
267.0917440539539
  0
ARC
  5
201
330
68
100
AcDbEntity
  8
ZUWAKU
  6
CONTINUOUS
 62
     7
100
AcDbCircle
 10
147.4443544232267
 20
-120.6331447746538
 30
0.0
 40
10.0
100
AcDbArc
 50
270.0
 51
301.8165888069296
  0
ARC
  5
202
330
68
100
AcDbEntity
  8
ZUWAKU
  6
CONTINUOUS
 62
     7
100
AcDbCircle
 10
141.8785047405764
 20
-131.5372799144038
 30
0.0
 40
4.0
100
AcDbArc
 50
283.265695396094
 51
342.6434876261313
  0
ARC
  5
203
330
68
100
AcDbEntity
  8
ZUWAKU
  6
CONTINUOUS
 62
     7
100
AcDbCircle
 10
142.2075729563648
 20
-132.5191810421865
 30
0.0
 40
2.0
100
AcDbArc
 50
287.1215589227386
 51
353.9335213805733
  0
ARC
  5
204
330
68
100
AcDbEntity
  8
ZUWAKU
  6
CONTINUOUS
 62
     7
100
AcDbCircle
 10
134.0732198367634
 20
-115.4520333335269
 30
0.0
 40
20.0
100
AcDbArc
 50
272.6561723599371
 51
286.4786265979867
  0
ARC
  5
205
330
68
100
AcDbEntity
  8
ZUWAKU
  6
CONTINUOUS
 62
     7
100
AcDbCircle
 10
134.4350708718812
 20
-131.4689746339814
 30
0.0
 40
4.0
100
AcDbArc
 50
184.3081130703794
 51
227.7648830848148
  0
ARC
  5
206
330
68
100
AcDbEntity
  8
ZUWAKU
  6
CONTINUOUS
 62
     7
100
AcDbCircle
 10
132.3132740533973
 20
-131.470921555968
 30
0.0
 40
4.0
100
AcDbArc
 50
212.6772418063084
 51
261.8523056494763
  0
ARC
  5
207
330
68
100
AcDbEntity
  8
ZUWAKU
  6
CONTINUOUS
 62
     7
100
AcDbCircle
 10
122.0267019278491
 20
-130.9718454815092
 30
0.0
 40
4.0
100
AcDbArc
 50
305.4447563754824
 51
348.4979955985226
  0
ARC
  5
208
330
68
100
AcDbEntity
  8
ZUWAKU
  6
CONTINUOUS
 62
     7
100
AcDbCircle
 10
117.607071150831
 20
-130.8548432499945
 30
0.0
 40
4.0
100
AcDbArc
 50
295.7741858394136
 51
326.5976644920056
  0
ARC
  5
209
330
68
100
AcDbEntity
  8
ZUWAKU
  6
CONTINUOUS
 62
     7
100
AcDbCircle
 10
122.4053906304749
 20
-129.7531705556429
 30
0.0
 40
6.0
100
AcDbArc
 50
288.8745432034554
 51
322.2008123804935
  0
ARC
  5
20A
330
68
100
AcDbEntity
  8
ZUWAKU
  6
CONTINUOUS
 62
     7
100
AcDbCircle
 10
114.7622963094578
 20
-129.4326156899224
 30
0.0
 40
6.0
100
AcDbArc
 50
319.8192422116139
 51
355.8248039544737
  0
ARC
  5
20B
330
68
100
AcDbEntity
  8
ZUWAKU
  6
CONTINUOUS
 62
     7
100
AcDbCircle
 10
91.05198398637199
 20
-129.5062663407956
 30
0.0
 40
5.0
100
AcDbArc
 50
264.6251462956196
 51
317.7290360759776
  0
ARC
  5
20C
330
68
100
AcDbEntity
  8
ZUWAKU
  6
CONTINUOUS
 62
     7
100
AcDbCircle
 10
106.1802438133988
 20
-125.1000995043927
 30
0.0
 40
10.56940911068407
100
AcDbArc
 50
247.5637467185126
 51
317.2881390123424
  0
ARC
  5
20D
330
68
100
AcDbEntity
  8
ZUWAKU
  6
CONTINUOUS
 62
     7
100
AcDbCircle
 10
104.4883680238249
 20
-124.4696225724852
 30
0.0
 40
10.0
100
AcDbArc
 50
270.3323450119129
 51
308.7409648643439
  0
ARC
  5
20E
330
68
100
AcDbEntity
  8
ZUWAKU
  6
CONTINUOUS
 62
     7
100
AcDbCircle
 10
91.17187081666828
 20
-128.2928718421244
 30
0.0
 40
7.4
100
AcDbArc
 50
337.9624692219032
 51
352.416518898312
  0
ARC
  5
20F
330
68
100
AcDbEntity
  8
ZUWAKU
  6
CONTINUOUS
 62
     7
100
AcDbCircle
 10
91.05198398637199
 20
-129.5062663407956
 30
0.0
 40
5.0
100
AcDbArc
 50
341.7817433502872
 51
362.7146811743762
  0
ARC
  5
210
330
68
100
AcDbEntity
  8
ZUWAKU
  6
CONTINUOUS
 62
     7
100
AcDbCircle
 10
91.17187081666828
 20
-128.2928718421244
 30
0.0
 40
7.4
100
AcDbArc
 50
265.4406112814197
 51
321.7964493072675
  0
ENDBLK
  5
6A
330
68
100
AcDbEntity
  8
0
100
AcDbBlockEnd
  0
BLOCK
  5
6C
330
6B
100
AcDbEntity
  8
0
100
AcDbBlockBegin
  2
DC_GROUP_12
 70
     0
 71
     0
 10
0.0
 20
0.0
 30
0.0
  3
DC_GROUP_12
  1

  0
LINE
  5
211
330
6B
100
AcDbEntity
  8
ZUWAKU
  6
CONTINUOUS
 62
     7
100
AcDbLine
 10
148.9941506234345
 20
-134.0305456568976
 30
0.0
 11
151.4163728456568
 21
-134.0305456568976
 31
0.0
  0
LINE
  5
212
330
6B
100
AcDbEntity
  8
ZUWAKU
  6
CONTINUOUS
 62
     7
100
AcDbLine
 10
154.6528016725025
 20
-134.0305456568976
 30
0.0
 11
157.7196821296652
 21
-134.0305456568976
 31
0.0
  0
LINE
  5
213
330
6B
100
AcDbEntity
  8
ZUWAKU
  6
CONTINUOUS
 62
     7
100
AcDbLine
 10
147.2163728456568
 20
-133.5305456568976
 30
0.0
 11
159.2163728456568
 21
-133.5305456568976
 31
0.0
  0
LINE
  5
214
330
6B
100
AcDbEntity
  8
ZUWAKU
  6
CONTINUOUS
 62
     7
100
AcDbLine
 10
147.2163728456568
 20
-133.0305456568976
 30
0.0
 11
159.2163728456568
 21
-133.0305456568976
 31
0.0
  0
LINE
  5
215
330
6B
100
AcDbEntity
  8
ZUWAKU
  6
CONTINUOUS
 62
     7
100
AcDbLine
 10
148.7163728456567
 20
-134.5305456568976
 30
0.0
 11
158.521142118487
 21
-134.5305456568976
 31
0.0
  0
LINE
  5
216
330
6B
100
AcDbEntity
  8
ZUWAKU
  6
CONTINUOUS
 62
     7
100
AcDbLine
 10
148.4385950678789
 20
-135.0305456568976
 30
0.0
 11
154.4971892572037
 21
-135.0305456568976
 31
0.0
  0
LINE
  5
217
330
6B
100
AcDbEntity
  8
ZUWAKU
  6
CONTINUOUS
 62
     7
100
AcDbLine
 10
156.0163728456568
 20
-135.0305456568976
 30
0.0
 11
159.2163728456568
 21
-135.0305456568976
 31
0.0
  0
ENDBLK
  5
6D
330
6B
100
AcDbEntity
  8
0
100
AcDbBlockEnd
  0
BLOCK
  5
6F
330
6E
100
AcDbEntity
  8
0
100
AcDbBlockBegin
  2
DC_GROUP_13
 70
     0
 71
     0
 10
0.0
 20
0.0
 30
0.0
  3
DC_GROUP_13
  1

  0
POINT
  5
218
330
6E
100
AcDbEntity
  8
ZUWAKU
  6
CONTINUOUS
 62
     2
100
AcDbPoint
 10
160.8498749022663
 20
-98.00367813482338
 30
0.0
  0
POINT
  5
219
330
6E
100
AcDbEntity
  8
ZUWAKU
  6
CONTINUOUS
 62
     2
100
AcDbPoint
 10
73.38564909702789
 20
-84.93222661659917
 30
0.0
  0
POINT
  5
21A
330
6E
100
AcDbEntity
  8
ZUWAKU
  6
CONTINUOUS
 62
     2
100
AcDbPoint
 10
142.3008962095693
 20
-119.9148407864637
 30
0.0
  0
POINT
  5
21B
330
6E
100
AcDbEntity
  8
ZUWAKU
  6
CONTINUOUS
 62
     2
100
AcDbPoint
 10
94.554127092407
 20
-96.12814592659269
 30
0.0
  0
POINT
  5
21C
330
6E
100
AcDbEntity
  8
ZUWAKU
  6
CONTINUOUS
 62
     2
100
AcDbPoint
 10
94.554127092407
 20
-107.2602879620249
 30
0.0
  0
POINT
  5
21D
330
6E
100
AcDbEntity
  8
ZUWAKU
  6
CONTINUOUS
 62
     2
100
AcDbPoint
 10
161.0193620275377
 20
-87.26949353429845
 30
0.0
  0
POINT
  5
21E
330
6E
100
AcDbEntity
  8
ZUWAKU
  6
CONTINUOUS
 62
     2
100
AcDbPoint
 10
162.145474507651
 20
-119.9080450954827
 30
0.0
  0
POINT
  5
21F
330
6E
100
AcDbEntity
  8
ZUWAKU
  6
CONTINUOUS
 62
     2
100
AcDbPoint
 10
169.0941648737996
 20
-108.7969250144304
 30
0.0
  0
ENDBLK
  5
70
330
6E
100
AcDbEntity
  8
0
100
AcDbBlockEnd
  0
BLOCK
  5
72
330
71
100
AcDbEntity
  8
0
100
AcDbBlockBegin
  2
DC_GROUP_14
 70
     0
 71
     0
 10
0.0
 20
0.0
 30
0.0
  3
DC_GROUP_14
  1

  0
LINE
  5
220
330
71
100
AcDbEntity
  8
ZUWAKU
  6
CONTINUOUS
 62
     4
100
AcDbLine
 10
-192.5
 20
-131.5
 30
0.0
 11
-189.0358983848622
 21
-125.5
 31
0.0
  0
LINE
  5
221
330
71
100
AcDbEntity
  8
ZUWAKU
  6
CONTINUOUS
 62
     4
100
AcDbLine
 10
-189.0358983848622
 20
-125.5
 30
0.0
 11
-185.5717967697245
 21
-131.5
 31
0.0
  0
LINE
  5
222
330
71
100
AcDbEntity
  8
ZUWAKU
  6
CONTINUOUS
 62
     4
100
AcDbLine
 10
-192.5
 20
-131.5
 30
0.0
 11
-185.5717967697245
 21
-131.5
 31
0.0
  0
TEXT
  5
224
330
71
100
AcDbEntity
  8
ZUWAKU
 62
     7
100
AcDbText
 10
-190.2358983848622
 20
-131.0
 30
0.0
 40
3.0
  1
1
 41
0.7999999999999924
  7
FDASTYLE0
 72
     5
 11
-187.8358983848623
 21
-131.0
 31
0.0
100
AcDbText
  0
ENDBLK
  5
73
330
71
100
AcDbEntity
  8
0
100
AcDbBlockEnd
  0
BLOCK
  5
75
330
74
100
AcDbEntity
  8
0
100
AcDbBlockBegin
  2
DC_GROUP_15
 70
     0
 71
     0
 10
0.0
 20
0.0
 30
0.0
  3
DC_GROUP_15
  1

  0
LINE
  5
225
330
74
100
AcDbEntity
  8
ZUWAKU
  6
CONTINUOUS
 62
     4
100
AcDbLine
 10
-192.5
 20
-124.5
 30
0.0
 11
-189.0358983848622
 21
-118.5
 31
0.0
  0
LINE
  5
226
330
74
100
AcDbEntity
  8
ZUWAKU
  6
CONTINUOUS
 62
     4
100
AcDbLine
 10
-189.0358983848622
 20
-118.5
 30
0.0
 11
-185.5717967697245
 21
-124.5
 31
0.0
  0
LINE
  5
227
330
74
100
AcDbEntity
  8
ZUWAKU
  6
CONTINUOUS
 62
     4
100
AcDbLine
 10
-192.5
 20
-124.5
 30
0.0
 11
-185.5717967697245
 21
-124.5
 31
0.0
  0
TEXT
  5
228
330
74
100
AcDbEntity
  8
ZUWAKU
 62
     7
100
AcDbText
 10
-190.2358983848622
 20
-124.0
 30
0.0
 40
3.0
  1
2
 41
0.7999999999999924
  7
FDASTYLE0
 72
     5
 11
-187.8358983848623
 21
-124.0
 31
0.0
100
AcDbText
  0
ENDBLK
  5
76
330
74
100
AcDbEntity
  8
0
100
AcDbBlockEnd
  0
BLOCK
  5
78
330
77
100
AcDbEntity
  8
0
100
AcDbBlockBegin
  2
DC_GROUP_16
 70
     0
 71
     0
 10
0.0
 20
0.0
 30
0.0
  3
DC_GROUP_16
  1

  0
LINE
  5
229
330
77
100
AcDbEntity
  8
ZUWAKU
  6
CONTINUOUS
 62
     4
100
AcDbLine
 10
-192.5
 20
-117.5
 30
0.0
 11
-189.0358983848622
 21
-111.5
 31
0.0
  0
LINE
  5
22A
330
77
100
AcDbEntity
  8
ZUWAKU
  6
CONTINUOUS
 62
     4
100
AcDbLine
 10
-189.0358983848622
 20
-111.5
 30
0.0
 11
-185.5717967697245
 21
-117.5
 31
0.0
  0
LINE
  5
22B
330
77
100
AcDbEntity
  8
ZUWAKU
  6
CONTINUOUS
 62
     4
100
AcDbLine
 10
-192.5
 20
-117.5
 30
0.0
 11
-185.5717967697245
 21
-117.5
 31
0.0
  0
TEXT
  5
22C
330
77
100
AcDbEntity
  8
ZUWAKU
 62
     7
100
AcDbText
 10
-190.2358983848622
 20
-117.0
 30
0.0
 40
3.0
  1
3
 41
0.7999999999999924
  7
FDASTYLE0
 72
     5
 11
-187.8358983848623
 21
-117.0
 31
0.0
100
AcDbText
  0
ENDBLK
  5
79
330
77
100
AcDbEntity
  8
0
100
AcDbBlockEnd
  0
BLOCK
  5
7B
330
7A
100
AcDbEntity
  8
0
100
AcDbBlockBegin
  2
DC_GROUP_17
 70
     0
 71
     0
 10
0.0
 20
0.0
 30
0.0
  3
DC_GROUP_17
  1

  0
LINE
  5
22D
330
7A
100
AcDbEntity
  8
ZUWAKU
  6
CONTINUOUS
 62
     4
100
AcDbLine
 10
-192.5
 20
-110.5
 30
0.0
 11
-189.0358983848622
 21
-104.5
 31
0.0
  0
LINE
  5
22E
330
7A
100
AcDbEntity
  8
ZUWAKU
  6
CONTINUOUS
 62
     4
100
AcDbLine
 10
-189.0358983848622
 20
-104.5
 30
0.0
 11
-185.5717967697245
 21
-110.5
 31
0.0
  0
LINE
  5
22F
330
7A
100
AcDbEntity
  8
ZUWAKU
  6
CONTINUOUS
 62
     4
100
AcDbLine
 10
-192.5
 20
-110.5
 30
0.0
 11
-185.5717967697245
 21
-110.5
 31
0.0
  0
TEXT
  5
230
330
7A
100
AcDbEntity
  8
ZUWAKU
 62
     7
100
AcDbText
 10
-190.2358983848622
 20
-110.0
 30
0.0
 40
3.0
  1
4
 41
0.7999999999999924
  7
FDASTYLE0
 72
     5
 11
-187.8358983848623
 21
-110.0
 31
0.0
100
AcDbText
  0
ENDBLK
  5
7C
330
7A
100
AcDbEntity
  8
0
100
AcDbBlockEnd
  0
BLOCK
  5
7E
330
7D
100
AcDbEntity
  8
0
100
AcDbBlockBegin
  2
DC_GROUP_18
 70
     0
 71
     0
 10
0.0
 20
0.0
 30
0.0
  3
DC_GROUP_18
  1

  0
LINE
  5
231
330
7D
100
AcDbEntity
  8
ZUWAKU
  6
CONTINUOUS
 62
     4
100
AcDbLine
 10
-192.5
 20
-103.5
 30
0.0
 11
-189.0358983848622
 21
-97.50000000000003
 31
0.0
  0
LINE
  5
232
330
7D
100
AcDbEntity
  8
ZUWAKU
  6
CONTINUOUS
 62
     4
100
AcDbLine
 10
-189.0358983848622
 20
-97.50000000000003
 30
0.0
 11
-185.5717967697245
 21
-103.5
 31
0.0
  0
LINE
  5
233
330
7D
100
AcDbEntity
  8
ZUWAKU
  6
CONTINUOUS
 62
     4
100
AcDbLine
 10
-192.5
 20
-103.5
 30
0.0
 11
-185.5717967697245
 21
-103.5
 31
0.0
  0
TEXT
  5
234
330
7D
100
AcDbEntity
  8
ZUWAKU
 62
     7
100
AcDbText
 10
-190.2358983848622
 20
-103.0
 30
0.0
 40
3.0
  1
5
 41
0.7999999999999924
  7
FDASTYLE0
 72
     5
 11
-187.8358983848623
 21
-103.0
 31
0.0
100
AcDbText
  0
ENDBLK
  5
7F
330
7D
100
AcDbEntity
  8
0
100
AcDbBlockEnd
  0
BLOCK
  5
81
330
80
100
AcDbEntity
  8
0
100
AcDbBlockBegin
  2
DC_GROUP_19
 70
     0
 71
     0
 10
0.0
 20
0.0
 30
0.0
  3
DC_GROUP_19
  1

  0
TEXT
  5
235
330
80
100
AcDbEntity
  8
ZUWAKU
 62
     7
100
AcDbText
 10
-188.572661196054
 20
-88.78117399437664
 30
0.0
 40
3.0
  1
＊材質、型番の刻印あり。
 41
0.8333333333333334
  7
FDASTYLE0
 72
     5
 11
-152.572661196054
 21
-88.78117399437664
 31
0.0
100
AcDbText
  0
TEXT
  5
236
330
80
100
AcDbEntity
  8
ZUWAKU
 62
     7
100
AcDbText
 10
-188.572661196054
 20
-93.78117399437664
 30
0.0
 40
3.0
  1
＊抗菌入り仕様あり。
 41
0.8333333333333334
  7
FDASTYLE0
 72
     5
 11
-158.572661196054
 21
-93.78117399437664
 31
0.0
100
AcDbText
  0
ENDBLK
  5
82
330
80
100
AcDbEntity
  8
0
100
AcDbBlockEnd
  0
BLOCK
  5
84
330
83
100
AcDbEntity
  8
0
100
AcDbBlockBegin
  2
DA_IMAGEDIMGROUP_1
 70
     0
 71
     0
 10
0.0
 20
0.0
 30
0.0
  3
DA_IMAGEDIMGROUP_1
  1

  0
LINE
  5
237
330
83
100
AcDbEntity
  8
LAYER0014
  6
CONTINUOUS
 62
     7
100
AcDbLine
 10
-20.47444895691848
 20
63.53840339146277
 30
0.0
 11
-41.91088117063242
 21
63.53840339146277
 31
0.0
  0
LINE
  5
238
330
83
100
AcDbEntity
  8
LAYER0014
  6
CONTINUOUS
 62
     7
100
AcDbLine
 10
-40.91088117063242
 20
-5.722417379246405
 30
0.0
 11
-40.91088117063242
 21
63.53840339146277
 31
0.0
  0
INSERT
  5
23F
330
83
100
AcDbEntity
  8
LAYER0014
 62
     7
100
AcDbBlockReference
  2
_OPEN30
 10
-40.91088117063242
 20
63.53840339146277
 30
0.0
 41
3.000002787824364
 42
2.999989273978464
 50
90.0
  0
TEXT
  5
240
330
83
100
AcDbEntity
  8
LAYER0014
 62
     7
100
AcDbText
 10
-41.91088117063242
 20
21.08840339146247
 30
0.0
 40
3.0
  1
φ69.9
 50
90.0
 41
0.9615384615384613
  7
FDASTYLE0
 72
     5
 11
-41.91088117063242
 21
36.08840339146246
 31
0.0
100
AcDbText
  0
ENDBLK
  5
85
330
83
100
AcDbEntity
  8
0
100
AcDbBlockEnd
  0
BLOCK
  5
87
330
86
100
AcDbEntity
  8
0
100
AcDbBlockBegin
  2
DA_IMAGEDIMGROUP_2
 70
     0
 71
     0
 10
0.0
 20
0.0
 30
0.0
  3
DA_IMAGEDIMGROUP_2
  1

  0
LINE
  5
241
330
86
100
AcDbEntity
  8
LAYER0014
  6
CONTINUOUS
 62
     7
100
AcDbLine
 10
26.76675062005461
 20
61.25581089977024
 30
0.0
 11
26.81867544958556
 21
64.23058239128294
 31
0.0
  0
LINE
  5
242
330
86
100
AcDbEntity
  8
LAYER0014
  6
CONTINUOUS
 62
     7
100
AcDbLine
 10
27.06122515472151
 20
78.12624569207354
 30
0.0
 11
26.81867544958556
 21
64.23058239128294
 31
0.0
  0
INSERT
  5
243
330
86
100
AcDbEntity
  8
LAYER0014
 62
     7
100
AcDbBlockReference
  2
_OPEN30
 10
26.81867544958556
 20
64.23058239128294
 30
0.0
 41
3.000002787824364
 42
2.999989273978464
 50
268.9999999999999
  0
LINE
  5
244
330
86
100
AcDbEntity
  8
LAYER0014
  6
CONTINUOUS
 62
     7
100
AcDbLine
 10
26.67948858786815
 20
56.25657242398829
 30
0.0
 11
26.76675062005461
 21
61.25581089977024
 31
0.0
  0
INSERT
  5
245
330
86
100
AcDbEntity
  8
LAYER0014
 62
     7
100
AcDbBlockReference
  2
_OPEN30
 10
26.76675062005461
 20
61.25581089977024
 30
0.0
 41
3.000002787824364
 42
2.999989273978464
 50
88.99999999999953
  0
TEXT
  5
246
330
86
100
AcDbEntity
  8
LAYER0014
 62
     7
100
AcDbText
 10
25.88685339519225
 20
68.14522114694688
 30
0.0
 40
3.0
  1
(3)
 50
89.00000000000001
 41
1.000000000000002
  7
FDASTYLE0
 72
     5
 11
26.0439250531278
 21
77.14385040335442
 31
0.0
100
AcDbText
  0
ENDBLK
  5
88
330
86
100
AcDbEntity
  8
0
100
AcDbBlockEnd
  0
BLOCK
  5
8A
330
89
100
AcDbEntity
  8
0
100
AcDbBlockBegin
  2
DA_IMAGEDIMGROUP_3
 70
     0
 71
     0
 10
0.0
 20
0.0
 30
0.0
  3
DA_IMAGEDIMGROUP_3
  1

  0
LINE
  5
247
330
89
100
AcDbEntity
  8
LAYER0014
  6
CONTINUOUS
 62
     7
100
AcDbLine
 10
40.57142048526752
 20
61.01484949096034
 30
0.0
 11
40.59716670514255
 21
62.4898494397384
 31
0.0
  0
LINE
  5
248
330
89
100
AcDbEntity
  8
LAYER0014
  6
CONTINUOUS
 62
     7
100
AcDbLine
 10
40.94443084890228
 20
82.38459891146734
 30
0.0
 11
40.59716670514255
 21
62.4898494397384
 31
0.0
  0
INSERT
  5
249
330
89
100
AcDbEntity
  8
LAYER0014
 62
     7
100
AcDbBlockReference
  2
_OPEN30
 10
40.59716670514255
 20
62.4898494397384
 30
0.0
 41
3.000002787824364
 42
2.999989273978464
 50
268.9999999999998
  0
LINE
  5
24A
330
89
100
AcDbEntity
  8
LAYER0014
  6
CONTINUOUS
 62
     7
100
AcDbLine
 10
40.48415845308106
 20
56.01561101517839
 30
0.0
 11
40.57142048526752
 21
61.01484949096034
 31
0.0
  0
INSERT
  5
24B
330
89
100
AcDbEntity
  8
LAYER0014
 62
     7
100
AcDbBlockReference
  2
_OPEN30
 10
40.57142048526752
 20
61.01484949096034
 30
0.0
 41
3.000002787824364
 42
2.999989273978464
 50
88.99999999999953
  0
TEXT
  5
24C
330
89
100
AcDbEntity
  8
LAYER0014
 62
     7
100
AcDbText
 10
39.6653446507493
 20
66.40448819540237
 30
0.0
 40
3.0
  1
(1.5)
 50
89.00000000000001
 41
0.9999999999999999
  7
FDASTYLE0
 72
     5
 11
39.92713074730855
 21
81.40220362274823
 31
0.0
100
AcDbText
  0
ENDBLK
  5
8B
330
89
100
AcDbEntity
  8
0
100
AcDbBlockEnd
  0
BLOCK
  5
8D
330
8C
100
AcDbEntity
  8
0
100
AcDbBlockBegin
  2
DA_IMAGEDIMGROUP_4
 70
     0
 71
     0
 10
0.0
 20
0.0
 30
0.0
  3
DA_IMAGEDIMGROUP_4
  1

  0
LINE
  5
24D
330
8C
100
AcDbEntity
  8
LAYER0014
  6
CONTINUOUS
 62
     7
100
AcDbLine
 10
2.525551043081521
 20
-8.311591267961337
 30
0.0
 11
2.525551043081521
 21
-24.64359168464716
 31
0.0
  0
LINE
  5
24E
330
8C
100
AcDbEntity
  8
LAYER0014
  6
CONTINUOUS
 62
     7
100
AcDbLine
 10
23.52555104308152
 20
-7.0936499157181
 30
0.0
 11
23.52555104308152
 21
-24.64359168464716
 31
0.0
  0
LINE
  5
24F
330
8C
100
AcDbEntity
  8
LAYER0014
  6
CONTINUOUS
 62
     7
100
AcDbLine
 10
30.52555104308152
 20
-7.006374591077016
 30
0.0
 11
30.52555104308152
 21
-24.64359168464716
 31
0.0
  0
LINE
  5
250
330
8C
100
AcDbEntity
  8
LAYER0014
  6
CONTINUOUS
 62
     7
100
AcDbLine
 10
51.52555104308152
 20
-6.60490809772794
 30
0.0
 11
51.52555104308152
 21
-24.64359168464716
 31
0.0
  0
LINE
  5
251
330
8C
100
AcDbEntity
  8
LAYER0014
  6
CONTINUOUS
 62
     7
100
AcDbLine
 10
58.52555104308152
 20
-6.517632773086849
 30
0.0
 11
58.52555104308152
 21
-24.64359168464716
 31
0.0
  0
LINE
  5
252
330
8C
100
AcDbEntity
  8
LAYER0014
  6
CONTINUOUS
 62
     7
100
AcDbLine
 10
2.525551043081521
 20
-23.64359168464716
 30
0.0
 11
23.52555104308152
 21
-23.64359168464716
 31
0.0
  0
INSERT
  5
253
330
8C
100
AcDbEntity
  8
LAYER0014
 62
     7
100
AcDbBlockReference
  2
_OPEN30
 10
2.525551043081521
 20
-23.64359168464716
 30
0.0
 41
3.000002787824364
 42
2.999989273978464
 50
180.0
  0
INSERT
  5
254
330
8C
100
AcDbEntity
  8
LAYER0014
 62
     7
100
AcDbBlockReference
  2
_OPEN30
 10
23.52555104308152
 20
-23.64359168464716
 30
0.0
 41
3.000002787824364
 42
2.999989273978464
 50
360.0
  0
LINE
  5
255
330
8C
100
AcDbEntity
  8
LAYER0014
  6
CONTINUOUS
 62
     7
100
AcDbLine
 10
23.52555104308152
 20
-23.64359168464716
 30
0.0
 11
30.52555104308152
 21
-23.64359168464716
 31
0.0
  0
INSERT
  5
256
330
8C
100
AcDbEntity
  8
LAYER0014
 62
     7
100
AcDbBlockReference
  2
_OPEN30
 10
23.52555104308152
 20
-23.64359168464716
 30
0.0
 41
3.000002787824364
 42
2.999989273978464
 50
180.0
  0
INSERT
  5
257
330
8C
100
AcDbEntity
  8
LAYER0014
 62
     7
100
AcDbBlockReference
  2
_OPEN30
 10
30.52555104308152
 20
-23.64359168464716
 30
0.0
 41
3.000002787824364
 42
2.999989273978464
 50
360.0
  0
LINE
  5
258
330
8C
100
AcDbEntity
  8
LAYER0014
  6
CONTINUOUS
 62
     7
100
AcDbLine
 10
30.52555104308152
 20
-23.64359168464716
 30
0.0
 11
51.52555104308152
 21
-23.64359168464716
 31
0.0
  0
INSERT
  5
259
330
8C
100
AcDbEntity
  8
LAYER0014
 62
     7
100
AcDbBlockReference
  2
_OPEN30
 10
30.52555104308152
 20
-23.64359168464716
 30
0.0
 41
3.000002787824364
 42
2.999989273978464
 50
180.0
  0
INSERT
  5
25A
330
8C
100
AcDbEntity
  8
LAYER0014
 62
     7
100
AcDbBlockReference
  2
_OPEN30
 10
51.52555104308152
 20
-23.64359168464716
 30
0.0
 41
3.000002787824364
 42
2.999989273978464
 50
360.0
  0
LINE
  5
25B
330
8C
100
AcDbEntity
  8
LAYER0014
  6
CONTINUOUS
 62
     7
100
AcDbLine
 10
51.52555104308152
 20
-23.64359168464716
 30
0.0
 11
58.52555104308152
 21
-23.64359168464716
 31
0.0
  0
INSERT
  5
25C
330
8C
100
AcDbEntity
  8
LAYER0014
 62
     7
100
AcDbBlockReference
  2
_OPEN30
 10
51.52555104308152
 20
-23.64359168464716
 30
0.0
 41
3.000002787824364
 42
2.999989273978464
 50
180.0
  0
INSERT
  5
25D
330
8C
100
AcDbEntity
  8
LAYER0014
 62
     7
100
AcDbBlockReference
  2
_OPEN30
 10
58.52555104308152
 20
-23.64359168464716
 30
0.0
 41
3.000002787824364
 42
2.999989273978464
 50
360.0
  0
TEXT
  5
25E
330
8C
100
AcDbEntity
  8
LAYER0014
 62
     7
100
AcDbText
 10
7.025551043081521
 20
-22.64359168464716
 30
0.0
 40
3.0
  1
(21)
  7
FDASTYLE0
 72
     5
 11
19.02555104308152
 21
-22.64359168464716
 31
0.0
100
AcDbText
  0
TEXT
  5
25F
330
8C
100
AcDbEntity
  8
LAYER0014
 62
     7
100
AcDbText
 10
22.52555104308152
 20
-22.64359168464716
 30
0.0
 40
3.0
  1
(7)
  7
FDASTYLE0
 72
     5
 11
31.52555104308152
 21
-22.64359168464716
 31
0.0
100
AcDbText
  0
TEXT
  5
260
330
8C
100
AcDbEntity
  8
LAYER0014
 62
     7
100
AcDbText
 10
35.02555104308152
 20
-22.64359168464716
 30
0.0
 40
3.0
  1
(21)
  7
FDASTYLE0
 72
     5
 11
47.02555104308152
 21
-22.64359168464716
 31
0.0
100
AcDbText
  0
TEXT
  5
261
330
8C
100
AcDbEntity
  8
LAYER0014
 62
     7
100
AcDbText
 10
50.52555104308152
 20
-22.64359168464716
 30
0.0
 40
3.0
  1
(7)
  7
FDASTYLE0
 72
     5
 11
59.52555104308152
 21
-22.64359168464716
 31
0.0
100
AcDbText
  0
ENDBLK
  5
8E
330
8C
100
AcDbEntity
  8
0
100
AcDbBlockEnd
  0
BLOCK
  5
90
330
8F
100
AcDbEntity
  8
0
100
AcDbBlockBegin
  2
DA_IMAGEDIMGROUP_5
 70
     0
 71
     0
 10
0.0
 20
0.0
 30
0.0
  3
DA_IMAGEDIMGROUP_5
  1

  0
LINE
  5
262
330
8F
100
AcDbEntity
  8
LAYER0014
  6
CONTINUOUS
 62
     7
100
AcDbLine
 10
-19.47444895691848
 20
-10.21159126796136
 30
0.0
 11
-19.47444895691848
 21
-30.64359168464716
 31
0.0
  0
LINE
  5
263
330
8F
100
AcDbEntity
  8
LAYER0014
  6
CONTINUOUS
 62
     7
100
AcDbLine
 10
143.5255510430815
 20
-3.615675145966844
 30
0.0
 11
143.5255510430815
 21
-30.64359168464716
 31
0.0
  0
LINE
  5
264
330
8F
100
AcDbEntity
  8
LAYER0014
  6
CONTINUOUS
 62
     7
100
AcDbLine
 10
-19.47444895691848
 20
-29.64359168464716
 30
0.0
 11
143.5255510430815
 21
-29.64359168464716
 31
0.0
  0
INSERT
  5
265
330
8F
100
AcDbEntity
  8
LAYER0014
 62
     7
100
AcDbBlockReference
  2
_OPEN30
 10
-19.47444895691848
 20
-29.64359168464716
 30
0.0
 41
3.000002787824364
 42
2.999989273978464
 50
180.0
  0
INSERT
  5
266
330
8F
100
AcDbEntity
  8
LAYER0014
 62
     7
100
AcDbBlockReference
  2
_OPEN30
 10
143.5255510430815
 20
-29.64359168464716
 30
0.0
 41
3.000002787824364
 42
2.999989273978464
 50
360.0
  0
TEXT
  5
267
330
8F
100
AcDbEntity
  8
LAYER0014
 62
     7
100
AcDbText
 10
57.52555104308152
 20
-28.64359168464716
 30
0.0
 40
3.0
  1
163
  7
FDASTYLE0
 72
     5
 11
66.52555104308152
 21
-28.64359168464716
 31
0.0
100
AcDbText
  0
TEXT
  5
268
330
8F
100
AcDbEntity
  8
LAYER0014
 62
     7
100
AcDbText
 10
67.52555104308152
 20
-28.64359168464716
 30
0.0
 40
3.0
  1
±1
 41
0.9090909090909092
  7
FDASTYLE0
 72
     5
 11
73.52555104308152
 21
-28.64359168464716
 31
0.0
100
AcDbText
  0
ENDBLK
  5
91
330
8F
100
AcDbEntity
  8
0
100
AcDbBlockEnd
  0
BLOCK
  5
93
330
92
100
AcDbEntity
  8
0
100
AcDbBlockBegin
  2
DC_GROUP_20
 70
     0
 71
     0
 10
0.0
 20
0.0
 30
0.0
  3
DC_GROUP_20
  1

  0
LINE
  5
269
330
92
100
AcDbEntity
  8
LAYER0014
  6
CONTINUOUS
 62
     4
100
AcDbLine
 10
78.12155969489976
 20
60.35940937299259
 30
0.0
 11
79.57169680815071
 21
61.80954648624353
 31
0.0
  0
LINE
  5
26A
330
92
100
AcDbEntity
  8
LAYER0014
  6
CONTINUOUS
 62
     4
100
AcDbLine
 10
76.73160783253138
 20
60.38367107299733
 30
0.0
 11
78.18174494578233
 21
61.83380818624828
 31
0.0
  0
LINE
  5
26B
330
92
100
AcDbEntity
  8
LAYER0014
  6
CONTINUOUS
 62
     4
100
AcDbLine
 10
75.341655970163
 20
60.40793277300206
 30
0.0
 11
76.79179308341395
 21
61.85806988625301
 31
0.0
  0
LINE
  5
26C
330
92
100
AcDbEntity
  8
LAYER0014
  6
CONTINUOUS
 62
     4
100
AcDbLine
 10
73.95170410779463
 20
60.4321944730068
 30
0.0
 11
75.40184122104563
 21
61.88233158625775
 31
0.0
  0
LINE
  5
26D
330
92
100
AcDbEntity
  8
LAYER0014
  6
CONTINUOUS
 62
     4
100
AcDbLine
 10
72.56175224542631
 20
60.45645617301153
 30
0.0
 11
74.01188935867725
 21
61.90659328626249
 31
0.0
  0
LINE
  5
26E
330
92
100
AcDbEntity
  8
LAYER0014
  6
CONTINUOUS
 62
     4
100
AcDbLine
 10
71.17180038305793
 20
60.48071787301628
 30
0.0
 11
72.62193749630887
 21
61.93085498626724
 31
0.0
  0
LINE
  5
26F
330
92
100
AcDbEntity
  8
LAYER0014
  6
CONTINUOUS
 62
     4
100
AcDbLine
 10
69.78184852068955
 20
60.50497957302102
 30
0.0
 11
71.23198563394055
 21
61.95511668627198
 31
0.0
  0
LINE
  5
270
330
92
100
AcDbEntity
  8
LAYER0014
  6
CONTINUOUS
 62
     4
100
AcDbLine
 10
68.39189665832117
 20
60.52924127302575
 30
0.0
 11
69.84203377157218
 21
61.97937838627671
 31
0.0
  0
LINE
  5
271
330
92
100
AcDbEntity
  8
LAYER0014
  6
CONTINUOUS
 62
     4
100
AcDbLine
 10
67.0019447959528
 20
60.55350297303049
 30
0.0
 11
68.4520819092038
 21
62.00364008628145
 31
0.0
  0
LINE
  5
272
330
92
100
AcDbEntity
  8
LAYER0014
  6
CONTINUOUS
 62
     4
100
AcDbLine
 10
65.61199293358447
 20
60.57776467303522
 30
0.0
 11
67.06213004683542
 21
62.02790178628619
 31
0.0
  0
LINE
  5
273
330
92
100
AcDbEntity
  8
LAYER0014
  6
CONTINUOUS
 62
     4
100
AcDbLine
 10
64.2220410712161
 20
60.60202637303996
 30
0.0
 11
65.67217818446704
 21
62.05216348629094
 31
0.0
  0
LINE
  5
274
330
92
100
AcDbEntity
  8
LAYER0014
  6
CONTINUOUS
 62
     4
100
AcDbLine
 10
62.83208920884772
 20
60.62628807304469
 30
0.0
 11
64.28222632209872
 21
62.07642518629568
 31
0.0
  0
LINE
  5
275
330
92
100
AcDbEntity
  8
LAYER0014
  6
CONTINUOUS
 62
     4
100
AcDbLine
 10
61.4421373464794
 20
60.65054977304943
 30
0.0
 11
62.89227445973035
 21
62.10068688630041
 31
0.0
  0
LINE
  5
276
330
92
100
AcDbEntity
  8
LAYER0014
  6
CONTINUOUS
 62
     4
100
AcDbLine
 10
60.05218548411102
 20
60.67481147305416
 30
0.0
 11
61.50232259736197
 21
62.12494858630515
 31
0.0
  0
LINE
  5
277
330
92
100
AcDbEntity
  8
LAYER0014
  6
CONTINUOUS
 62
     4
100
AcDbLine
 10
58.66223362174264
 20
60.69907317305891
 30
0.0
 11
60.11237073499365
 21
62.1492102863099
 31
0.0
  0
LINE
  5
278
330
92
100
AcDbEntity
  8
LAYER0014
  6
CONTINUOUS
 62
     4
100
AcDbLine
 10
57.27228175937427
 20
60.72333487306364
 30
0.0
 11
58.72241887262527
 21
62.17347198631464
 31
0.0
  0
LINE
  5
279
330
92
100
AcDbEntity
  8
LAYER0014
  6
CONTINUOUS
 62
     4
100
AcDbLine
 10
55.88232989700589
 20
60.74759657306838
 30
0.0
 11
58.36798012305206
 21
63.23324679911454
 31
0.0
  0
LINE
  5
27A
330
92
100
AcDbEntity
  8
LAYER0014
  6
CONTINUOUS
 62
     4
100
AcDbLine
 10
54.49237803463757
 20
60.77185827307312
 30
0.0
 11
57.41700630113837
 21
63.69648653957393
 31
0.0
  0
LINE
  5
27B
330
92
100
AcDbEntity
  8
LAYER0014
  6
CONTINUOUS
 62
     4
100
AcDbLine
 10
53.10242617226919
 20
60.79611997307785
 30
0.0
 11
56.02705443876999
 21
63.72074823957867
 31
0.0
  0
LINE
  5
27C
330
92
100
AcDbEntity
  8
LAYER0014
  6
CONTINUOUS
 62
     4
100
AcDbLine
 10
51.71247430990081
 20
60.82038167308259
 30
0.0
 11
54.63710257640162
 21
63.74500993958341
 31
0.0
  0
LINE
  5
27D
330
92
100
AcDbEntity
  8
LAYER0014
  6
CONTINUOUS
 62
     4
100
AcDbLine
 10
50.32252244753244
 20
60.84464337308732
 30
0.0
 11
53.2471507140333
 21
63.76927163958814
 31
0.0
  0
LINE
  5
27E
330
92
100
AcDbEntity
  8
LAYER0014
  6
CONTINUOUS
 62
     4
100
AcDbLine
 10
48.93257058516412
 20
60.86890507309207
 30
0.0
 11
50.38270769841512
 21
62.31904218634307
 31
0.0
  0
LINE
  5
27F
330
92
100
AcDbEntity
  8
LAYER0014
  6
CONTINUOUS
 62
     4
100
AcDbLine
 10
47.54261872279574
 20
60.89316677309679
 30
0.0
 11
48.99275583604674
 21
62.34330388634781
 31
0.0
  0
LINE
  5
280
330
92
100
AcDbEntity
  8
LAYER0014
  6
CONTINUOUS
 62
     4
100
AcDbLine
 10
46.15266686042736
 20
60.91742847310154
 30
0.0
 11
47.60280397367836
 21
62.36756558635256
 31
0.0
  0
LINE
  5
281
330
92
100
AcDbEntity
  8
LAYER0014
  6
CONTINUOUS
 62
     4
100
AcDbLine
 10
44.76271499805898
 20
60.94169017310627
 30
0.0
 11
46.21285211131004
 21
62.3918272863573
 31
0.0
  0
LINE
  5
282
330
92
100
AcDbEntity
  8
LAYER0014
  6
CONTINUOUS
 62
     4
100
AcDbLine
 10
43.37276313569066
 20
60.96595187311101
 30
0.0
 11
44.82290024894166
 21
62.41608898636203
 31
0.0
  0
LINE
  5
283
330
92
100
AcDbEntity
  8
LAYER0014
  6
CONTINUOUS
 62
     4
100
AcDbLine
 10
41.98281127332228
 20
60.99021357311574
 30
0.0
 11
43.43294838657329
 21
62.44035068636677
 31
0.0
  0
LINE
  5
284
330
92
100
AcDbEntity
  8
LAYER0014
  6
CONTINUOUS
 62
     4
100
AcDbLine
 10
40.59285941095391
 20
61.01447527312048
 30
0.0
 11
42.04299652420491
 21
62.46461238637151
 31
0.0
  0
LINE
  5
285
330
92
100
AcDbEntity
  8
LAYER0014
  6
CONTINUOUS
 62
     4
100
AcDbLine
 10
39.20290754858553
 20
61.03873697312523
 30
0.0
 11
40.65304466183659
 21
62.48887408637626
 31
0.0
  0
LINE
  5
286
330
92
100
AcDbEntity
  8
LAYER0014
  6
CONTINUOUS
 62
     4
100
AcDbLine
 10
37.81295568621715
 20
61.06299867312995
 30
0.0
 11
39.26309279946821
 21
62.513135786381
 31
0.0
  0
LINE
  5
287
330
92
100
AcDbEntity
  8
LAYER0014
  6
CONTINUOUS
 62
     4
100
AcDbLine
 10
36.42300382384883
 20
61.0872603731347
 30
0.0
 11
37.87314093709983
 21
62.53739748638573
 31
0.0
  0
LINE
  5
288
330
92
100
AcDbEntity
  8
LAYER0014
  6
CONTINUOUS
 62
     4
100
AcDbLine
 10
35.03305196148045
 20
61.11152207313943
 30
0.0
 11
36.48318907473151
 21
62.56165918639047
 31
0.0
  0
LINE
  5
289
330
92
100
AcDbEntity
  8
LAYER0014
  6
CONTINUOUS
 62
     4
100
AcDbLine
 10
33.64310009911208
 20
61.13578377314417
 30
0.0
 11
35.09323721236314
 21
62.58592088639522
 31
0.0
  0
LINE
  5
28A
330
92
100
AcDbEntity
  8
LAYER0014
  6
CONTINUOUS
 62
     4
100
AcDbLine
 10
32.25314823674376
 20
61.1600454731489
 30
0.0
 11
33.70328534999476
 21
62.61018258639996
 31
0.0
  0
LINE
  5
28B
330
92
100
AcDbEntity
  8
LAYER0014
  6
CONTINUOUS
 62
     4
100
AcDbLine
 10
30.86319637437538
 20
61.18430717315364
 30
0.0
 11
32.31333348762644
 21
62.63444428640469
 31
0.0
  0
LINE
  5
28C
330
92
100
AcDbEntity
  8
LAYER0014
  6
CONTINUOUS
 62
     4
100
AcDbLine
 10
29.473244512007
 20
61.20856887315837
 30
0.0
 11
30.92338162525806
 21
62.65870598640943
 31
0.0
  0
LINE
  5
28D
330
92
100
AcDbEntity
  8
LAYER0014
  6
CONTINUOUS
 62
     4
100
AcDbLine
 10
28.08329264963862
 20
61.23283057316311
 30
0.0
 11
30.43949157649195
 21
63.58902950001641
 31
0.0
  0
LINE
  5
28E
330
92
100
AcDbEntity
  8
LAYER0014
  6
CONTINUOUS
 62
     4
100
AcDbLine
 10
26.6933407872703
 20
61.25709227316784
 30
0.0
 11
29.6153865082436
 21
64.17913799414116
 31
0.0
  0
LINE
  5
28F
330
92
100
AcDbEntity
  8
LAYER0014
  6
CONTINUOUS
 62
     4
100
AcDbLine
 10
25.30338892490192
 20
61.28135397317259
 30
0.0
 11
28.22801719140279
 21
64.20598223967348
 31
0.0
  0
LINE
  5
290
330
92
100
AcDbEntity
  8
LAYER0014
  6
CONTINUOUS
 62
     4
100
AcDbLine
 10
23.91343706253355
 20
61.30561567317733
 30
0.0
 11
26.83806532903446
 21
64.2302439396782
 31
0.0
  0
LINE
  5
291
330
92
100
AcDbEntity
  8
LAYER0014
  6
CONTINUOUS
 62
     4
100
AcDbLine
 10
22.52348520016517
 20
61.32987737318206
 30
0.0
 11
25.44811346666609
 21
64.25450563968295
 31
0.0
  0
LINE
  5
292
330
92
100
AcDbEntity
  8
LAYER0014
  6
CONTINUOUS
 62
     4
100
AcDbLine
 10
21.13353333779685
 20
61.3541390731868
 30
0.0
 11
22.58367045104791
 21
62.80427618643788
 31
0.0
  0
LINE
  5
293
330
92
100
AcDbEntity
  8
LAYER0014
  6
CONTINUOUS
 62
     4
100
AcDbLine
 10
19.74358147542847
 20
61.37840077319153
 30
0.0
 11
21.19371858867953
 21
62.82853788644262
 31
0.0
  0
LINE
  5
294
330
92
100
AcDbEntity
  8
LAYER0014
  6
CONTINUOUS
 62
     4
100
AcDbLine
 10
18.35362961306009
 20
61.40266247319627
 30
0.0
 11
19.80376672631121
 21
62.85279958644736
 31
0.0
  0
LINE
  5
295
330
92
100
AcDbEntity
  8
LAYER0014
  6
CONTINUOUS
 62
     4
100
AcDbLine
 10
16.96367775069172
 20
61.426924173201
 30
0.0
 11
18.41381486394283
 21
62.8770612864521
 31
0.0
  0
LINE
  5
296
330
92
100
AcDbEntity
  8
LAYER0014
  6
CONTINUOUS
 62
     4
100
AcDbLine
 10
15.5737258883234
 20
61.45118587320575
 30
0.0
 11
17.02386300157446
 21
62.90132298645683
 31
0.0
  0
LINE
  5
297
330
92
100
AcDbEntity
  8
LAYER0014
  6
CONTINUOUS
 62
     4
100
AcDbLine
 10
14.18377402595502
 20
61.47544757321047
 30
0.0
 11
15.63391113920613
 21
62.92558468646158
 31
0.0
  0
LINE
  5
298
330
92
100
AcDbEntity
  8
LAYER0014
  6
CONTINUOUS
 62
     4
100
AcDbLine
 10
12.79382216358664
 20
61.49970927321522
 30
0.0
 11
14.24395927683776
 21
62.94984638646632
 31
0.0
  0
LINE
  5
299
330
92
100
AcDbEntity
  8
LAYER0014
  6
CONTINUOUS
 62
     4
100
AcDbLine
 10
11.40387030121826
 20
61.52397097321995
 30
0.0
 11
12.85400741446938
 21
62.97410808647106
 31
0.0
  0
LINE
  5
29A
330
92
100
AcDbEntity
  8
LAYER0014
  6
CONTINUOUS
 62
     4
100
AcDbLine
 10
10.01391843884994
 20
61.54823267322469
 30
0.0
 11
11.46405555210106
 21
62.99836978647581
 31
0.0
  0
LINE
  5
29B
330
92
100
AcDbEntity
  8
LAYER0014
  6
CONTINUOUS
 62
     4
100
AcDbLine
 10
8.623966576481564
 20
61.57249437322943
 30
0.0
 11
10.07410368973268
 21
63.02263148648055
 31
0.0
  0
LINE
  5
29C
330
92
100
AcDbEntity
  8
LAYER0014
  6
CONTINUOUS
 62
     4
100
AcDbLine
 10
7.234014714113187
 20
61.59675607323416
 30
0.0
 11
8.684151827364303
 21
63.04689318648528
 31
0.0
  0
LINE
  5
29D
330
92
100
AcDbEntity
  8
LAYER0014
  6
CONTINUOUS
 62
     4
100
AcDbLine
 10
5.844062851744866
 20
61.6210177732389
 30
0.0
 11
7.294199964995983
 21
63.07115488649002
 31
0.0
  0
LINE
  5
29E
330
92
100
AcDbEntity
  8
LAYER0014
  6
CONTINUOUS
 62
     4
100
AcDbLine
 10
4.454110989376488
 20
61.64527947324363
 30
0.0
 11
5.904248102627605
 21
63.09541658649476
 31
0.0
  0
LINE
  5
29F
330
92
100
AcDbEntity
  8
LAYER0014
  6
CONTINUOUS
 62
     4
100
AcDbLine
 10
3.064159127008111
 20
61.66954117324838
 30
0.0
 11
4.514296240259284
 21
63.11967828649951
 31
0.0
  0
LINE
  5
2A0
330
92
100
AcDbEntity
  8
LAYER0014
  6
CONTINUOUS
 62
     4
100
AcDbLine
 10
1.67420726463979
 20
61.69380287325311
 30
0.0
 11
3.124344377890907
 21
63.14393998650425
 31
0.0
  0
LINE
  5
2A1
330
92
100
AcDbEntity
  8
LAYER0014
  6
CONTINUOUS
 62
     4
100
AcDbLine
 10
0.3380058159873649
 20
61.7718149869738
 30
0.0
 11
2.525551043081521
 21
63.95936021406793
 31
0.0
  0
LINE
  5
2A2
330
92
100
AcDbEntity
  8
LAYER0014
  6
CONTINUOUS
 62
     4
100
AcDbLine
 10
-1.01861243064231
 20
61.82941030271723
 30
0.0
 11
2.082963180304148
 21
64.93098591366366
 31
0.0
  0
LINE
  5
2A3
330
92
100
AcDbEntity
  8
LAYER0014
  6
CONTINUOUS
 62
     4
100
AcDbLine
 10
-2.375230677271946
 20
61.88700561846066
 30
0.0
 11
1.226161755153669
 21
65.48839805088629
 31
0.0
  0
LINE
  5
2A4
330
92
100
AcDbEntity
  8
LAYER0014
  6
CONTINUOUS
 62
     4
100
AcDbLine
 10
-3.731848923901621
 20
61.94460093420409
 30
0.0
 11
-0.1880518072194377
 21
65.48839805088629
 31
0.0
  0
LINE
  5
2A5
330
92
100
AcDbEntity
  8
LAYER0014
  6
CONTINUOUS
 62
     4
100
AcDbLine
 10
-5.088467170531255
 20
62.00219624994752
 30
0.0
 11
-1.602265369592487
 21
65.48839805088629
 31
0.0
  0
LINE
  5
2A6
330
92
100
AcDbEntity
  8
LAYER0014
  6
CONTINUOUS
 62
     4
100
AcDbLine
 10
-6.44508541716093
 20
62.05979156569095
 30
0.0
 11
-3.016478931965594
 21
65.48839805088629
 31
0.0
  0
LINE
  5
2A7
330
92
100
AcDbEntity
  8
LAYER0014
  6
CONTINUOUS
 62
     4
100
AcDbLine
 10
-7.80170366379058
 20
62.11738688143439
 30
0.0
 11
-4.4306924943387
 21
65.48839805088629
 31
0.0
  0
LINE
  5
2A8
330
92
100
AcDbEntity
  8
LAYER0014
  6
CONTINUOUS
 62
     4
100
AcDbLine
 10
-8.902583002907903
 20
62.43072110469013
 30
0.0
 11
-5.844906056711807
 21
65.48839805088629
 31
0.0
  0
LINE
  5
2A9
330
92
100
AcDbEntity
  8
LAYER0014
  6
CONTINUOUS
 62
     4
100
AcDbLine
 10
-9.459015625142911
 20
63.28850204482826
 30
0.0
 11
-7.259119619084856
 21
65.48839805088629
 31
0.0
  0
LINE
  5
2AA
330
92
100
AcDbEntity
  8
LAYER0014
  6
CONTINUOUS
 62
     4
100
AcDbLine
 10
-10.77517424579258
 20
63.38655698655164
 30
0.0
 11
-8.673333181457963
 21
65.48839805088629
 31
0.0
  0
LINE
  5
2AB
330
92
100
AcDbEntity
  8
LAYER0014
  6
CONTINUOUS
 62
     4
100
AcDbLine
 10
-12.16512610816096
 20
63.41081868655638
 30
0.0
 11
-10.08754674383107
 21
65.48839805088629
 31
0.0
  0
LINE
  5
2AC
330
92
100
AcDbEntity
  8
LAYER0014
  6
CONTINUOUS
 62
     4
100
AcDbLine
 10
-13.55507797052928
 20
63.43508038656113
 30
0.0
 11
-11.50176030620418
 21
65.48839805088629
 31
0.0
  0
LINE
  5
2AD
330
92
100
AcDbEntity
  8
LAYER0014
  6
CONTINUOUS
 62
     4
100
AcDbLine
 10
-13.92444895691847
 20
64.47992296254505
 30
0.0
 11
-12.91597386857723
 21
65.48839805088629
 31
0.0
  0
LINE
  5
2AE
330
92
100
AcDbEntity
  8
LAYER0014
  6
CONTINUOUS
 62
     4
100
AcDbLine
 10
79.53011054551011
 20
60.35374666122988
 30
0.0
 11
80.82091512942714
 21
61.64455124514686
 31
0.0
  0
LINE
  5
2AF
330
92
100
AcDbEntity
  8
LAYER0014
  6
CONTINUOUS
 62
     4
100
AcDbLine
 10
79.35319845017011
 20
58.7626210035167
 30
0.0
 11
81.76231410998361
 21
61.17173666333025
 31
0.0
  0
LINE
  5
2B0
330
92
100
AcDbEntity
  8
LAYER0014
  6
CONTINUOUS
 62
     4
100
AcDbLine
 10
79.16343348336312
 20
57.15864247433663
 30
0.0
 11
82.79101842506054
 21
60.78622741603407
 31
0.0
  0
LINE
  5
2B1
330
92
100
AcDbEntity
  8
LAYER0014
  6
CONTINUOUS
 62
     4
100
AcDbLine
 10
78.98544227905461
 20
55.5664377076551
 30
0.0
 11
80.68594407887827
 21
57.26693950747875
 31
0.0
  0
LINE
  5
2B2
330
92
100
AcDbEntity
  8
LAYER0014
  6
CONTINUOUS
 62
     4
100
AcDbLine
 10
81.66747742985638
 20
58.24847285845684
 30
0.0
 11
84.19373424658915
 21
60.77472967518959
 31
0.0
  0
LINE
  5
2B3
330
92
100
AcDbEntity
  8
LAYER0014
  6
CONTINUOUS
 62
     4
100
AcDbLine
 10
78.8189448413645
 20
53.98572670759185
 30
0.0
 11
80.50593669702357
 21
55.67271856325097
 31
0.0
  0
LINE
  5
2B4
330
92
100
AcDbEntity
  8
LAYER0014
  6
CONTINUOUS
 62
     4
100
AcDbLine
 10
83.09424551143752
 20
58.26102737766486
 30
0.0
 11
85.59645006811775
 21
60.76323193434511
 31
0.0
  0
LINE
  5
2B5
330
92
100
AcDbEntity
  8
LAYER0014
  6
CONTINUOUS
 62
     4
100
AcDbLine
 10
78.66367345039595
 20
52.41624175425021
 30
0.0
 11
80.33753945164256
 21
54.09010775549685
 31
0.0
  0
LINE
  5
2B6
330
92
100
AcDbEntity
  8
LAYER0014
  6
CONTINUOUS
 62
     4
100
AcDbLine
 10
84.52090938078021
 20
58.27347768463446
 30
0.0
 11
86.99916588964641
 21
60.75173419350062
 31
0.0
  0
LINE
  5
2B7
330
92
100
AcDbEntity
  8
LAYER0014
  6
CONTINUOUS
 62
     4
100
AcDbLine
 10
78.51937192083966
 20
50.85772666232082
 30
0.0
 11
80.18047935972192
 21
52.51883410120307
 31
0.0
  0
LINE
  5
2B8
330
92
100
AcDbEntity
  8
LAYER0014
  6
CONTINUOUS
 62
     4
100
AcDbLine
 10
85.9475732501229
 20
58.28592799160407
 30
0.0
 11
88.40188171117495
 21
60.74023645265615
 31
0.0
  0
LINE
  5
2B9
330
92
100
AcDbEntity
  8
LAYER0014
  6
CONTINUOUS
 62
     4
100
AcDbLine
 10
78.38579491742263
 20
49.30993609653066
 30
0.0
 11
80.03449530271121
 21
50.9586364818192
 31
0.0
  0
LINE
  5
2BA
330
92
100
AcDbEntity
  8
LAYER0014
  6
CONTINUOUS
 62
     4
100
AcDbLine
 10
87.37423711946565
 20
58.29837829857368
 30
0.0
 11
89.80459753270361
 21
60.72873871181167
 31
0.0
  0
LINE
  5
2BB
330
92
100
AcDbEntity
  8
LAYER0014
  6
CONTINUOUS
 62
     4
100
AcDbLine
 10
78.26270732195587
 20
47.77263493869084
 30
0.0
 11
79.89933731628901
 21
49.40926493302402
 31
0.0
  0
LINE
  5
2BC
330
92
100
AcDbEntity
  8
LAYER0014
  6
CONTINUOUS
 62
     4
100
AcDbLine
 10
88.80090098880828
 20
58.31082860554328
 30
0.0
 11
91.20731335423221
 21
60.71724097096718
 31
0.0
  0
LINE
  5
2BD
330
92
100
AcDbEntity
  8
LAYER0014
  6
CONTINUOUS
 62
     4
100
AcDbLine
 10
78.14988364729913
 20
46.245597701661
 30
0.0
 11
79.77476593412035
 21
47.87047998848222
 31
0.0
  0
LINE
  5
2BE
330
92
100
AcDbEntity
  8
LAYER0014
  6
CONTINUOUS
 62
     4
100
AcDbLine
 10
90.22756485815103
 20
58.32327891251289
 30
0.0
 11
92.61002917576082
 21
60.70574323012271
 31
0.0
  0
LINE
  5
2BF
330
92
100
AcDbEntity
  8
LAYER0014
  6
CONTINUOUS
 62
     4
100
AcDbLine
 10
78.04710749405456
 20
44.72860798604332
 30
0.0
 11
79.66055158066274
 21
46.34205207265148
 31
0.0
  0
LINE
  5
2C0
330
92
100
AcDbEntity
  8
LAYER0014
  6
CONTINUOUS
 62
     4
100
AcDbLine
 10
91.65422872749372
 20
58.33572921948249
 30
0.0
 11
94.01274499728947
 21
60.69424548927823
 31
0.0
  0
LINE
  5
2C1
330
92
100
AcDbEntity
  8
LAYER0014
  6
CONTINUOUS
 62
     4
100
AcDbLine
 10
77.95417104623516
 20
43.22145797585078
 30
0.0
 11
79.55647400860772
 21
44.82376093822333
 31
0.0
  0
LINE
  5
2C2
330
92
100
AcDbEntity
  8
LAYER0014
  6
CONTINUOUS
 62
     4
100
AcDbLine
 10
93.08089259683641
 20
58.3481795264521
 30
0.0
 11
95.41546081881808
 21
60.68274774843374
 31
0.0
  0
LINE
  5
2C3
330
92
100
AcDbEntity
  8
LAYER0014
  6
CONTINUOUS
 62
     4
100
AcDbLine
 10
77.87087460254116
 20
41.72394796978368
 30
0.0
 11
79.46232177700642
 21
43.31539514424897
 31
0.0
  0
LINE
  5
2C4
330
92
100
AcDbEntity
  8
LAYER0014
  6
CONTINUOUS
 62
     4
100
AcDbLine
 10
94.50755646617915
 20
58.36062983342171
 30
0.0
 11
96.81817664034668
 21
60.67125000758927
 31
0.0
  0
LINE
  5
2C5
330
92
100
AcDbEntity
  8
LAYER0014
  6
CONTINUOUS
 62
     4
100
AcDbLine
 10
77.79702614021204
 20
40.23588594508146
 30
0.0
 11
79.37789176653251
 21
41.81675157140195
 31
0.0
  0
LINE
  5
2C6
330
92
100
AcDbEntity
  8
LAYER0014
  6
CONTINUOUS
 62
     4
100
AcDbLine
 10
95.93422033552184
 20
58.37308014039131
 30
0.0
 11
98.22089246187534
 21
60.65975226674479
 31
0.0
  0
LINE
  5
2C7
330
92
100
AcDbEntity
  8
LAYER0014
  6
CONTINUOUS
 62
     4
100
AcDbLine
 10
77.73244090872663
 20
38.75708715122299
 30
0.0
 11
79.30298872869935
 21
40.32763497119565
 31
0.0
  0
LINE
  5
2C8
330
92
100
AcDbEntity
  8
LAYER0014
  6
CONTINUOUS
 62
     4
100
AcDbLine
 10
97.36088420486453
 20
58.38553044736092
 30
0.0
 11
99.62360828340394
 21
60.6482545259003
 31
0.0
  0
LINE
  5
2C9
330
92
100
AcDbEntity
  8
LAYER0014
  6
CONTINUOUS
 62
     4
100
AcDbLine
 10
77.67694105088719
 20
37.28737373101039
 30
0.0
 11
79.23742486616379
 21
38.847857546287
 31
0.0
  0
LINE
  5
2CA
330
92
100
AcDbEntity
  8
LAYER0014
  6
CONTINUOUS
 62
     4
100
AcDbLine
 10
98.78754807420728
 20
58.39798075433052
 30
0.0
 11
101.0263241049325
 21
60.63675678505582
 31
0.0
  0
LINE
  5
2CB
330
92
100
AcDbEntity
  8
LAYER0014
  6
CONTINUOUS
 62
     4
100
AcDbLine
 10
77.63035524906155
 20
35.82657436681167
 30
0.0
 11
79.18101944153233
 21
37.37723855928248
 31
0.0
  0
LINE
  5
2CC
330
92
100
AcDbEntity
  8
LAYER0014
  6
CONTINUOUS
 62
     4
100
AcDbLine
 10
100.21421194355
 20
58.41043106130013
 30
0.0
 11
102.4290399264612
 21
60.62525904421135
 31
0.0
  0
LINE
  5
2CD
330
92
100
AcDbEntity
  8
LAYER0014
  6
CONTINUOUS
 62
     4
100
AcDbLine
 10
77.59251839456852
 20
34.37452394994554
 30
0.0
 11
79.13359841233427
 21
35.91560396771128
 31
0.0
  0
LINE
  5
2CE
330
92
100
AcDbEntity
  8
LAYER0014
  6
CONTINUOUS
 62
     4
100
AcDbLine
 10
101.6408758128927
 20
58.42288136826974
 30
0.0
 11
103.8317557479898
 21
60.61376130336686
 31
0.0
  0
LINE
  5
2CF
330
92
100
AcDbEntity
  8
LAYER0014
  6
CONTINUOUS
 62
     4
100
AcDbLine
 10
77.56327127837926
 20
32.93106327138315
 30
0.0
 11
79.0949940900515
 21
34.46278608305545
 31
0.0
  0
LINE
  5
2D0
330
92
100
AcDbEntity
  8
LAYER0014
  6
CONTINUOUS
 62
     4
100
AcDbLine
 10
103.0675396822354
 20
58.43533167523934
 30
0.0
 11
105.2344715695184
 21
60.60226356252238
 31
0.0
  0
LINE
  5
2D1
330
92
100
AcDbEntity
  8
LAYER0014
  6
CONTINUOUS
 62
     4
100
AcDbLine
 10
77.5424603014759
 20
31.49603873210677
 30
0.0
 11
79.06504482129185
 21
33.01862325192273
 31
0.0
  0
LINE
  5
2D2
330
92
100
AcDbEntity
  8
LAYER0014
  6
CONTINUOUS
 62
     4
100
AcDbLine
 10
104.494203551578
 20
58.44778198220895
 30
0.0
 11
106.637187391047
 21
60.59076582167789
 31
0.0
  0
LINE
  5
2D3
330
92
100
AcDbEntity
  8
LAYER0014
  6
CONTINUOUS
 62
     4
100
AcDbLine
 10
77.52993720336013
 20
30.06930207161786
 30
0.0
 11
79.04359468937025
 21
31.58295955762801
 31
0.0
  0
LINE
  5
2D4
330
92
100
AcDbEntity
  8
LAYER0014
  6
CONTINUOUS
 62
     4
100
AcDbLine
 10
105.9208674209208
 20
58.46023228917855
 30
0.0
 11
108.0399032125756
 21
60.57926808083342
 31
0.0
  0
LINE
  5
2D5
330
92
100
AcDbEntity
  8
LAYER0014
  6
CONTINUOUS
 62
     4
100
AcDbLine
 10
77.52555880733684
 20
28.65071011322145
 30
0.0
 11
79.03049323472106
 21
30.15564454060568
 31
0.0
  0
LINE
  5
2D6
330
92
100
AcDbEntity
  8
LAYER0014
  6
CONTINUOUS
 62
     4
100
AcDbLine
 10
107.3475312902635
 20
58.47268259614816
 30
0.0
 11
109.4426190341043
 21
60.56777033998894
 31
0.0
  0
LINE
  5
2D7
330
92
100
AcDbEntity
  8
LAYER0014
  6
CONTINUOUS
 62
     4
100
AcDbLine
 10
78.87746564795094
 20
28.58840339146247
 30
0.0
 11
79.02559519270727
 21
28.7365329362188
 31
0.0
  0
LINE
  5
2D8
330
92
100
AcDbEntity
  8
LAYER0014
  6
CONTINUOUS
 62
     4
100
AcDbLine
 10
108.7741951596062
 20
58.48513290311777
 30
0.0
 11
110.8453348556329
 21
60.55627259914445
 31
0.0
  0
LINE
  5
2D9
330
92
100
AcDbEntity
  8
LAYER0014
  6
CONTINUOUS
 62
     4
100
AcDbLine
 10
110.2008590289489
 20
58.49758321008737
 30
0.0
 11
112.2480506771615
 21
60.54477485829997
 31
0.0
  0
LINE
  5
2DA
330
92
100
AcDbEntity
  8
LAYER0014
  6
CONTINUOUS
 62
     4
100
AcDbLine
 10
111.6275228982916
 20
58.51003351705698
 30
0.0
 11
113.6507664986901
 21
60.5332771174555
 31
0.0
  0
LINE
  5
2DB
330
92
100
AcDbEntity
  8
LAYER0014
  6
CONTINUOUS
 62
     4
100
AcDbLine
 10
113.0541867676343
 20
58.52248382402658
 30
0.0
 11
115.0534823202187
 21
60.52177937661101
 31
0.0
  0
LINE
  5
2DC
330
92
100
AcDbEntity
  8
LAYER0014
  6
CONTINUOUS
 62
     4
100
AcDbLine
 10
114.480850636977
 20
58.53493413099619
 30
0.0
 11
116.4561981417473
 21
60.51028163576653
 31
0.0
  0
LINE
  5
2DD
330
92
100
AcDbEntity
  8
LAYER0014
  6
CONTINUOUS
 62
     4
100
AcDbLine
 10
115.9075145063197
 20
58.54738443796579
 30
0.0
 11
117.8589139632759
 21
60.49878389492206
 31
0.0
  0
LINE
  5
2DE
330
92
100
AcDbEntity
  8
LAYER0014
  6
CONTINUOUS
 62
     4
100
AcDbLine
 10
117.3341783756624
 20
58.5598347449354
 30
0.0
 11
119.2616297848045
 21
60.48728615407757
 31
0.0
  0
LINE
  5
2DF
330
92
100
AcDbEntity
  8
LAYER0014
  6
CONTINUOUS
 62
     4
100
AcDbLine
 10
118.7608422450051
 20
58.57228505190501
 30
0.0
 11
120.6643456063331
 21
60.47578841323309
 31
0.0
  0
LINE
  5
2E0
330
92
100
AcDbEntity
  8
LAYER0014
  6
CONTINUOUS
 62
     4
100
AcDbLine
 10
120.1875061143478
 20
58.58473535887461
 30
0.0
 11
122.0670614278617
 21
60.46429067238861
 31
0.0
  0
LINE
  5
2E1
330
92
100
AcDbEntity
  8
LAYER0014
  6
CONTINUOUS
 62
     4
100
AcDbLine
 10
121.6141699836904
 20
58.59718566584422
 30
0.0
 11
123.4697772493904
 21
60.45279293154412
 31
0.0
  0
LINE
  5
2E2
330
92
100
AcDbEntity
  8
LAYER0014
  6
CONTINUOUS
 62
     4
100
AcDbLine
 10
123.0408338530332
 20
58.60963597281382
 30
0.0
 11
124.872493070919
 21
60.44129519069965
 31
0.0
  0
LINE
  5
2E3
330
92
100
AcDbEntity
  8
LAYER0014
  6
CONTINUOUS
 62
     4
100
AcDbLine
 10
124.4674977223759
 20
58.62208627978343
 30
0.0
 11
126.2752088924476
 21
60.42979744985517
 31
0.0
  0
LINE
  5
2E4
330
92
100
AcDbEntity
  8
LAYER0014
  6
CONTINUOUS
 62
     4
100
AcDbLine
 10
125.8941615917186
 20
58.63453658675304
 30
0.0
 11
127.6779247139762
 21
60.41829970901068
 31
0.0
  0
LINE
  5
2E5
330
92
100
AcDbEntity
  8
LAYER0014
  6
CONTINUOUS
 62
     4
100
AcDbLine
 10
127.3208254610613
 20
58.64698689372264
 30
0.0
 11
129.0806405355048
 21
60.40680196816621
 31
0.0
  0
LINE
  5
2E6
330
92
100
AcDbEntity
  8
LAYER0014
  6
CONTINUOUS
 62
     4
100
AcDbLine
 10
128.7474893304041
 20
58.65943720069225
 30
0.0
 11
130.4833563570335
 21
60.39530422732173
 31
0.0
  0
LINE
  5
2E7
330
92
100
AcDbEntity
  8
LAYER0014
  6
CONTINUOUS
 62
     4
100
AcDbLine
 10
130.1741531997467
 20
58.67188750766185
 30
0.0
 11
131.8860721785621
 21
60.38380648647724
 31
0.0
  0
LINE
  5
2E8
330
92
100
AcDbEntity
  8
LAYER0014
  6
CONTINUOUS
 62
     4
100
AcDbLine
 10
131.6008170690894
 20
58.68433781463146
 30
0.0
 11
133.2887880000907
 21
60.37230874563277
 31
0.0
  0
LINE
  5
2E9
330
92
100
AcDbEntity
  8
LAYER0014
  6
CONTINUOUS
 62
     4
100
AcDbLine
 10
133.0274809384322
 20
58.69678812160107
 30
0.0
 11
134.6915038216193
 21
60.36081100478829
 31
0.0
  0
LINE
  5
2EA
330
92
100
AcDbEntity
  8
LAYER0014
  6
CONTINUOUS
 62
     4
100
AcDbLine
 10
134.4541448077749
 20
58.70923842857067
 30
0.0
 11
136.094219643148
 21
60.3493132639438
 31
0.0
  0
LINE
  5
2EB
330
92
100
AcDbEntity
  8
LAYER0014
  6
CONTINUOUS
 62
     4
100
AcDbLine
 10
135.8808086771176
 20
58.72168873554028
 30
0.0
 11
137.4969354646766
 21
60.33781552309932
 31
0.0
  0
LINE
  5
2EC
330
92
100
AcDbEntity
  8
LAYER0014
  6
CONTINUOUS
 62
     4
100
AcDbLine
 10
137.3074725464603
 20
58.73413904250988
 30
0.0
 11
138.8996512862052
 21
60.32631778225483
 31
0.0
  0
LINE
  5
2ED
330
92
100
AcDbEntity
  8
LAYER0014
  6
CONTINUOUS
 62
     4
100
AcDbLine
 10
138.7341364158031
 20
58.74658934947949
 30
0.0
 11
140.3023671077339
 21
60.31482004141036
 31
0.0
  0
LINE
  5
2EE
330
92
100
AcDbEntity
  8
LAYER0014
  6
CONTINUOUS
 62
     4
100
AcDbLine
 10
140.1608002851458
 20
58.7590396564491
 30
0.0
 11
141.7050829292625
 21
60.30332230056588
 31
0.0
  0
LINE
  5
2EF
330
92
100
AcDbEntity
  8
LAYER0014
  6
CONTINUOUS
 62
     4
100
AcDbLine
 10
141.5874641544884
 20
58.7714899634187
 30
0.0
 11
143.102499564465
 21
60.28652537339528
 31
0.0
  0
LINE
  5
2F0
330
92
100
AcDbEntity
  8
LAYER0014
  6
CONTINUOUS
 62
     4
100
AcDbLine
 10
143.0141280238312
 20
58.78394027038831
 30
0.0
 11
143.5255510430815
 21
59.29536328963864
 31
0.0
  0
ENDBLK
  5
94
330
92
100
AcDbEntity
  8
0
100
AcDbBlockEnd
  0
BLOCK
  5
96
330
95
100
AcDbEntity
  8
0
100
AcDbBlockBegin
  2
DC_GROUP_21
 70
     0
 71
     0
 10
0.0
 20
0.0
 30
0.0
  3
DC_GROUP_21
  1

  0
LINE
  5
2F1
330
95
100
AcDbEntity
  8
LAYER0014
  6
CONTINUOUS
 62
     4
100
AcDbLine
 10
-19.17132397628751
 20
63.57014324726841
 30
0.0
 11
-17.25306917266966
 21
65.48839805088629
 31
0.0
  0
LINE
  5
2F2
330
95
100
AcDbEntity
  8
LAYER0014
  6
CONTINUOUS
 62
     4
100
AcDbLine
 10
-19.47444895691848
 20
64.68123182901056
 30
0.0
 11
-18.66728273504276
 21
65.48839805088629
 31
0.0
  0
LINE
  5
2F3
330
95
100
AcDbEntity
  8
LAYER0014
  6
CONTINUOUS
 62
     4
100
AcDbLine
 10
-17.81776774779075
 20
63.50948591339207
 30
0.0
 11
-17.02444895691849
 21
64.30280470426435
 31
0.0
  0
ENDBLK
  5
97
330
95
100
AcDbEntity
  8
0
100
AcDbBlockEnd
  0
BLOCK
  5
99
330
98
100
AcDbEntity
  8
0
100
AcDbBlockBegin
  2
DA_IMAGEDIMGROUP_6
 70
     0
 71
     0
 10
0.0
 20
0.0
 30
0.0
  3
DA_IMAGEDIMGROUP_6
  1

  0
LINE
  5
2F4
330
98
100
AcDbEntity
  8
LAYER0014
  6
CONTINUOUS
 62
     7
100
AcDbLine
 10
144.5255510430815
 20
-3.111593556779678
 30
0.0
 11
162.0056039769084
 21
-3.111593556779678
 31
0.0
  0
LINE
  5
2F5
330
98
100
AcDbEntity
  8
LAYER0014
  6
CONTINUOUS
 62
     7
100
AcDbLine
 10
144.5255510430815
 20
60.28840033970461
 30
0.0
 11
162.0056039769084
 21
60.28840033970461
 31
0.0
  0
LINE
  5
2F6
330
98
100
AcDbEntity
  8
LAYER0014
  6
CONTINUOUS
 62
     7
100
AcDbLine
 10
161.0056039769084
 20
-3.111593556779678
 30
0.0
 11
161.0056039769084
 21
60.28840033970461
 31
0.0
  0
INSERT
  5
2F7
330
98
100
AcDbEntity
  8
LAYER0014
 62
     7
100
AcDbBlockReference
  2
_OPEN30
 10
161.0056039769084
 20
-3.111593556779678
 30
0.0
 41
3.000002787824364
 42
2.999989273978464
 50
270.0
  0
INSERT
  5
2F8
330
98
100
AcDbEntity
  8
LAYER0014
 62
     7
100
AcDbBlockReference
  2
_OPEN30
 10
161.0056039769084
 20
60.28840033970461
 30
0.0
 41
3.000002787824364
 42
2.999989273978464
 50
90.0
  0
TEXT
  5
2F9
330
98
100
AcDbEntity
  8
LAYER0014
 62
     7
100
AcDbText
 10
160.0056039769084
 20
18.08840339146247
 30
0.0
 40
3.0
  1
(φ63.4)
 50
90.0
 41
0.972222222222222
  7
FDASTYLE0
 72
     5
 11
160.0056039769084
 21
39.08840339146246
 31
0.0
100
AcDbText
  0
ENDBLK
  5
9A
330
98
100
AcDbEntity
  8
0
100
AcDbBlockEnd
  0
BLOCK
  5
9C
330
9B
100
AcDbEntity
  8
0
100
AcDbBlockBegin
  2
DA_IMAGEDIMGROUP_7
 70
     0
 71
     0
 10
0.0
 20
0.0
 30
0.0
  3
DA_IMAGEDIMGROUP_7
  1

  0
LINE
  5
2FA
330
9B
100
AcDbEntity
  8
LAYER0014
  6
CONTINUOUS
 62
     7
100
AcDbLine
 10
144.5255510430815
 20
58.78840339146247
 30
0.0
 11
156.5047236952182
 21
58.78840339146247
 31
0.0
  0
LINE
  5
2FB
330
9B
100
AcDbEntity
  8
LAYER0014
  6
CONTINUOUS
 62
     7
100
AcDbLine
 10
155.5047236952182
 20
23.58840339146246
 30
0.0
 11
155.5047236952182
 21
58.78840339146247
 31
0.0
  0
INSERT
  5
2FC
330
9B
100
AcDbEntity
  8
LAYER0014
 62
     7
100
AcDbBlockReference
  2
_OPEN30
 10
155.5047236952182
 20
58.78840339146247
 30
0.0
 41
3.000002787824364
 42
2.999989273978464
 50
90.0
  0
TEXT
  5
2FD
330
9B
100
AcDbEntity
  8
LAYER0014
 62
     7
100
AcDbText
 10
154.5047236952182
 20
18.08840339146246
 30
0.0
 40
3.0
  1
(φ60.4)
 50
90.0
 41
0.9722222222222222
  7
FDASTYLE0
 72
     5
 11
154.5047236952182
 21
39.08840339146246
 31
0.0
100
AcDbText
  0
ENDBLK
  5
9D
330
9B
100
AcDbEntity
  8
0
100
AcDbBlockEnd
  0
BLOCK
  5
9F
330
9E
100
AcDbEntity
  8
0
100
AcDbBlockBegin
  2
DA_IMAGEDIMGROUP_8
 70
     0
 71
     0
 10
0.0
 20
0.0
 30
0.0
  3
DA_IMAGEDIMGROUP_8
  1

  0
LINE
  5
2FE
330
9E
100
AcDbEntity
  8
LAYER0014
  6
CONTINUOUS
 62
     7
100
AcDbLine
 10
-122.5039977748555
 20
-10.51671437505283
 30
0.0
 11
-122.5039977748555
 21
-21.97500698120715
 31
0.0
  0
LINE
  5
2FF
330
9E
100
AcDbEntity
  8
LAYER0014
  6
CONTINUOUS
 62
     7
100
AcDbLine
 10
-112.5039977748555
 20
-10.51160121645705
 30
0.0
 11
-112.5039977748555
 21
-21.97500698120715
 31
0.0
  0
LINE
  5
300
330
9E
100
AcDbEntity
  8
LAYER0014
  6
CONTINUOUS
 62
     7
100
AcDbLine
 10
-122.5039977748555
 20
-20.97500698120715
 30
0.0
 11
-112.5039977748555
 21
-20.97500698120715
 31
0.0
  0
LINE
  5
301
330
9E
100
AcDbEntity
  8
LAYER0014
  6
CONTINUOUS
 62
     7
100
AcDbLine
 10
-101.6062177748555
 20
-20.97500698120715
 30
0.0
 11
-112.5039977748555
 21
-20.97500698120715
 31
0.0
  0
INSERT
  5
302
330
9E
100
AcDbEntity
  8
LAYER0014
 62
     7
100
AcDbBlockReference
  2
_OPEN30
 10
-112.5039977748555
 20
-20.97500698120715
 30
0.0
 41
3.000002787824364
 42
2.999989273978464
 50
180.0
  0
LINE
  5
303
330
9E
100
AcDbEntity
  8
LAYER0014
  6
CONTINUOUS
 62
     7
100
AcDbLine
 10
-127.5039977748555
 20
-20.97500698120715
 30
0.0
 11
-122.5039977748555
 21
-20.97500698120715
 31
0.0
  0
INSERT
  5
304
330
9E
100
AcDbEntity
  8
LAYER0014
 62
     7
100
AcDbBlockReference
  2
_OPEN30
 10
-122.5039977748555
 20
-20.97500698120715
 30
0.0
 41
3.000002787824364
 42
2.999989273978464
 50
360.0
  0
TEXT
  5
305
330
9E
100
AcDbEntity
  8
LAYER0014
 62
     7
100
AcDbText
 10
-108.6062177748555
 20
-19.97500698120715
 30
0.0
 40
3.0
  1
10
  7
FDASTYLE0
 72
     5
 11
-102.6062177748555
 21
-19.97500698120715
 31
0.0
100
AcDbText
  0
ENDBLK
  5
A0
330
9E
100
AcDbEntity
  8
0
100
AcDbBlockEnd
  0
BLOCK
  5
A2
330
A1
100
AcDbEntity
  8
0
100
AcDbBlockBegin
  2
DA_IMAGEDIMGROUP_9
 70
     0
 71
     0
 10
0.0
 20
0.0
 30
0.0
  3
DA_IMAGEDIMGROUP_9
  1

  0
LINE
  5
306
330
A1
100
AcDbEntity
  8
LAYER0014
  6
CONTINUOUS
 62
     7
100
AcDbLine
 10
58.52555104308152
 20
-6.517632773086849
 30
0.0
 11
58.52555104308152
 21
-24.64359168464716
 31
0.0
  0
LINE
  5
307
330
A1
100
AcDbEntity
  8
LAYER0014
  6
CONTINUOUS
 62
     7
100
AcDbLine
 10
79.52555104308152
 20
-5.633545180644049
 30
0.0
 11
79.52555104308152
 21
-24.64359168464716
 31
0.0
  0
LINE
  5
308
330
A1
100
AcDbEntity
  8
LAYER0014
  6
CONTINUOUS
 62
     7
100
AcDbLine
 10
58.52555104308152
 20
-23.64359168464716
 30
0.0
 11
79.52555104308152
 21
-23.64359168464716
 31
0.0
  0
INSERT
  5
309
330
A1
100
AcDbEntity
  8
LAYER0014
 62
     7
100
AcDbBlockReference
  2
_OPEN30
 10
58.52555104308152
 20
-23.64359168464716
 30
0.0
 41
3.000002787824364
 42
2.999989273978464
 50
180.0
  0
INSERT
  5
30A
330
A1
100
AcDbEntity
  8
LAYER0014
 62
     7
100
AcDbBlockReference
  2
_OPEN30
 10
79.52555104308152
 20
-23.64359168464716
 30
0.0
 41
3.000002787824364
 42
2.999989273978464
 50
360.0
  0
TEXT
  5
30B
330
A1
100
AcDbEntity
  8
LAYER0014
 62
     7
100
AcDbText
 10
63.02555104308152
 20
-22.64359168464716
 30
0.0
 40
3.0
  1
(21)
  7
FDASTYLE0
 72
     5
 11
75.02555104308152
 21
-22.64359168464716
 31
0.0
100
AcDbText
  0
ENDBLK
  5
A3
330
A1
100
AcDbEntity
  8
0
100
AcDbBlockEnd
  0
BLOCK
  5
A5
330
A4
100
AcDbEntity
  8
0
100
AcDbBlockBegin
  2
DA_IMAGEDIMGROUP_10
 70
     0
 71
     0
 10
0.0
 20
0.0
 30
0.0
  3
DA_IMAGEDIMGROUP_10
  1

  0
LINE
  5
30C
330
A4
100
AcDbEntity
  8
LAYER0014
  6
CONTINUOUS
 62
     7
100
AcDbLine
 10
-12.6744451422212
 20
-10.71354438923607
 30
0.0
 11
-12.6744451422212
 21
-24.64359168464716
 31
0.0
  0
LINE
  5
30D
330
A4
100
AcDbEntity
  8
LAYER0014
  6
CONTINUOUS
 62
     7
100
AcDbLine
 10
-19.47444895691848
 20
-10.21159118053858
 30
0.0
 11
-19.47444895691848
 21
-24.64359168464716
 31
0.0
  0
LINE
  5
30E
330
A4
100
AcDbEntity
  8
LAYER0014
  6
CONTINUOUS
 62
     7
100
AcDbLine
 10
-19.47444895691848
 20
-23.64359168464716
 30
0.0
 11
-12.6744451422212
 21
-23.64359168464716
 31
0.0
  0
LINE
  5
30F
330
A4
100
AcDbEntity
  8
LAYER0014
  6
CONTINUOUS
 62
     7
100
AcDbLine
 10
-33.37222895691849
 20
-23.64359168464716
 30
0.0
 11
-19.47444895691848
 21
-23.64359168464716
 31
0.0
  0
INSERT
  5
310
330
A4
100
AcDbEntity
  8
LAYER0014
 62
     7
100
AcDbBlockReference
  2
_OPEN30
 10
-19.47444895691848
 20
-23.64359168464716
 30
0.0
 41
3.000002787824364
 42
2.999989273978464
 50
360.0
  0
LINE
  5
311
330
A4
100
AcDbEntity
  8
LAYER0014
  6
CONTINUOUS
 62
     7
100
AcDbLine
 10
-7.674445142221202
 20
-23.64359168464716
 30
0.0
 11
-12.6744451422212
 21
-23.64359168464716
 31
0.0
  0
INSERT
  5
312
330
A4
100
AcDbEntity
  8
LAYER0014
 62
     7
100
AcDbBlockReference
  2
_OPEN30
 10
-12.6744451422212
 20
-23.64359168464716
 30
0.0
 41
3.000002787824364
 42
2.999989273978464
 50
180.0
  0
TEXT
  5
313
330
A4
100
AcDbEntity
  8
LAYER0014
 62
     7
100
AcDbText
 10
-32.37222895691849
 20
-22.64359168464716
 30
0.0
 40
3.0
  1
6.8
  7
FDASTYLE0
 72
     5
 11
-23.37222895691849
 21
-22.64359168464716
 31
0.0
100
AcDbText
  0
ENDBLK
  5
A6
330
A4
100
AcDbEntity
  8
0
100
AcDbBlockEnd
  0
BLOCK
  5
A8
330
A7
100
AcDbEntity
  8
0
100
AcDbBlockBegin
  2
DA_IMAGEDIMGROUP_11
 70
     0
 71
     0
 10
0.0
 20
0.0
 30
0.0
  3
DA_IMAGEDIMGROUP_11
  1

  0
LINE
  5
314
330
A7
100
AcDbEntity
  8
LAYER0014
  6
CONTINUOUS
 62
     7
100
AcDbLine
 10
-5.465673951680918
 20
-9.378996317657808
 30
0.0
 11
-47.90205076425582
 21
-3.701788430097472
 31
0.0
  0
LINE
  5
315
330
A7
100
AcDbEntity
  8
LAYER0014
  6
CONTINUOUS
 62
     7
100
AcDbLine
 10
-5.465614735844553
 20
66.82100368058892
 30
0.0
 11
-47.90205076425582
 21
72.49821949014068
 31
0.0
  0
LINE
  5
316
330
A7
100
AcDbEntity
  8
LAYER0014
  6
CONTINUOUS
 62
     7
100
AcDbLine
 10
-46.91088117063242
 20
72.36561920101418
 30
0.0
 11
-46.91088117063242
 21
-3.834388719223976
 31
0.0
  0
INSERT
  5
317
330
A7
100
AcDbEntity
  8
LAYER0014
 62
     7
100
AcDbBlockReference
  2
_OPEN30
 10
-46.91088117063242
 20
72.36561920101418
 30
0.0
 41
3.000002787824364
 42
2.999989273978464
 50
90.0
  0
INSERT
  5
318
330
A7
100
AcDbEntity
  8
LAYER0014
 62
     7
100
AcDbBlockReference
  2
_OPEN30
 10
-46.91088117063242
 20
-3.834388719223976
 30
0.0
 41
3.000002787824364
 42
2.999989273978464
 50
270.0
  0
TEXT
  5
319
330
A7
100
AcDbEntity
  8
LAYER0014
 62
     7
100
AcDbText
 10
-47.91088117063242
 20
28.2656152408951
 30
0.0
 40
3.0
  1
76.2
 50
90.0
  7
FDASTYLE0
 72
     5
 11
-47.91088117063242
 21
40.2656152408951
 31
0.0
100
AcDbText
  0
ENDBLK
  5
A9
330
A7
100
AcDbEntity
  8
0
100
AcDbBlockEnd
  0
BLOCK
  5
AB
330
AA
100
AcDbEntity
  8
0
100
AcDbBlockBegin
  2
DA_IMAGEDIMGROUP_12
 70
     0
 71
     0
 10
0.0
 20
0.0
 30
0.0
  3
DA_IMAGEDIMGROUP_12
  1

  0
LINE
  5
31A
330
AA
100
AcDbEntity
  8
LAYER0014
  6
CONTINUOUS
 62
     7
100
AcDbLine
 10
-19.47444895691848
 20
-10.21159126796136
 30
0.0
 11
-54.31497746247362
 21
-10.21159126796136
 31
0.0
  0
LINE
  5
31B
330
AA
100
AcDbEntity
  8
LAYER0014
  6
CONTINUOUS
 62
     7
100
AcDbLine
 10
-19.47444895691848
 20
67.38839805088632
 30
0.0
 11
-54.31497746247362
 21
67.38839805088632
 31
0.0
  0
LINE
  5
31C
330
AA
100
AcDbEntity
  8
LAYER0014
  6
CONTINUOUS
 62
     7
100
AcDbLine
 10
-53.31497746247362
 20
-10.21159126796136
 30
0.0
 11
-53.31497746247362
 21
67.38839805088632
 31
0.0
  0
INSERT
  5
31D
330
AA
100
AcDbEntity
  8
LAYER0014
 62
     7
100
AcDbBlockReference
  2
_OPEN30
 10
-53.31497746247362
 20
-10.21159126796136
 30
0.0
 41
3.000002787824364
 42
2.999989273978464
 50
270.0
  0
INSERT
  5
31E
330
AA
100
AcDbEntity
  8
LAYER0014
 62
     7
100
AcDbBlockReference
  2
_OPEN30
 10
-53.31497746247362
 20
67.38839805088632
 30
0.0
 41
3.000002787824364
 42
2.999989273978464
 50
90.0
  0
TEXT
  5
31F
330
AA
100
AcDbEntity
  8
LAYER0014
 62
     7
100
AcDbText
 10
-54.31497746247362
 20
21.08840339146248
 30
0.0
 40
3.0
  1
φ77.6
 50
90.0
 41
0.9615384615384613
  7
FDASTYLE0
 72
     5
 11
-54.31497746247362
 21
36.08840339146248
 31
0.0
100
AcDbText
  0
ENDBLK
  5
AC
330
AA
100
AcDbEntity
  8
0
100
AcDbBlockEnd
  0
BLOCK
  5
AE
330
AD
100
AcDbEntity
  8
0
100
AcDbBlockBegin
  2
DC_GROUP_22
 70
     0
 71
     0
 10
0.0
 20
0.0
 30
0.0
  3
DC_GROUP_22
  1

  0
LINE
  5
320
330
AD
100
AcDbEntity
  8
LAYER0015
  6
CONTINUOUS
 62
     7
100
AcDbLine
 10
79.41352371956441
 20
42.46903368746477
 30
0.0
 11
97.49129147722852
 21
69.75277262285411
 31
0.0
  0
INSERT
  5
321
330
AD
100
AcDbEntity
  8
LAYER0015
 62
     7
100
AcDbBlockReference
  2
_OPEN30
 10
79.41352371956441
 20
42.46903368746477
 30
0.0
 41
3.000002787824364
 42
2.999989273978464
 50
236.4721837224981
  0
LINE
  5
322
330
AD
100
AcDbEntity
  8
LAYER0015
  6
CONTINUOUS
 62
     7
100
AcDbLine
 10
97.49129147722852
 20
69.75277262285411
 30
0.0
 11
137.4912914772285
 21
69.75277262285411
 31
0.0
  0
TEXT
  5
323
330
AD
100
AcDbEntity
  8
LAYER0015
 62
     7
100
AcDbText
 10
97.99129147722852
 20
70.25277262285411
 30
0.0
 40
3.0
  1
型番表示あり“1”、“2”
 41
0.8552631578947368
  7
FDASTYLE0
 72
     5
 11
136.9912914772285
 21
70.25277262285411
 31
0.0
100
AcDbText
  0
ENDBLK
  5
AF
330
AD
100
AcDbEntity
  8
0
100
AcDbBlockEnd
  0
BLOCK
  5
B1
330
B0
100
AcDbEntity
  8
0
100
AcDbBlockBegin
  2
DC_GROUP_23
 70
     0
 71
     0
 10
0.0
 20
0.0
 30
0.0
  3
DC_GROUP_23
  1

  0
LINE
  5
324
330
B0
100
AcDbEntity
  8
LAYER0015
  6
CONTINUOUS
 62
     4
100
AcDbLine
 10
14.24395927683776
 20
62.94984638646632
 30
0.0
 11
13.05329666437527
 21
89.64607933433699
 31
0.0
  0
CIRCLE
  5
325
330
B0
100
AcDbEntity
  8
LAYER0015
  6
CONTINUOUS
 62
     4
100
AcDbCircle
 10
12.83051614169654
 20
94.6411137525082
 30
0.0
 40
5.0
  0
TEXT
  5
326
330
B0
100
AcDbEntity
  8
LAYER0015
 62
     7
100
AcDbText
 10
11.33051614169654
 20
93.1411137525082
 30
0.0
 40
3.0
  1
1
  7
FDASTYLE0
 72
     5
 11
14.33051614169654
 21
93.1411137525082
 31
0.0
100
AcDbText
  0
ENDBLK
  5
B2
330
B0
100
AcDbEntity
  8
0
100
AcDbBlockEnd
  0
BLOCK
  5
B4
330
B3
100
AcDbEntity
  8
0
100
AcDbBlockBegin
  2
DC_GROUP_24
 70
     0
 71
     0
 10
0.0
 20
0.0
 30
0.0
  3
DC_GROUP_24
  1

  0
LINE
  5
327
330
B3
100
AcDbEntity
  8
LAYER0015
  6
CONTINUOUS
 62
     4
100
AcDbLine
 10
-14.51005505683415
 20
67.58840339146254
 30
0.0
 11
-5.395016764450585
 21
90.00925412986794
 31
0.0
  0
CIRCLE
  5
328
330
B3
100
AcDbEntity
  8
LAYER0015
  6
CONTINUOUS
 62
     4
100
AcDbCircle
 10
-3.511966994488375
 20
94.6411137525082
 30
0.0
 40
5.0
  0
TEXT
  5
329
330
B3
100
AcDbEntity
  8
LAYER0015
 62
     7
100
AcDbText
 10
-5.011966994488375
 20
93.1411137525082
 30
0.0
 40
3.0
  1
2
  7
FDASTYLE0
 72
     5
 11
-2.011966994488375
 21
93.1411137525082
 31
0.0
100
AcDbText
  0
ENDBLK
  5
B5
330
B3
100
AcDbEntity
  8
0
100
AcDbBlockEnd
  0
BLOCK
  5
B7
330
B6
100
AcDbEntity
  8
0
100
AcDbBlockBegin
  2
DA_IMAGEDIMGROUP_13
 70
     0
 71
     0
 10
0.0
 20
0.0
 30
0.0
  3
DA_IMAGEDIMGROUP_13
  1

  0
LINE
  5
32A
330
B6
100
AcDbEntity
  8
LAYER0014
  6
CONTINUOUS
 62
     7
100
AcDbLine
 10
-10.47444895691848
 20
62.18840339146246
 30
0.0
 11
-35.58158706002591
 21
62.18840339146246
 31
0.0
  0
LINE
  5
32B
330
B6
100
AcDbEntity
  8
LAYER0014
  6
CONTINUOUS
 62
     7
100
AcDbLine
 10
-34.58158706002591
 20
-2.95693910700178
 30
0.0
 11
-34.58158706002591
 21
62.18840339146246
 31
0.0
  0
INSERT
  5
32C
330
B6
100
AcDbEntity
  8
LAYER0014
 62
     7
100
AcDbBlockReference
  2
_OPEN30
 10
-34.58158706002591
 20
62.18840339146246
 30
0.0
 41
3.000002787824364
 42
2.999989273978464
 50
90.0
  0
TEXT
  5
32D
330
B6
100
AcDbEntity
  8
LAYER0014
 62
     7
100
AcDbText
 10
-35.58158706002591
 20
18.38840339146213
 30
0.0
 40
3.0
  1
(φ67.2)
 50
90.0
 41
0.9722222222222222
  7
FDASTYLE0
 72
     5
 11
-35.58158706002591
 21
39.38840339146213
 31
0.0
100
AcDbText
  0
ENDBLK
  5
B8
330
B6
100
AcDbEntity
  8
0
100
AcDbBlockEnd
  0
BLOCK
  5
BA
330
B9
100
AcDbEntity
  8
0
100
AcDbBlockBegin
  2
DC_GROUP_25
 70
     0
 71
     0
 10
0.0
 20
0.0
 30
0.0
  3
DC_GROUP_25
  1

  0
LINE
  5
32E
330
B9
100
AcDbEntity
  8
0
  6
CONTINUOUS
 62
    32
100
AcDbLine
 10
-17.84437189251261
 20
62.06053554366642
 30
0.0
 11
-15.37223974030873
 21
59.58840339146254
 31
0.0
  0
LINE
  5
32F
330
B9
100
AcDbEntity
  8
0
  6
CONTINUOUS
 62
    32
100
AcDbLine
 10
-16.97444895691842
 20
64.72614651400497
 30
0.0
 11
-12.97444895691842
 21
60.72614651400497
 31
0.0
  0
LINE
  5
330
330
B9
100
AcDbEntity
  8
0
  6
CONTINUOUS
 62
    32
100
AcDbLine
 10
-16.30117192844326
 20
67.58840339146254
 30
0.0
 11
-13.97444895691842
 21
65.2616804199377
 31
0.0
  0
ENDBLK
  5
BB
330
B9
100
AcDbEntity
  8
0
100
AcDbBlockEnd
  0
BLOCK
  5
BD
330
BC
100
AcDbEntity
  8
0
100
AcDbBlockBegin
  2
DA_IMAGEDIMGROUP_14
 70
     0
 71
     0
 10
0.0
 20
0.0
 30
0.0
  3
DA_IMAGEDIMGROUP_14
  1

  0
LINE
  5
331
330
BC
100
AcDbEntity
  8
LAYER0014
  6
CONTINUOUS
 62
     7
100
AcDbLine
 10
-158.772976943588
 20
69.85731941850055
 30
0.0
 11
-147.5383760201189
 21
58.62271849503166
 31
0.0
  0
LINE
  5
332
330
BC
100
AcDbEntity
  8
LAYER0014
  6
CONTINUOUS
 62
     7
100
AcDbLine
 10
-165.3122823220387
 20
62.06407874066179
 30
0.0
 11
-152.2974922534332
 21
52.95102462640595
 31
0.0
  0
ARC
  5
333
330
BC
100
AcDbEntity
  8
LAYER0014
  6
CONTINUOUS
 62
     7
100
AcDbCircle
 10
-117.5040553549409
 20
28.58839782985427
 30
0.0
 40
57.36306861517598
100
AcDbArc
 50
135.0000000000006
 51
144.9999999999961
  0
INSERT
  5
334
330
BC
100
AcDbEntity
  8
LAYER0014
 62
     7
100
AcDbBlockReference
  2
_OPEN30
 10
-158.0658701624015
 20
69.15021263731401
 30
0.0
 41
3.000002787824364
 42
2.999989273978464
 50
46.49824138206199
  0
INSERT
  5
335
330
BC
100
AcDbEntity
  8
LAYER0014
 62
     7
100
AcDbBlockReference
  2
_OPEN30
 10
-164.4931302777497
 20
61.49050230431068
 30
0.0
 41
3.000002787824364
 42
2.999989273978464
 50
233.5017586179344
  0
TEXT
  5
336
330
BC
100
AcDbEntity
  8
LAYER0014
 62
     7
100
AcDbText
 10
-164.3226672870437
 20
63.72406852120303
 30
0.0
 40
3.0
  1
10°
 50
48.70411610776133
 41
0.9375000000000011
  7
FDASTYLE0
 72
     5
 11
-158.3831380255782
 21
70.48587243378404
 31
0.0
100
AcDbText
  0
ENDBLK
  5
BE
330
BC
100
AcDbEntity
  8
0
100
AcDbBlockEnd
  0
BLOCK
  5
C0
330
BF
100
AcDbEntity
  8
0
100
AcDbBlockBegin
  2
DA_IMAGEDIMGROUP_15
 70
     0
 71
     0
 10
0.0
 20
0.0
 30
0.0
  3
DA_IMAGEDIMGROUP_15
  1

  0
LINE
  5
337
330
BF
100
AcDbEntity
  8
LAYER0014
  6
CONTINUOUS
 62
     7
100
AcDbLine
 10
-150.9797362657482
 20
76.39662479695271
 30
0.0
 11
-141.8666821514932
 21
63.38183472834592
 31
0.0
  0
LINE
  5
338
330
BF
100
AcDbEntity
  8
LAYER0014
  6
CONTINUOUS
 62
     7
100
AcDbLine
 10
-158.7729769435883
 20
69.85731941850168
 30
0.0
 11
-147.5383760201189
 21
58.62271849503165
 31
0.0
  0
ARC
  5
339
330
BF
100
AcDbEntity
  8
LAYER0014
  6
CONTINUOUS
 62
     7
100
AcDbCircle
 10
-117.5040553549538
 20
28.58839782986471
 30
0.0
 40
57.36306861516046
100
AcDbArc
 50
124.999999999999
 51
134.9999999999983
  0
INSERT
  5
33A
330
BF
100
AcDbEntity
  8
LAYER0014
 62
     7
100
AcDbBlockReference
  2
_OPEN30
 10
-150.4061598293972
 20
75.57747275266371
 30
0.0
 41
3.000002787824364
 42
2.999989273978464
 50
36.49824138206076
  0
INSERT
  5
33B
330
BF
100
AcDbEntity
  8
LAYER0014
 62
     7
100
AcDbBlockReference
  2
_OPEN30
 10
-158.0658701624017
 20
69.15021263731511
 30
0.0
 41
3.000002787824364
 42
2.999989273978464
 50
223.5017586179366
  0
TEXT
  5
33C
330
BF
100
AcDbEntity
  8
LAYER0014
 62
     7
100
AcDbText
 10
-157.2682670241231
 20
71.54541411949344
 30
0.0
 40
3.0
  1
10°
 50
38.38065776277527
 41
0.9375000000000008
  7
FDASTYLE0
 72
     5
 11
-150.213139094525
 21
77.13336274998434
 31
0.0
100
AcDbText
  0
ENDBLK
  5
C1
330
BF
100
AcDbEntity
  8
0
100
AcDbBlockEnd
  0
BLOCK
  5
23A
330
239
100
AcDbEntity
  8
0
100
AcDbBlockBegin
  2
_OPEN30
 70
     0
 71
     0
 10
0.0
 20
0.0
 30
0.0
  3
_OPEN30
  1

  0
LINE
  5
23C
330
239
100
AcDbEntity
  8
0
  6
BYBLOCK
 62
     0
100
AcDbLine
 10
-1.0
 20
0.267949
 30
0.0
 11
0.0
 21
0.0
 31
0.0
  0
LINE
  5
23D
330
239
100
AcDbEntity
  8
0
  6
BYBLOCK
 62
     0
100
AcDbLine
 10
0.0
 20
0.0
 30
0.0
 11
-1.0
 21
-0.267949
 31
0.0
  0
LINE
  5
23E
330
239
100
AcDbEntity
  8
0
  6
BYBLOCK
 62
     0
100
AcDbLine
 10
0.0
 20
0.0
 30
0.0
 11
-1.0
 21
0.0
 31
0.0
  0
ENDBLK
  5
23B
330
239
100
AcDbEntity
  8
0
100
AcDbBlockEnd
  0
ENDSEC
  0
SECTION
  2
ENTITIES
  0
LINE
  5
33D
330
1F
100
AcDbEntity
  8
ZUWAKU
  6
CONTINUOUS
 62
     7
100
AcDbLine
 10
-192.5
 20
-138.5
 30
0.0
 11
192.5
 21
-138.5
 31
0.0
  0
LINE
  5
33E
330
1F
100
AcDbEntity
  8
ZUWAKU
  6
CONTINUOUS
 62
     7
100
AcDbLine
 10
-192.5
 20
138.5
 30
0.0
 11
192.5
 21
138.5
 31
0.0
  0
LINE
  5
33F
330
1F
100
AcDbEntity
  8
ZUWAKU
  6
CONTINUOUS
 62
     7
100
AcDbLine
 10
-192.5
 20
-138.5
 30
0.0
 11
-192.5
 21
138.5
 31
0.0
  0
LINE
  5
340
330
1F
100
AcDbEntity
  8
ZUWAKU
  6
CONTINUOUS
 62
     7
100
AcDbLine
 10
192.5
 20
-138.5
 30
0.0
 11
192.5
 21
138.5
 31
0.0
  0
LINE
  5
341
330
1F
100
AcDbEntity
  8
ZUWAKU
  6
CONTINUOUS
 62
     7
100
AcDbLine
 10
0.0
 20
-148.5
 30
0.0
 11
0.0
 21
-138.5
 31
0.0
  0
LINE
  5
342
330
1F
100
AcDbEntity
  8
ZUWAKU
  6
CONTINUOUS
 62
     7
100
AcDbLine
 10
-210.0
 20
0.0
 30
0.0
 11
-192.5
 21
0.0
 31
0.0
  0
LINE
  5
343
330
1F
100
AcDbEntity
  8
ZUWAKU
  6
CONTINUOUS
 62
     7
100
AcDbLine
 10
0.0
 20
138.5
 30
0.0
 11
0.0
 21
148.5
 31
0.0
  0
LINE
  5
344
330
1F
100
AcDbEntity
  8
ZUWAKU
  6
CONTINUOUS
 62
     7
100
AcDbLine
 10
192.5
 20
0.0
 30
0.0
 11
210.0
 21
0.0
 31
0.0
  0
LINE
  5
345
330
1F
100
AcDbEntity
  8
ZUWAKU
  6
CONTINUOUS
 62
     7
100
AcDbLine
 10
7.5
 20
-96.50000000000003
 30
0.0
 11
7.5
 21
-128.5000000000001
 31
0.0
  0
LINE
  5
346
330
1F
100
AcDbEntity
  8
ZUWAKU
  6
CONTINUOUS
 62
     7
100
AcDbLine
 10
-9.5
 20
-96.50000000000003
 30
0.0
 11
-9.5
 21
-138.5
 31
0.0
  0
LINE
  5
347
330
1F
100
AcDbEntity
  8
ZUWAKU
  6
CONTINUOUS
 62
     7
100
AcDbLine
 10
-26.5
 20
-96.50000000000003
 30
0.0
 11
-26.5
 21
-138.5
 31
0.0
  0
LINE
  5
348
330
1F
100
AcDbEntity
  8
ZUWAKU
  6
CONTINUOUS
 62
     7
100
AcDbLine
 10
-43.5
 20
-96.50000000000003
 30
0.0
 11
-43.5
 21
-138.5
 31
0.0
  0
LINE
  5
349
330
1F
100
AcDbEntity
  8
ZUWAKU
  6
CONTINUOUS
 62
     7
100
AcDbLine
 10
-60.5
 20
-96.50000000000003
 30
0.0
 11
-60.5
 21
-138.5
 31
0.0
  0
LINE
  5
34A
330
1F
100
AcDbEntity
  8
ZUWAKU
  6
CONTINUOUS
 62
     7
100
AcDbLine
 10
70.5
 20
-79.5
 30
0.0
 11
192.5
 21
-79.5
 31
0.0
  0
LINE
  5
34B
330
1F
100
AcDbEntity
  8
ZUWAKU
  6
CONTINUOUS
 62
     7
100
AcDbLine
 10
70.5
 20
-79.5
 30
0.0
 11
70.5
 21
-138.5
 31
0.0
  0
LINE
  5
34C
330
1F
100
AcDbEntity
  8
ZUWAKU
  6
CONTINUOUS
 62
     7
100
AcDbLine
 10
70.5
 20
-101.5
 30
0.0
 11
192.5
 21
-101.5
 31
0.0
  0
LINE
  5
34D
330
1F
100
AcDbEntity
  8
ZUWAKU
  6
CONTINUOUS
 62
     7
100
AcDbLine
 10
70.5
 20
-90.5
 30
0.0
 11
192.5
 21
-90.5
 31
0.0
  0
LINE
  5
34E
330
1F
100
AcDbEntity
  8
ZUWAKU
  6
CONTINUOUS
 62
     7
100
AcDbLine
 10
70.5
 20
-112.5
 30
0.0
 11
192.5
 21
-112.5
 31
0.0
  0
LINE
  5
34F
330
1F
100
AcDbEntity
  8
ZUWAKU
  6
CONTINUOUS
 62
     7
100
AcDbLine
 10
70.5
 20
-123.5
 30
0.0
 11
192.5
 21
-123.5
 31
0.0
  0
LINE
  5
350
330
1F
100
AcDbEntity
  8
ZUWAKU
  6
CONTINUOUS
 62
     7
100
AcDbLine
 10
158.5
 20
-79.5
 30
0.0
 11
158.5
 21
-123.5
 31
0.0
  0
LINE
  5
351
330
1F
100
AcDbEntity
  8
ZUWAKU
  6
CONTINUOUS
 62
     7
100
AcDbLine
 10
114.5
 20
-112.5
 30
0.0
 11
114.5
 21
-123.5
 31
0.0
  0
LINE
  5
352
330
1F
100
AcDbEntity
  8
ZUWAKU
  6
CONTINUOUS
 62
     7
100
AcDbLine
 10
136.5
 20
-112.5
 30
0.0
 11
136.5
 21
-123.5
 31
0.0
  0
LINE
  5
353
330
1F
100
AcDbEntity
  8
ZUWAKU
  6
CONTINUOUS
 62
     7
100
AcDbLine
 10
92.5
 20
-112.5
 30
0.0
 11
92.5
 21
-123.5
 31
0.0
  0
LINE
  5
354
330
1F
100
AcDbEntity
  8
ZUWAKU
  6
CONTINUOUS
 62
     7
100
AcDbLine
 10
-192.5
 20
-96.50000000000003
 30
0.0
 11
7.5
 21
-96.50000000000003
 31
0.0
  0
LINE
  5
355
330
1F
100
AcDbEntity
  8
ZUWAKU
  6
CONTINUOUS
 62
     7
100
AcDbLine
 10
-192.5
 20
-103.5
 30
0.0
 11
7.5
 21
-103.5
 31
0.0
  0
LINE
  5
356
330
1F
100
AcDbEntity
  8
ZUWAKU
  6
CONTINUOUS
 62
     7
100
AcDbLine
 10
-192.5
 20
-110.5
 30
0.0
 11
7.5
 21
-110.5
 31
0.0
  0
LINE
  5
357
330
1F
100
AcDbEntity
  8
ZUWAKU
  6
CONTINUOUS
 62
     7
100
AcDbLine
 10
-185.5
 20
-96.50000000000003
 30
0.0
 11
-185.5
 21
-138.5
 31
0.0
  0
LINE
  5
358
330
1F
100
AcDbEntity
  8
ZUWAKU
  6
CONTINUOUS
 62
     7
100
AcDbLine
 10
-192.5
 20
-131.5
 30
0.0
 11
7.5
 21
-131.5
 31
0.0
  0
LINE
  5
359
330
1F
100
AcDbEntity
  8
ZUWAKU
  6
CONTINUOUS
 62
     7
100
AcDbLine
 10
-192.5
 20
-124.5
 30
0.0
 11
7.5
 21
-124.5
 31
0.0
  0
LINE
  5
35A
330
1F
100
AcDbEntity
  8
ZUWAKU
  6
CONTINUOUS
 62
     7
100
AcDbLine
 10
-192.0
 20
-117.5
 30
0.0
 11
7.5
 21
-117.5
 31
0.0
  0
LINE
  5
35B
330
1F
100
AcDbEntity
  8
ZUWAKU
  6
CONTINUOUS
 62
     7
100
AcDbLine
 10
-155.5
 20
-96.50000000000003
 30
0.0
 11
-155.5
 21
-138.5
 31
0.0
  0
LINE
  5
35C
330
1F
100
AcDbEntity
  8
ZUWAKU
  6
CONTINUOUS
 62
     7
100
AcDbLine
 10
7.5
 20
-96.50000000000003
 30
0.0
 11
7.5
 21
-138.5
 31
0.0
  0
LINE
  5
35D
330
1F
100
AcDbEntity
  8
ZUWAKU
  6
CENTER
 62
     7
100
AcDbLine
 10
180.7113630049175
 20
-140.9999737700873
 30
0.0
 11
191.8113538549173
 21
-140.9999737700873
 31
0.0
  0
LINE
  5
35E
330
1F
100
AcDbEntity
  8
ZUWAKU
  6
CENTER
 62
     7
100
AcDbLine
 10
183.0113431749173
 20
-138.6999859800873
 30
0.0
 11
183.0113431749173
 21
-143.2999768300873
 31
0.0
  0
TEXT
  5
35F
330
1F
100
AcDbEntity
  8
ZUWAKU
 62
     7
100
AcDbText
 10
158.6520598751473
 20
-82.43445270859417
 30
0.0
 40
2.299999952316284
  1
設計図番
 41
0.8404558677421614
  7
FDASTYLE0
 72
     5
 11
170.4520600658822
 21
-82.43445270859417
 31
0.0
100
AcDbText
  0
TEXT
  5
360
330
1F
100
AcDbEntity
  8
ZUWAKU
 62
     7
100
AcDbText
 10
158.7325933361632
 20
-93.22593648471417
 30
0.0
 40
2.299999952316284
  1
図面番号
 41
0.8404558677421614
  7
FDASTYLE0
 72
     5
 11
170.532593526898
 21
-93.22593648471417
 31
0.0
100
AcDbText
  0
TEXT
  5
361
330
1F
100
AcDbEntity
  8
ZUWAKU
 62
     7
100
AcDbText
 10
158.813126797179
 20
-115.2921048030491
 30
0.0
 40
2.299999952316284
  1
設計年月日
 41
0.8426966561525857
  7
FDASTYLE0
 72
     5
 11
173.8131270355976
 21
-115.2921048030491
 31
0.0
100
AcDbText
  0
TEXT
  5
362
330
1F
100
AcDbEntity
  8
ZUWAKU
 62
     7
100
AcDbText
 10
149.2318473015103
 20
-142.5
 30
0.0
 40
3.0
  1
Ａ３　　単位：ｍｍ
 41
0.8333333333333334
  7
FDASTYLE0
 72
     5
 11
176.2318473015103
 21
-142.5
 31
0.0
100
AcDbText
  0
TEXT
  5
363
330
1F
100
AcDbEntity
  8
ZUWAKU
 62
     7
100
AcDbText
 10
136.8245420290309
 20
-115.3968693113115
 30
0.0
 40
2.299999952316284
  1
製図
 41
0.8282208880597839
  7
FDASTYLE0
 72
     5
 11
142.2245421243984
 21
-115.3968693113115
 31
0.0
100
AcDbText
  0
TEXT
  5
364
330
1F
100
AcDbEntity
  8
ZUWAKU
 62
     7
100
AcDbText
 10
92.80004210336084
 20
-115.3122068114545
 30
0.0
 40
2.299999952316284
  1
検図
 41
0.8282208880597839
  7
FDASTYLE0
 72
     5
 11
98.20004219872827
 21
-115.3122068114545
 31
0.0
100
AcDbText
  0
TEXT
  5
365
330
1F
100
AcDbEntity
  8
ZUWAKU
 62
     7
100
AcDbText
 10
71.66392216239117
 20
-115.3615687050939
 30
0.0
 40
2.299999952316284
  1
承認
 41
0.8282208880597839
  7
FDASTYLE0
 72
     5
 11
77.06392225775861
 21
-115.3615687050939
 31
0.0
100
AcDbText
  0
TEXT
  5
366
330
1F
100
AcDbEntity
  8
ZUWAKU
 62
     7
100
AcDbText
 10
114.8000421033608
 20
-115.3122068114545
 30
0.0
 40
2.299999952316284
  1
確認
 41
0.8282208880597839
  7
FDASTYLE0
 72
     5
 11
120.2000421987283
 21
-115.3122068114545
 31
0.0
100
AcDbText
  0
TEXT
  5
367
330
1F
100
AcDbEntity
  8
ZUWAKU
 62
     7
100
AcDbText
 10
158.6520598751473
 20
-104.1784871828658
 30
0.0
 40
2.299999952316284
  1
尺　　度
 41
0.8404558677421614
  7
FDASTYLE0
 72
     5
 11
170.4520600658822
 21
-104.1784871828658
 31
0.0
100
AcDbText
  0
TEXT
  5
368
330
1F
100
AcDbEntity
  8
ZUWAKU
 62
     7
100
AcDbText
 10
-39.34299945831299
 20
-136.6000000238419
 30
0.0
 40
3.200000047683716
  1
確 認
 41
0.7364760850881585
  7
FDASTYLE0
 72
     5
 11
-30.65700054168701
 21
-136.6000000238419
 31
0.0
100
AcDbText
  0
TEXT
  5
369
330
1F
100
AcDbEntity
  8
ZUWAKU
 62
     7
100
AcDbText
 10
-124.0859980583191
 20
-136.6000000238419
 30
0.0
 40
3.200000047683716
  1
変  更  履  歴
 41
0.742405348260007
  7
FDASTYLE0
 72
     5
 11
-93.00000214576721
 21
-136.6000000238419
 31
0.0
100
AcDbText
  0
TEXT
  5
36A
330
1F
100
AcDbEntity
  8
ZUWAKU
 62
     7
100
AcDbText
 10
-5.342999458312988
 20
-136.6000000238419
 30
0.0
 40
3.200000047683716
  1
承 認
 41
0.7364760850881585
  7
FDASTYLE0
 72
     5
 11
3.342999458312988
 21
-136.6000000238419
 31
0.0
100
AcDbText
  0
TEXT
  5
36B
330
1F
100
AcDbEntity
  8
ZUWAKU
 62
     7
100
AcDbText
 10
-181.2429986000061
 20
-136.6000000238419
 30
0.0
 40
3.200000047683716
  1
年  月  日
 41
0.7437174693459515
  7
FDASTYLE0
 72
     5
 11
-159.7570013999939
 21
-136.6000000238419
 31
0.0
100
AcDbText
  0
TEXT
  5
36C
330
1F
100
AcDbEntity
  8
ZUWAKU
 62
     7
100
AcDbText
 10
-22.34299945831299
 20
-136.6000000238419
 30
0.0
 40
3.200000047683716
  1
検　図
 41
0.6507341227548625
  7
FDASTYLE0
 72
     5
 11
-13.65700054168701
 21
-136.6000000238419
 31
0.0
100
AcDbText
  0
TEXT
  5
36D
330
1F
100
AcDbEntity
  8
ZUWAKU
 62
     7
100
AcDbText
 10
-56.34299945831299
 20
-136.6000000238419
 30
0.0
 40
3.200000047683716
  1
変 更
 41
0.7364760850881585
  7
FDASTYLE0
 72
     5
 11
-47.65700054168701
 21
-136.6000000238419
 31
0.0
100
AcDbText
  0
LINE
  5
36E
330
1F
100
AcDbEntity
  8
ZUWAKU
  6
CONTINUOUS
 62
     7
100
AcDbLine
 10
187.0113889449171
 20
-140.2499966600873
 30
0.0
 11
191.0113889449171
 21
-139.4999814000873
 31
0.0
  0
LINE
  5
36F
330
1F
100
AcDbEntity
  8
ZUWAKU
  6
CONTINUOUS
 62
     7
100
AcDbLine
 10
191.0113660549173
 20
-142.5000042900873
 30
0.0
 11
187.0113660549172
 21
-141.7499890300873
 31
0.0
  0
CIRCLE
  5
370
330
1F
100
AcDbEntity
  8
ZUWAKU
  6
CONTINUOUS
 62
     7
100
AcDbCircle
 10
183.0113431749173
 20
-140.9999737700873
 30
0.0
 40
0.75
  0
LINE
  5
371
330
1F
100
AcDbEntity
  8
ZUWAKU
  6
CONTINUOUS
 62
     7
100
AcDbLine
 10
187.0113431749173
 20
-140.2499737700873
 30
0.0
 11
187.0113431749173
 21
-141.7499890300873
 31
0.0
  0
LINE
  5
372
330
1F
100
AcDbEntity
  8
ZUWAKU
  6
CONTINUOUS
 62
     7
100
AcDbLine
 10
191.0113431749173
 20
-139.4999737700873
 30
0.0
 11
191.0113431749173
 21
-142.4999890300873
 31
0.0
  0
CIRCLE
  5
373
330
1F
100
AcDbEntity
  8
ZUWAKU
  6
CONTINUOUS
 62
     7
100
AcDbCircle
 10
183.0113431749173
 20
-140.9999737700873
 30
0.0
 40
1.5
  0
INSERT
  5
374
330
1F
100
AcDbEntity
  8
0
  6
CONTINUOUS
100
AcDbBlockReference
  2
DC_GROUP_1
 10
0.0
 20
0.0
 30
0.0
  0
INSERT
  5
375
330
1F
100
AcDbEntity
  8
0
  6
CONTINUOUS
100
AcDbBlockReference
  2
DC_GROUP_25
 10
0.0
 20
0.0
 30
0.0
  0
INSERT
  5
376
330
1F
100
AcDbEntity
  8
ZUWAKU
  6
CONTINUOUS
100
AcDbBlockReference
  2
DC_GROUP_13
 10
0.0
 20
0.0
 30
0.0
  0
INSERT
  5
377
330
1F
100
AcDbEntity
  8
ZUWAKU
  6
CONTINUOUS
100
AcDbBlockReference
  2
DC_GROUP_14
 10
0.0
 20
0.0
 30
0.0
  0
INSERT
  5
378
330
1F
100
AcDbEntity
  8
ZUWAKU
  6
CONTINUOUS
100
AcDbBlockReference
  2
DC_GROUP_15
 10
0.0
 20
0.0
 30
0.0
  0
INSERT
  5
379
330
1F
100
AcDbEntity
  8
ZUWAKU
  6
CONTINUOUS
100
AcDbBlockReference
  2
DC_GROUP_16
 10
0.0
 20
0.0
 30
0.0
  0
INSERT
  5
37A
330
1F
100
AcDbEntity
  8
ZUWAKU
  6
CONTINUOUS
100
AcDbBlockReference
  2
DC_GROUP_17
 10
0.0
 20
0.0
 30
0.0
  0
INSERT
  5
37B
330
1F
100
AcDbEntity
  8
ZUWAKU
  6
CONTINUOUS
100
AcDbBlockReference
  2
DC_GROUP_18
 10
0.0
 20
0.0
 30
0.0
  0
INSERT
  5
37C
330
1F
100
AcDbEntity
  8
ZUWAKU
  6
CONTINUOUS
100
AcDbBlockReference
  2
DC_GROUP_19
 10
0.0
 20
0.0
 30
0.0
  0
TEXT
  5
37D
330
1F
100
AcDbEntity
  8
LAYER0015
 62
     7
100
AcDbText
 10
70.88564909702789
 20
-86.93222661659917
 30
0.0
 40
5.0
  1
エースＭ Ｐカゴ（Ｇ）-12
 41
0.8750000000000002
  7
FDASTYLE0
 72
     5
 11
140.8856490970279
 21
-86.93222661659917
 31
0.0
100
AcDbText
  0
TEXT
  5
37E
330
1F
100
AcDbEntity
  8
LAYER0015
 62
     7
100
AcDbText
 10
139.8008962095693
 20
-121.9148407864637
 30
0.0
 40
5.0
  1
西谷
 41
0.8333333333333334
  7
FDASTYLE0
 72
     5
 11
149.8008962095693
 21
-121.9148407864637
 31
0.0
100
AcDbText
  0
TEXT
  5
37F
330
1F
100
AcDbEntity
  8
LAYER0015
 62
     7
100
AcDbText
 10
159.5193620275377
 20
-88.26949353429845
 30
0.0
 40
3.0
  1
S3-5228A
  7
FDASTYLE0
 72
     5
 11
183.5193620275377
 21
-88.26949353429845
 31
0.0
100
AcDbText
  0
TEXT
  5
380
330
1F
100
AcDbEntity
  8
LAYER0015
 62
     7
100
AcDbText
 10
160.645474507651
 20
-120.9080450954827
 30
0.0
 40
3.0
  1
2012.11.8
  7
FDASTYLE0
 72
     5
 11
187.645474507651
 21
-120.9080450954827
 31
0.0
100
AcDbText
  0
TEXT
  5
381
330
1F
100
AcDbEntity
  8
LAYER0015
 62
     7
100
AcDbText
 10
166.5941648737996
 20
-110.7969250144304
 30
0.0
 40
5.0
  1
1:1
  7
FDASTYLE0
 72
     5
 11
181.5941648737996
 21
-110.7969250144304
 31
0.0
100
AcDbText
  0
TEXT
  5
382
330
1F
100
AcDbEntity
  8
LAYER0015
 62
     7
100
AcDbText
 10
158.3498749022663
 20
-100.0036781348234
 30
0.0
 40
5.0
  1
31271
  7
FDASTYLE0
 72
     5
 11
183.3498749022663
 21
-100.0036781348234
 31
0.0
100
AcDbText
  0
TEXT
  5
383
330
1F
100
AcDbEntity
  8
LAYER0015
 62
     7
100
AcDbText
 10
145.5
 20
-70.0
 30
0.0
 40
3.0
  1
ＰＥ(アイボリー）
 41
0.8490566037735849
  7
FDASTYLE0
 72
     5
 11
172.5
 21
-70.0
 31
0.0
100
AcDbText
  0
TEXT
  5
384
330
1F
100
AcDbEntity
  8
LAYER0015
 62
     7
100
AcDbText
 10
148.5
 20
-63.0
 30
0.0
 40
3.0
  1
ＰＰ(ブルー）
 41
0.853658536585366
  7
FDASTYLE0
 72
     5
 11
169.5
 21
-63.0
 31
0.0
100
AcDbText
  0
TEXT
  5
385
330
1F
100
AcDbEntity
  8
LAYER0015
 62
     7
100
AcDbText
 10
101.9999999999998
 20
-63.0
 30
0.0
 40
3.0
  1
エースＭ Ｐカゴ トッテ
 41
0.8571428571428571
  7
FDASTYLE0
 72
     5
 11
137.9999999999998
 21
-63.0
 31
0.0
100
AcDbText
  0
TEXT
  5
386
330
1F
100
AcDbEntity
  8
LAYER0015
 62
     7
100
AcDbText
 10
98.39999999999984
 20
-70.0
 30
0.0
 40
3.0
  1
エースＭ　Ｐカゴ（Ｇ）本体-12
 41
0.7741935483870966
  7
FDASTYLE0
 72
     5
 11
141.5999999999998
 21
-70.0
 31
0.0
100
AcDbText
  0
TEXT
  5
387
330
1F
100
AcDbEntity
  8
LAYER0015
 62
     7
100
AcDbText
 10
97.99129147722852
 20
75.25277262285411
 30
0.0
 40
3.0
  1
材質表示あり“＞ＰＥ＜”
 41
0.8333333333333334
  7
FDASTYLE0
 72
     5
 11
133.9912914772285
 21
75.25277262285411
 31
0.0
100
AcDbText
  0
TEXT
  5
388
330
1F
100
AcDbEntity
  8
0
 62
     7
100
AcDbText
 10
86.28571343421936
 20
-70.90000009536743
 30
0.0
 40
4.800000190734863
  1
1
 41
0.7142860406920893
  7
FDASTYLE0
 72
     5
 11
89.71428656578064
 21
-70.90000009536743
 31
0.0
100
AcDbText
  0
TEXT
  5
389
330
1F
100
AcDbEntity
  8
0
 62
     7
100
AcDbText
 10
86.28571343421936
 20
-63.90000009536743
 30
0.0
 40
4.800000190734863
  1
2
 41
0.7142860406920893
  7
FDASTYLE0
 72
     5
 11
89.71428656578064
 21
-63.90000009536743
 31
0.0
100
AcDbText
  0
TEXT
  5
38A
330
1F
100
AcDbEntity
  8
0
 62
     7
100
AcDbText
 10
175.4570000171661
 20
-63.10000002384186
 30
0.0
 40
3.200000047683716
  1
31123
 41
0.7675010103921195
  7
FDASTYLE0
 72
     5
 11
190.5429999828339
 21
-63.10000002384186
 31
0.0
100
AcDbText
  0
TEXT
  5
38B
330
1F
100
AcDbEntity
  8
0
 62
     7
100
AcDbText
 10
175.4570000171661
 20
-70.10000002384186
 30
0.0
 40
3.200000047683716
  1
31270
 41
0.7675010103921195
  7
FDASTYLE0
 72
     5
 11
190.5429999828339
 21
-70.10000002384186
 31
0.0
100
AcDbText
  0
TEXT
  5
38C
330
1F
100
AcDbEntity
  8
0
 62
     7
100
AcDbText
 10
106.2857129573822
 20
-77.90000009536743
 30
0.0
 40
4.800000190734863
  1
品　　　　名
 41
0.6622518187178339
  7
FDASTYLE0
 72
     5
 11
133.7142870426178
 21
-77.90000009536743
 31
0.0
100
AcDbText
  0
TEXT
  5
38D
330
1F
100
AcDbEntity
  8
0
 62
     7
100
AcDbText
 10
81.4857132434845
 20
-77.90000009536743
 30
0.0
 40
4.800000190734863
  1
図　番
 41
0.650685111584705
  7
FDASTYLE0
 72
     5
 11
94.5142867565155
 21
-77.90000009536743
 31
0.0
100
AcDbText
  0
TEXT
  5
38E
330
1F
100
AcDbEntity
  8
0
 62
     7
100
AcDbText
 10
147.6857130527496
 20
-77.90000009536743
 30
0.0
 40
4.800000190734863
  1
材　　　質
 41
0.6600001663367191
  7
FDASTYLE0
 72
     5
 11
170.3142869472504
 21
-77.90000009536743
 31
0.0
100
AcDbText
  0
TEXT
  5
38F
330
1F
100
AcDbEntity
  8
0
 62
     7
100
AcDbText
 10
174.0857131481171
 20
-77.90000009536743
 30
0.0
 40
4.800000190734863
  1
備　　考
 41
0.6565658279115488
  7
FDASTYLE0
 72
     5
 11
191.9142868518829
 21
-77.90000009536743
 31
0.0
100
AcDbText
  0
LINE
  5
390
330
1F
100
AcDbEntity
  8
0
  6
CONTINUOUS
 62
     7
100
AcDbLine
 10
95.5
 20
-58.0
 30
0.0
 11
95.5
 21
-79.5
 31
0.0
  0
LINE
  5
391
330
1F
100
AcDbEntity
  8
0
  6
CONTINUOUS
 62
     7
100
AcDbLine
 10
80.5
 20
-72.0
 30
0.0
 11
192.5
 21
-72.0
 31
0.0
  0
LINE
  5
392
330
1F
100
AcDbEntity
  8
0
  6
CONTINUOUS
 62
     7
100
AcDbLine
 10
80.5
 20
-65.0
 30
0.0
 11
192.5
 21
-65.0
 31
0.0
  0
LINE
  5
393
330
1F
100
AcDbEntity
  8
0
  6
CONTINUOUS
 62
     7
100
AcDbLine
 10
144.5
 20
-58.00000000000001
 30
0.0
 11
144.5
 21
-79.5
 31
0.0
  0
LINE
  5
394
330
1F
100
AcDbEntity
  8
0
  6
CONTINUOUS
 62
     7
100
AcDbLine
 10
173.5
 20
-58.0
 30
0.0
 11
173.5
 21
-79.5
 31
0.0
  0
LINE
  5
395
330
1F
100
AcDbEntity
  8
0
  6
CONTINUOUS
 62
     7
100
AcDbLine
 10
80.5
 20
-79.5
 30
0.0
 11
80.5
 21
-58.0
 31
0.0
  0
LINE
  5
396
330
1F
100
AcDbEntity
  8
0
  6
CONTINUOUS
 62
     7
100
AcDbLine
 10
80.5
 20
-58.0
 30
0.0
 11
192.5
 21
-58.0
 31
0.0
  0
LINE
  5
397
330
1F
100
AcDbEntity
  8
0
  6
CENTER
 62
     7
100
AcDbLine
 10
-117.5039977748554
 20
70.1284033914619
 30
0.0
 11
-117.5039977748555
 21
-12.95159660853753
 31
0.0
  0
LINE
  5
398
330
1F
100
AcDbEntity
  8
0
  6
CENTER
 62
     7
100
AcDbLine
 10
-76.11463203737253
 20
28.58840339146247
 30
0.0
 11
-159.0439977748555
 21
28.58840339146247
 31
0.0
  0
LINE
  5
399
330
1F
100
AcDbEntity
  8
0
  6
CENTER
 62
     7
100
AcDbLine
 10
-15.47444895691848
 20
68.15734761311873
 30
0.0
 11
-15.47444895691848
 21
62.13819954758785
 31
0.0
  0
LINE
  5
39A
330
1F
100
AcDbEntity
  8
0
  6
CENTER
 62
     7
100
AcDbLine
 10
-22.47444895691848
 20
28.58840339146247
 30
0.0
 11
146.5255510430815
 21
28.58840339146247
 31
0.0
  0
LINE
  5
39B
330
1F
100
AcDbEntity
  8
0
  6
CENTER
 62
     7
100
AcDbLine
 10
-141.3303562797974
 20
62.61596930816688
 30
0.0
 11
-117.5039977748555
 21
28.58840290141086
 31
0.0
  0
ARC
  5
39C
330
1F
100
AcDbEntity
  8
0
  6
DASHED2
 62
     7
100
AcDbCircle
 10
79.5286576368274
 20
29.8297175527507
 30
0.0
 40
0.5
100
AcDbArc
 50
179.7132162924777
 51
268.9999999999998
  0
LINE
  5
39D
330
1F
100
AcDbEntity
  8
0
  6
CONTINUOUS
 62
     7
100
AcDbLine
 10
143.0299143108308
 20
58.78407803522786
 30
0.0
 11
81.68184911740627
 21
58.248701581066
 31
0.0
  0
LINE
  5
39E
330
1F
100
AcDbEntity
  8
0
  6
CONTINUOUS
 62
     7
100
AcDbLine
 10
86.02555104308152
 20
57.79095288819634
 30
0.0
 11
86.02555104308152
 21
28.58840339146244
 31
0.0
  0
LINE
  5
39F
330
1F
100
AcDbEntity
  8
0
  6
CONTINUOUS
 62
     7
100
AcDbLine
 10
143.5255510430815
 20
-2.615675145966844
 30
0.0
 11
143.5255510430815
 21
28.58840339146247
 31
0.0
  0
LINE
  5
3A0
330
1F
100
AcDbEntity
  8
0
  6
CONTINUOUS
 62
     7
100
AcDbLine
 10
143.5255510430815
 20
59.79248192889178
 30
0.0
 11
143.5255510430815
 21
28.58840339146244
 31
0.0
  0
ARC
  5
3A1
330
1F
100
AcDbEntity
  8
0
  6
CONTINUOUS
 62
     7
100
AcDbCircle
 10
327.5255510430816
 20
28.58840339146247
 30
0.0
 40
248.5
100
AcDbArc
 50
173.3502681976457
 51
180.0
  0
ARC
  5
3A2
330
1F
100
AcDbEntity
  8
0
  6
CONTINUOUS
 62
     7
100
AcDbCircle
 10
327.5255510430816
 20
28.58840339146247
 30
0.0
 40
250.0
100
AcDbArc
 50
172.7046369678575
 51
180.0
  0
ARC
  5
3A3
330
1F
100
AcDbEntity
  8
0
  6
CONTINUOUS
 62
     7
100
AcDbCircle
 10
143.0255510430815
 20
59.28405899675997
 30
0.0
 40
0.5
100
AcDbArc
 50
270.5000000000013
 51
360.0
  0
LINE
  5
3A4
330
1F
100
AcDbEntity
  8
0
  6
CONTINUOUS
 62
     7
100
AcDbLine
 10
2.525551043081521
 20
28.58840339146247
 30
0.0
 11
2.525551043081521
 21
-7.311591267961337
 31
0.0
  0
LINE
  5
3A5
330
1F
100
AcDbEntity
  8
0
  6
CONTINUOUS
 62
     7
100
AcDbLine
 10
1.525551043081521
 20
-8.31159126796133
 30
0.0
 11
1.525551043081521
 21
28.58840339146247
 31
0.0
  0
LINE
  5
3A6
330
1F
100
AcDbEntity
  8
0
  6
CONTINUOUS
 62
     7
100
AcDbLine
 10
24.54300344951878
 20
64.27030439379944
 30
0.0
 11
29.54300344951878
 21
64.18302906915834
 31
0.0
  0
LINE
  5
3A7
330
1F
100
AcDbEntity
  8
0
  6
CONTINUOUS
 62
     7
100
AcDbLine
 10
52.54300344951878
 20
63.78156257580928
 30
0.0
 11
57.54300344951878
 21
63.69428725116818
 31
0.0
  0
LINE
  5
3A8
330
1F
100
AcDbEntity
  8
0
  6
CONTINUOUS
 62
     7
100
AcDbLine
 10
-9.474448956918479
 20
63.36385274218057
 30
0.0
 11
-9.474448956918479
 21
63.36244928613633
 31
0.0
  0
LINE
  5
3A9
330
1F
100
AcDbEntity
  8
0
  6
CONTINUOUS
 62
     7
100
AcDbLine
 10
24.54300344951878
 20
-7.093497610874497
 30
0.0
 11
29.54300344951878
 21
-7.006222286233406
 31
0.0
  0
LINE
  5
3AA
330
1F
100
AcDbEntity
  8
0
  6
CONTINUOUS
 62
     7
100
AcDbLine
 10
52.54300344951878
 20
-6.604755792884337
 30
0.0
 11
57.54300344951878
 21
-6.517480468243246
 31
0.0
  0
LINE
  5
3AB
330
1F
100
AcDbEntity
  8
0
  6
CONTINUOUS
 62
     7
100
AcDbLine
 10
2.525551043081521
 20
-5.977585180116986
 30
0.0
 11
23.52555104308152
 21
-5.611028816624366
 31
0.0
  0
LINE
  5
3AC
330
1F
100
AcDbEntity
  8
0
  6
CONTINUOUS
 62
     7
100
AcDbLine
 10
30.52555104308152
 20
-5.488843362126826
 30
0.0
 11
51.52555104308152
 21
-5.122286998634205
 31
0.0
  0
LINE
  5
3AD
330
1F
100
AcDbEntity
  8
0
  6
CONTINUOUS
 62
     7
100
AcDbLine
 10
80.29776771919029
 20
-4.620066088423915
 30
0.0
 11
58.52555104308152
 21
-5.000101544136658
 31
0.0
  0
LINE
  5
3AE
330
1F
100
AcDbEntity
  8
0
  6
CONTINUOUS
 62
     7
100
AcDbLine
 10
80.52555104308152
 20
-4.589681871986674
 30
0.0
 11
80.52555104308152
 21
28.58840339146247
 31
0.0
  0
LINE
  5
3AF
330
1F
100
AcDbEntity
  8
0
  6
CONTINUOUS
 62
     7
100
AcDbLine
 10
82.52555104308146
 20
-3.639100963672316
 30
0.0
 11
82.52555104308146
 21
28.58840339146247
 31
0.0
  0
ARC
  5
3B0
330
1F
100
AcDbEntity
  8
0
  6
CONTINUOUS
 62
     7
100
AcDbCircle
 10
81.69057565290461
 20
57.24873965800182
 30
0.0
 40
1.0
100
AcDbArc
 50
90.49999999999969
 51
173.3502681976453
  0
LINE
  5
3B1
330
1F
100
AcDbEntity
  8
0
  6
CONTINUOUS
 62
     7
100
AcDbLine
 10
2.525551043081059
 20
61.67894261232419
 30
0.0
 11
79.54937036164054
 21
60.33448684509944
 31
0.0
  0
ARC
  5
3B2
330
1F
100
AcDbEntity
  8
0
  6
CONTINUOUS
 62
     7
100
AcDbCircle
 10
-8.434130716261279
 20
59.66823262099449
 30
0.0
 40
1.040318240657186
100
AcDbArc
 50
90.0
 51
270.0
  0
ARC
  5
3B3
330
1F
100
AcDbEntity
  8
0
  6
CONTINUOUS
 62
     7
100
AcDbCircle
 10
-8.318458180222649
 20
56.7508853094144
 30
0.0
 40
1.155990776695845
100
AcDbArc
 50
89.99999999999366
 51
270.0000000000063
  0
ARC
  5
3B4
330
1F
100
AcDbEntity
  8
0
  6
CONTINUOUS
 62
     7
100
AcDbCircle
 10
-8.215121468492612
 20
52.95504686517967
 30
0.0
 40
1.259327488425846
100
AcDbArc
 50
90.0000000000055
 51
269.9999999999945
  0
ARC
  5
3B5
330
1F
100
AcDbEntity
  8
0
  6
CONTINUOUS
 62
     7
100
AcDbCircle
 10
-8.127260414766283
 20
48.39605191863114
 30
0.0
 40
1.347188542152182
100
AcDbArc
 50
89.99999999999578
 51
270.0
  0
ARC
  5
3B6
330
1F
100
AcDbEntity
  8
0
  6
CONTINUOUS
 62
     7
100
AcDbCircle
 10
-8.057544632701251
 20
43.21242322425619
 30
0.0
 40
1.416904324217207
100
AcDbArc
 50
89.99999999999569
 51
270.0000000000043
  0
ARC
  5
3B7
330
1F
100
AcDbEntity
  8
0
  6
CONTINUOUS
 62
     7
100
AcDbCircle
 10
-12.5080924010577
 20
37.56166271689104
 30
0.0
 40
1.466356555860774
100
AcDbArc
 50
90.0
 51
270.0000000000018
  0
LINE
  5
3B8
330
1F
100
AcDbEntity
  8
0
  6
CONTINUOUS
 62
     7
100
AcDbLine
 10
77.62652857456271
 20
35.69323057294365
 30
0.0
 11
-12.51463327193477
 21
36.0953207492982
 31
0.0
  0
LINE
  5
3B9
330
1F
100
AcDbEntity
  8
0
  6
CONTINUOUS
 62
     7
100
AcDbLine
 10
77.72778724968498
 20
38.64211931237715
 30
0.0
 11
-12.50182126558718
 21
39.02800586287556
 31
0.0
  0
LINE
  5
3BA
330
1F
100
AcDbEntity
  8
0
  6
CONTINUOUS
 62
     7
100
AcDbLine
 10
77.84078378815349
 20
41.13898110136906
 30
0.0
 11
-8.068373311963626
 21
41.79556027968785
 31
0.0
  0
LINE
  5
3BB
330
1F
100
AcDbEntity
  8
0
  6
CONTINUOUS
 62
     7
100
AcDbLine
 10
78.00094166359685
 20
43.99844278192389
 30
0.0
 11
-8.047157123912427
 21
44.62928947187682
 31
0.0
  0
LINE
  5
3BC
330
1F
100
AcDbEntity
  8
0
  6
CONTINUOUS
 62
     7
100
AcDbLine
 10
78.14368345164132
 20
46.15781193601434
 30
0.0
 11
-8.141173018949417
 21
47.04893521709747
 31
0.0
  0
LINE
  5
3BD
330
1F
100
AcDbEntity
  8
0
  6
CONTINUOUS
 62
     7
100
AcDbLine
 10
78.35185463561015
 20
48.89773668030439
 30
0.0
 11
-8.114088618200356
 21
49.74317606728313
 31
0.0
  0
LINE
  5
3BE
330
1F
100
AcDbEntity
  8
0
  6
CONTINUOUS
 62
     7
100
AcDbLine
 10
78.49621216930234
 20
50.59722844161972
 30
0.0
 11
-8.231072343422795
 21
51.69582039917209
 31
0.0
  0
LINE
  5
3BF
330
1F
100
AcDbEntity
  8
0
  6
CONTINUOUS
 62
     7
100
AcDbLine
 10
78.7357996546271
 20
53.15788861340023
 30
0.0
 11
-8.199819958472801
 21
54.21428138936334
 31
0.0
  0
LINE
  5
3C0
330
1F
100
AcDbEntity
  8
0
  6
CONTINUOUS
 62
     7
100
AcDbLine
 10
78.85354931154529
 20
54.32234119411552
 30
0.0
 11
-8.33533012036213
 21
55.59501766411854
 31
0.0
  0
LINE
  5
3C1
330
1F
100
AcDbEntity
  8
0
  6
CONTINUOUS
 62
     7
100
AcDbLine
 10
79.10914625176258
 20
56.68270584864371
 30
0.0
 11
-8.302271967797594
 21
57.90676276067521
 31
0.0
  0
LINE
  5
3C2
330
1F
100
AcDbEntity
  8
0
  6
CONTINUOUS
 62
     7
100
AcDbLine
 10
79.17049531255594
 20
57.21996452751515
 30
0.0
 11
-8.450846581251085
 21
58.62804868451897
 31
0.0
  0
LINE
  5
3C3
330
1F
100
AcDbEntity
  8
0
  6
CONTINUOUS
 62
     7
100
AcDbLine
 10
79.4258035309316
 20
59.35389192012822
 30
0.0
 11
-8.418091123828162
 21
60.70842720534813
 31
0.0
  0
LINE
  5
3C4
330
1F
100
AcDbEntity
  8
0
  6
CONTINUOUS
 62
     7
100
AcDbLine
 10
23.52555104308152
 20
21.24224948253537
 30
0.0
 11
2.525551043081521
 21
21.14857536595561
 31
0.0
  0
LINE
  5
3C5
330
1F
100
AcDbEntity
  8
0
  6
CONTINUOUS
 62
     7
100
AcDbLine
 10
23.52555104308152
 20
18.30287981557469
 30
0.0
 11
2.525551043081521
 21
18.21306874697079
 31
0.0
  0
LINE
  5
3C6
330
1F
100
AcDbEntity
  8
0
  6
CONTINUOUS
 62
     7
100
AcDbLine
 10
23.52555104308152
 20
15.62270985351448
 30
0.0
 11
2.525551043081521
 21
15.4622128446959
 31
0.0
  0
LINE
  5
3C7
330
1F
100
AcDbEntity
  8
0
  6
CONTINUOUS
 62
     7
100
AcDbLine
 10
23.52555104308152
 20
12.77898713688568
 30
0.0
 11
2.525551043081521
 21
12.62502928452538
 31
0.0
  0
LINE
  5
3C8
330
1F
100
AcDbEntity
  8
0
  6
CONTINUOUS
 62
     7
100
AcDbLine
 10
23.52555104308152
 20
10.45491568691178
 30
0.0
 11
2.525551043081521
 21
10.23803418918195
 31
0.0
  0
LINE
  5
3C9
330
1F
100
AcDbEntity
  8
0
  6
CONTINUOUS
 62
     7
100
AcDbLine
 10
23.52555104308152
 20
7.742994108358662
 30
0.0
 11
2.525551043081521
 21
7.537662084460674
 31
0.0
  0
LINE
  5
3CA
330
1F
100
AcDbEntity
  8
0
  6
CONTINUOUS
 62
     7
100
AcDbLine
 10
23.52555104308152
 20
5.88325391982811
 30
0.0
 11
2.525551043081521
 21
5.617242695814586
 31
0.0
  0
LINE
  5
3CB
330
1F
100
AcDbEntity
  8
0
  6
CONTINUOUS
 62
     7
100
AcDbLine
 10
23.52555104308152
 20
3.348034266563762
 30
0.0
 11
2.525551043081521
 21
3.092854072370006
 31
0.0
  0
LINE
  5
3CC
330
1F
100
AcDbEntity
  8
0
  6
CONTINUOUS
 62
     7
100
AcDbLine
 10
23.52555104308152
 20
2.0468552377252
 30
0.0
 11
2.525551043081521
 21
1.740322959248832
 31
0.0
  0
LINE
  5
3CD
330
1F
100
AcDbEntity
  8
0
  6
CONTINUOUS
 62
     7
100
AcDbLine
 10
23.52555104308152
 20
-0.2842582926546662
 30
0.0
 11
2.525551043081521
 21
-0.5783296585727378
 31
0.0
  0
LINE
  5
3CE
330
1F
100
AcDbEntity
  8
0
  6
CONTINUOUS
 62
     7
100
AcDbLine
 10
23.52555104308152
 20
-0.9373778369755534
 30
0.0
 11
2.525551043081521
 21
-1.274850040185111
 31
0.0
  0
LINE
  5
3CF
330
1F
100
AcDbEntity
  8
0
  6
CONTINUOUS
 62
     7
100
AcDbLine
 10
23.52555104308152
 20
-3.039055849511552
 30
0.0
 11
2.525551043081521
 21
-3.362871649134416
 31
0.0
  0
LINE
  5
3D0
330
1F
100
AcDbEntity
  8
0
  6
CONTINUOUS
 62
     7
100
AcDbLine
 10
58.52555104308152
 20
21.39837301016835
 30
0.0
 11
79.02778135700174
 21
21.48982673933842
 31
0.0
  0
LINE
  5
3D1
330
1F
100
AcDbEntity
  8
0
  6
CONTINUOUS
 62
     7
100
AcDbLine
 10
51.52555104308152
 20
21.36714830464175
 30
0.0
 11
30.52555104308152
 21
21.27347418806197
 31
0.0
  0
LINE
  5
3D2
330
1F
100
AcDbEntity
  8
0
  6
CONTINUOUS
 62
     7
100
AcDbLine
 10
58.52555104308152
 20
18.45256492991449
 30
0.0
 11
79.02597871090075
 21
18.54023946875663
 31
0.0
  0
LINE
  5
3D3
330
1F
100
AcDbEntity
  8
0
  6
CONTINUOUS
 62
     7
100
AcDbLine
 10
51.52555104308152
 20
18.42262790704654
 30
0.0
 11
30.52555104308152
 21
18.33281683844264
 31
0.0
  0
LINE
  5
3D4
330
1F
100
AcDbEntity
  8
0
  6
CONTINUOUS
 62
     7
100
AcDbLine
 10
58.52555104308152
 20
15.89020486821213
 30
0.0
 11
79.03242928539953
 21
16.04693308812136
 31
0.0
  0
LINE
  5
3D5
330
1F
100
AcDbEntity
  8
0
  6
CONTINUOUS
 62
     7
100
AcDbLine
 10
51.52555104308152
 20
15.8367058652726
 30
0.0
 11
30.52555104308152
 21
15.67620885645401
 31
0.0
  0
LINE
  5
3D6
330
1F
100
AcDbEntity
  8
0
  6
CONTINUOUS
 62
     7
100
AcDbLine
 10
58.52555104308152
 20
13.03558355748617
 30
0.0
 11
79.02665071245804
 21
13.18588380873016
 31
0.0
  0
LINE
  5
3D7
330
1F
100
AcDbEntity
  8
0
  6
CONTINUOUS
 62
     7
100
AcDbLine
 10
51.52555104308152
 20
12.98426427336607
 30
0.0
 11
30.52555104308152
 21
12.83030642100577
 31
0.0
  0
LINE
  5
3D8
330
1F
100
AcDbEntity
  8
0
  6
CONTINUOUS
 62
     7
100
AcDbLine
 10
58.52555104308152
 20
10.81638484979484
 30
0.0
 11
79.03432911175742
 21
11.02819315951589
 31
0.0
  0
LINE
  5
3D9
330
1F
100
AcDbEntity
  8
0
  6
CONTINUOUS
 62
     7
100
AcDbLine
 10
51.52555104308152
 20
10.74409101721823
 30
0.0
 11
30.52555104308152
 21
10.52720951948839
 31
0.0
  0
LINE
  5
3DA
330
1F
100
AcDbEntity
  8
0
  6
CONTINUOUS
 62
     7
100
AcDbLine
 10
58.52555104308152
 20
8.085214148188637
 30
0.0
 11
79.02770203768034
 21
8.285678346187712
 31
0.0
  0
LINE
  5
3DB
330
1F
100
AcDbEntity
  8
0
  6
CONTINUOUS
 62
     7
100
AcDbLine
 10
51.52555104308152
 20
8.016770140222651
 30
0.0
 11
30.52555104308152
 21
7.811438116324656
 31
0.0
  0
LINE
  5
3DC
330
1F
100
AcDbEntity
  8
0
  6
CONTINUOUS
 62
     7
100
AcDbLine
 10
58.52555104308152
 20
6.326605959850671
 30
0.0
 11
79.03543066738297
 21
6.586408730480766
 31
0.0
  0
LINE
  5
3DD
330
1F
100
AcDbEntity
  8
0
  6
CONTINUOUS
 62
     7
100
AcDbLine
 10
51.52555104308152
 20
6.237935551846153
 30
0.0
 11
30.52555104308152
 21
5.971924327832628
 31
0.0
  0
LINE
  5
3DE
330
1F
100
AcDbEntity
  8
0
  6
CONTINUOUS
 62
     7
100
AcDbLine
 10
58.52555104308152
 20
3.773334590220021
 30
0.0
 11
79.0291962053779
 21
4.022483359467099
 31
0.0
  0
LINE
  5
3DF
330
1F
100
AcDbEntity
  8
0
  6
CONTINUOUS
 62
     7
100
AcDbLine
 10
51.52555104308152
 20
3.688274525488769
 30
0.0
 11
30.52555104308152
 21
3.433094331295013
 31
0.0
  0
LINE
  5
3E0
330
1F
100
AcDbEntity
  8
0
  6
CONTINUOUS
 62
     7
100
AcDbLine
 10
58.52555104308152
 20
2.557742368519133
 30
0.0
 11
79.03576769732831
 21
2.857125389617618
 31
0.0
  0
LINE
  5
3E1
330
1F
100
AcDbEntity
  8
0
  6
CONTINUOUS
 62
     7
100
AcDbLine
 10
51.52555104308152
 20
2.455564942360343
 30
0.0
 11
30.52555104308152
 21
2.149032663883983
 31
0.0
  0
LINE
  5
3E2
330
1F
100
AcDbEntity
  8
0
  6
CONTINUOUS
 62
     7
100
AcDbLine
 10
79.0311518533083
 20
0.4930087476484992
 30
0.0
 11
58.52555104308152
 21
0.2058606505421103
 31
0.0
  0
LINE
  5
3E3
330
1F
100
AcDbEntity
  8
0
  6
CONTINUOUS
 62
     7
100
AcDbLine
 10
51.52555104308152
 20
0.1078368619027579
 30
0.0
 11
30.52555104308152
 21
-0.1862345040153137
 31
0.0
  0
LINE
  5
3E4
330
1F
100
AcDbEntity
  8
0
  6
CONTINUOUS
 62
     7
100
AcDbLine
 10
79.03519186124402
 20
-0.0453320852481376
 30
0.0
 11
58.52555104308152
 21
-0.3749241649596335
 31
0.0
  0
LINE
  5
3E5
330
1F
100
AcDbEntity
  8
0
  6
CONTINUOUS
 62
     7
100
AcDbLine
 10
51.52555104308152
 20
-0.4874148993628218
 30
0.0
 11
30.52555104308152
 21
-0.8248871025723723
 31
0.0
  0
LINE
  5
3E6
330
1F
100
AcDbEntity
  8
0
  6
CONTINUOUS
 62
     7
100
AcDbLine
 10
58.52555104308152
 20
-2.499362850140098
 30
0.0
 11
79.01784205951947
 21
-2.183375821492849
 31
0.0
  0
LINE
  5
3E7
330
1F
100
AcDbEntity
  8
0
  6
CONTINUOUS
 62
     7
100
AcDbLine
 10
51.52555104308152
 20
-2.607301450014386
 30
0.0
 11
30.52555104308152
 21
-2.931117249637264
 31
0.0
  0
LINE
  5
3E8
330
1F
100
AcDbEntity
  8
0
  6
CONTINUOUS
 62
     7
100
AcDbLine
 10
30.52555104308152
 20
62.66565014505176
 30
0.0
 11
51.52555104308152
 21
62.29909378155914
 31
0.0
  0
LINE
  5
3E9
330
1F
100
AcDbEntity
  8
0
  6
CONTINUOUS
 62
     7
100
AcDbLine
 10
58.52555104308152
 20
62.1769083270616
 30
0.0
 11
80.29776771919035
 21
61.79687287134884
 31
0.0
  0
ARC
  5
3EA
330
1F
100
AcDbEntity
  8
0
  6
CONTINUOUS
 62
     7
100
AcDbCircle
 10
327.5255510430816
 20
28.58840339146247
 30
0.0
 40
250.0
100
AcDbArc
 50
181.0313797308547
 51
181.6285257119212
  0
ARC
  5
3EB
330
1F
100
AcDbEntity
  8
0
  6
CONTINUOUS
 62
     7
100
AcDbCircle
 10
327.5255510430816
 20
28.58840339146247
 30
0.0
 40
250.0
100
AcDbArc
 50
182.3047634717855
 51
182.8775901154582
  0
ARC
  5
3EC
330
1F
100
AcDbEntity
  8
0
  6
CONTINUOUS
 62
     7
100
AcDbCircle
 10
327.5255510430816
 20
28.58840339146247
 30
0.0
 40
250.0
100
AcDbArc
 50
183.5339611769082
 51
184.029933757258
  0
ARC
  5
3ED
330
1F
100
AcDbEntity
  8
0
  6
CONTINUOUS
 62
     7
100
AcDbCircle
 10
327.5255510430816
 20
28.58840339146247
 30
0.0
 40
250.0
100
AcDbArc
 50
184.6596912202641
 51
185.0505893908836
  0
ARC
  5
3EE
330
1F
100
AcDbEntity
  8
0
  6
CONTINUOUS
 62
     7
100
AcDbCircle
 10
327.5255510430816
 20
28.58840339146247
 30
0.0
 40
250.0
100
AcDbArc
 50
185.6400152669124
 51
185.9082493413671
  0
ARC
  5
3EF
330
1F
100
AcDbEntity
  8
0
  6
CONTINUOUS
 62
     7
100
AcDbCircle
 10
327.5255510430816
 20
28.58840339146247
 30
0.0
 40
250.0
100
AcDbArc
 50
187.1275949494478
 51
187.2522468650594
  0
ARC
  5
3F0
330
1F
100
AcDbEntity
  8
0
  6
CONTINUOUS
 62
     7
100
AcDbCircle
 10
327.5255510430816
 20
28.58840339146247
 30
0.0
 40
250.0
100
AcDbArc
 50
186.4527036266564
 51
186.5753422066652
  0
LINE
  5
3F1
330
1F
100
AcDbEntity
  8
0
  6
CONTINUOUS
 62
     7
100
AcDbLine
 10
-9.474448956918479
 20
32.08840339146192
 30
0.0
 11
-9.474448956918479
 21
28.58840339146244
 31
0.0
  0
LINE
  5
3F2
330
1F
100
AcDbEntity
  8
0
  6
CONTINUOUS
 62
     7
100
AcDbLine
 10
2.525551043081521
 20
63.15439196304193
 30
0.0
 11
23.52555104308152
 21
62.7878355995493
 31
0.0
  0
LINE
  5
3F3
330
1F
100
AcDbEntity
  8
0
  6
CONTINUOUS
 62
     7
100
AcDbLine
 10
-12.67444895691847
 20
62.07750893680257
 30
0.0
 11
-12.67444895691847
 21
39.01855222719648
 31
0.0
  0
LINE
  5
3F4
330
1F
100
AcDbEntity
  8
0
  6
CONTINUOUS
 62
     7
100
AcDbLine
 10
-12.67444895691847
 20
36.10477320658559
 30
0.0
 11
-12.67444895691847
 21
28.58840339146244
 31
0.0
  0
ARC
  5
3F5
330
1F
100
AcDbEntity
  8
0
  6
CONTINUOUS
 62
     7
100
AcDbCircle
 10
-18.97444895691848
 20
63.67024927298799
 30
0.0
 40
0.5
100
AcDbArc
 50
180.0
 51
268.9999999999998
  0
ARC
  5
3F6
330
1F
100
AcDbEntity
  8
0
  6
CONTINUOUS
 62
     7
100
AcDbCircle
 10
-13.67444895691847
 20
62.07750893680257
 30
0.0
 40
1.0
100
AcDbArc
 50
0.0
 51
88.99999999999986
  0
LINE
  5
3F7
330
1F
100
AcDbEntity
  8
0
  6
CONTINUOUS
 62
     7
100
AcDbLine
 10
79.52555104308152
 20
-2.683316389533129
 30
0.0
 11
79.52555104308152
 21
-4.633545180644038
 31
0.0
  0
LINE
  5
3F8
330
1F
100
AcDbEntity
  8
0
  6
CONTINUOUS
 62
     7
100
AcDbLine
 10
79.52555105019701
 20
0.0625605067464328
 30
0.0
 11
79.52555104308499
 21
0.3999222121825419
 31
0.0
  0
LINE
  5
3F9
330
1F
100
AcDbEntity
  8
0
  6
CONTINUOUS
 62
     7
100
AcDbLine
 10
79.52555104475471
 20
3.061960165113913
 30
0.0
 11
79.52555105124441
 21
3.828499347220177
 31
0.0
  0
LINE
  5
3FA
330
1F
100
AcDbEntity
  8
0
  6
CONTINUOUS
 62
     7
100
AcDbLine
 10
79.52555104308152
 20
6.868666775307016
 30
0.0
 11
79.52555104308152
 21
8.010532787885882
 31
0.0
  0
LINE
  5
3FB
330
1F
100
AcDbEntity
  8
0
  6
CONTINUOUS
 62
     7
100
AcDbLine
 10
79.52555104308152
 20
11.37822416918842
 30
0.0
 11
79.52555104952074
 21
12.83953112548343
 31
0.0
  0
LINE
  5
3FC
330
1F
100
AcDbEntity
  8
0
  6
CONTINUOUS
 62
     7
100
AcDbLine
 10
79.52555104308095
 20
16.445822118742
 30
0.0
 11
79.52555104308976
 21
18.14237234047252
 31
0.0
  0
LINE
  5
3FD
330
1F
100
AcDbEntity
  8
0
  6
CONTINUOUS
 62
     7
100
AcDbLine
 10
79.52555104308152
 20
21.98982176501349
 30
0.0
 11
79.52555104308158
 21
23.58840339146193
 31
0.0
  0
LINE
  5
3FE
330
1F
100
AcDbEntity
  8
0
  6
CONTINUOUS
 62
     7
100
AcDbLine
 10
23.52555104308152
 20
28.58840339146247
 30
0.0
 11
23.52555104308152
 21
-6.0936499157181
 31
0.0
  0
LINE
  5
3FF
330
1F
100
AcDbEntity
  8
0
  6
CONTINUOUS
 62
     7
100
AcDbLine
 10
58.52555104308152
 20
28.58840339146247
 30
0.0
 11
58.52555104308152
 21
-5.517632773086849
 31
0.0
  0
LINE
  5
400
330
1F
100
AcDbEntity
  8
0
  6
CONTINUOUS
 62
     7
100
AcDbLine
 10
51.52555104308152
 20
28.58840339146247
 30
0.0
 11
51.52555104308152
 21
-5.60490809772794
 31
0.0
  0
ARC
  5
401
330
1F
100
AcDbEntity
  8
0
  6
CONTINUOUS
 62
     7
100
AcDbCircle
 10
24.52555104308152
 20
-6.0936499157181
 30
0.0
 40
1.0
100
AcDbArc
 50
180.0
 51
271.0000000000001
  0
ARC
  5
402
330
1F
100
AcDbEntity
  8
0
  6
CONTINUOUS
 62
     7
100
AcDbCircle
 10
52.52555104308152
 20
-5.60490809772794
 30
0.0
 40
1.0
100
AcDbArc
 50
180.0
 51
271.0000000000001
  0
ARC
  5
403
330
1F
100
AcDbEntity
  8
0
  6
CONTINUOUS
 62
     7
100
AcDbCircle
 10
57.52555104308152
 20
-5.517632773086849
 30
0.0
 40
1.0
100
AcDbArc
 50
271.0000000000001
 51
360.0
  0
LINE
  5
404
330
1F
100
AcDbEntity
  8
0
  6
CONTINUOUS
 62
     7
100
AcDbLine
 10
30.52555104308152
 20
28.58840339146247
 30
0.0
 11
30.52555104308152
 21
-6.006374591077016
 31
0.0
  0
ARC
  5
405
330
1F
100
AcDbEntity
  8
0
  6
CONTINUOUS
 62
     7
100
AcDbCircle
 10
29.52555104308152
 20
-6.006374591077016
 30
0.0
 40
1.0
100
AcDbArc
 50
271.0000000000001
 51
360.0
  0
ARC
  5
406
330
1F
100
AcDbEntity
  8
0
  6
CONTINUOUS
 62
     7
100
AcDbCircle
 10
24.52555104308152
 20
63.27045669864305
 30
0.0
 40
1.0
100
AcDbArc
 50
88.99999999999986
 51
180.0
  0
ARC
  5
407
330
1F
100
AcDbEntity
  8
0
  6
CONTINUOUS
 62
     7
100
AcDbCircle
 10
29.52555104308152
 20
63.18318137400195
 30
0.0
 40
1.0
100
AcDbArc
 50
0.0
 51
88.99999999999986
  0
ARC
  5
408
330
1F
100
AcDbEntity
  8
0
  6
CONTINUOUS
 62
     7
100
AcDbCircle
 10
52.52555104308152
 20
62.78171488065289
 30
0.0
 40
1.0
100
AcDbArc
 50
88.99999999999986
 51
180.0
  0
ARC
  5
409
330
1F
100
AcDbEntity
  8
0
  6
CONTINUOUS
 62
     7
100
AcDbCircle
 10
57.52555104308152
 20
62.69443955601179
 30
0.0
 40
1.0
100
AcDbArc
 50
0.0
 51
88.99999999999986
  0
LINE
  5
40A
330
1F
100
AcDbEntity
  8
0
  6
CONTINUOUS
 62
     7
100
AcDbLine
 10
23.52555104308152
 20
33.08840339146192
 30
0.0
 11
23.52555104308152
 21
35.93455730038956
 31
0.0
  0
LINE
  5
40B
330
1F
100
AcDbEntity
  8
0
  6
CONTINUOUS
 62
     7
100
AcDbLine
 10
30.52555104308152
 20
33.08840339146192
 30
0.0
 11
30.52555104308152
 21
35.90333259486296
 31
0.0
  0
LINE
  5
40C
330
1F
100
AcDbEntity
  8
0
  6
CONTINUOUS
 62
     7
100
AcDbLine
 10
51.52555104308152
 20
33.08840339146192
 30
0.0
 11
51.52555104308152
 21
35.80965847828318
 31
0.0
  0
LINE
  5
40D
330
1F
100
AcDbEntity
  8
0
  6
CONTINUOUS
 62
     7
100
AcDbLine
 10
58.52555104308152
 20
33.08840339146192
 30
0.0
 11
58.52555104308152
 21
35.77843377275659
 31
0.0
  0
LINE
  5
40E
330
1F
100
AcDbEntity
  8
0
  6
CONTINUOUS
 62
     7
100
AcDbLine
 10
23.52555104308152
 20
38.87392696735024
 30
0.0
 11
23.52555104308152
 21
41.55409692941045
 31
0.0
  0
LINE
  5
40F
330
1F
100
AcDbEntity
  8
0
  6
CONTINUOUS
 62
     7
100
AcDbLine
 10
30.52555104308152
 20
38.84398994448229
 30
0.0
 11
30.52555104308152
 21
41.50059792647092
 31
0.0
  0
LINE
  5
410
330
1F
100
AcDbEntity
  8
0
  6
CONTINUOUS
 62
     7
100
AcDbLine
 10
51.52555104308152
 20
38.7541788758784
 30
0.0
 11
51.52555104308152
 21
41.34010091765234
 31
0.0
  0
LINE
  5
411
330
1F
100
AcDbEntity
  8
0
  6
CONTINUOUS
 62
     7
100
AcDbLine
 10
58.52555104308152
 20
38.72424185301044
 30
0.0
 11
58.52555104308152
 21
41.2866019147128
 31
0.0
  0
LINE
  5
412
330
1F
100
AcDbEntity
  8
0
  6
CONTINUOUS
 62
     7
100
AcDbLine
 10
23.52555104308152
 20
44.39781964603925
 30
0.0
 11
23.52555104308152
 21
46.72189109601315
 31
0.0
  0
LINE
  5
413
330
1F
100
AcDbEntity
  8
0
  6
CONTINUOUS
 62
     7
100
AcDbLine
 10
30.52555104308152
 20
44.34650036191916
 30
0.0
 11
30.52555104308152
 21
46.64959726343653
 31
0.0
  0
LINE
  5
414
330
1F
100
AcDbEntity
  8
0
  6
CONTINUOUS
 62
     7
100
AcDbLine
 10
51.52555104308152
 20
44.19254250955886
 30
0.0
 11
51.52555104308152
 21
46.4327157657067
 31
0.0
  0
LINE
  5
415
330
1F
100
AcDbEntity
  8
0
  6
CONTINUOUS
 62
     7
100
AcDbLine
 10
58.52555104308152
 20
44.14122322543877
 30
0.0
 11
58.52555104308152
 21
46.36042193313008
 31
0.0
  0
LINE
  5
416
330
1F
100
AcDbEntity
  8
0
  6
CONTINUOUS
 62
     7
100
AcDbLine
 10
23.52555104308152
 20
49.43381267456627
 30
0.0
 11
23.52555104308152
 21
51.29355286309682
 31
0.0
  0
LINE
  5
417
330
1F
100
AcDbEntity
  8
0
  6
CONTINUOUS
 62
     7
100
AcDbLine
 10
30.52555104308152
 20
49.36536866660028
 30
0.0
 11
30.52555104308152
 21
51.2048824550923
 31
0.0
  0
LINE
  5
418
330
1F
100
AcDbEntity
  8
0
  6
CONTINUOUS
 62
     7
100
AcDbLine
 10
51.52555104308152
 20
49.16003664270228
 30
0.0
 11
51.52555104308152
 21
50.93887123107878
 31
0.0
  0
LINE
  5
419
330
1F
100
AcDbEntity
  8
0
  6
CONTINUOUS
 62
     7
100
AcDbLine
 10
58.52555104308152
 20
49.09159263473629
 30
0.0
 11
58.52555104308152
 21
50.85020082307426
 31
0.0
  0
LINE
  5
41A
330
1F
100
AcDbEntity
  8
0
  6
CONTINUOUS
 62
     7
100
AcDbLine
 10
23.52555104308152
 20
53.82877251636117
 30
0.0
 11
23.52555104308152
 21
55.12995154519973
 31
0.0
  0
LINE
  5
41B
330
1F
100
AcDbEntity
  8
0
  6
CONTINUOUS
 62
     7
100
AcDbLine
 10
30.52555104308152
 20
53.74371245162992
 30
0.0
 11
30.52555104308152
 21
55.02777411904094
 31
0.0
  0
LINE
  5
41C
330
1F
100
AcDbEntity
  8
0
  6
CONTINUOUS
 62
     7
100
AcDbLine
 10
51.52555104308152
 20
53.48853225743616
 30
0.0
 11
51.52555104308152
 21
54.72124184056459
 31
0.0
  0
LINE
  5
41D
330
1F
100
AcDbEntity
  8
0
  6
CONTINUOUS
 62
     7
100
AcDbLine
 10
58.52555104308152
 20
53.40347219270491
 30
0.0
 11
58.52555104308152
 21
54.6190644144058
 31
0.0
  0
LINE
  5
41E
330
1F
100
AcDbEntity
  8
0
  6
CONTINUOUS
 62
     7
100
AcDbLine
 10
23.52555104308152
 20
57.4610650755796
 30
0.0
 11
23.52555104308152
 21
58.11418461990049
 31
0.0
  0
LINE
  5
41F
330
1F
100
AcDbEntity
  8
0
  6
CONTINUOUS
 62
     7
100
AcDbLine
 10
30.52555104308152
 20
57.36304128694025
 30
0.0
 11
30.52555104308152
 21
58.0016938854973
 31
0.0
  0
LINE
  5
420
330
1F
100
AcDbEntity
  8
0
  6
CONTINUOUS
 62
     7
100
AcDbLine
 10
51.52555104308152
 20
57.06896992102217
 30
0.0
 11
51.52555104308152
 21
57.66422168228776
 31
0.0
  0
LINE
  5
421
330
1F
100
AcDbEntity
  8
0
  6
CONTINUOUS
 62
     7
100
AcDbLine
 10
58.52555104308152
 20
56.97094613238282
 30
0.0
 11
58.52555104308152
 21
57.55173094788457
 31
0.0
  0
LINE
  5
422
330
1F
100
AcDbEntity
  8
0
  6
CONTINUOUS
 62
     7
100
AcDbLine
 10
23.52555104308152
 20
60.21586263243648
 30
0.0
 11
23.52555104308152
 21
61.3123862488316
 31
0.0
  0
LINE
  5
423
330
1F
100
AcDbEntity
  8
0
  6
CONTINUOUS
 62
     7
100
AcDbLine
 10
23.52555104308152
 20
62.7878355995493
 30
0.0
 11
23.52555104308152
 21
63.27045669864305
 31
0.0
  0
LINE
  5
424
330
1F
100
AcDbEntity
  8
0
  6
CONTINUOUS
 62
     7
100
AcDbLine
 10
30.52555104308152
 20
60.1079240325622
 30
0.0
 11
30.52555104308152
 21
61.19020079433409
 31
0.0
  0
LINE
  5
425
330
1F
100
AcDbEntity
  8
0
  6
CONTINUOUS
 62
     7
100
AcDbLine
 10
30.52555104308152
 20
62.66565014505176
 30
0.0
 11
30.52555104308152
 21
63.18318137400195
 31
0.0
  0
LINE
  5
426
330
1F
100
AcDbEntity
  8
0
  6
CONTINUOUS
 62
     7
100
AcDbLine
 10
51.52555104308152
 20
59.78410823293932
 30
0.0
 11
51.52555104308152
 21
60.82364443084151
 31
0.0
  0
LINE
  5
427
330
1F
100
AcDbEntity
  8
0
  6
CONTINUOUS
 62
     7
100
AcDbLine
 10
51.52555104308152
 20
62.29909378155914
 30
0.0
 11
51.52555104308152
 21
62.78171488065289
 31
0.0
  0
LINE
  5
428
330
1F
100
AcDbEntity
  8
0
  6
CONTINUOUS
 62
     7
100
AcDbLine
 10
58.52555104308152
 20
59.67616963306503
 30
0.0
 11
58.52555104308152
 21
60.70145897634399
 31
0.0
  0
LINE
  5
429
330
1F
100
AcDbEntity
  8
0
  6
CONTINUOUS
 62
     7
100
AcDbLine
 10
58.52555104308152
 20
62.1769083270616
 30
0.0
 11
58.52555104308152
 21
62.69443955601179
 31
0.0
  0
LINE
  5
42A
330
1F
100
AcDbEntity
  8
0
  6
CONTINUOUS
 62
     7
100
AcDbLine
 10
-8.474448956918479
 20
33.08840339146192
 30
0.0
 11
77.56605432411311
 21
33.08840339146192
 31
0.0
  0
LINE
  5
42B
330
1F
100
AcDbEntity
  8
0
  6
CONTINUOUS
 62
     7
100
AcDbLine
 10
58.52555104308152
 20
24.08840339146193
 30
0.0
 11
79.02555104308158
 21
24.08840339146193
 31
0.0
  0
LINE
  5
42C
330
1F
100
AcDbEntity
  8
0
  6
CONTINUOUS
 62
     7
100
AcDbLine
 10
2.525551043081521
 20
24.08840339146193
 30
0.0
 11
23.52555104308152
 21
24.08840339146193
 31
0.0
  0
LINE
  5
42D
330
1F
100
AcDbEntity
  8
0
  6
CONTINUOUS
 62
     7
100
AcDbLine
 10
30.52555104308152
 20
24.08840339146193
 30
0.0
 11
51.52555104308152
 21
24.08840339146193
 31
0.0
  0
ARC
  5
42E
330
1F
100
AcDbEntity
  8
0
  6
CONTINUOUS
 62
     7
100
AcDbCircle
 10
-8.474448956918479
 20
32.08840339146192
 30
0.0
 40
1.0
100
AcDbArc
 50
90.0
 51
180.0
  0
ARC
  5
42F
330
1F
100
AcDbEntity
  8
0
  6
CONTINUOUS
 62
     7
100
AcDbCircle
 10
-18.47444895691848
 20
66.38839805088632
 30
0.0
 40
1.0
100
AcDbArc
 50
90.00000250447816
 51
180.0000050089563
  0
LINE
  5
430
330
1F
100
AcDbEntity
  8
0
  6
CONTINUOUS
 62
     7
100
AcDbLine
 10
-12.6744451422212
 20
66.89035117216103
 30
0.0
 11
-12.6744451422212
 21
65.98839805088629
 31
0.0
  0
ARC
  5
431
330
1F
100
AcDbEntity
  8
0
  6
CONTINUOUS
 62
     7
100
AcDbCircle
 10
-13.17444132752394
 20
66.88839805088632
 30
0.0
 40
0.5
100
AcDbArc
 50
0.0
 51
90.00000250447816
  0
ARC
  5
432
330
1F
100
AcDbEntity
  8
0
  6
CONTINUOUS
 62
     7
100
AcDbCircle
 10
-12.1744451422212
 20
65.98839805088629
 30
0.0
 40
0.5
100
AcDbArc
 50
179.9999949910437
 51
269.9999974955218
  0
ARC
  5
433
330
1F
100
AcDbEntity
  8
0
  6
CONTINUOUS
 62
     7
100
AcDbCircle
 10
-13.17444132752394
 20
-9.711591267961364
 30
0.0
 40
0.5
100
AcDbArc
 50
269.9999974955218
 51
360.0
  0
ARC
  5
434
330
1F
100
AcDbEntity
  8
0
  6
CONTINUOUS
 62
     7
100
AcDbCircle
 10
-18.47444895691848
 20
-9.211591267961364
 30
0.0
 40
1.0
100
AcDbArc
 50
179.9999949910437
 51
269.9999974955218
  0
LINE
  5
435
330
1F
100
AcDbEntity
  8
0
  6
CONTINUOUS
 62
     7
100
AcDbLine
 10
-18.47444895691848
 20
-10.21159126796136
 30
0.0
 11
-13.17444134937966
 21
-10.21159126796136
 31
0.0
  0
ARC
  5
436
330
1F
100
AcDbEntity
  8
0
  6
CONTINUOUS
 62
     7
100
AcDbCircle
 10
-12.1744451422212
 20
-8.81159126796133
 30
0.0
 40
0.5
100
AcDbArc
 50
90.00000250447816
 51
180.0000050089563
  0
LINE
  5
437
330
1F
100
AcDbEntity
  8
0
  6
CONTINUOUS
 62
     7
100
AcDbLine
 10
-19.47444895691848
 20
66.38839805088632
 30
0.0
 11
-19.47444895691848
 21
28.58840339146248
 31
0.0
  0
ARC
  5
438
330
1F
100
AcDbEntity
  8
0
  6
CONTINUOUS
 62
     7
100
AcDbCircle
 10
-18.97444895691848
 20
64.98839805088629
 30
0.0
 40
0.5
100
AcDbArc
 50
90.00000250447816
 51
180.0
  0
LINE
  5
439
330
1F
100
AcDbEntity
  8
0
  6
CONTINUOUS
 62
     7
100
AcDbLine
 10
-17.02444895691849
 20
65.48839805088629
 30
0.0
 11
-17.02444895691849
 21
63.48985156561189
 31
0.0
  0
LINE
  5
43A
330
1F
100
AcDbEntity
  8
0
  6
CONTINUOUS
 62
     7
100
AcDbLine
 10
-13.92444895691847
 20
65.48839805088629
 30
0.0
 11
-13.92444895691847
 21
63.42841864310707
 31
0.0
  0
LINE
  5
43B
330
1F
100
AcDbEntity
  8
0
  6
CONTINUOUS
 62
     7
100
AcDbLine
 10
-12.6744451422212
 20
-9.713544389236073
 30
0.0
 11
-12.6744451422212
 21
28.58840339146248
 31
0.0
  0
LINE
  5
43C
330
1F
100
AcDbEntity
  8
0
  6
CONTINUOUS
 62
     7
100
AcDbLine
 10
-19.47444895691848
 20
-9.211591267961364
 30
0.0
 11
-19.47444895691848
 21
28.58840339146248
 31
0.0
  0
LINE
  5
43D
330
1F
100
AcDbEntity
  8
0
  6
CONTINUOUS
 62
     7
100
AcDbLine
 10
-12.1744451422212
 20
-8.31159126796133
 30
0.0
 11
1.525551043081521
 21
-8.31159126796133
 31
0.0
  0
LINE
  5
43E
330
1F
100
AcDbEntity
  8
0
  6
CONTINUOUS
 62
     7
100
AcDbLine
 10
2.525551043081521
 20
-7.311591267961337
 30
0.0
 11
1.525551043081521
 21
-8.31159126796133
 31
0.0
  0
LINE
  5
43F
330
1F
100
AcDbEntity
  8
0
  6
CONTINUOUS
 62
     7
100
AcDbLine
 10
2.525551043081521
 20
64.48839805088626
 30
0.0
 11
1.525551043081521
 21
65.48839805088626
 31
0.0
  0
LINE
  5
440
330
1F
100
AcDbEntity
  8
0
  6
CONTINUOUS
 62
     7
100
AcDbLine
 10
2.525551043081521
 20
64.48839805088626
 30
0.0
 11
2.525551043081521
 21
63.15439196304193
 31
0.0
  0
ARC
  5
441
330
1F
100
AcDbEntity
  8
0
  6
CONTINUOUS
 62
     7
100
AcDbCircle
 10
-18.97444895691848
 20
64.02975202302061
 30
0.0
 40
0.5
100
AcDbArc
 50
180.0
 51
268.9999999999998
  0
LINE
  5
442
330
1F
100
AcDbEntity
  8
0
  6
CONTINUOUS
 62
     7
100
AcDbLine
 10
82.75823499072476
 20
60.78649613434908
 30
0.0
 11
143.0296492910794
 21
60.29246513297302
 31
0.0
  0
LINE
  5
443
330
1F
100
AcDbEntity
  8
0
  6
CONTINUOUS
 62
     7
100
AcDbLine
 10
80.72913438706945
 20
61.690647825038
 30
0.0
 11
82.31761241240406
 21
60.89283989366601
 31
0.0
  0
LINE
  5
444
330
1F
100
AcDbEntity
  8
0
  6
CONTINUOUS
 62
     7
100
AcDbLine
 10
80.72913438706939
 20
-4.513841042113082
 30
0.0
 11
82.31761241240406
 21
-3.716033110741069
 31
0.0
  0
LINE
  5
445
330
1F
100
AcDbEntity
  8
0
  6
CONTINUOUS
 62
     7
100
AcDbLine
 10
82.75823499072476
 20
-3.609689351424141
 30
0.0
 11
143.0296492910794
 21
-3.11565835004809
 31
0.0
  0
ARC
  5
446
330
1F
100
AcDbEntity
  8
0
  6
CONTINUOUS
 62
     7
100
AcDbCircle
 10
143.0255510430815
 20
-2.615675145966844
 30
0.0
 40
0.5
100
AcDbArc
 50
270.4696298859377
 51
360.0
  0
ARC
  5
447
330
1F
100
AcDbEntity
  8
0
  6
CONTINUOUS
 62
     7
100
AcDbCircle
 10
143.0255510430815
 20
59.79248192889178
 30
0.0
 40
0.5
100
AcDbArc
 50
0.0
 51
89.53037011406234
  0
ARC
  5
448
330
1F
100
AcDbEntity
  8
0
  6
CONTINUOUS
 62
     7
100
AcDbCircle
 10
86.52555104308152
 20
57.79095288819634
 30
0.0
 40
0.5
100
AcDbArc
 50
90.5000000000001
 51
180.0
  0
ARC
  5
449
330
1F
100
AcDbEntity
  8
0
  6
CONTINUOUS
 62
     7
100
AcDbCircle
 10
82.76643148672048
 20
-4.609655759586634
 30
0.0
 40
1.0
100
AcDbArc
 50
90.46962988593707
 51
116.6679421966795
  0
ARC
  5
44A
330
1F
100
AcDbEntity
  8
0
  6
CONTINUOUS
 62
     7
100
AcDbCircle
 10
80.28031531275303
 20
-3.620218393267518
 30
0.0
 40
1.0
100
AcDbArc
 50
271.0000000000001
 51
296.6679421966796
  0
ARC
  5
44B
330
1F
100
AcDbEntity
  8
0
  6
CONTINUOUS
 62
     7
100
AcDbCircle
 10
80.28031531275303
 20
60.79702517619245
 30
0.0
 40
1.0
100
AcDbArc
 50
63.33205780331999
 51
88.99999999999986
  0
ARC
  5
44C
330
1F
100
AcDbEntity
  8
0
  6
CONTINUOUS
 62
     7
100
AcDbCircle
 10
82.76643148672048
 20
61.78646254251157
 30
0.0
 40
1.0
100
AcDbArc
 50
243.3320578033205
 51
269.5303701140628
  0
ARC
  5
44D
330
1F
100
AcDbEntity
  8
0
  6
CONTINUOUS
 62
     7
100
AcDbCircle
 10
79.02555104308152
 20
-2.683316389533129
 30
0.0
 40
0.5
100
AcDbArc
 50
0.0
 51
90.88341944739698
  0
ARC
  5
44E
330
1F
100
AcDbEntity
  8
0
  6
CONTINUOUS
 62
     7
100
AcDbCircle
 10
79.02555104308158
 20
23.58840339146193
 30
0.0
 40
0.5
100
AcDbArc
 50
0.0
 51
90.0
  0
ARC
  5
44F
330
1F
100
AcDbEntity
  8
0
  6
CONTINUOUS
 62
     7
100
AcDbCircle
 10
79.02555104308152
 20
21.98982176501349
 30
0.0
 40
0.5
100
AcDbArc
 50
270.2555759967803
 51
360.0
  0
LINE
  5
450
330
1F
100
AcDbEntity
  8
0
  6
CONTINUOUS
 62
     7
100
AcDbLine
 10
-7.374445142221248
 20
65.83241490990871
 30
0.0
 11
-7.374445142221248
 21
65.68839805088628
 31
0.0
  0
LINE
  5
451
330
1F
100
AcDbEntity
  8
0
  6
CONTINUOUS
 62
     7
100
AcDbLine
 10
-1.574445142221236
 20
65.83273036971671
 30
0.0
 11
-1.574445142221236
 21
65.68839805088628
 31
0.0
  0
ARC
  5
452
330
1F
100
AcDbEntity
  8
0
  6
CONTINUOUS
 62
     7
100
AcDbCircle
 10
-1.774445142221225
 20
65.83273036971671
 30
0.0
 40
0.2
100
AcDbArc
 50
0.0
 51
75.7899849113977
  0
LINE
  5
453
330
1F
100
AcDbEntity
  8
0
  6
CONTINUOUS
 62
     7
100
AcDbLine
 10
-7.374445142221248
 20
-8.655608126983804
 30
0.0
 11
-7.374445142221248
 21
-8.511591267961432
 31
0.0
  0
ARC
  5
454
330
1F
100
AcDbEntity
  8
0
  6
CONTINUOUS
 62
     7
100
AcDbCircle
 10
-7.174445142221202
 20
-8.655608126983804
 30
0.0
 40
0.2
100
AcDbArc
 50
180.0
 51
255.9024558417987
  0
LINE
  5
455
330
1F
100
AcDbEntity
  8
0
  6
CONTINUOUS
 62
     7
100
AcDbLine
 10
-7.223360859799357
 20
-8.849534021525539
 30
0.0
 11
-4.719023730111928
 21
-9.481226081246302
 31
0.0
  0
LINE
  5
456
330
1F
100
AcDbEntity
  8
0
  6
CONTINUOUS
 62
     7
100
AcDbLine
 10
-1.574445142221236
 20
-8.655923586791811
 30
0.0
 11
-1.574445142221236
 21
-8.511591267961432
 31
0.0
  0
ARC
  5
457
330
1F
100
AcDbEntity
  8
0
  6
CONTINUOUS
 62
     7
100
AcDbCircle
 10
-1.774445142221225
 20
-8.655923586791811
 30
0.0
 40
0.2
100
AcDbArc
 50
284.2100150886023
 51
360.0
  0
ARC
  5
458
330
1F
100
AcDbEntity
  8
0
  6
CONTINUOUS
 62
     7
100
AcDbCircle
 10
-7.174445142221202
 20
65.83241490990871
 30
0.0
 40
0.2
100
AcDbArc
 50
104.0975441582013
 51
180.0
  0
ARC
  5
459
330
1F
100
AcDbEntity
  8
0
  6
CONTINUOUS
 62
     7
100
AcDbCircle
 10
-7.574445142221236
 20
65.68839805088628
 30
0.0
 40
0.2
100
AcDbArc
 50
270.0
 51
360.0
  0
LINE
  5
45A
330
1F
100
AcDbEntity
  8
0
  6
CONTINUOUS
 62
     7
100
AcDbLine
 10
-7.223360859799357
 20
66.02634080445044
 30
0.0
 11
-4.719023730111928
 21
66.65803286417115
 31
0.0
  0
LINE
  5
45B
330
1F
100
AcDbEntity
  8
0
  6
CONTINUOUS
 62
     7
100
AcDbLine
 10
-1.725552391954182
 20
66.02666205606867
 30
0.0
 11
-4.229981390885882
 21
66.65806182322233
 31
0.0
  0
ARC
  5
45C
330
1F
100
AcDbEntity
  8
0
  6
CONTINUOUS
 62
     7
100
AcDbCircle
 10
-4.474445142221157
 20
65.68840339146242
 30
0.0
 40
1.0
100
AcDbArc
 50
75.84985467637236
 51
104.1569309586397
  0
ARC
  5
45D
330
1F
100
AcDbEntity
  8
0
  6
CONTINUOUS
 62
     7
100
AcDbCircle
 10
-1.374445142221248
 20
65.68839805088628
 30
0.0
 40
0.2
100
AcDbArc
 50
180.0
 51
270.0
  0
ARC
  5
45E
330
1F
100
AcDbEntity
  8
0
  6
CONTINUOUS
 62
     7
100
AcDbCircle
 10
-7.574445142221236
 20
-8.511591267961432
 30
0.0
 40
0.2
100
AcDbArc
 50
0.0
 51
90.0
  0
ARC
  5
45F
330
1F
100
AcDbEntity
  8
0
  6
CONTINUOUS
 62
     7
100
AcDbCircle
 10
-4.474445142221157
 20
-8.51159660853757
 30
0.0
 40
1.0
100
AcDbArc
 50
255.8430690413603
 51
284.1501453236276
  0
LINE
  5
460
330
1F
100
AcDbEntity
  8
0
  6
CONTINUOUS
 62
     7
100
AcDbLine
 10
-1.725552391954182
 20
-8.849855273143771
 30
0.0
 11
-4.229981390885882
 21
-9.48125504029748
 31
0.0
  0
ARC
  5
461
330
1F
100
AcDbEntity
  8
0
  6
CONTINUOUS
 62
     7
100
AcDbCircle
 10
-1.374445142221248
 20
-8.511591267961432
 30
0.0
 40
0.2
100
AcDbArc
 50
90.0
 51
180.0
  0
ARC
  5
462
330
1F
100
AcDbEntity
  8
0
  6
CONTINUOUS
 62
     7
100
AcDbCircle
 10
-117.5039977748558
 20
28.58840339146234
 30
0.0
 40
39.0
100
AcDbArc
 50
99.08474959446571
 51
180.0
  0
ARC
  5
463
330
1F
100
AcDbEntity
  8
0
  6
CONTINUOUS
 62
     7
100
AcDbCircle
 10
-126.1088249563375
 20
60.70205562310126
 30
0.0
 40
1.5
100
AcDbArc
 50
205.7358879838485
 51
312.0604428075403
  0
ARC
  5
464
330
1F
100
AcDbEntity
  8
0
  6
CONTINUOUS
 62
     7
100
AcDbCircle
 10
-131.5545754847628
 20
58.71996452751499
 30
0.0
 40
1.5
100
AcDbArc
 50
215.7357544048119
 51
374.2641775377636
  0
ARC
  5
465
330
1F
100
AcDbEntity
  8
0
  6
CONTINUOUS
 62
     7
100
AcDbCircle
 10
-136.5734063194082
 20
55.82234119411537
 30
0.0
 40
1.5
100
AcDbArc
 50
225.7356254569133
 51
384.2643093576196
  0
ARC
  5
466
330
1F
100
AcDbEntity
  8
0
  6
CONTINUOUS
 62
     7
100
AcDbCircle
 10
-141.0128228250135
 20
52.09722844161955
 30
0.0
 40
1.5
100
AcDbArc
 50
235.7355050581602
 51
394.2644346089579
  0
ARC
  5
467
330
1F
100
AcDbEntity
  8
0
  6
CONTINUOUS
 62
     7
100
AcDbCircle
 10
-144.7379355775094
 20
47.65781193601423
 30
0.0
 40
1.5
100
AcDbArc
 50
245.7353968668114
 51
404.2645494860787
  0
ARC
  5
468
330
1F
100
AcDbEntity
  8
0
  6
CONTINUOUS
 62
     7
100
AcDbCircle
 10
-147.6355589109089
 20
42.63898110136891
 30
0.0
 40
1.5
100
AcDbArc
 50
255.7353041701864
 51
414.2646504985169
  0
ARC
  5
469
330
1F
100
AcDbEntity
  8
0
  6
CONTINUOUS
 62
     7
100
AcDbCircle
 10
-149.6176500064953
 20
37.19323057294353
 30
0.0
 40
1.5
100
AcDbArc
 50
265.7352297848319
 51
424.2647345770553
  0
LINE
  5
46A
330
1F
100
AcDbEntity
  8
0
  6
CONTINUOUS
 62
     7
100
AcDbLine
 10
-122.0039977748558
 20
63.07005456835479
 30
0.0
 11
-122.0039977748558
 21
62.38466396723082
 31
0.0
  0
ARC
  5
46B
330
1F
100
AcDbEntity
  8
0
  6
CONTINUOUS
 62
     7
100
AcDbCircle
 10
-117.5039977748558
 20
28.58840339146177
 30
0.0
 40
31.74649922138951
100
AcDbArc
 50
102.4497525552974
 51
180.0
  0
ARC
  5
46C
330
1F
100
AcDbEntity
  8
0
  6
CONTINUOUS
 62
     7
100
AcDbCircle
 10
-117.5039977748556
 20
28.58840339146177
 30
0.0
 40
31.74649922138951
100
AcDbArc
 50
180.0
 51
257.5503405646014
  0
LINE
  5
46D
330
1F
100
AcDbEntity
  8
0
  6
CONTINUOUS
 62
     7
100
AcDbLine
 10
-122.0039977748556
 20
-5.893247785430116
 30
0.0
 11
-122.0039977748556
 21
-5.21160217013238
 31
0.0
  0
ARC
  5
46E
330
1F
100
AcDbEntity
  8
0
  6
CONTINUOUS
 62
     7
100
AcDbCircle
 10
-126.1088249563375
 20
-3.525248840177778
 30
0.0
 40
1.5
100
AcDbArc
 50
47.93892297408706
 51
154.2645212526898
  0
ARC
  5
46F
330
1F
100
AcDbEntity
  8
0
  6
CONTINUOUS
 62
     7
100
AcDbCircle
 10
-131.5545754847628
 20
-1.543157744591451
 30
0.0
 40
1.5
100
AcDbArc
 50
345.7354257278921
 51
504.2646261269628
  0
ARC
  5
470
330
1F
100
AcDbEntity
  8
0
  6
CONTINUOUS
 62
     7
100
AcDbCircle
 10
-136.5734063194082
 20
1.354465588808171
 30
0.0
 40
1.5
100
AcDbArc
 50
335.7353283875197
 51
494.2647148078502
  0
ARC
  5
471
330
1F
100
AcDbEntity
  8
0
  6
CONTINUOUS
 62
     7
100
AcDbCircle
 10
-141.0128228250135
 20
5.079578341303989
 30
0.0
 40
1.5
100
AcDbArc
 50
325.7352486225713
 51
484.2647846008419
  0
ARC
  5
472
330
1F
100
AcDbEntity
  8
0
  6
CONTINUOUS
 62
     7
100
AcDbCircle
 10
-144.7379355775094
 20
9.518994846909369
 30
0.0
 40
1.5
100
AcDbArc
 50
315.7351888566645
 51
474.2648333853132
  0
ARC
  5
473
330
1F
100
AcDbEntity
  8
0
  6
CONTINUOUS
 62
     7
100
AcDbCircle
 10
-147.6355589109089
 20
14.53782568155463
 30
0.0
 40
1.5
100
AcDbArc
 50
305.7351509057423
 51
464.2648596789881
  0
ARC
  5
474
330
1F
100
AcDbEntity
  8
0
  6
CONTINUOUS
 62
     7
100
AcDbCircle
 10
-149.6176500064952
 20
19.98357620998006
 30
0.0
 40
1.5
100
AcDbArc
 50
295.7351359229262
 51
454.264862682946
  0
ARC
  5
475
330
1F
100
AcDbEntity
  8
0
  6
CONTINUOUS
 62
     7
100
AcDbCircle
 10
-150.6148677495007
 20
25.58840339146177
 30
0.0
 40
1.5
100
AcDbArc
 50
285.9122743265693
 51
365.1771303159583
  0
ARC
  5
476
330
1F
100
AcDbEntity
  8
0
  6
CONTINUOUS
 62
     7
100
AcDbCircle
 10
-150.6148677495008
 20
31.58840339146177
 30
0.0
 40
1.5
100
AcDbArc
 50
354.8228696840417
 51
434.0876678887368
  0
ARC
  5
477
330
1F
100
AcDbEntity
  8
0
  6
CONTINUOUS
 62
     7
100
AcDbCircle
 10
-121.5040169682218
 20
66.18840799938185
 30
0.0
 40
0.5
100
AcDbArc
 50
0.0
 51
90.0
  0
LINE
  5
478
330
1F
100
AcDbEntity
  8
0
  6
CONTINUOUS
 62
     7
100
AcDbLine
 10
-121.0040169682218
 20
65.32203383912734
 30
0.0
 11
-121.0040169682218
 21
66.18840799938185
 31
0.0
  0
LINE
  5
479
330
1F
100
AcDbEntity
  8
0
  6
CONTINUOUS
 62
     7
100
AcDbLine
 10
-122.6870479760897
 20
66.68840799938185
 30
0.0
 11
-121.5040169682218
 21
66.68840799938185
 31
0.0
  0
LINE
  5
47A
330
1F
100
AcDbEntity
  8
0
  6
CONTINUOUS
 62
     7
100
AcDbLine
 10
-122.5040169682218
 20
65.71669467331167
 30
0.0
 11
-122.5040169682218
 21
66.11172640101516
 31
0.0
  0
ARC
  5
47B
330
1F
100
AcDbEntity
  8
0
  6
CONTINUOUS
 62
     7
100
AcDbCircle
 10
-117.5040169682218
 20
28.58840895305615
 30
0.0
 40
36.89999465942383
100
AcDbArc
 50
90.0
 51
96.91062141490208
  0
ARC
  5
47C
330
1F
100
AcDbEntity
  8
0
  6
CONTINUOUS
 62
     7
100
AcDbCircle
 10
-122.0040169682218
 20
65.71669467331167
 30
0.0
 40
0.5
100
AcDbArc
 50
180.0
 51
276.9106214149017
  0
LINE
  5
47D
330
1F
100
AcDbEntity
  8
0
  6
CONTINUOUS
 62
     7
100
AcDbLine
 10
-122.5039977748558
 20
-8.934922687125106
 30
0.0
 11
-122.5039977748558
 21
-8.535506909021034
 31
0.0
  0
ARC
  5
47E
330
1F
100
AcDbEntity
  8
0
  6
CONTINUOUS
 62
     7
100
AcDbCircle
 10
-121.5040169682218
 20
-9.011601216457176
 30
0.0
 40
0.5
100
AcDbArc
 50
270.0
 51
360.0
  0
LINE
  5
47F
330
1F
100
AcDbEntity
  8
0
  6
CONTINUOUS
 62
     7
100
AcDbLine
 10
-121.0040169682218
 20
-8.145227056202725
 30
0.0
 11
-121.0040169682218
 21
-9.011601216457176
 31
0.0
  0
LINE
  5
480
330
1F
100
AcDbEntity
  8
0
  6
CONTINUOUS
 62
     7
100
AcDbLine
 10
-122.6870266163639
 20
-9.511601216457176
 30
0.0
 11
-121.5040169682218
 21
-9.511601216457176
 31
0.0
  0
ARC
  5
481
330
1F
100
AcDbEntity
  8
0
  6
CONTINUOUS
 62
     7
100
AcDbCircle
 10
-122.0040169682218
 20
-8.539887890387046
 30
0.0
 40
0.5
100
AcDbArc
 50
83.0893785850983
 51
180.0
  0
ARC
  5
482
330
1F
100
AcDbEntity
  8
0
  6
CONTINUOUS
 62
     7
100
AcDbCircle
 10
-117.5039977748558
 20
28.58840339146234
 30
0.0
 40
39.0
100
AcDbArc
 50
180.0
 51
260.9152797126089
  0
ARC
  5
483
330
1F
100
AcDbEntity
  8
0
  6
CONTINUOUS
 62
     7
100
AcDbCircle
 10
-117.5040169682218
 20
28.58839782986853
 30
0.0
 40
36.89999465942383
100
AcDbArc
 50
263.0893785850979
 51
270.0
  0
ARC
  5
484
330
1F
100
AcDbEntity
  8
0
  6
CONTINUOUS
 62
     7
100
AcDbCircle
 10
-117.5039977748562
 20
28.58840339146234
 30
0.0
 40
34.77404589467386
100
AcDbArc
 50
92.47228766234271
 51
97.4353182321186
  0
ARC
  5
485
330
1F
100
AcDbEntity
  8
0
  6
CONTINUOUS
 62
     7
100
AcDbCircle
 10
-117.5039977748562
 20
28.58840339146234
 30
0.0
 40
34.77404589467386
100
AcDbArc
 50
262.5646817678815
 51
267.5277123376573
  0
ARC
  5
486
330
1F
100
AcDbEntity
  8
0
  6
CONTINUOUS
 62
     7
100
AcDbCircle
 10
-117.5039977748558
 20
28.58840339146234
 30
0.0
 40
36.40000000000001
100
AcDbArc
 50
101.028818349853
 51
258.971181650147
  0
ARC
  5
487
330
1F
100
AcDbEntity
  8
0
  6
CONTINUOUS
 62
     7
100
AcDbCircle
 10
-123.5039977748558
 20
-8.934922687125106
 30
0.0
 40
1.0
100
AcDbArc
 50
260.9152797126087
 51
360.0
  0
ARC
  5
488
330
1F
100
AcDbEntity
  8
0
  6
CONTINUOUS
 62
     7
100
AcDbCircle
 10
-123.5040169682218
 20
66.11172640101516
 30
0.0
 40
1.0
100
AcDbArc
 50
0.0
 51
99.08474959446501
  0
ARC
  5
489
330
1F
100
AcDbEntity
  8
0
  6
CONTINUOUS
 62
     7
100
AcDbCircle
 10
-117.5039977748552
 20
28.58840339146234
 30
0.0
 40
39.0
100
AcDbArc
 50
359.9999999999998
 51
440.915250405534
  0
LINE
  5
48A
330
1F
100
AcDbEntity
  8
0
  6
CONTINUOUS
 62
     7
100
AcDbLine
 10
-85.00211697556142
 20
35.74434183350988
 30
0.0
 11
-83.55788409921649
 21
36.13132286640936
 31
0.0
  0
LINE
  5
48B
330
1F
100
AcDbEntity
  8
0
  6
CONTINUOUS
 62
     7
100
AcDbLine
 10
-85.77857411086973
 20
38.64211931237688
 30
0.0
 11
-84.33434123452406
 21
39.02910034527659
 31
0.0
  0
LINE
  5
48C
330
1F
100
AcDbEntity
  8
0
  6
CONTINUOUS
 62
     7
100
AcDbLine
 10
-86.73850924619057
 20
41.27951942081396
 30
0.0
 11
-85.38341606356539
 21
41.91140974938602
 31
0.0
  0
LINE
  5
48D
330
1F
100
AcDbEntity
  8
0
  6
CONTINUOUS
 62
     7
100
AcDbLine
 10
-88.00636403141323
 20
43.99844278192363
 30
0.0
 11
-86.65127084878748
 21
44.63033311049603
 31
0.0
  0
LINE
  5
48E
330
1F
100
AcDbEntity
  8
0
  6
CONTINUOUS
 62
     7
100
AcDbLine
 10
-89.40969531767485
 20
46.4290838695806
 30
0.0
 11
-88.18491564941314
 21
47.28668382594354
 31
0.0
  0
LINE
  5
48F
330
1F
100
AcDbEntity
  8
0
  6
CONTINUOUS
 62
     7
100
AcDbLine
 10
-91.13042462672809
 20
48.88654000244752
 30
0.0
 11
-89.90564495846633
 21
49.74413995881052
 31
0.0
  0
LINE
  5
490
330
1F
100
AcDbEntity
  8
0
  6
CONTINUOUS
 62
     7
100
AcDbLine
 10
-92.93451255291825
 20
51.036568269839
 30
0.0
 11
-91.87726070947053
 21
52.09382011328523
 31
0.0
  0
LINE
  5
491
330
1F
100
AcDbEntity
  8
0
  6
CONTINUOUS
 62
     7
100
AcDbLine
 10
-95.05583289647643
 20
53.15788861340003
 30
0.0
 11
-93.99854649699228
 21
54.2151750128827
 31
0.0
  0
LINE
  5
492
330
1F
100
AcDbEntity
  8
0
  6
CONTINUOUS
 62
     7
100
AcDbLine
 10
-97.20586116387028
 20
54.96197653958713
 30
0.0
 11
-96.34826120750472
 21
56.18675620784934
 31
0.0
  0
LINE
  5
493
330
1F
100
AcDbEntity
  8
0
  6
CONTINUOUS
 62
     7
100
AcDbLine
 10
-99.66331729673505
 20
56.68270584864351
 30
0.0
 11
-98.80568930991058
 21
57.90752554854956
 31
0.0
  0
LINE
  5
494
330
1F
100
AcDbEntity
  8
0
  6
CONTINUOUS
 62
     7
100
AcDbLine
 10
-101.462068055819
 20
59.44113031752843
 30
0.0
 11
-102.0939583843939
 21
58.0860371349019
 31
0.0
  0
LINE
  5
495
330
1F
100
AcDbEntity
  8
0
  6
CONTINUOUS
 62
     7
100
AcDbLine
 10
-104.812881745502
 20
59.35389192012802
 30
0.0
 11
-104.1809914169289
 21
60.7089851027507
 31
0.0
  0
LINE
  5
496
330
1F
100
AcDbEntity
  8
0
  6
CONTINUOUS
 62
     7
100
AcDbLine
 10
-107.0633008210401
 20
61.75805993179284
 30
0.0
 11
-107.4502818539398
 21
60.31382705544712
 31
0.0
  0
LINE
  5
497
330
1F
100
AcDbEntity
  8
0
  6
CONTINUOUS
 62
     7
100
AcDbLine
 10
-109.9610656515197
 20
62.53456427152595
 30
0.0
 11
-110.3480593328069
 21
61.09028419075538
 31
0.0
  0
ARC
  5
498
330
1F
100
AcDbEntity
  8
0
  6
CONTINUOUS
 62
     7
100
AcDbCircle
 10
-108.8991705933734
 20
60.70205562310123
 30
0.0
 40
1.5
100
AcDbArc
 50
164.9999999999861
 51
344.9999999999861
  0
ARC
  5
499
330
1F
100
AcDbEntity
  8
0
  6
CONTINUOUS
 62
     7
100
AcDbCircle
 10
-103.453420064948
 20
58.71996452751493
 30
0.0
 40
1.5
100
AcDbArc
 50
154.9999999999145
 51
335.7524352055952
  0
ARC
  5
49A
330
1F
100
AcDbEntity
  8
0
  6
CONTINUOUS
 62
     7
100
AcDbCircle
 10
-98.43458923030266
 20
55.8223411941153
 30
0.0
 40
1.5
100
AcDbArc
 50
144.9999999999244
 51
324.9999999999244
  0
ARC
  5
49B
330
1F
100
AcDbEntity
  8
0
  6
CONTINUOUS
 62
     7
100
AcDbCircle
 10
-93.99517272469734
 20
52.09722844161945
 30
0.0
 40
1.5
100
AcDbArc
 50
134.9999999999622
 51
314.9999999999621
  0
ARC
  5
49C
330
1F
100
AcDbEntity
  8
0
  6
CONTINUOUS
 62
     7
100
AcDbCircle
 10
-90.27005997220147
 20
47.65781193601411
 30
0.0
 40
1.5
100
AcDbArc
 50
124.2472769472702
 51
305.0000000000019
  0
ARC
  5
49D
330
1F
100
AcDbEntity
  8
0
  6
CONTINUOUS
 62
     7
100
AcDbCircle
 10
-87.3724366388019
 20
42.63898110136879
 30
0.0
 40
1.5
100
AcDbArc
 50
115.0000000000127
 51
295.0000000000127
  0
ARC
  5
49E
330
1F
100
AcDbEntity
  8
0
  6
CONTINUOUS
 62
     7
100
AcDbCircle
 10
-85.39034554321557
 20
37.19323057294341
 30
0.0
 40
1.5
100
AcDbArc
 50
105.0000000000145
 51
285.7527230527232
  0
LINE
  5
49F
330
1F
100
AcDbEntity
  8
0
  6
CONTINUOUS
 62
     7
100
AcDbLine
 10
-113.0039977748551
 20
63.07005456835478
 30
0.0
 11
-113.0039977748551
 21
61.69927336610684
 31
0.0
  0
ARC
  5
4A0
330
1F
100
AcDbEntity
  8
0
  6
CONTINUOUS
 62
     7
100
AcDbCircle
 10
-114.5039977748551
 20
61.69927336610684
 30
0.0
 40
1.5
100
AcDbArc
 50
264.8228696840415
 51
359.9999999999998
  0
ARC
  5
4A1
330
1F
100
AcDbEntity
  8
0
  6
CONTINUOUS
 62
     7
100
AcDbCircle
 10
-117.5039977748552
 20
28.58840339146177
 30
0.0
 40
31.74649922138951
100
AcDbArc
 50
359.9999999999998
 51
445.4958830781424
  0
ARC
  5
4A2
330
1F
100
AcDbEntity
  8
0
  6
CONTINUOUS
 62
     7
100
AcDbCircle
 10
-117.5039977748552
 20
28.58840339146177
 30
0.0
 40
31.74649922138951
100
AcDbArc
 50
274.5041141994177
 51
359.9999999999998
  0
ARC
  5
4A3
330
1F
100
AcDbEntity
  8
0
  6
CONTINUOUS
 62
     7
100
AcDbCircle
 10
-114.5039977748554
 20
-4.522466583183324
 30
0.0
 40
1.5
100
AcDbArc
 50
359.9999999999997
 51
455.177130315958
  0
LINE
  5
4A4
330
1F
100
AcDbEntity
  8
0
  6
CONTINUOUS
 62
     7
100
AcDbLine
 10
-113.0039977748554
 20
-5.893247785430134
 30
0.0
 11
-113.0039977748554
 21
-4.522466583183331
 31
0.0
  0
ARC
  5
4A5
330
1F
100
AcDbEntity
  8
0
  6
CONTINUOUS
 62
     7
100
AcDbCircle
 10
-108.8991705933736
 20
-3.525248840177813
 30
0.0
 40
1.5
100
AcDbArc
 50
15.00000000001449
 51
195.7527230527232
  0
LINE
  5
4A6
330
1F
100
AcDbEntity
  8
0
  6
CONTINUOUS
 62
     7
100
AcDbLine
 10
-107.4502818539401
 20
-3.137020272523664
 30
0.0
 11
-107.0633008210407
 21
-4.581253148868367
 31
0.0
  0
LINE
  5
4A7
330
1F
100
AcDbEntity
  8
0
  6
CONTINUOUS
 62
     7
100
AcDbLine
 10
-110.3480593328071
 20
-3.913477407831959
 30
0.0
 11
-109.9610782999079
 21
-5.357710284175919
 31
0.0
  0
ARC
  5
4A8
330
1F
100
AcDbEntity
  8
0
  6
CONTINUOUS
 62
     7
100
AcDbCircle
 10
-103.4534200649482
 20
-1.543157744591508
 30
0.0
 40
1.5
100
AcDbArc
 50
25.00000000001268
 51
205.0000000000127
  0
LINE
  5
4A9
330
1F
100
AcDbEntity
  8
0
  6
CONTINUOUS
 62
     7
100
AcDbLine
 10
-104.8128817455031
 20
-2.177085137202884
 30
0.0
 11
-104.1809914169314
 21
-3.532178319827104
 31
0.0
  0
LINE
  5
4AA
330
1F
100
AcDbEntity
  8
0
  6
CONTINUOUS
 62
     7
100
AcDbLine
 10
-102.0939583843933
 20
-0.9092303519801845
 30
0.0
 11
-101.4620680558214
 21
-2.26432353460503
 31
0.0
  0
ARC
  5
4AB
330
1F
100
AcDbEntity
  8
0
  6
CONTINUOUS
 62
     7
100
AcDbCircle
 10
-98.43458923030289
 20
1.354465588808093
 30
0.0
 40
1.5
100
AcDbArc
 50
34.24727694727014
 51
215.0000000000019
  0
LINE
  5
4AC
330
1F
100
AcDbEntity
  8
0
  6
CONTINUOUS
 62
     7
100
AcDbLine
 10
-99.6633172967363
 20
0.4941009342814802
 30
0.0
 11
-98.80571734037346
 21
-0.730678733980227
 31
0.0
  0
LINE
  5
4AD
330
1F
100
AcDbEntity
  8
0
  6
CONTINUOUS
 62
     7
100
AcDbLine
 10
-97.20586116386937
 20
2.21483024333471
 30
0.0
 11
-96.34826120750699
 21
0.9900505750736279
 31
0.0
  0
ARC
  5
4AE
330
1F
100
AcDbEntity
  8
0
  6
CONTINUOUS
 62
     7
100
AcDbCircle
 10
-93.99517272469745
 20
5.079578341303893
 30
0.0
 40
1.5
100
AcDbArc
 50
44.99999999996215
 51
224.9999999999621
  0
LINE
  5
4AF
330
1F
100
AcDbEntity
  8
0
  6
CONTINUOUS
 62
     7
100
AcDbLine
 10
-95.05583289647802
 20
4.018918169524749
 30
0.0
 11
-93.99858105303235
 21
2.961666326077655
 31
0.0
  0
LINE
  5
4B0
330
1F
100
AcDbEntity
  8
0
  6
CONTINUOUS
 62
     7
100
AcDbLine
 10
-92.934512552917
 20
6.140238513082981
 30
0.0
 11
-91.87726070947258
 21
5.082986669637194
 31
0.0
  0
ARC
  5
4B1
330
1F
100
AcDbEntity
  8
0
  6
CONTINUOUS
 62
     7
100
AcDbCircle
 10
-90.27005997220164
 20
9.518994846909255
 30
0.0
 40
1.5
100
AcDbArc
 50
54.99999999992441
 51
234.9999999999244
  0
LINE
  5
4B2
330
1F
100
AcDbEntity
  8
0
  6
CONTINUOUS
 62
     7
100
AcDbLine
 10
-91.13042462672985
 20
8.29026678047688
 30
0.0
 11
-89.90564495846763
 21
7.432666824111312
 31
0.0
  0
LINE
  5
4B3
330
1F
100
AcDbEntity
  8
0
  6
CONTINUOUS
 62
     7
100
AcDbLine
 10
-89.40969531767348
 20
10.74772291334158
 30
0.0
 11
-88.1849156494149
 21
9.890122956978512
 31
0.0
  0
ARC
  5
4B4
330
1F
100
AcDbEntity
  8
0
  6
CONTINUOUS
 62
     7
100
AcDbCircle
 10
-87.37243663880201
 20
14.53782568155451
 30
0.0
 40
1.5
100
AcDbArc
 50
64.99999999991447
 51
245.7524352055951
  0
LINE
  5
4B5
330
1F
100
AcDbEntity
  8
0
  6
CONTINUOUS
 62
     7
100
AcDbLine
 10
-86.65127084878856
 20
12.54647367242561
 30
0.0
 11
-88.0063640314151
 21
13.17836400100047
 31
0.0
  0
LINE
  5
4B6
330
1F
100
AcDbEntity
  8
0
  6
CONTINUOUS
 62
     7
100
AcDbLine
 10
-86.73850924618898
 20
15.89728736210853
 30
0.0
 11
-85.3834160635663
 21
15.2653970335355
 31
0.0
  0
ARC
  5
4B7
330
1F
100
AcDbEntity
  8
0
  6
CONTINUOUS
 62
     7
100
AcDbCircle
 10
-85.39034554321574
 20
19.98357620997993
 30
0.0
 40
1.5
100
AcDbArc
 50
74.99999999998607
 51
254.9999999999861
  0
LINE
  5
4B8
330
1F
100
AcDbEntity
  8
0
  6
CONTINUOUS
 62
     7
100
AcDbLine
 10
-84.33434123452412
 20
18.14770643764674
 30
0.0
 11
-85.77857411086984
 21
18.53468747054641
 31
0.0
  0
LINE
  5
4B9
330
1F
100
AcDbEntity
  8
0
  6
CONTINUOUS
 62
     7
100
AcDbLine
 10
-83.55783689479102
 20
21.04547126812625
 30
0.0
 11
-85.00211697556159
 21
21.4324649494134
 31
0.0
  0
ARC
  5
4BA
330
1F
100
AcDbEntity
  8
0
  6
CONTINUOUS
 62
     7
100
AcDbCircle
 10
-84.39312780021015
 20
25.58840339146164
 30
0.0
 40
1.5
100
AcDbArc
 50
174.8228696840415
 51
269.9999999999998
  0
LINE
  5
4BB
330
1F
100
AcDbEntity
  8
0
  6
CONTINUOUS
 62
     7
100
AcDbLine
 10
-83.02234659796221
 20
24.08840339146163
 30
0.0
 11
-84.39312780021015
 21
24.08840339146164
 31
0.0
  0
ARC
  5
4BC
330
1F
100
AcDbEntity
  8
0
  6
CONTINUOUS
 62
     7
100
AcDbCircle
 10
-84.3931278002101
 20
31.58840339146164
 30
0.0
 40
1.5
100
AcDbArc
 50
89.99999999999976
 51
185.177130315958
  0
LINE
  5
4BD
330
1F
100
AcDbEntity
  8
0
  6
CONTINUOUS
 62
     7
100
AcDbLine
 10
-83.02234659796227
 20
33.08840339146163
 30
0.0
 11
-84.3931278002101
 21
33.08840339146164
 31
0.0
  0
ARC
  5
4BE
330
1F
100
AcDbEntity
  8
0
  6
CONTINUOUS
 62
     7
100
AcDbCircle
 10
-117.5039977748552
 20
28.58840339146177
 30
0.0
 40
34.95000000000086
100
AcDbArc
 50
269.9999999999998
 51
449.9999999999998
  0
ARC
  5
4BF
330
1F
100
AcDbEntity
  8
0
  6
CONTINUOUS
 62
     7
100
AcDbCircle
 10
-113.5039785814889
 20
66.18840799938184
 30
0.0
 40
0.5
100
AcDbArc
 50
89.99999999999977
 51
179.9999999999998
  0
LINE
  5
4C0
330
1F
100
AcDbEntity
  8
0
  6
CONTINUOUS
 62
     7
100
AcDbLine
 10
-114.0039785814889
 20
65.32203383912733
 30
0.0
 11
-114.0039785814889
 21
66.18840799938184
 31
0.0
  0
LINE
  5
4C1
330
1F
100
AcDbEntity
  8
0
  6
CONTINUOUS
 62
     7
100
AcDbLine
 10
-112.320947573621
 20
66.68840799938184
 30
0.0
 11
-113.5039785814889
 21
66.68840799938184
 31
0.0
  0
LINE
  5
4C2
330
1F
100
AcDbEntity
  8
0
  6
CONTINUOUS
 62
     7
100
AcDbLine
 10
-112.5039785814889
 20
65.71669467331165
 30
0.0
 11
-112.5039785814889
 21
66.11172640101515
 31
0.0
  0
ARC
  5
4C3
330
1F
100
AcDbEntity
  8
0
  6
CONTINUOUS
 62
     7
100
AcDbCircle
 10
-117.503978581489
 20
28.58840895305615
 30
0.0
 40
36.89999465942383
100
AcDbArc
 50
83.08937858509769
 51
89.99999999999977
  0
ARC
  5
4C4
330
1F
100
AcDbEntity
  8
0
  6
CONTINUOUS
 62
     7
100
AcDbCircle
 10
-113.0039785814889
 20
65.71669467331165
 30
0.0
 40
0.5
100
AcDbArc
 50
263.0893785850981
 51
359.9999999999997
  0
LINE
  5
4C5
330
1F
100
AcDbEntity
  8
0
  6
CONTINUOUS
 62
     7
100
AcDbLine
 10
-112.5039977748553
 20
-8.934922687125125
 30
0.0
 11
-112.5039977748553
 21
-8.535506909021052
 31
0.0
  0
ARC
  5
4C6
330
1F
100
AcDbEntity
  8
0
  6
CONTINUOUS
 62
     7
100
AcDbCircle
 10
-113.5039785814893
 20
-9.011601216457192
 30
0.0
 40
0.5
100
AcDbArc
 50
179.9999999999998
 51
269.9999999999998
  0
LINE
  5
4C7
330
1F
100
AcDbEntity
  8
0
  6
CONTINUOUS
 62
     7
100
AcDbLine
 10
-114.0039785814893
 20
-8.145227056202739
 30
0.0
 11
-114.0039785814893
 21
-9.011601216457189
 31
0.0
  0
LINE
  5
4C8
330
1F
100
AcDbEntity
  8
0
  6
CONTINUOUS
 62
     7
100
AcDbLine
 10
-112.3209689333471
 20
-9.511601216457196
 30
0.0
 11
-113.5039785814893
 21
-9.511601216457192
 31
0.0
  0
ARC
  5
4C9
330
1F
100
AcDbEntity
  8
0
  6
CONTINUOUS
 62
     7
100
AcDbCircle
 10
-113.0039785814893
 20
-8.539887890387064
 30
0.0
 40
0.5
100
AcDbArc
 50
359.9999999999997
 51
456.9106214149015
  0
ARC
  5
4CA
330
1F
100
AcDbEntity
  8
0
  6
CONTINUOUS
 62
     7
100
AcDbCircle
 10
-117.5039977748552
 20
28.58840339146234
 30
0.0
 40
39.0
100
AcDbArc
 50
279.0847202873908
 51
359.9999999999997
  0
ARC
  5
4CB
330
1F
100
AcDbEntity
  8
0
  6
CONTINUOUS
 62
     7
100
AcDbCircle
 10
-117.503978581489
 20
28.58839782986853
 30
0.0
 40
36.89999465942383
100
AcDbArc
 50
269.9999999999998
 51
276.9106214149019
  0
ARC
  5
4CC
330
1F
100
AcDbEntity
  8
0
  6
CONTINUOUS
 62
     7
100
AcDbCircle
 10
-117.5039977748547
 20
28.58840339146234
 30
0.0
 40
34.77404589467386
100
AcDbArc
 50
82.56468176788117
 51
87.52777564483831
  0
ARC
  5
4CD
330
1F
100
AcDbEntity
  8
0
  6
CONTINUOUS
 62
     7
100
AcDbCircle
 10
-117.5039977748547
 20
28.58840339146234
 30
0.0
 40
34.77404589467386
100
AcDbArc
 50
72.52774399124678
 51
77.47225600875284
  0
ARC
  5
4CE
330
1F
100
AcDbEntity
  8
0
  6
CONTINUOUS
 62
     7
100
AcDbCircle
 10
-117.5039977748547
 20
28.58840339146234
 30
0.0
 40
34.77404589467386
100
AcDbArc
 50
62.52774399124346
 51
67.47225600874964
  0
ARC
  5
4CF
330
1F
100
AcDbEntity
  8
0
  6
CONTINUOUS
 62
     7
100
AcDbCircle
 10
-117.5039977748547
 20
28.58840339146234
 30
0.0
 40
34.77404589467386
100
AcDbArc
 50
52.52774399124372
 51
57.47225600874975
  0
ARC
  5
4D0
330
1F
100
AcDbEntity
  8
0
  6
CONTINUOUS
 62
     7
100
AcDbCircle
 10
-117.5039977748547
 20
28.58840339146234
 30
0.0
 40
34.77404589467386
100
AcDbArc
 50
42.52774399124512
 51
47.47225600875113
  0
ARC
  5
4D1
330
1F
100
AcDbEntity
  8
0
  6
CONTINUOUS
 62
     7
100
AcDbCircle
 10
-117.5039977748547
 20
28.58840339146234
 30
0.0
 40
34.77404589467386
100
AcDbArc
 50
32.52961137794222
 51
37.47225600875267
  0
ARC
  5
4D2
330
1F
100
AcDbEntity
  8
0
  6
CONTINUOUS
 62
     7
100
AcDbCircle
 10
-117.5039977748547
 20
28.58840339146234
 30
0.0
 40
34.77404589467386
100
AcDbArc
 50
352.5646817678794
 51
367.4353182321183
  0
ARC
  5
4D3
330
1F
100
AcDbEntity
  8
0
  6
CONTINUOUS
 62
     7
100
AcDbCircle
 10
-117.5039977748547
 20
28.58840339146234
 30
0.0
 40
34.77404589467386
100
AcDbArc
 50
322.5277439912422
 51
327.4722560087483
  0
ARC
  5
4D4
330
1F
100
AcDbEntity
  8
0
  6
CONTINUOUS
 62
     7
100
AcDbCircle
 10
-117.5039977748547
 20
28.58840339146234
 30
0.0
 40
34.77404589467386
100
AcDbArc
 50
312.5277439912439
 51
317.4722560087499
  0
ARC
  5
4D5
330
1F
100
AcDbEntity
  8
0
  6
CONTINUOUS
 62
     7
100
AcDbCircle
 10
-117.5039977748547
 20
28.58840339146234
 30
0.0
 40
34.77404589467386
100
AcDbArc
 50
302.5277439912456
 51
307.4722560087516
  0
ARC
  5
4D6
330
1F
100
AcDbEntity
  8
0
  6
CONTINUOUS
 62
     7
100
AcDbCircle
 10
-117.5039977748547
 20
28.58840339146234
 30
0.0
 40
34.77404589467386
100
AcDbArc
 50
292.527743991246
 51
297.4722560087521
  0
ARC
  5
4D7
330
1F
100
AcDbEntity
  8
0
  6
CONTINUOUS
 62
     7
100
AcDbCircle
 10
-117.5039977748547
 20
28.58840339146234
 30
0.0
 40
34.77404589467386
100
AcDbArc
 50
282.5277439912463
 51
287.4722560087523
  0
ARC
  5
4D8
330
1F
100
AcDbEntity
  8
0
  6
CONTINUOUS
 62
     7
100
AcDbCircle
 10
-117.5039977748547
 20
28.58840339146234
 30
0.0
 40
34.77404589467386
100
AcDbArc
 50
272.4997314878577
 51
277.4353182321183
  0
ARC
  5
4D9
330
1F
100
AcDbEntity
  8
0
  6
CONTINUOUS
 62
     7
100
AcDbCircle
 10
-117.5039977748552
 20
28.58840339146234
 30
0.0
 40
36.40000000000001
100
AcDbArc
 50
281.0288183498528
 51
438.9711816501467
  0
ARC
  5
4DA
330
1F
100
AcDbEntity
  8
0
  6
CONTINUOUS
 62
     7
100
AcDbCircle
 10
-111.5039977748553
 20
-8.934922687125129
 30
0.0
 40
1.0
100
AcDbArc
 50
179.9999999999998
 51
279.084720287391
  0
ARC
  5
4DB
330
1F
100
AcDbEntity
  8
0
  6
CONTINUOUS
 62
     7
100
AcDbCircle
 10
-111.5039785814889
 20
66.11172640101513
 30
0.0
 40
1.0
100
AcDbArc
 50
80.91525040553475
 51
179.9999999999998
  0
ARC
  5
4DC
330
1F
100
AcDbEntity
  8
0
  6
CONTINUOUS
 62
     7
100
AcDbCircle
 10
-117.5039977748547
 20
28.58840339146234
 30
0.0
 40
34.77404589467386
100
AcDbArc
 50
22.52774399124679
 51
27.47225600875289
  0
ARC
  5
4DD
330
1F
100
AcDbEntity
  8
0
  6
CONTINUOUS
 62
     7
100
AcDbCircle
 10
-117.5039977748547
 20
28.58840339146234
 30
0.0
 40
34.77404589467386
100
AcDbArc
 50
12.52774399124672
 51
17.47225600875276
  0
ARC
  5
4DE
330
1F
100
AcDbEntity
  8
0
  6
CONTINUOUS
 62
     7
100
AcDbCircle
 10
-117.5039977748547
 20
28.58840339146234
 30
0.0
 40
34.77404589467386
100
AcDbArc
 50
342.5296113779408
 51
347.4722525354553
  0
ARC
  5
4DF
330
1F
100
AcDbEntity
  8
0
  6
CONTINUOUS
 62
     7
100
AcDbCircle
 10
-117.5039977748547
 20
28.58840339146234
 30
0.0
 40
34.77404589467386
100
AcDbArc
 50
332.5277439912418
 51
337.4722560087479
  0
LINE
  5
4E0
330
1F
100
AcDbEntity
  8
0
  6
CONTINUOUS
 62
     7
100
AcDbLine
 10
-18.47444895691848
 20
67.38839805088632
 30
0.0
 11
-17.05111633566196
 21
67.38839805088632
 31
0.0
  0
LINE
  5
4E1
330
1F
100
AcDbEntity
  8
0
  6
CONTINUOUS
 62
     7
100
AcDbLine
 10
-13.89778157817494
 20
67.38839805088632
 30
0.0
 11
-13.17444134937966
 21
67.38839805088632
 31
0.0
  0
LINE
  5
4E2
330
1F
100
AcDbEntity
  8
0
  6
CONTINUOUS
 62
     7
100
AcDbLine
 10
-18.97444895691848
 20
65.48839805088629
 30
0.0
 11
-16.97444895691842
 21
65.48839805088629
 31
0.0
  0
LINE
  5
4E3
330
1F
100
AcDbEntity
  8
0
  6
CONTINUOUS
 62
     7
100
AcDbLine
 10
-13.97444895691842
 20
65.48839805088629
 30
0.0
 11
1.525551043081521
 21
65.48839805088629
 31
0.0
  0
LINE
  5
4E4
330
1F
100
AcDbEntity
  8
0
  6
CONTINUOUS
 62
     7
100
AcDbLine
 10
-17.02444895691849
 20
64.30280470426435
 30
0.0
 11
-16.97444895691842
 21
64.30280470426435
 31
0.0
  0
LINE
  5
4E5
330
1F
100
AcDbEntity
  8
0
  6
CONTINUOUS
 62
     7
100
AcDbLine
 10
-13.97444895691842
 20
64.30280470426435
 30
0.0
 11
-13.92444895691847
 21
64.30280470426435
 31
0.0
  0
LINE
  5
4E6
330
1F
100
AcDbEntity
  8
0
  6
CONTINUOUS
 62
     7
100
AcDbLine
 10
-18.98317516013714
 20
63.52982817544242
 30
0.0
 11
-16.97444895691842
 21
63.49476572914222
 31
0.0
  0
LINE
  5
4E7
330
1F
100
AcDbEntity
  8
0
  6
CONTINUOUS
 62
     7
100
AcDbLine
 10
-13.97444895691842
 20
63.44240053435755
 30
0.0
 11
-9.474448300366078
 21
63.3638527307204
 31
0.0
  0
LINE
  5
4E8
330
1F
100
AcDbEntity
  8
0
  6
CONTINUOUS
 62
     7
100
AcDbLine
 10
-18.98317516013714
 20
63.1703254254098
 30
0.0
 11
-16.97444895691842
 21
63.13526297910961
 31
0.0
  0
LINE
  5
4E9
330
1F
100
AcDbEntity
  8
0
  6
CONTINUOUS
 62
     7
100
AcDbLine
 10
-13.97444895691842
 20
63.08289778432494
 30
0.0
 11
-13.65699655048115
 21
63.07735663195896
 31
0.0
  0
LINE
  5
4EA
330
1F
100
AcDbEntity
  8
0
  6
CONTINUOUS
 62
     7
100
AcDbLine
 10
-14.32554293635375
 20
28.58840339146247
 30
0.0
 11
-12.97512778793981
 21
60.30650063734171
 31
0.0
  0
ARC
  5
4EB
330
1F
100
AcDbEntity
  8
0
  6
CONTINUOUS
 62
     7
100
AcDbCircle
 10
-117.5039977748558
 20
28.58840339146177
 30
0.0
 40
34.95000000000086
100
AcDbArc
 50
90.0
 51
101.4655940706157
  0
ARC
  5
4EC
330
1F
100
AcDbEntity
  8
0
  6
CONTINUOUS
 62
     7
100
AcDbCircle
 10
-117.5039977748558
 20
28.58840339146177
 30
0.0
 40
34.95000000000086
100
AcDbArc
 50
258.534413320294
 51
270.0
  0
LINE
  5
4ED
330
1F
100
AcDbEntity
  8
0
  6
DIVIDE
 62
     7
100
AcDbLine
 10
-9.474448956918479
 20
63.36385274218057
 30
0.0
 11
-9.474448956918479
 21
32.08840339146192
 31
0.0
  0
ARC
  5
4EE
330
1F
100
AcDbEntity
  8
0
  6
DASHED2
 62
     7
100
AcDbCircle
 10
-18.97444895691848
 20
-7.81159126796133
 30
0.0
 40
0.5
100
AcDbArc
 50
180.0
 51
269.9999974955218
  0
LINE
  5
4EF
330
1F
100
AcDbEntity
  8
0
  6
DASHED2
 62
     7
100
AcDbLine
 10
-9.474448300366134
 20
63.36385273072041
 30
0.0
 11
2.525551043081521
 21
63.15439196304193
 31
0.0
  0
ARC
  5
4F0
330
1F
100
AcDbEntity
  8
0
  6
DASHED2
 62
     7
100
AcDbCircle
 10
-117.5039977748556
 20
28.58840339146171
 30
0.0
 40
36.89999465942442
100
AcDbArc
 50
90.0
 51
180.0
  0
ARC
  5
4F1
330
1F
100
AcDbEntity
  8
0
  6
DASHED2
 62
     7
100
AcDbCircle
 10
-117.5039977748556
 20
28.58840339146291
 30
0.0
 40
36.89999465942442
100
AcDbArc
 50
180.0
 51
270.0
  0
ARC
  5
4F2
330
1F
100
AcDbEntity
  8
0
  6
DASHED2
 62
     7
100
AcDbCircle
 10
-117.5039977748553
 20
28.58840339146171
 30
0.0
 40
36.89999465942442
100
AcDbArc
 50
359.9999999999998
 51
449.9999999999998
  0
ARC
  5
4F3
330
1F
100
AcDbEntity
  8
0
  6
DASHED2
 62
     7
100
AcDbCircle
 10
-117.5039977748553
 20
28.58840339146291
 30
0.0
 40
36.89999465942442
100
AcDbArc
 50
269.9999999999998
 51
359.9999999999997
  0
LINE
  5
4F4
330
1F
100
AcDbEntity
  8
0
  6
CENTER
 62
     7
100
AcDbLine
 10
-4.474445142221214
 20
67.76825125971955
 30
0.0
 11
-4.474445142221214
 21
63.84539549567104
 31
0.0
  0
LINE
  5
4F5
330
1F
100
AcDbEntity
  8
0
  6
CENTER
 62
     7
100
AcDbLine
 10
-4.474445142221214
 20
-10.59144447679456
 30
0.0
 11
-4.474445142221214
 21
-6.668588712746111
 31
0.0
  0
LINE
  5
4F6
330
1F
100
AcDbEntity
  8
0
  6
CENTER
 62
     7
100
AcDbLine
 10
-117.5040553549564
 20
28.58839782986917
 30
0.0
 11
-146.8312692389324
 21
57.91561171384511
 31
0.0
  0
LINE
  5
4F7
330
1F
100
AcDbEntity
  8
0
  6
CENTER
 62
     7
100
AcDbLine
 10
-117.5040553549567
 20
28.58839782986883
 30
0.0
 11
-151.4783402091442
 21
52.37744819005492
 31
0.0
  0
LINE
  5
4F8
330
1F
100
AcDbEntity
  8
LAYER0014
  6
DASHED2
 62
     7
100
AcDbLine
 10
-12.17444514222103
 20
-8.31159126796133
 30
0.0
 11
-18.97444895691848
 21
-8.31159126796133
 31
0.0
  0
LINE
  5
4F9
330
1F
100
AcDbEntity
  8
LAYER0014
  6
DASHED2
 62
     7
100
AcDbLine
 10
79.51993143360875
 20
29.3297937051725
 30
0.0
 11
85.53427724630018
 21
29.22481290851122
 31
0.0
  0
ARC
  5
4FA
330
1F
100
AcDbEntity
  8
LAYER0014
  6
DASHED2
 62
     7
100
AcDbCircle
 10
85.52555104308152
 20
28.72488906093303
 30
0.0
 40
0.5
100
AcDbArc
 50
0.0
 51
88.99999999999984
  0
ARC
  5
4FB
330
1F
100
AcDbEntity
  8
LAYER0014
  6
DIVIDE
 62
     7
100
AcDbCircle
 10
-117.5040553549545
 20
28.58839782987202
 30
0.0
 40
33.59999999999826
100
AcDbArc
 50
5.886543220303981
 51
89.99999999999989
  0
ELLIPSE
  5
4FC
330
1F
100
AcDbEntity
  8
LAYER0014
  6
CONTINUOUS
 62
     7
100
AcDbEllipse
 10
79.02555104308152
 20
18.1402339816962
 30
0.0
 11
0.5000000000000017
 21
0.002138358776306874
 31
0.0
210
0.0
220
0.0
230
1.0
 40
0.7999999999999946
 41
6.276342585795716
 42
7.858258325403268
  0
ELLIPSE
  5
4FD
330
1F
100
AcDbEntity
  8
LAYER0014
  6
CONTINUOUS
 62
     7
100
AcDbEllipse
 10
79.02555104308152
 20
16.44689220172491
 30
0.0
 11
0.5000000000000032
 21
0.003821357352862235
 31
0.0
210
0.0
220
0.0
230
1.0
 40
0.8000000000000064
 41
4.720031546214664
 42
6.270957115842413
  0
ELLIPSE
  5
4FE
330
1F
100
AcDbEntity
  8
LAYER0014
  6
CONTINUOUS
 62
     7
100
AcDbEllipse
 10
79.02555104308152
 20
12.83586634086097
 30
0.0
 11
0.5000000000000046
 21
0.003665663151407063
 31
0.0
210
0.0
220
0.0
230
0.9999999999999999
 40
0.7000000000000108
 41
6.272921540458581
 42
7.846650439049503
  0
ELLIPSE
  5
4FF
330
1F
100
AcDbEntity
  8
LAYER0014
  6
CONTINUOUS
 62
     7
100
AcDbEllipse
 10
79.02555104308152
 20
11.3781211675509
 30
0.0
 11
0.499999999999995
 21
0.00516384518399646
 31
0.0
210
0.0
220
0.0
230
1.0
 40
0.70000000000001
 41
4.702061657200741
 42
6.268726792548077
  0
ELLIPSE
  5
500
330
1F
100
AcDbEntity
  8
LAYER0014
  6
CONTINUOUS
 62
     7
100
AcDbEllipse
 10
79.02555104308152
 20
8.005643930174021
 30
0.0
 11
0.4999999999999947
 21
0.004888857711904445
 31
0.0
210
0.0
220
0.0
230
1.0
 40
0.5599999999999942
 41
6.272234375346113
 42
7.844204230078838
  0
ELLIPSE
  5
501
330
1F
100
AcDbEntity
  8
LAYER0014
  6
CONTINUOUS
 62
     7
100
AcDbEllipse
 10
79.02555104308152
 20
6.866306046509255
 30
0.0
 11
0.5000000000000009
 21
0.006333600571752269
 31
0.0
210
0.0
220
0.0
230
1.0
 40
0.5600000000000013
 41
4.69972245667378
 42
6.283185328253008
  0
ELLIPSE
  5
502
330
1F
100
AcDbEntity
  8
LAYER0014
  6
CONTINUOUS
 62
     7
100
AcDbEllipse
 10
79.02555104308152
 20
3.822424300305318
 30
0.0
 11
0.5000000000000067
 21
0.006075718909386076
 31
0.0
210
0.0
220
0.0
230
1.0
 40
0.4000000000000146
 41
6.273464234056211
 42
7.866132473879733
  0
ELLIPSE
  5
503
330
1F
100
AcDbEntity
  8
LAYER0014
  6
CONTINUOUS
 62
     7
100
AcDbEllipse
 10
79.02555104308152
 20
3.056997564862446
 30
0.0
 11
0.4999999999999925
 21
0.00729838758275041
 31
0.0
210
0.0
220
0.0
230
1.0
 40
0.3999999999999975
 41
4.69779324181216
 42
6.271508019915737
  0
ELLIPSE
  5
504
330
1F
100
AcDbEntity
  8
LAYER0014
  6
CONTINUOUS
 62
     7
100
AcDbEllipse
 10
79.02555104308152
 20
0.392920512993971
 30
0.0
 11
0.4999999999999882
 21
0.007001699188436581
 31
0.0
210
0.0
220
0.0
230
1.0
 40
0.1999999999999791
 41
0.0000000000008881
 42
1.584798809936607
  0
ELLIPSE
  5
505
330
1F
100
AcDbEntity
  8
LAYER0014
  6
CONTINUOUS
 62
     7
100
AcDbEllipse
 10
79.02555104308152
 20
0.0545258973725957
 30
0.0
 11
0.4999999999999826
 21
0.008035052457273257
 31
0.0
210
0.0
220
0.0
230
1.0
 40
0.2000000000000098
 41
4.696320258623445
 42
6.283185307180656
  0
LINE
  5
506
330
1F
100
AcDbEntity
  8
LAYER0014
  6
CONTINUOUS
 62
     7
100
AcDbLine
 10
-122.8415987339837
 20
-6.277676118443321
 30
0.0
 11
-123.6437513161056
 21
-6.932469937650307
 31
0.0
  0
ARC
  5
507
330
1F
100
AcDbEntity
  8
LAYER0014
  6
CONTINUOUS
 62
     7
100
AcDbCircle
 10
-124.2761135403797
 20
-6.157797092307714
 30
0.0
 40
1.0
100
AcDbArc
 50
258.9711816501472
 51
309.224618984834
  0
ARC
  5
508
330
1F
100
AcDbEntity
  8
LAYER0014
  6
CONTINUOUS
 62
     7
100
AcDbCircle
 10
-122.2092365097096
 20
-7.052348963785914
 30
0.0
 40
1.0
100
AcDbArc
 50
82.47938774737753
 51
129.2246189848327
  0
LINE
  5
509
330
1F
100
AcDbEntity
  8
LAYER0014
  6
CONTINUOUS
 62
     7
100
AcDbLine
 10
-122.8415987339837
 20
63.45448290136794
 30
0.0
 11
-123.6437513161056
 21
64.10927672057493
 31
0.0
  0
ARC
  5
50A
330
1F
100
AcDbEntity
  8
LAYER0014
  6
CONTINUOUS
 62
     7
100
AcDbCircle
 10
-124.2761135403797
 20
63.33460387523233
 30
0.0
 40
1.0
100
AcDbArc
 50
50.77538101516603
 51
101.0288183498528
  0
ARC
  5
50B
330
1F
100
AcDbEntity
  8
LAYER0014
  6
CONTINUOUS
 62
     7
100
AcDbCircle
 10
-122.2092365097096
 20
64.22915574671053
 30
0.0
 40
1.0
100
AcDbArc
 50
230.7753810151673
 51
277.5206122526225
  0
LINE
  5
50C
330
1F
100
AcDbEntity
  8
LAYER0014
  6
CONTINUOUS
 62
     7
100
AcDbLine
 10
-112.1663968157274
 20
-6.277676118443342
 30
0.0
 11
-111.3642442336054
 21
-6.932469937650332
 31
0.0
  0
ARC
  5
50D
330
1F
100
AcDbEntity
  8
LAYER0014
  6
CONTINUOUS
 62
     7
100
AcDbCircle
 10
-110.7318820093313
 20
-6.157797092307742
 30
0.0
 40
1.0
100
AcDbArc
 50
230.7753810151658
 51
281.0288183498525
  0
ARC
  5
50E
330
1F
100
AcDbEntity
  8
LAYER0014
  6
CONTINUOUS
 62
     7
100
AcDbCircle
 10
-112.7987590400014
 20
-7.052348963785931
 30
0.0
 40
1.0
100
AcDbArc
 50
50.77538101516705
 51
97.52061225262224
  0
LINE
  5
50F
330
1F
100
AcDbEntity
  8
LAYER0014
  6
CONTINUOUS
 62
     7
100
AcDbLine
 10
-112.1663968157271
 20
63.45448290136793
 30
0.0
 11
-111.3642442336051
 21
64.1092767205749
 31
0.0
  0
ARC
  5
510
330
1F
100
AcDbEntity
  8
LAYER0014
  6
CONTINUOUS
 62
     7
100
AcDbCircle
 10
-110.731882009331
 20
63.3346038752323
 30
0.0
 40
1.0
100
AcDbArc
 50
78.97118165014702
 51
129.2246189848337
  0
ARC
  5
511
330
1F
100
AcDbEntity
  8
LAYER0014
  6
CONTINUOUS
 62
     7
100
AcDbCircle
 10
-112.7987590400011
 20
64.22915574671052
 30
0.0
 40
1.0
100
AcDbArc
 50
262.4793877473773
 51
309.2246189848325
  0
LINE
  5
512
330
1F
100
AcDbEntity
  8
LAYER0014
  6
CONTINUOUS
 62
     7
100
AcDbLine
 10
2.525551043081514
 20
61.67894261232416
 30
0.0
 11
-8.061347488410227
 21
62.12841007686681
 31
0.0
  0
ARC
  5
513
330
1F
100
AcDbEntity
  8
LAYER0014
  6
CONTINUOUS
 62
     7
100
AcDbCircle
 10
-7.997722205343486
 20
63.62706007715198
 30
0.0
 40
1.5
100
AcDbArc
 50
190.1061057822222
 51
267.5689638521754
  0
ARC
  5
514
330
1F
100
AcDbEntity
  8
LAYER0014
  6
CONTINUOUS
 62
     7
100
AcDbCircle
 10
-108.4049534065026
 20
62.54670860474156
 30
0.0
 40
1.556230272187505
100
AcDbArc
 50
180.4490655886745
 51
329.5509344113219
  0
ARC
  5
515
330
1F
100
AcDbEntity
  8
LAYER0014
  6
CONTINUOUS
 62
     7
100
AcDbCircle
 10
-114.4241769338845
 20
63.55301349930711
 30
0.0
 40
1.5
100
AcDbArc
 50
264.9660608099146
 51
341.2175129677457
  0
ARC
  5
516
330
1F
100
AcDbEntity
  8
LAYER0014
  6
CONTINUOUS
 62
     7
100
AcDbCircle
 10
-117.5040553549545
 20
28.58839782987202
 30
0.0
 40
33.59999999999826
100
AcDbArc
 50
84.96606080991462
 51
86.0141801050632
  0
ARC
  5
517
330
1F
100
AcDbEntity
  8
LAYER0014
  6
CONTINUOUS
 62
     7
100
AcDbCircle
 10
-120.5838953892917
 20
63.55301349930713
 30
0.0
 40
1.5
100
AcDbArc
 50
198.782487032254
 51
230.9330840739568
  0
ARC
  5
518
330
1F
100
AcDbEntity
  8
LAYER0014
  6
CONTINUOUS
 62
     7
100
AcDbCircle
 10
-102.646390427967
 20
60.45076308840713
 30
0.0
 40
1.556230272187504
100
AcDbArc
 50
170.4490655886745
 51
319.550934411322
  0
ARC
  5
519
330
1F
100
AcDbEntity
  8
LAYER0014
  6
CONTINUOUS
 62
     7
100
AcDbCircle
 10
-97.33927007989647
 20
57.3866957268268
 30
0.0
 40
1.556230272187504
100
AcDbArc
 50
160.4490655886745
 51
309.550934411322
  0
ARC
  5
51A
330
1F
100
AcDbEntity
  8
LAYER0014
  6
CONTINUOUS
 62
     7
100
AcDbCircle
 10
-92.64484652853489
 20
53.44760665628934
 30
0.0
 40
1.556230272187504
100
AcDbArc
 50
150.4490655886745
 51
299.550934411322
  0
ARC
  5
51B
330
1F
100
AcDbEntity
  8
LAYER0014
  6
CONTINUOUS
 62
     7
100
AcDbCircle
 10
-88.70575745799746
 20
48.75318310492771
 30
0.0
 40
1.556230272187504
100
AcDbArc
 50
140.4490655886745
 51
289.5509344113219
  0
ARC
  5
51C
330
1F
100
AcDbEntity
  8
LAYER0014
  6
CONTINUOUS
 62
     7
100
AcDbCircle
 10
-85.64169009641725
 20
43.44606275685713
 30
0.0
 40
1.556230272187503
100
AcDbArc
 50
130.4490655886745
 51
279.5509344113219
  0
ARC
  5
51D
330
1F
100
AcDbEntity
  8
LAYER0014
  6
CONTINUOUS
 62
     7
100
AcDbCircle
 10
-83.5457445800829
 20
37.68749977832125
 30
0.0
 40
1.556230272187503
100
AcDbArc
 50
120.4490655886745
 51
269.550934411322
  0
ARC
  5
51E
330
1F
100
AcDbEntity
  8
LAYER0014
  6
CONTINUOUS
 62
     7
100
AcDbCircle
 10
-117.5040553549545
 20
28.58839782987202
 30
0.0
 40
33.59999999999826
100
AcDbArc
 50
359.9999999999998
 51
365.7079062179836
  0
ARC
  5
51F
330
1F
100
AcDbEntity
  8
LAYER0014
  6
CONTINUOUS
 62
     7
100
AcDbCircle
 10
-83.02240417806209
 20
32.03492974738941
 30
0.0
 40
1.053468082480152
100
AcDbArc
 50
89.99999999999977
 51
185.7079062179841
  0
ARC
  5
520
330
1F
100
AcDbEntity
  8
LAYER0014
  6
CONTINUOUS
 62
     7
100
AcDbCircle
 10
-117.5040553549545
 20
28.58839782986853
 30
0.0
 40
33.59999999999826
100
AcDbArc
 50
354.2920937820159
 51
359.9999999999997
  0
ARC
  5
521
330
1F
100
AcDbEntity
  8
LAYER0014
  6
CONTINUOUS
 62
     7
100
AcDbCircle
 10
-83.02240417806212
 20
25.14186591235085
 30
0.0
 40
1.053468082480152
100
AcDbArc
 50
174.2920937820154
 51
269.9999999999998
  0
ARC
  5
522
330
1F
100
AcDbEntity
  8
LAYER0014
  6
CONTINUOUS
 62
     7
100
AcDbCircle
 10
-83.54574458008295
 20
19.48929588141901
 30
0.0
 40
1.556230272187503
100
AcDbArc
 50
90.44906558867758
 51
239.550934411325
  0
ARC
  5
523
330
1F
100
AcDbEntity
  8
LAYER0014
  6
CONTINUOUS
 62
     7
100
AcDbCircle
 10
-85.64169009641736
 20
13.73073290288316
 30
0.0
 40
1.556230272187503
100
AcDbArc
 50
80.44906558867758
 51
229.550934411325
  0
ARC
  5
524
330
1F
100
AcDbEntity
  8
LAYER0014
  6
CONTINUOUS
 62
     7
100
AcDbCircle
 10
-88.70575745799764
 20
8.423612554812603
 30
0.0
 40
1.556230272187504
100
AcDbArc
 50
70.44906558867758
 51
219.550934411325
  0
ARC
  5
525
330
1F
100
AcDbEntity
  8
LAYER0014
  6
CONTINUOUS
 62
     7
100
AcDbCircle
 10
-92.64484652853508
 20
3.72918900345101
 30
0.0
 40
1.556230272187504
100
AcDbArc
 50
60.44906558867758
 51
209.550934411325
  0
ARC
  5
526
330
1F
100
AcDbEntity
  8
LAYER0014
  6
CONTINUOUS
 62
     7
100
AcDbCircle
 10
-97.33927007989669
 20
-0.2099000670864196
 30
0.0
 40
1.556230272187504
100
AcDbArc
 50
50.44906558867758
 51
199.550934411325
  0
ARC
  5
527
330
1F
100
AcDbEntity
  8
LAYER0014
  6
CONTINUOUS
 62
     7
100
AcDbCircle
 10
-102.6463904279673
 20
-3.273967428666698
 30
0.0
 40
1.556230272187504
100
AcDbArc
 50
40.44906558867758
 51
189.550934411325
  0
ARC
  5
528
330
1F
100
AcDbEntity
  8
LAYER0014
  6
CONTINUOUS
 62
     7
100
AcDbCircle
 10
-108.4049534065029
 20
-5.369912945001084
 30
0.0
 40
1.556230272187505
100
AcDbArc
 50
30.44906558867758
 51
179.5509344113251
  0
ARC
  5
529
330
1F
100
AcDbEntity
  8
LAYER0014
  6
CONTINUOUS
 62
     7
100
AcDbCircle
 10
-120.5838953892917
 20
-6.376217839566579
 30
0.0
 40
1.5
100
AcDbArc
 50
129.0669159263669
 51
161.217512967746
  0
ARC
  5
52A
330
1F
100
AcDbEntity
  8
LAYER0014
  6
CONTINUOUS
 62
     7
100
AcDbCircle
 10
-114.4241769338848
 20
-6.37621783956659
 30
0.0
 40
1.5
100
AcDbArc
 50
18.78248703225383
 51
95.03393919008489
  0
ARC
  5
52B
330
1F
100
AcDbEntity
  8
LAYER0014
  6
CONTINUOUS
 62
     7
100
AcDbCircle
 10
-117.5040553549545
 20
28.58839782986853
 30
0.0
 40
33.59999999999826
100
AcDbArc
 50
273.9858198949443
 51
275.0339391900849
  0
LINE
  5
52C
330
1F
100
AcDbEntity
  8
0
  6
CONTINUOUS
 62
     4
100
AcDbLine
 10
-17.22444895691842
 20
66.08840339146254
 30
0.0
 11
-17.02444895691843
 21
67.58840339146254
 31
0.0
  0
LINE
  5
52D
330
1F
100
AcDbEntity
  8
0
  6
CONTINUOUS
 62
     4
100
AcDbLine
 10
-13.72444895691842
 20
66.08840339146251
 30
0.0
 11
-13.92444895691841
 21
67.58840339146251
 31
0.0
  0
LINE
  5
52E
330
1F
100
AcDbEntity
  8
0
  6
CONTINUOUS
 62
     4
100
AcDbLine
 10
-12.97444895691842
 20
60.33840339146254
 30
0.0
 11
-12.97444895691842
 21
61.63840339146253
 31
0.0
  0
LINE
  5
52F
330
1F
100
AcDbEntity
  8
0
  6
CONTINUOUS
 62
     4
100
AcDbLine
 10
-17.22444897181958
 20
59.58840339146254
 30
0.0
 11
-13.72444895691842
 21
59.58840339146254
 31
0.0
  0
LINE
  5
530
330
1F
100
AcDbEntity
  8
0
  6
CONTINUOUS
 62
     4
100
AcDbLine
 10
-17.97444895691842
 20
60.33840339146254
 30
0.0
 11
-17.97444895691842
 21
61.63840339146253
 31
0.0
  0
ARC
  5
531
330
1F
100
AcDbEntity
  8
0
  6
CONTINUOUS
 62
     4
100
AcDbCircle
 10
-13.72444895691842
 20
60.33840339146254
 30
0.0
 40
0.7500000000000001
100
AcDbArc
 50
270.0
 51
360.0
  0
ARC
  5
532
330
1F
100
AcDbEntity
  8
0
  6
CONTINUOUS
 62
     4
100
AcDbCircle
 10
-13.72444895691842
 20
61.63840339146253
 30
0.0
 40
0.7500000000000001
100
AcDbArc
 50
0.0
 51
90.00000000000003
  0
ARC
  5
533
330
1F
100
AcDbEntity
  8
0
  6
CONTINUOUS
 62
     4
100
AcDbCircle
 10
-17.22444895691842
 20
61.63840339146253
 30
0.0
 40
0.7500000000000001
100
AcDbArc
 50
89.9999999999999
 51
179.9999999999999
  0
ARC
  5
534
330
1F
100
AcDbEntity
  8
0
  6
CONTINUOUS
 62
     4
100
AcDbCircle
 10
-17.22444895691842
 20
60.33840339146254
 30
0.0
 40
0.7500000000000001
100
AcDbArc
 50
179.9999999999999
 51
269.9999999999999
  0
LINE
  5
535
330
1F
100
AcDbEntity
  8
0
  6
CONTINUOUS
 62
     4
100
AcDbLine
 10
-16.97444895691842
 20
62.38840339146253
 30
0.0
 11
-16.97444895691842
 21
66.08840339146254
 31
0.0
  0
LINE
  5
536
330
1F
100
AcDbEntity
  8
0
  6
CONTINUOUS
 62
     4
100
AcDbLine
 10
-17.02444895691843
 20
67.58840339146254
 30
0.0
 11
-13.92444895691841
 21
67.58840339146254
 31
0.0
  0
LINE
  5
537
330
1F
100
AcDbEntity
  8
0
  6
CONTINUOUS
 62
     4
100
AcDbLine
 10
-13.97444895691842
 20
62.38840339146253
 30
0.0
 11
-13.97444895691842
 21
66.08840339146254
 31
0.0
  0
LINE
  5
538
330
1F
100
AcDbEntity
  8
0
  6
CONTINUOUS
 62
     4
100
AcDbLine
 10
-19.3300725763097
 20
28.58840339146255
 30
0.0
 11
-17.97060224779739
 21
60.51918566481393
 31
0.0
  0
LINE
  5
539
330
1F
100
AcDbEntity
  8
0
  6
CONTINUOUS
 62
     4
100
AcDbLine
 10
-13.72444895691842
 20
66.08840339146251
 30
0.0
 11
-13.97444895691842
 21
66.08840339146251
 31
0.0
  0
LINE
  5
53A
330
1F
100
AcDbEntity
  8
0
  6
CONTINUOUS
 62
     4
100
AcDbLine
 10
-17.22444895691854
 20
66.08840339146251
 30
0.0
 11
-16.97444895691854
 21
66.08840339146251
 31
0.0
  0
LINE
  5
53B
330
1F
100
AcDbEntity
  8
0
  6
CONTINUOUS
 62
     4
100
AcDbLine
 10
-119.0040169682218
 20
-8.281096414906607
 30
0.0
 11
-119.0040169682218
 21
-8.911602170132426
 31
0.0
  0
LINE
  5
53C
330
1F
100
AcDbEntity
  8
0
  6
CONTINUOUS
 62
     4
100
AcDbLine
 10
-116.0040169682218
 20
-8.281097976613985
 30
0.0
 11
-116.0040169682218
 21
-8.911602170132426
 31
0.0
  0
LINE
  5
53D
330
1F
100
AcDbEntity
  8
0
  6
CONTINUOUS
 62
     4
100
AcDbLine
 10
-116.0040169682218
 20
65.45789841709615
 30
0.0
 11
-116.0040169682218
 21
66.08839782986757
 31
0.0
  0
LINE
  5
53E
330
1F
100
AcDbEntity
  8
0
  6
CONTINUOUS
 62
     4
100
AcDbLine
 10
-119.0040169682218
 20
65.45789685536875
 30
0.0
 11
-119.0040169682218
 21
66.08839782986757
 31
0.0
  0
LINE
  5
53F
330
1F
100
AcDbEntity
  8
0
  6
CONTINUOUS
 62
     4
100
AcDbLine
 10
-115.7540169682216
 20
66.08839782986757
 30
0.0
 11
-115.9540169682216
 21
67.58839782986757
 31
0.0
  0
LINE
  5
540
330
1F
100
AcDbEntity
  8
0
  6
CONTINUOUS
 62
     4
100
AcDbLine
 10
-119.2540169682218
 20
66.08839782986757
 30
0.0
 11
-119.0540169682218
 21
67.58839782986757
 31
0.0
  0
LINE
  5
541
330
1F
100
AcDbEntity
  8
0
  6
CONTINUOUS
 62
     4
100
AcDbLine
 10
-119.2540169682218
 20
66.08839782986757
 30
0.0
 11
-115.7540169682218
 21
66.08839782986757
 31
0.0
  0
LINE
  5
542
330
1F
100
AcDbEntity
  8
0
  6
CONTINUOUS
 62
     4
100
AcDbLine
 10
-119.0040169682218
 20
62.38839782986759
 30
0.0
 11
-119.0040169682218
 21
63.50619415208774
 31
0.0
  0
LINE
  5
543
330
1F
100
AcDbEntity
  8
0
  6
CONTINUOUS
 62
     4
100
AcDbLine
 10
-116.0040169682218
 20
62.38839782986759
 30
0.0
 11
-116.0040169682218
 21
63.50619415208774
 31
0.0
  0
LINE
  5
544
330
1F
100
AcDbEntity
  8
0
  6
CONTINUOUS
 62
     4
100
AcDbLine
 10
-119.0540169682218
 20
67.58839782986757
 30
0.0
 11
-115.9540169682218
 21
67.58839782986757
 31
0.0
  0
LINE
  5
545
330
1F
100
AcDbEntity
  8
0
  6
CONTINUOUS
 62
     4
100
AcDbLine
 10
-115.0040169682218
 20
60.33839782986757
 30
0.0
 11
-115.0040169682218
 21
61.63839782986759
 31
0.0
  0
LINE
  5
546
330
1F
100
AcDbEntity
  8
0
  6
CONTINUOUS
 62
     4
100
AcDbLine
 10
-126.0962429005559
 20
59.58839782986757
 30
0.0
 11
-115.7540169682218
 21
59.58839782986757
 31
0.0
  0
LINE
  5
547
330
1F
100
AcDbEntity
  8
0
  6
CONTINUOUS
 62
     4
100
AcDbLine
 10
-123.7628452773602
 20
62.38839782986759
 30
0.0
 11
-115.7540169682218
 21
62.38839782986759
 31
0.0
  0
LINE
  5
548
330
1F
100
AcDbEntity
  8
0
  6
CONTINUOUS
 62
     4
100
AcDbLine
 10
-126.0962429005559
 20
-2.411602170132426
 30
0.0
 11
-115.7540169682218
 21
-2.411602170132426
 31
0.0
  0
LINE
  5
549
330
1F
100
AcDbEntity
  8
0
  6
CONTINUOUS
 62
     4
100
AcDbLine
 10
-123.7628452773602
 20
-5.21160217013238
 30
0.0
 11
-115.7540169682218
 21
-5.21160217013238
 31
0.0
  0
LINE
  5
54A
330
1F
100
AcDbEntity
  8
0
  6
CONTINUOUS
 62
     4
100
AcDbLine
 10
-115.0040169682218
 20
-3.161602170132426
 30
0.0
 11
-115.0040169682218
 21
-4.46160217013238
 31
0.0
  0
LINE
  5
54B
330
1F
100
AcDbEntity
  8
0
  6
CONTINUOUS
 62
     4
100
AcDbLine
 10
-119.0540169682218
 20
-10.41160217013243
 30
0.0
 11
-115.9540169682218
 21
-10.41160217013243
 31
0.0
  0
LINE
  5
54C
330
1F
100
AcDbEntity
  8
0
  6
CONTINUOUS
 62
     4
100
AcDbLine
 10
-116.0040169682218
 20
-5.21160217013238
 30
0.0
 11
-116.0040169682218
 21
-6.329398492352823
 31
0.0
  0
LINE
  5
54D
330
1F
100
AcDbEntity
  8
0
  6
CONTINUOUS
 62
     4
100
AcDbLine
 10
-119.0040169682218
 20
-5.21160217013238
 30
0.0
 11
-119.0040169682218
 21
-6.329398492352823
 31
0.0
  0
LINE
  5
54E
330
1F
100
AcDbEntity
  8
0
  6
CONTINUOUS
 62
     4
100
AcDbLine
 10
-119.2540169682218
 20
-8.911602170132426
 30
0.0
 11
-115.7540169682218
 21
-8.911602170132426
 31
0.0
  0
LINE
  5
54F
330
1F
100
AcDbEntity
  8
0
  6
CONTINUOUS
 62
     4
100
AcDbLine
 10
-119.2540169682218
 20
-8.911602170132426
 30
0.0
 11
-119.0540169682218
 21
-10.41160217013243
 31
0.0
  0
LINE
  5
550
330
1F
100
AcDbEntity
  8
0
  6
CONTINUOUS
 62
     4
100
AcDbLine
 10
-115.7540169682216
 20
-8.911602170132426
 30
0.0
 11
-115.9540169682216
 21
-10.41160217013243
 31
0.0
  0
ARC
  5
551
330
1F
100
AcDbEntity
  8
0
  6
CONTINUOUS
 62
     4
100
AcDbCircle
 10
-117.5040169682218
 20
28.58839782986757
 30
0.0
 40
33.0
100
AcDbArc
 50
106.9961648170519
 51
180.0
  0
ARC
  5
552
330
1F
100
AcDbEntity
  8
0
  6
CONTINUOUS

 62
     4
100
AcDbCircle
 10
-117.5040169682218
 20
28.58839782986757
 30
0.0
 40
36.0
100
AcDbArc
 50
102.7007019551647
 51
180.0
  0
ARC
  5
553
330
1F
100
AcDbEntity
  8
0
  6
CONTINUOUS
 62
     4
100
AcDbCircle
 10
-125.2540169682218
 20
-5.799099898231191
 30
0.0
 40
0.7500000000000001
100
AcDbArc
 50
257.2992980448356
 51
353.7806642631207
  0
ARC
  5
554
330
1F
100
AcDbEntity
  8
0
  6
CONTINUOUS
 62
     4
100
AcDbCircle
 10
-115.7540169682218
 20
60.33839782986757
 30
0.0
 40
0.7500000000000001
100
AcDbArc
 50
270.0
 51
360.0
  0
ARC
  5
555
330
1F
100
AcDbEntity
  8
0
  6
CONTINUOUS
 62
     4
100
AcDbCircle
 10
-125.2540169682218
 20
62.9758955579664
 30
0.0
 40
0.7500000000000001
100
AcDbArc
 50
6.219335736879431
 51
102.7007019551645
  0
ARC
  5
556
330
1F
100
AcDbEntity
  8
0
  6
CONTINUOUS
 62
     4
100
AcDbCircle
 10
-115.7540169682218
 20
61.63839782986759
 30
0.0
 40
0.7500000000000001
100
AcDbArc
 50
0.0
 51
90.00000000000003
  0
ARC
  5
557
330
1F
100
AcDbEntity
  8
0
  6
CONTINUOUS
 62
     4
100
AcDbCircle
 10
-126.0962429005559
 20
60.08839782986757
 30
0.0
 40
0.5
100
AcDbArc
 50
204.8004659091529
 51
270.0
  0
ARC
  5
558
330
1F
100
AcDbEntity
  8
0
  6
CONTINUOUS
 62
     4
100
AcDbCircle
 10
-123.7628452773602
 20
63.13839782986759
 30
0.0
 40
0.7500000000000001
100
AcDbArc
 50
186.2193357368794
 51
270.0
  0
ARC
  5
559
330
1F
100
AcDbEntity
  8
0
  6
CONTINUOUS
 62
     4
100
AcDbCircle
 10
-117.5040169682218
 20
28.58839782986757
 30
0.0
 40
36.0
100
AcDbArc
 50
180.0000000000001
 51
257.2992980448354
  0
ARC
  5
55A
330
1F
100
AcDbEntity
  8
0
  6
CONTINUOUS
 62
     4
100
AcDbCircle
 10
-115.7540169682218
 20
-3.161602170132426
 30
0.0
 40
0.7500000000000001
100
AcDbArc
 50
0.0000000000001272
 51
90.0000000000001
  0
ARC
  5
55B
330
1F
100
AcDbEntity
  8
0
  6
CONTINUOUS
 62
     4
100
AcDbCircle
 10
-127.0040169682218
 20
59.66893836570768
 30
0.0
 40
0.5
100
AcDbArc
 50
24.800465909153
 51
106.9961648170517
  0
ARC
  5
55C
330
1F
100
AcDbEntity
  8
0
  6
CONTINUOUS
 62
     4
100
AcDbCircle
 10
-115.7540169682218
 20
-4.46160217013238
 30
0.0
 40
0.7500000000000001
100
AcDbArc
 50
270.0
 51
360.0
  0
ARC
  5
55D
330
1F
100
AcDbEntity
  8
0
  6
CONTINUOUS
 62
     4
100
AcDbCircle
 10
-117.5040169682218
 20
28.58839782986757
 30
0.0
 40
33.0
100
AcDbArc
 50
180.0000000000001
 51
253.0038351829482
  0
ARC
  5
55E
330
1F
100
AcDbEntity
  8
0
  6
CONTINUOUS
 62
     4
100
AcDbCircle
 10
-127.0040169682218
 20
-2.492142705972526
 30
0.0
 40
0.5
100
AcDbArc
 50
253.0038351829484
 51
335.1995340908471
  0
ARC
  5
55F
330
1F
100
AcDbEntity
  8
0
  6
CONTINUOUS
 62
     4
100
AcDbCircle
 10
-123.7628452773602
 20
-5.96160217013238
 30
0.0
 40
0.7500000000000001
100
AcDbArc
 50
90.00000000000007
 51
173.7806642631207
  0
ARC
  5
560
330
1F
100
AcDbEntity
  8
0
  6
CONTINUOUS
 62
     4
100
AcDbCircle
 10
-126.0962429005559
 20
-2.911602170132426
 30
0.0
 40
0.5
100
AcDbArc
 50
90.00000000000007
 51
155.1995340908473
  0
LINE
  5
561
330
1F
100
AcDbEntity
  8
0
  6
CONTINUOUS
 62
     4
100
AcDbLine
 10
-17.22444897181958
 20
62.38840339146253
 30
0.0
 11
-16.97444895691842
 21
62.38840339146253
 31
0.0
  0
LINE
  5
562
330
1F
100
AcDbEntity
  8
0
  6
CONTINUOUS
 62
     4
100
AcDbLine
 10
-13.97444895691842
 20
62.38840339146253
 30
0.0
 11
-13.72444895691842
 21
62.38840339146253
 31
0.0
  0
INSERT
  5
563
330
1F
100
AcDbEntity
  8
LAYER0014
  6
CONTINUOUS
100
AcDbBlockReference
  2
DA_IMAGEDIMGROUP_1
 10
0.0
 20
0.0
 30
0.0
  0
INSERT
  5
564
330
1F
100
AcDbEntity
  8
LAYER0014
  6
CONTINUOUS
100
AcDbBlockReference
  2
DA_IMAGEDIMGROUP_2
 10
0.0
 20
0.0
 30
0.0
  0
INSERT
  5
565
330
1F
100
AcDbEntity
  8
LAYER0014
  6
CONTINUOUS
100
AcDbBlockReference
  2
DA_IMAGEDIMGROUP_3
 10
0.0
 20
0.0
 30
0.0
  0
INSERT
  5
566
330
1F
100
AcDbEntity
  8
LAYER0014
  6
CONTINUOUS
100
AcDbBlockReference
  2
DA_IMAGEDIMGROUP_4
 10
0.0
 20
0.0
 30
0.0
  0
INSERT
  5
567
330
1F
100
AcDbEntity
  8
LAYER0014
  6
CONTINUOUS
100
AcDbBlockReference
  2
DA_IMAGEDIMGROUP_5
 10
0.0
 20
0.0
 30
0.0
  0
INSERT
  5
568
330
1F
100
AcDbEntity
  8
LAYER0014
  6
CONTINUOUS
100
AcDbBlockReference
  2
DC_GROUP_20
 10
0.0
 20
0.0
 30
0.0
  0
INSERT
  5
569
330
1F
100
AcDbEntity
  8
LAYER0014
  6
CONTINUOUS
100
AcDbBlockReference
  2
DC_GROUP_21
 10
0.0
 20
0.0
 30
0.0
  0
INSERT
  5
56A
330
1F
100
AcDbEntity
  8
LAYER0014
  6
CONTINUOUS
100
AcDbBlockReference
  2
DA_IMAGEDIMGROUP_6
 10
0.0
 20
0.0
 30
0.0
  0
INSERT
  5
56B
330
1F
100
AcDbEntity
  8
LAYER0014
  6
CONTINUOUS
100
AcDbBlockReference
  2
DA_IMAGEDIMGROUP_7
 10
0.0
 20
0.0
 30
0.0
  0
INSERT
  5
56C
330
1F
100
AcDbEntity
  8
LAYER0014
  6
CONTINUOUS
100
AcDbBlockReference
  2
DA_IMAGEDIMGROUP_8
 10
0.0
 20
0.0
 30
0.0
  0
INSERT
  5
56D
330
1F
100
AcDbEntity
  8
LAYER0014
  6
CONTINUOUS
100
AcDbBlockReference
  2
DA_IMAGEDIMGROUP_9
 10
0.0
 20
0.0
 30
0.0
  0
INSERT
  5
56E
330
1F
100
AcDbEntity
  8
LAYER0014
  6
CONTINUOUS
100
AcDbBlockReference
  2
DA_IMAGEDIMGROUP_10
 10
0.0
 20
0.0
 30
0.0
  0
INSERT
  5
56F
330
1F
100
AcDbEntity
  8
LAYER0014
  6
CONTINUOUS
100
AcDbBlockReference
  2
DA_IMAGEDIMGROUP_11
 10
0.0
 20
0.0
 30
0.0
  0
INSERT
  5
570
330
1F
100
AcDbEntity
  8
LAYER0014
  6
CONTINUOUS
100
AcDbBlockReference
  2
DA_IMAGEDIMGROUP_12
 10
0.0
 20
0.0
 30
0.0
  0
INSERT
  5
571
330
1F
100
AcDbEntity
  8
LAYER0014
  6
CONTINUOUS
100
AcDbBlockReference
  2
DA_IMAGEDIMGROUP_13
 10
0.0
 20
0.0
 30
0.0
  0
INSERT
  5
572
330
1F
100
AcDbEntity
  8
LAYER0014
  6
CONTINUOUS
100
AcDbBlockReference
  2
DA_IMAGEDIMGROUP_14
 10
0.0
 20
0.0
 30
0.0
  0
INSERT
  5
573
330
1F
100
AcDbEntity
  8
LAYER0014
  6
CONTINUOUS
100
AcDbBlockReference
  2
DA_IMAGEDIMGROUP_15
 10
0.0
 20
0.0
 30
0.0
  0
INSERT
  5
574
330
1F
100
AcDbEntity
  8
LAYER0015
  6
CONTINUOUS
100
AcDbBlockReference
  2
DC_GROUP_22
 10
0.0
 20
0.0
 30
0.0
  0
INSERT
  5
575
330
1F
100
AcDbEntity
  8
LAYER0015
  6
CONTINUOUS
100
AcDbBlockReference
  2
DC_GROUP_23
 10
0.0
 20
0.0
 30
0.0
  0
INSERT
  5
576
330
1F
100
AcDbEntity
  8
LAYER0015
  6
CONTINUOUS
100
AcDbBlockReference
  2
DC_GROUP_24
 10
0.0
 20
0.0
 30
0.0
  0
VIEWPORT
  5
49
330
1B
100
AcDbEntity
 67
     1
  8
0
100
AcDbViewport
 10
0.0
 20
0.0
 30
0.0
 40
1260.0
 41
891.0
 68
     1
 69
     1
1001
ACAD
1000
MVIEW
1002
{
1070
    16
1010
0.0
1020
0.0
1030
0.0
1010
0.0
1020
0.0
1030
1.0
1040
0.0
1040
891.0
1040
0.0
1040
0.0
1040
50.0
1040
0.0
1040
0.0
1070
     0
1070
   100
1070
     0
1070
     1
1070
     0
1070
     0
1070
     0
1070
     0
1040
0.0
1040
0.0
1040
0.0
1040
0.5
1040
0.5
1040
0.0
1040
0.0
1070
     0
1002
{
1002
}
1002
}
  0
ENDSEC
  0
SECTION
  2
OBJECTS
  0
DICTIONARY
  5
C
330
0
100
AcDbDictionary
  3
ACAD_GROUP
350
D
  3
ACAD_LAYOUT
350
1A
  3
ACAD_MLINESTYLE
350
17
  3
ACAD_PLOTSETTINGS
350
19
  3
ACDBHEADERROUNDTRIPXREC
350
577
  0
DICTIONARY
  5
D
102
{ACAD_REACTORS
330
C
102
}
330
C
100
AcDbDictionary
  0
DICTIONARY
  5
1A
102
{ACAD_REACTORS
330
C
102
}
330
C
100
AcDbDictionary
  0
DICTIONARY
  5
17
102
{ACAD_REACTORS
330
C
102
}
330
C
100
AcDbDictionary
  3
STANDARD
350
18
  0
DICTIONARY
  5
19
102
{ACAD_REACTORS
330
C
102
}
330
C
100
AcDbDictionary
  0
DICTIONARY
  5
577
102
{ACAD_REACTORS
330
C
102
}
330
C
100
AcDbDictionary
  3
CEPSNTYPE
350
580
  3
DIMSTYLEDATA
350
596
  3
FINGERPRINTGUID
350
581
  3
HYPERLINKBASE
350
57A
  3
INSUNITS
350
57F
  3
LAYOUTDICT
350
57C
  3
LWETCUNION
350
57E
  3
PLOTSETDICT
350
57D
  3
PSVPSCALE
350
583
  3
PUCSBASE
350
586
  3
PUCSORGBACK
350
58C
  3
PUCSORGBOTTOM
350
588
  3
PUCSORGFRONT
350
58B
  3
PUCSORGLEFT
350
589
  3
PUCSORGRIGHT
350
58A
  3
PUCSORGTOP
350
587
  3
PUCSORTHOREF
350
584
  3
PUCSORTHOVIEW
350
585
  3
STYLESHEET
350
57B
  3
TSTACKALIGN
350
578
  3
TSTACKSIZE
350
579
  3
UCSBASE
350
58F
  3
UCSORGBACK
350
595
  3
UCSORGBOTTOM
350
591
  3
UCSORGFRONT
350
594
  3
UCSORGLEFT
350
592
  3
UCSORGRIGHT
350
593
  3
UCSORGTOP
350
590
  3
UCSORTHOREF
350
58D
  3
UCSORTHOVIEW
350
58E
  3
VERSIONGUID
350
582
  0
MLINESTYLE
  5
18
102
{ACAD_REACTORS
330
17
102
}
330
17
100
AcDbMlineStyle
  2
Standard
 70
     0
  3

 62
   256
 51
90.0
 52
90.0
 71
     2
 49
0.5
 62
   256
  6
BYLAYER
 49
-0.5
 62
   256
  6
BYLAYER
  0
XRECORD
  5
580
102
{ACAD_REACTORS
330
577
102
}
330
577
100
AcDbXrecord
 90
        0
  0
XRECORD
  5
596
102
{ACAD_REACTORS
330
577
102
}
330
577
100
AcDbXrecord
1000
DSTYLE
1002
{
1070
   171
 70
     2
1070
   143
 40
25.4
1070
   274
 70
     2
1070
   141
 40
0.09
1070
   271
 70
     4
1070
    43
 40
0.38
1070
    44
 40
0.18
1070
   278
 70
    46
1070
    42
 40
0.0625
1070
   147
 40
0.09
1070
    77
 70
     3
1070
   272
 70
     4
1070
    73
 70
     1
1070
   172
 70
     0
1070
    74
 70
     1
1070
   283
 70
     1
1070
   340
340
11
1070
   140
 40
0.18
1070
   284
 70
     0
1070
    78
 70
     0
1002
}
  0
XRECORD
  5
581
102
{ACAD_REACTORS
330
577
102
}
330
577
100
AcDbXrecord
  1
{FC72562B-8622-4439-8665-39614571C818}
  0
XRECORD
  5
57A
102
{ACAD_REACTORS
330
577
102
}
330
577
100
AcDbXrecord
  1

  0
XRECORD
  5
57F
102
{ACAD_REACTORS
330
577
102
}
330
577
100
AcDbXrecord
 90
        4
  0
XRECORD
  5
57C
102
{ACAD_REACTORS
330
577
102
}
330
577
100
AcDbXrecord
340
1A
  0
XRECORD
  5
57E
102
{ACAD_REACTORS
330
577
102
}
330
577
100
AcDbXrecord
 90
    10781
  0
XRECORD
  5
57D
102
{ACAD_REACTORS
330
577
102
}
330
577
100
AcDbXrecord
340
19
  0
XRECORD
  5
583
102
{ACAD_REACTORS
330
577
102
}
330
577
100
AcDbXrecord
 40
0.0
  0
XRECORD
  5
586
102
{ACAD_REACTORS
330
577
102
}
330
577
100
AcDbXrecord
340
0
  0
XRECORD
  5
58C
102
{ACAD_REACTORS
330
577
102
}
330
577
100
AcDbXrecord
 10
0.0
 20
0.0
 30
0.0
  0
XRECORD
  5
588
102
{ACAD_REACTORS
330
577
102
}
330
577
100
AcDbXrecord
 10
0.0
 20
0.0
 30
0.0
  0
XRECORD
  5
58B
102
{ACAD_REACTORS
330
577
102
}
330
577
100
AcDbXrecord
 10
0.0
 20
0.0
 30
0.0
  0
XRECORD
  5
589
102
{ACAD_REACTORS
330
577
102
}
330
577
100
AcDbXrecord
 10
0.0
 20
0.0
 30
0.0
  0
XRECORD
  5
58A
102
{ACAD_REACTORS
330
577
102
}
330
577
100
AcDbXrecord
 10
0.0
 20
0.0
 30
0.0
  0
XRECORD
  5
587
102
{ACAD_REACTORS
330
577
102
}
330
577
100
AcDbXrecord
 10
0.0
 20
0.0
 30
0.0
  0
XRECORD
  5
584
102
{ACAD_REACTORS
330
577
102
}
330
577
100
AcDbXrecord
340
0
  0
XRECORD
  5
585
102
{ACAD_REACTORS
330
577
102
}
330
577
100
AcDbXrecord
 70
     0
  0
XRECORD
  5
57B
102
{ACAD_REACTORS
330
577
102
}
330
577
100
AcDbXrecord
  1

  0
XRECORD
  5
578
102
{ACAD_REACTORS
330
577
102
}
330
577
100
AcDbXrecord
 90
        1
  0
XRECORD
  5
579
102
{ACAD_REACTORS
330
577
102
}
330
577
100
AcDbXrecord
 90
       70
  0
XRECORD
  5
58F
102
{ACAD_REACTORS
330
577
102
}
330
577
100
AcDbXrecord
340
0
  0
XRECORD
  5
595
102
{ACAD_REACTORS
330
577
102
}
330
577
100
AcDbXrecord
 10
0.0
 20
0.0
 30
0.0
  0
XRECORD
  5
591
102
{ACAD_REACTORS
330
577
102
}
330
577
100
AcDbXrecord
 10
0.0
 20
0.0
 30
0.0
  0
XRECORD
  5
594
102
{ACAD_REACTORS
330
577
102
}
330
577
100
AcDbXrecord
 10
0.0
 20
0.0
 30
0.0
  0
XRECORD
  5
592
102
{ACAD_REACTORS
330
577
102
}
330
577
100
AcDbXrecord
 10
0.0
 20
0.0
 30
0.0
  0
XRECORD
  5
593
102
{ACAD_REACTORS
330
577
102
}
330
577
100
AcDbXrecord
 10
0.0
 20
0.0
 30
0.0
  0
XRECORD
  5
590
102
{ACAD_REACTORS
330
577
102
}
330
577
100
AcDbXrecord
 10
0.0
 20
0.0
 30
0.0
  0
XRECORD
  5
58D
102
{ACAD_REACTORS
330
577
102
}
330
577
100
AcDbXrecord
340
0
  0
XRECORD
  5
58E
102
{ACAD_REACTORS
330
577
102
}
330
577
100
AcDbXrecord
 70
     0
  0
XRECORD
  5
582
102
{ACAD_REACTORS
330
577
102
}
330
577
100
AcDbXrecord
  1
{FAEB1C32-E019-11D5-929B-00C0DF256EC4}
  0
ENDSEC
  0
EOF
