  0
SECTION
  2
HEADER
  9
$ACADVER
  1
AC1014
  9
$ACADMAINTVER
 70
     9
  9
$DWGCODEPAGE
  3
ANSI_932
  9
$INSBASE
 10
0.0
 20
0.0
 30
0.0
  9
$EXTMIN
 10
-630.0
 20
-445.5
 30
0.0
  9
$EXTMAX
 10
630.0
 20
445.5
 30
0.0
  9
$LIMMIN
 10
-210.0
 20
-148.5
  9
$LIMMAX
 10
210.0
 20
148.5
  9
$ORTHOMODE
 70
     0
  9
$REGENMODE
 70
     1
  9
$FILLMODE
 70
     1
  9
$QTEXTMODE
 70
     0
  9
$MIRRTEXT
 70
     1
  9
$DRAGMODE
 70
     2
  9
$LTSCALE
 40
1.0
  9
$OSMODE
 70
    37
  9
$ATTMODE
 70
     1
  9
$TEXTSIZE
 40
0.2
  9
$TRACEWID
 40
0.05
  9
$TEXTSTYLE
  7
STANDARD
  9
$CLAYER
  8
0
  9
$CELTYPE
  6
BYLAYER
  9
$CECOLOR
 62
   256
  9
$CELTSCALE
 40
1.0
  9
$DELOBJ
 70
     1
  9
$DISPSILH
 70
     0
  9
$DIMSCALE
 40
1.0
  9
$DIMASZ
 40
2.5
  9
$DIMEXO
 40
0.0625
  9
$DIMDLI
 40
0.38
  9
$DIMRND
 40
0.0
  9
$DIMDLE
 40
0.0
  9
$DIMEXE
 40
0.18
  9
$DIMTP
 40
0.0
  9
$DIMTM
 40
0.0
  9
$DIMTXT
 40
0.18
  9
$DIMCEN
 40
0.09
  9
$DIMTSZ
 40
0.0
  9
$DIMTOL
 70
     0
  9
$DIMLIM
 70
     0
  9
$DIMTIH
 70
     1
  9
$DIMTOH
 70
     1
  9
$DIMSE1
 70
     0
  9
$DIMSE2
 70
     0
  9
$DIMTAD
 70
     3
  9
$DIMZIN
 70
     0
  9
$DIMBLK
  1

  9
$DIMASO
 70
     1
  9
$DIMSHO
 70
     1
  9
$DIMPOST
  1

  9
$DIMAPOST
  1

  9
$DIMALT
 70
     0
  9
$DIMALTD
 70
     2
  9
$DIMALTF
 40
25.4
  9
$DIMLFAC
 40
1.0
  9
$DIMTOFL
 70
     0
  9
$DIMTVP
 40
0.0
  9
$DIMTIX
 70
     0
  9
$DIMSOXD
 70
     0
  9
$DIMSAH
 70
     0
  9
$DIMBLK1
  1

  9
$DIMBLK2
  1

  9
$DIMSTYLE
  2
STANDARD
  9
$DIMCLRD
 70
     0
  9
$DIMCLRE
 70
     0
  9
$DIMCLRT
 70
     0
  9
$DIMTFAC
 40
1.0
  9
$DIMGAP
 40
0.09
  9
$DIMJUST
 70
     0
  9
$DIMSD1
 70
     0
  9
$DIMSD2
 70
     0
  9
$DIMTOLJ
 70
     1
  9
$DIMTZIN
 70
     0
  9
$DIMALTZ
 70
     0
  9
$DIMALTTZ
 70
     0
  9
$DIMFIT
 70
     3
  9
$DIMUPT
 70
     0
  9
$DIMUNIT
 70
     2
  9
$DIMDEC
 70
     4
  9
$DIMTDEC
 70
     4
  9
$DIMALTU
 70
     2
  9
$DIMALTTD
 70
     2
  9
$DIMTXSTY
  7
STANDARD
  9
$DIMAUNIT
 70
     0
  9
$LUNITS
 70
     2
  9
$LUPREC
 70
     4
  9
$SKETCHINC
 40
0.1
  9
$FILLETRAD
 40
0.5
  9
$AUNITS
 70
     0
  9
$AUPREC
 70
     0
  9
$MENU
  1
.
  9
$ELEVATION
 40
0.0
  9
$PELEVATION
 40
0.0
  9
$THICKNESS
 40
0.0
  9
$LIMCHECK
 70
     0
  9
$CHAMFERA
 40
0.5
  9
$CHAMFERB
 40
0.5
  9
$CHAMFERC
 40
1.0
  9
$CHAMFERD
 40
0.0
  9
$SKPOLY
 70
     0
  9
$TDCREATE
 40
2456205.36157338
  9
$TDUPDATE
 40
2456205.361573391
  9
$TDINDWG
 40
0.0000000116
  9
$TDUSRTIMER
 40
0.0000000116
  9
$USRTIMER
 70
     1
  9
$ANGBASE
 50
0.0
  9
$ANGDIR
 70
     0
  9
$PDMODE
 70
     0
  9
$PDSIZE
 40
1.0
  9
$PLINEWID
 40
0.0
  9
$COORDS
 70
     1
  9
$SPLFRAME
 70
     0
  9
$SPLINETYPE
 70
     6
  9
$SPLINESEGS
 70
     8
  9
$ATTDIA
 70
     0
  9
$ATTREQ
 70
     1
  9
$HANDLING
 70
     1
  9
$HANDSEED
  5
3AD
  9
$SURFTAB1
 70
     6
  9
$SURFTAB2
 70
     6
  9
$SURFTYPE
 70
     6
  9
$SURFU
 70
     6
  9
$SURFV
 70
     6
  9
$UCSNAME
  2

  9
$UCSORG
 10
0.0
 20
0.0
 30
0.0
  9
$UCSXDIR
 10
1.0
 20
0.0
 30
0.0
  9
$UCSYDIR
 10
0.0
 20
1.0
 30
0.0
  9
$PUCSNAME
  2

  9
$PUCSORG
 10
0.0
 20
0.0
 30
0.0
  9
$PUCSXDIR
 10
1.0
 20
0.0
 30
0.0
  9
$PUCSYDIR
 10
0.0
 20
1.0
 30
0.0
  9
$USERI1
 70
     0
  9
$USERI2
 70
     0
  9
$USERI3
 70
     0
  9
$USERI4
 70
     0
  9
$USERI5
 70
     0
  9
$USERR1
 40
0.0
  9
$USERR2
 40
0.0
  9
$USERR3
 40
0.0
  9
$USERR4
 40
0.0
  9
$USERR5
 40
0.0
  9
$WORLDVIEW
 70
     1
  9
$SHADEDGE
 70
     3
  9
$SHADEDIF
 70
    70
  9
$TILEMODE
 70
     1
  9
$MAXACTVP
 70
    64
  9
$PINSBASE
 10
0.0
 20
0.0
 30
0.0
  9
$PLIMCHECK
 70
     0
  9
$PEXTMIN
 10
1.000000000000000E+20
 20
1.000000000000000E+20
 30
1.000000000000000E+20
  9
$PEXTMAX
 10
-1.000000000000000E+20
 20
-1.000000000000000E+20
 30
-1.000000000000000E+20
  9
$PLIMMIN
 10
0.0
 20
0.0
  9
$PLIMMAX
 10
12.0
 20
9.0
  9
$UNITMODE
 70
     0
  9
$VISRETAIN
 70
     0
  9
$PLINEGEN
 70
     1
  9
$PSLTSCALE
 70
     0
  9
$TREEDEPTH
 70
  3020
  9
$PICKSTYLE
 70
     1
  9
$CMLSTYLE
  2
STANDARD
  9
$CMLJUST
 70
     0
  9
$CMLSCALE
 40
1.0
  9
$PROXYGRAPHICS
 70
     0
  9
$MEASUREMENT
 70
     1
  0
ENDSEC
  0
SECTION
  2
CLASSES
  0
CLASS
  1
ACDBDICTIONARYWDFLT
  2
AcDbDictionaryWithDefault
  3
ObjectDBX Classes
 90
        0
280
     0
281
     0
  0
CLASS
  1
XRECORD
  2
AcDbXrecord
  3
AutoCAD 2000
 90
        0
280
     0
281
     0
  0
CLASS
  1
LWPOLYLINE
  2
AcDbPolyline
  3
AutoCAD 2000
 90
        0
280
     0
281
     1
  0
CLASS
  1
HATCH
  2
AcDbHatch
  3
AutoCAD 2000
 90
        0
280
     0
281
     1
  0
CLASS
  1
ACDBPLACEHOLDER
  2
AcDbPlaceHolder
  3
ObjectDBX Classes
 90
        0
280
     0
281
     0
  0
CLASS
  1
LAYOUT
  2
AcDbLayout
  3
ObjectDBX Classes
 90
        0
280
     0
281
     0
  0
ENDSEC
  0
SECTION
  2
TABLES
  0
TABLE
  2
VPORT
  5
8
330
0
100
AcDbSymbolTable
 70
     1
  0
VPORT
  5
29
330
8
100
AcDbSymbolTableRecord
100
AcDbViewportTableRecord
  2
*ACTIVE
 70
     0
 10
0.0
 20
0.0
 11
1.0
 21
1.0
 12
0.0
 22
0.0
 13
0.0
 23
0.0
 14
0.5
 24
0.5
 15
0.5
 25
0.5
 16
0.0
 26
0.0
 36
1.0
 17
-0.0000000000000036
 27
0.0
 37
0.0
 40
302.94
 41
1.414141414141414
 42
50.0
 43
0.0
 44
0.0
 50
0.0
 51
0.0
 71
     0
 72
  1000
 73
     1
 74
     1
 75
     0
 76
     0
 77
     0
 78
     0
  0
ENDTAB
  0
TABLE
  2
LTYPE
  5
5
330
0
100
AcDbSymbolTable
 70
    28
  0
LTYPE
  5
14
330
5
100
AcDbSymbolTableRecord
100
AcDbLinetypeTableRecord
  2
BYBLOCK
 70
     0
  3

 72
    65
 73
     0
 40
0.0
  0
LTYPE
  5
15
330
5
100
AcDbSymbolTableRecord
100
AcDbLinetypeTableRecord
  2
BYLAYER
 70
     0
  3

 72
    65
 73
     0
 40
0.0
  0
LTYPE
  5
16
330
5
100
AcDbSymbolTableRecord
100
AcDbLinetypeTableRecord
  2
CONTINUOUS
 70
     0
  3
Solid line
 72
    65
 73
     0
 40
0.0
  0
LTYPE
  5
2B
330
5
100
AcDbSymbolTableRecord
100
AcDbLinetypeTableRecord
  2
HIDDENX2
 70
     0
  3
CADPAC LINETYPE
 72
    65
 73
     2
 40
7.547169811320714
 49
5.660377358490536
 74
     0
 49
-1.886792452830179
 74
     0
  0
LTYPE
  5
2C
330
5
100
AcDbSymbolTableRecord
100
AcDbLinetypeTableRecord
  2
HIDDEN
 70
     0
  3
CADPAC LINETYPE
 72
    65
 73
     2
 40
5.660377358490536
 49
3.773584905660357
 74
     0
 49
-1.886792452830179
 74
     0
  0
LTYPE
  5
2D
330
5
100
AcDbSymbolTableRecord
100
AcDbLinetypeTableRecord
  2
HIDDEN2
 70
     0
  3
CADPAC LINETYPE
 72
    65
 73
     2
 40
4.716981132075446
 49
2.830188679245268
 74
     0
 49
-1.886792452830179
 74
     0
  0
LTYPE
  5
2E
330
5
100
AcDbSymbolTableRecord
100
AcDbLinetypeTableRecord
  2
DASHED
 70
     0
  3
CADPAC LINETYPE
 72
    65
 73
     2
 40
5.283018867924483
 49
3.773584905660357
 74
     0
 49
-1.509433962264126
 74
     0
  0
LTYPE
  5
2F
330
5
100
AcDbSymbolTableRecord
100
AcDbLinetypeTableRecord
  2
DASHED2
 70
     0
  3
CADPAC LINETYPE
 72
    65
 73
     2
 40
3.396226415094304
 49
2.264150943396203
 74
     0
 49
-1.132075471698101
 74
     0
  0
LTYPE
  5
30
330
5
100
AcDbSymbolTableRecord
100
AcDbLinetypeTableRecord
  2
DASHEDX2
 70
     0
  3
CADPAC LINETYPE
 72
    65
 73
     2
 40
9.056603773584868
 49
7.547169811320742
 74
     0
 49
-1.509433962264126
 74
     0
  0
LTYPE
  5
31
330
5
100
AcDbSymbolTableRecord
100
AcDbLinetypeTableRecord
  2
DOTX2
 70
     0
  3
CADPAC LINETYPE
 72
    65
 73
     2
 40
3.30188679245282
 49
0.0
 74
     0
 49
-3.30188679245282
 74
     0
  0
LTYPE
  5
32
330
5
100
AcDbSymbolTableRecord
100
AcDbLinetypeTableRecord
  2
DOT
 70
     0
  3
CADPAC LINETYPE
 72
    65
 73
     2
 40
2.641509433962256
 49
0.0
 74
     0
 49
-2.641509433962256
 74
     0
  0
LTYPE
  5
33
330
5
100
AcDbSymbolTableRecord
100
AcDbLinetypeTableRecord
  2
DOT2
 70
     0
  3
CADPAC LINETYPE
 72
    65
 73
     2
 40
1.981132075471692
 49
0.0
 74
     0
 49
-1.981132075471692
 74
     0
  0
LTYPE
  5
34
330
5
100
AcDbSymbolTableRecord
100
AcDbLinetypeTableRecord
  2
CENTERX2
 70
     0
  3
CADPAC LINETYPE
 72
    65
 73
     4
 40
11.32075471698107
 49
4.716981132075446
 74
     0
 49
-2.358490566037723
 74
     0
 49
1.886792452830179
 74
     0
 49
-2.358490566037723
 74
     0
  0
LTYPE
  5
35
330
5
100
AcDbSymbolTableRecord
100
AcDbLinetypeTableRecord
  2
CENTER
 70
     0
  3
CADPAC LINETYPE
 72
    65
 73
     4
 40
8.679245283018821
 49
3.773584905660357
 74
     0
 49
-1.886792452830179
 74
     0
 49
1.132075471698107
 74
     0
 49
-1.886792452830179
 74
     0
  0
LTYPE
  5
36
330
5
100
AcDbSymbolTableRecord
100
AcDbLinetypeTableRecord
  2
CENTER2
 70
     0
  3
CADPAC LINETYPE
 72
    65
 73
     4
 40
6.037735849056571
 49
2.830188679245268
 74
     0
 49
-1.415094339622634
 74
     0
 49
0.3773584905660357
 74
     0
 49
-1.415094339622634
 74
     0
  0
LTYPE
  5
37
330
5
100
AcDbSymbolTableRecord
100
AcDbLinetypeTableRecord
  2
DASHDOTX2
 70
     0
  3
CADPAC LINETYPE
 72
    65
 73
     4
 40
18.11320754716974
 49
9.056603773584897
 74
     0
 49
-3.01886792452828
 74
     0
 49
3.01886792452828
 74
     0
 49
-3.01886792452828
 74
     0
  0
LTYPE
  5
38
330
5
100
AcDbSymbolTableRecord
100
AcDbLinetypeTableRecord
  2
DASHDOT
 70
     0
  3
CADPAC LINETYPE
 72
    65
 73
     4
 40
9.056603773584811
 49
4.528301886792434
 74
     0
 49
-1.509433962264126
 74
     0
 49
1.509433962264126
 74
     0
 49
-1.509433962264126
 74
     0
  0
LTYPE
  5
39
330
5
100
AcDbSymbolTableRecord
100
AcDbLinetypeTableRecord
  2
DASHDOT2
 70
     0
  3
CADPAC LINETYPE
 72
    65
 73
     4
 40
5.811320754716927
 49
3.396226415094326
 74
     0
 49
-1.132075471698094
 74
     0
 49
0.1509433962264126
 74
     0
 49
-1.132075471698094
 74
     0
  0
LTYPE
  5
3A
330
5
100
AcDbSymbolTableRecord
100
AcDbLinetypeTableRecord
  2
DIVIDEX2
 70
     0
  3
CADPAC LINETYPE
 72
    65
 73
     6
 40
24.1509433962263
 49
9.056603773584897
 74
     0
 49
-3.01886792452828
 74
     0
 49
3.01886792452828
 74
     0
 49
-3.01886792452828
 74
     0
 49
3.01886792452828
 74
     0
 49
-3.01886792452828
 74
     0
  0
LTYPE
  5
3B
330
5
100
AcDbSymbolTableRecord
100
AcDbLinetypeTableRecord
  2
DIVIDE
 70
     0
  3
CADPAC LINETYPE
 72
    65
 73
     6
 40
12.07547169811306
 49
4.528301886792434
 74
     0
 49
-1.509433962264126
 74
     0
 49
1.509433962264126
 74
     0
 49
-1.509433962264126
 74
     0
 49
1.509433962264126
 74
     0
 49
-1.509433962264126
 74
     0
  0
LTYPE
  5
3C
330
5
100
AcDbSymbolTableRecord
100
AcDbLinetypeTableRecord
  2
DIVIDE2
 70
     0
  3
CADPAC LINETYPE
 72
    65
 73
     6
 40
9.056603773584797
 49
3.396226415094326
 74
     0
 49
-1.132075471698094
 74
     0
 49
1.132075471698094
 74
     0
 49
-1.132075471698094
 74
     0
 49
1.132075471698094
 74
     0
 49
-1.132075471698094
 74
     0
  0
LTYPE
  5
3D
330
5
100
AcDbSymbolTableRecord
100
AcDbLinetypeTableRecord
  2
BORDERX2
 70
     0
  3
CADPAC LINETYPE
 72
    65
 73
     6
 40
16.50943396226406
 49
4.716981132075446
 74
     0
 49
-2.358490566037723
 74
     0
 49
4.716981132075446
 74
     0
 49
-2.358490566037723
 74
     0
 49
0.0
 74
     0
 49
-2.358490566037723
 74
     0
  0
LTYPE
  5
3E
330
5
100
AcDbSymbolTableRecord
100
AcDbLinetypeTableRecord
  2
BORDER
 70
     0
  3
CADPAC LINETYPE
 72
    65
 73
     6
 40
13.20754716981125
 49
3.773584905660357
 74
     0
 49
-1.886792452830179
 74
     0
 49
3.773584905660357
 74
     0
 49
-1.886792452830179
 74
     0
 49
0.0
 74
     0
 49
-1.886792452830179
 74
     0
  0
LTYPE
  5
3F
330
5
100
AcDbSymbolTableRecord
100
AcDbLinetypeTableRecord
  2
BORDER2
 70
     0
  3
CADPAC LINETYPE
 72
    65
 73
     6
 40
9.811320754716917
 49
3.01886792452828
 74
     0
 49
-1.886792452830179
 74
     0
 49
1.132075471698101
 74
     0
 49
-1.886792452830179
 74
     0
 49
0.0
 74
     0
 49
-1.886792452830179
 74
     0
  0
LTYPE
  5
40
330
5
100
AcDbSymbolTableRecord
100
AcDbLinetypeTableRecord
  2
PHANTOMX2
 70
     0
  3
CADPAC LINETYPE
 72
    65
 73
     6
 40
14.15094339622634
 49
4.716981132075446
 74
     0
 49
-1.886792452830179
 74
     0
 49
1.886792452830179
 74
     0
 49
-1.886792452830179
 74
     0
 49
1.886792452830179
 74
     0
 49
-1.886792452830179
 74
     0
  0
LTYPE
  5
41
330
5
100
AcDbSymbolTableRecord
100
AcDbLinetypeTableRecord
  2
PHANTOM
 70
     0
  3
CADPAC LINETYPE
 72
    65
 73
     6
 40
11.69811320754711
 49
3.773584905660357
 74
     0
 49
-1.886792452830179
 74
     0
 49
1.132075471698107
 74
     0
 49
-1.886792452830179
 74
     0
 49
1.132075471698107
 74
     0
 49
-1.886792452830179
 74
     0
  0
LTYPE
  5
42
330
5
100
AcDbSymbolTableRecord
100
AcDbLinetypeTableRecord
  2
PHANTOM2
 70
     0
  3
CADPAC LINETYPE
 72
    65
 73
     6
 40
9.999999999999947
 49
2.830188679245268
 74
     0
 49
-1.886792452830179
 74
     0
 49
0.7547169811320714
 74
     0
 49
-1.886792452830179
 74
     0
 49
0.7547169811320714
 74
     0
 49
-1.886792452830179
 74
     0
  0
LTYPE
  5
43
330
5
100
AcDbSymbolTableRecord
100
AcDbLinetypeTableRecord
  2
ACAD_ISO06W100
 70
     0
  3
CADPAC LINETYPE
 72
    65
 73
     8
 40
19.99999999999992
 49
9.056603773584897
 74
     0
 49
-1.886792452830179
 74
     0
 49
1.132075471698101
 74
     0
 49
-1.886792452830179
 74
     0
 49
1.132075471698101
 74
     0
 49
-1.886792452830179
 74
     0
 49
1.132075471698101
 74
     0
 49
-1.886792452830179
 74
     0
  0
LTYPE
  5
44
330
5
100
AcDbSymbolTableRecord
100
AcDbLinetypeTableRecord
  2
ACAD_ISO13W100
 70
     0
  3
CADPAC LINETYPE
 72
    65
 73
     8
 40
15.09433962264143
 49
3.773584905660357
 74
     0
 49
-1.886792452830179
 74
     0
 49
3.773584905660357
 74
     0
 49
-1.886792452830179
 74
     0
 49
0.0
 74
     0
 49
-1.886792452830179
 74
     0
 49
0.0
 74
     0
 49
-1.886792452830179
 74
     0
  0
LTYPE
  5
45
330
5
100
AcDbSymbolTableRecord
100
AcDbLinetypeTableRecord
  2
ACAD_ISO14W100
 70
     0
  3
CADPAC LINETYPE
 72
    65
 73
     8
 40
11.32075471698107
 49
3.773584905660357
 74
     0
 49
-1.886792452830179
 74
     0
 49
0.0
 74
     0
 49
-1.886792452830179
 74
     0
 49
0.0
 74
     0
 49
-1.886792452830179
 74
     0
 49
0.0
 74
     0
 49
-1.886792452830179
 74
     0
  0
ENDTAB
  0
TABLE
  2
LAYER
  5
2
330
0
100
AcDbSymbolTable
 70
     4
  0
LAYER
  5
10
330
2
100
AcDbSymbolTableRecord
100
AcDbLayerTableRecord
  2
0
 70
     0
 62
     7
  6
CONTINUOUS
  0
LAYER
  5
46
330
2
100
AcDbSymbolTableRecord
100
AcDbLayerTableRecord
  2
LAYER0014
 70
     0
 62
     7
  6
CONTINUOUS
  0
LAYER
  5
47
330
2
100
AcDbSymbolTableRecord
100
AcDbLayerTableRecord
  2
LAYER0015
 70
     0
 62
     7
  6
CONTINUOUS
  0
LAYER
  5
48
330
2
100
AcDbSymbolTableRecord
100
AcDbLayerTableRecord
  2
ZUWAKU
 70
     0
 62
     7
  6
CONTINUOUS
  0
ENDTAB
  0
TABLE
  2
STYLE
  5
3
330
0
100
AcDbSymbolTable
 70
     2
  0
STYLE
  5
11
330
3
100
AcDbSymbolTableRecord
100
AcDbTextStyleTableRecord
  2
STANDARD
 70
     0
 40
0.0
 41
1.0
 50
0.0
 71
     0
 42
0.2
  3
txt
  4

  0
STYLE
  5
208
330
3
100
AcDbSymbolTableRecord
100
AcDbTextStyleTableRecord
  2
FDASTYLE0
 70
     0
 40
0.0
 41
0.5952383613302554
 50
0.0
 71
     0
 42
0.2
  3
txt.shx
  4
bigfont
  0
ENDTAB
  0
TABLE
  2
VIEW
  5
6
330
0
100
AcDbSymbolTable
 70
     0
  0
ENDTAB
  0
TABLE
  2
UCS
  5
7
330
0
100
AcDbSymbolTable
 70
     0
  0
ENDTAB
  0
TABLE
  2
APPID
  5
9
330
0
100
AcDbSymbolTable
 70
     2
  0
APPID
  5
12
330
9
100
AcDbSymbolTableRecord
100
AcDbRegAppTableRecord
  2
ACAD
 70
     0
  0
APPID
  5
2A
330
9
100
AcDbSymbolTableRecord
100
AcDbRegAppTableRecord
  2
DAFUSIONOUT
 70
     0
  0
ENDTAB
  0
TABLE
  2
DIMSTYLE
  5
A
330
0
100
AcDbSymbolTable
 70
     1
  0
DIMSTYLE
105
27
330
A
100
AcDbSymbolTableRecord
100
AcDbDimStyleTableRecord
  2
STANDARD
 70
     0
  3

  4

  5

  6

  7

 40
1.0
 41
0.18
 42
0.0625
 43
0.38
 44
0.18
 45
0.0
 46
0.0
 47
0.0
 48
0.0
140
0.18
141
0.09
142
0.0
143
25.4
144
1.0
145
0.0
146
1.0
147
0.09
 71
     0
 72
     0
 73
     1
 74
     1
 75
     0
 76
     0
 77
     0
 78
     0
170
     0
171
     2
172
     0
173
     0
174
     0
175
     0
176
     0
177
     0
178
     0
270
     2
271
     4
272
     4
273
     2
274
     2
340
11
275
     0
280
     0
281
     0
282
     0
283
     1
284
     0
285
     0
286
     0
287
     3
288
     0
  0
ENDTAB
  0
TABLE
  2
BLOCK_RECORD
  5
1
330
0
100
AcDbSymbolTable
 70
    32
  0
BLOCK_RECORD
  5
1F
330
1
100
AcDbSymbolTableRecord
100
AcDbBlockTableRecord
  2
*MODEL_SPACE
  0
BLOCK_RECORD
  5
1B
330
1
100
AcDbSymbolTableRecord
100
AcDbBlockTableRecord
  2
*PAPER_SPACE
  0
BLOCK_RECORD
  5
4A
330
1
100
AcDbSymbolTableRecord
100
AcDbBlockTableRecord
  2
DC_GROUP_1
  0
BLOCK_RECORD
  5
4D
330
1
100
AcDbSymbolTableRecord
100
AcDbBlockTableRecord
  2
DC_GROUP_2
  0
BLOCK_RECORD
  5
50
330
1
100
AcDbSymbolTableRecord
100
AcDbBlockTableRecord
  2
DC_GROUP_3
  0
BLOCK_RECORD
  5
53
330
1
100
AcDbSymbolTableRecord
100
AcDbBlockTableRecord
  2
DC_GROUP_4
  0
BLOCK_RECORD
  5
56
330
1
100
AcDbSymbolTableRecord
100
AcDbBlockTableRecord
  2
DC_GROUP_5
  0
BLOCK_RECORD
  5
59
330
1
100
AcDbSymbolTableRecord
100
AcDbBlockTableRecord
  2
DC_GROUP_6
  0
BLOCK_RECORD
  5
5C
330
1
100
AcDbSymbolTableRecord
100
AcDbBlockTableRecord
  2
DC_GROUP_7
  0
BLOCK_RECORD
  5
5F
330
1
100
AcDbSymbolTableRecord
100
AcDbBlockTableRecord
  2
DC_GROUP_8
  0
BLOCK_RECORD
  5
62
330
1
100
AcDbSymbolTableRecord
100
AcDbBlockTableRecord
  2
DC_GROUP_9
  0
BLOCK_RECORD
  5
65
330
1
100
AcDbSymbolTableRecord
100
AcDbBlockTableRecord
  2
DC_GROUP_10
  0
BLOCK_RECORD
  5
68
330
1
100
AcDbSymbolTableRecord
100
AcDbBlockTableRecord
  2
DC_GROUP_11
  0
BLOCK_RECORD
  5
6B
330
1
100
AcDbSymbolTableRecord
100
AcDbBlockTableRecord
  2
DC_GROUP_12
  0
BLOCK_RECORD
  5
6E
330
1
100
AcDbSymbolTableRecord
100
AcDbBlockTableRecord
  2
DC_GROUP_13
  0
BLOCK_RECORD
  5
71
330
1
100
AcDbSymbolTableRecord
100
AcDbBlockTableRecord
  2
DC_GROUP_14
  0
BLOCK_RECORD
  5
74
330
1
100
AcDbSymbolTableRecord
100
AcDbBlockTableRecord
  2
DC_GROUP_15
  0
BLOCK_RECORD
  5
77
330
1
100
AcDbSymbolTableRecord
100
AcDbBlockTableRecord
  2
DC_GROUP_16
  0
BLOCK_RECORD
  5
7A
330
1
100
AcDbSymbolTableRecord
100
AcDbBlockTableRecord
  2
DC_GROUP_17
  0
BLOCK_RECORD
  5
7D
330
1
100
AcDbSymbolTableRecord
100
AcDbBlockTableRecord
  2
DC_GROUP_18
  0
BLOCK_RECORD
  5
80
330
1
100
AcDbSymbolTableRecord
100
AcDbBlockTableRecord
  2
DC_GROUP_19
  0
BLOCK_RECORD
  5
83
330
1
100
AcDbSymbolTableRecord
100
AcDbBlockTableRecord
  2
DA_IMAGEDIMGROUP_1
  0
BLOCK_RECORD
  5
86
330
1
100
AcDbSymbolTableRecord
100
AcDbBlockTableRecord
  2
DA_IMAGEDIMGROUP_2
  0
BLOCK_RECORD
  5
89
330
1
100
AcDbSymbolTableRecord
100
AcDbBlockTableRecord
  2
DA_IMAGEDIMGROUP_3
  0
BLOCK_RECORD
  5
8C
330
1
100
AcDbSymbolTableRecord
100
AcDbBlockTableRecord
  2
DA_IMAGEDIMGROUP_4
  0
BLOCK_RECORD
  5
8F
330
1
100
AcDbSymbolTableRecord
100
AcDbBlockTableRecord
  2
DA_IMAGEDIMGROUP_5
  0
BLOCK_RECORD
  5
92
330
1
100
AcDbSymbolTableRecord
100
AcDbBlockTableRecord
  2
DA_IMAGEDIMGROUP_6
  0
BLOCK_RECORD
  5
95
330
1
100
AcDbSymbolTableRecord
100
AcDbBlockTableRecord
  2
DA_IMAGEDIMGROUP_7
  0
BLOCK_RECORD
  5
98
330
1
100
AcDbSymbolTableRecord
100
AcDbBlockTableRecord
  2
DA_IMAGEDIMGROUP_8
  0
BLOCK_RECORD
  5
9B
330
1
100
AcDbSymbolTableRecord
100
AcDbBlockTableRecord
  2
DA_IMAGEDIMGROUP_9
  0
BLOCK_RECORD
  5
9E
330
1
100
AcDbSymbolTableRecord
100
AcDbBlockTableRecord
  2
DC_GROUP_20
  0
BLOCK_RECORD
  5
A1
330
1
100
AcDbSymbolTableRecord
100
AcDbBlockTableRecord
  2
DC_GROUP_21
  0
BLOCK_RECORD
  5
255
330
1
100
AcDbSymbolTableRecord
100
AcDbBlockTableRecord
  2
_OPEN30
  0
ENDTAB
  0
ENDSEC
  0
SECTION
  2
BLOCKS
  0
BLOCK
  5
20
330
1F
100
AcDbEntity
  8
0
100
AcDbBlockBegin
  2
*MODEL_SPACE
 70
     0
 71
     0
 10
0.0
 20
0.0
 30
0.0
  3
*MODEL_SPACE
  1

  0
ENDBLK
  5
21
330
1F
100
AcDbEntity
  8
0
100
AcDbBlockEnd
  0
BLOCK
  5
1C
330
1B
100
AcDbEntity
 67
     1
  8
0
100
AcDbBlockBegin
  2
*PAPER_SPACE
 70
     0
 71
     0
 10
0.0
 20
0.0
 30
0.0
  3
*PAPER_SPACE
  1

  0
ENDBLK
  5
1D
330
1B
100
AcDbEntity
 67
     1
  8
0
100
AcDbBlockEnd
  0
BLOCK
  5
4B
330
4A
100
AcDbEntity
  8
0
100
AcDbBlockBegin
  2
DC_GROUP_1
 70
     0
 71
     0
 10
0.0
 20
0.0
 30
0.0
  3
DC_GROUP_1
  1

  0
INSERT
  5
A4
330
4A
100
AcDbEntity
  8
ZUWAKU
  6
CONTINUOUS
100
AcDbBlockReference
  2
DC_GROUP_2
 10
0.0
 20
0.0
 30
0.0
  0
INSERT
  5
A5
330
4A
100
AcDbEntity
  8
ZUWAKU
  6
CONTINUOUS
100
AcDbBlockReference
  2
DC_GROUP_3
 10
0.0
 20
0.0
 30
0.0
  0
INSERT
  5
A6
330
4A
100
AcDbEntity
  8
ZUWAKU
  6
CONTINUOUS
100
AcDbBlockReference
  2
DC_GROUP_4
 10
0.0
 20
0.0
 30
0.0
  0
INSERT
  5
A7
330
4A
100
AcDbEntity
  8
ZUWAKU
  6
CONTINUOUS
100
AcDbBlockReference
  2
DC_GROUP_5
 10
0.0
 20
0.0
 30
0.0
  0
INSERT
  5
A8
330
4A
100
AcDbEntity
  8
ZUWAKU
  6
CONTINUOUS
100
AcDbBlockReference
  2
DC_GROUP_6
 10
0.0
 20
0.0
 30
0.0
  0
INSERT
  5
A9
330
4A
100
AcDbEntity
  8
ZUWAKU
  6
CONTINUOUS
100
AcDbBlockReference
  2
DC_GROUP_7
 10
0.0
 20
0.0
 30
0.0
  0
INSERT
  5
AA
330
4A
100
AcDbEntity
  8
ZUWAKU
  6
CONTINUOUS
100
AcDbBlockReference
  2
DC_GROUP_8
 10
0.0
 20
0.0
 30
0.0
  0
INSERT
  5
AB
330
4A
100
AcDbEntity
  8
ZUWAKU
  6
CONTINUOUS
100
AcDbBlockReference
  2
DC_GROUP_9
 10
0.0
 20
0.0
 30
0.0
  0
INSERT
  5
AC
330
4A
100
AcDbEntity
  8
ZUWAKU
  6
CONTINUOUS
100
AcDbBlockReference
  2
DC_GROUP_10
 10
0.0
 20
0.0
 30
0.0
  0
INSERT
  5
AD
330
4A
100
AcDbEntity
  8
ZUWAKU
  6
CONTINUOUS
100
AcDbBlockReference
  2
DC_GROUP_11
 10
0.0
 20
0.0
 30
0.0
  0
INSERT
  5
AE
330
4A
100
AcDbEntity
  8
ZUWAKU
  6
CONTINUOUS
100
AcDbBlockReference
  2
DC_GROUP_12
 10
0.0
 20
0.0
 30
0.0
  0
LINE
  5
AF
330
4A
100
AcDbEntity
  8
ZUWAKU
  6
CONTINUOUS
 62
     7
100
AcDbLine
 10
148.6163728456568
 20
-131.5305456568976
 30
0.0
 11
157.2163728456568
 21
-131.5305456568976
 31
0.0
  0
ENDBLK
  5
4C
330
4A
100
AcDbEntity
  8
0
100
AcDbBlockEnd
  0
BLOCK
  5
4E
330
4D
100
AcDbEntity
  8
0
100
AcDbBlockBegin
  2
DC_GROUP_2
 70
     0
 71
     0
 10
0.0
 20
0.0
 30
0.0
  3
DC_GROUP_2
  1

  0
LINE
  5
B0
330
4D
100
AcDbEntity
  8
ZUWAKU
  6
CONTINUOUS
 62
     7
100
AcDbLine
 10
95.8592354484195
 20
-130.8811630926134
 30
0.0
 11
98.10445716765031
 21
-130.8811630926134
 31
0.0
  0
LINE
  5
B1
330
4D
100
AcDbEntity
  8
ZUWAKU
  6
CONTINUOUS
 62
     7
100
AcDbLine
 10
102.1463728456568
 20
-130.8811630926134
 30
0.0
 11
104.5463728456568
 21
-130.8811630926134
 31
0.0
  0
LINE
  5
B2
330
4D
100
AcDbEntity
  8
ZUWAKU
  6
CONTINUOUS
 62
     7
100
AcDbLine
 10
95.97484530437535
 20
-130.3811630926134
 30
0.0
 11
98.27109928792987
 21
-130.3811630926134
 31
0.0
  0
LINE
  5
B3
330
4D
100
AcDbEntity
  8
ZUWAKU
  6
CONTINUOUS
 62
     7
100
AcDbLine
 10
102.1463728456568
 20
-130.3811630926134
 30
0.0
 11
104.5463728456568
 21
-130.3811630926134
 31
0.0
  0
LINE
  5
B4
330
4D
100
AcDbEntity
  8
ZUWAKU
  6
CONTINUOUS
 62
     7
100
AcDbLine
 10
96.03791022019186
 20
-129.8811630926134
 30
0.0
 11
98.39941093985408
 21
-129.8811630926134
 31
0.0
  0
LINE
  5
B5
330
4D
100
AcDbEntity
  8
ZUWAKU
  6
CONTINUOUS
 62
     7
100
AcDbLine
 10
102.1463728456568
 20
-129.8811630926134
 30
0.0
 11
104.5463728456568
 21
-129.8811630926134
 31
0.0
  0
LINE
  5
B6
330
4D
100
AcDbEntity
  8
ZUWAKU
  6
CONTINUOUS
 62
     7
100
AcDbLine
 10
96.05041945969171
 20
-129.3811630926134
 30
0.0
 11
98.49140820304567
 21
-129.3811630926134
 31
0.0
  0
LINE
  5
B7
330
4D
100
AcDbEntity
  8
ZUWAKU
  6
CONTINUOUS
 62
     7
100
AcDbLine
 10
102.1463728456568
 20
-129.3811630926134
 30
0.0
 11
104.5463728456568
 21
-129.3811630926134
 31
0.0
  0
LINE
  5
B8
330
4D
100
AcDbEntity
  8
ZUWAKU
  6
CONTINUOUS
 62
     7
100
AcDbLine
 10
90.58362715434316
 20
-128.8811630926134
 30
0.0
 11
104.5463728456568
 21
-128.8811630926134
 31
0.0
  0
LINE
  5
B9
330
4D
100
AcDbEntity
  8
ZUWAKU
  6
CONTINUOUS
 62
     7
100
AcDbLine
 10
90.58362715434316
 20
-128.3811630926134
 30
0.0
 11
104.5463728456568
 21
-128.3811630926134
 31
0.0
  0
LINE
  5
BA
330
4D
100
AcDbEntity
  8
ZUWAKU
  6
CONTINUOUS
 62
     7
100
AcDbLine
 10
90.58362715434316
 20
-127.8811630926134
 30
0.0
 11
104.5463728456568
 21
-127.8811630926134
 31
0.0
  0
LINE
  5
BB
330
4D
100
AcDbEntity
  8
ZUWAKU
  6
CONTINUOUS
 62
     7
100
AcDbLine
 10
96.04637284565683
 20
-127.3811630926134
 30
0.0
 11
98.44637284565681
 21
-127.3811630926134
 31
0.0
  0
LINE
  5
BC
330
4D
100
AcDbEntity
  8
ZUWAKU
  6
CONTINUOUS
 62
     7
100
AcDbLine
 10
96.04637284565683
 20
-126.8811630926134
 30
0.0
 11
98.44637284565681
 21
-126.8811630926134
 31
0.0
  0
LINE
  5
BD
330
4D
100
AcDbEntity
  8
ZUWAKU
  6
CONTINUOUS
 62
     7
100
AcDbLine
 10
96.04637284565683
 20
-126.3811630926134
 30
0.0
 11
98.44637284565681
 21
-126.3811630926134
 31
0.0
  0
LINE
  5
BE
330
4D
100
AcDbEntity
  8
ZUWAKU
  6
CONTINUOUS
 62
     7
100
AcDbLine
 10
92.44637284565681
 20
-131.3811630926134
 30
0.0
 11
100.4463728456568
 21
-131.3811630926134
 31
0.0
  0
LINE
  5
BF
330
4D
100
AcDbEntity
  8
ZUWAKU
  6
CONTINUOUS
 62
     7
100
AcDbLine
 10
102.1463728456568
 20
-131.3811630926134
 30
0.0
 11
104.5463728456568
 21
-131.3811630926134
 31
0.0
  0
LINE
  5
C0
330
4D
100
AcDbEntity
  8
ZUWAKU
  6
CONTINUOUS
 62
     7
100
AcDbLine
 10
92.44637284565681
 20
-131.8811630926134
 30
0.0
 11
100.4463728456568
 21
-131.8811630926134
 31
0.0
  0
LINE
  5
C1
330
4D
100
AcDbEntity
  8
ZUWAKU
  6
CONTINUOUS
 62
     7
100
AcDbLine
 10
102.1463728456568
 20
-131.8811630926134
 30
0.0
 11
104.5463728456568
 21
-131.8811630926134
 31
0.0
  0
LINE
  5
C2
330
4D
100
AcDbEntity
  8
ZUWAKU
  6
CONTINUOUS
 62
     7
100
AcDbLine
 10
92.44637284565681
 20
-132.3811630926134
 30
0.0
 11
100.4463728456568
 21
-132.3811630926134
 31
0.0
  0
LINE
  5
C3
330
4D
100
AcDbEntity
  8
ZUWAKU
  6
CONTINUOUS
 62
     7
100
AcDbLine
 10
102.1463728456568
 20
-132.3811630926134
 30
0.0
 11
104.5463728456568
 21
-132.3811630926134
 31
0.0
  0
LINE
  5
C4
330
4D
100
AcDbEntity
  8
ZUWAKU
  6
CONTINUOUS
 62
     7
100
AcDbLine
 10
110.604536355518
 20
-132.3811630926134
 30
0.0
 11
113.8417405120595
 21
-132.3811630926134
 31
0.0
  0
LINE
  5
C5
330
4D
100
AcDbEntity
  8
ZUWAKU
  6
CONTINUOUS
 62
     7
100
AcDbLine
 10
94.74116788281884
 20
-132.8811630926134
 30
0.0
 11
96.97769441725583
 21
-132.8811630926134
 31
0.0
  0
LINE
  5
C6
330
4D
100
AcDbEntity
  8
ZUWAKU
  6
CONTINUOUS
 62
     7
100
AcDbLine
 10
102.1463728456568
 20
-132.8811630926134
 30
0.0
 11
104.5463728456568
 21
-132.8811630926134
 31
0.0
  0
LINE
  5
C7
330
4D
100
AcDbEntity
  8
ZUWAKU
  6
CONTINUOUS
 62
     7
100
AcDbLine
 10
109.8963228939548
 20
-132.8811630926134
 30
0.0
 11
113.3333876979017
 21
-132.8811630926134
 31
0.0
  0
LINE
  5
C8
330
4D
100
AcDbEntity
  8
ZUWAKU
  6
CONTINUOUS
 62
     7
100
AcDbLine
 10
94.21191756518869
 20
-133.3811630926134
 30
0.0
 11
96.5448863676931
 21
-133.3811630926134
 31
0.0
  0
LINE
  5
C9
330
4D
100
AcDbEntity
  8
ZUWAKU
  6
CONTINUOUS
 62
     7
100
AcDbLine
 10
102.1463728456568
 20
-133.3811630926134
 30
0.0
 11
104.5463728456568
 21
-133.3811630926134
 31
0.0
  0
LINE
  5
CA
330
4D
100
AcDbEntity
  8
ZUWAKU
  6
CONTINUOUS
 62
     7
100
AcDbLine
 10
109.025375517766
 20
-133.3811630926134
 30
0.0
 11
112.7480747417856
 21
-133.3811630926134
 31
0.0
  0
LINE
  5
CB
330
4D
100
AcDbEntity
  8
ZUWAKU
  6
CONTINUOUS
 62
     7
100
AcDbLine
 10
93.47278597893467
 20
-133.8811630926134
 30
0.0
 11
96.02274748755042
 21
-133.8811630926134
 31
0.0
  0
LINE
  5
CC
330
4D
100
AcDbEntity
  8
ZUWAKU
  6
CONTINUOUS
 62
     7
100
AcDbLine
 10
102.1463728456568
 20
-133.8811630926134
 30
0.0
 11
104.5463728456568
 21
-133.8811630926134
 31
0.0
  0
LINE
  5
CD
330
4D
100
AcDbEntity
  8
ZUWAKU
  6
CONTINUOUS
 62
     7
100
AcDbLine
 10
107.8681459252262
 20
-133.8811630926134
 30
0.0
 11
112.0628740626163
 21
-133.8811630926134
 31
0.0
  0
LINE
  5
CE
330
4D
100
AcDbEntity
  8
ZUWAKU
  6
CONTINUOUS
 62
     7
100
AcDbLine
 10
92.16346202882176
 20
-134.3811630926134
 30
0.0
 11
95.37814146302139
 21
-134.3811630926134
 31
0.0
  0
LINE
  5
CF
330
4D
100
AcDbEntity
  8
ZUWAKU
  6
CONTINUOUS
 62
     7
100
AcDbLine
 10
102.1463728456568
 20
-134.3811630926134
 30
0.0
 11
104.5463728456568
 21
-134.3811630926134
 31
0.0
  0
LINE
  5
D0
330
4D
100
AcDbEntity
  8
ZUWAKU
  6
CONTINUOUS
 62
     7
100
AcDbLine
 10
105.8155311692083
 20
-134.3811630926134
 30
0.0
 11
111.2373451587009
 21
-134.3811630926134
 31
0.0
  0
LINE
  5
D1
330
4D
100
AcDbEntity
  8
ZUWAKU
  6
CONTINUOUS
 62
     7
100
AcDbLine
 10
90.58362715434316
 20
-134.8811630926134
 30
0.0
 11
94.54150297508784
 21
-134.8811630926134
 31
0.0
  0
LINE
  5
D2
330
4D
100
AcDbEntity
  8
ZUWAKU
  6
CONTINUOUS
 62
     7
100
AcDbLine
 10
102.1748475825431
 20
-134.8811630926134
 30
0.0
 11
110.1856413090584
 21
-134.8811630926134
 31
0.0
  0
LINE
  5
D3
330
4D
100
AcDbEntity
  8
ZUWAKU
  6
CONTINUOUS
 62
     7
100
AcDbLine
 10
90.58362715434316
 20
-135.3811630926134
 30
0.0
 11
93.29698933454563
 21
-135.3811630926134
 31
0.0
  0
LINE
  5
D4
330
4D
100
AcDbEntity
  8
ZUWAKU
  6
CONTINUOUS
 62
     7
100
AcDbLine
 10
103.7282777975827
 20
-135.3811630926134
 30
0.0
 11
108.6322110940188
 21
-135.3811630926134
 31
0.0
  0
ENDBLK
  5
4F
330
4D
100
AcDbEntity
  8
0
100
AcDbBlockEnd
  0
BLOCK
  5
51
330
50
100
AcDbEntity
  8
0
100
AcDbBlockBegin
  2
DC_GROUP_3
 70
     0
 71
     0
 10
0.0
 20
0.0
 30
0.0
  3
DC_GROUP_3
  1

  0
LINE
  5
D5
330
50
100
AcDbEntity
  8
ZUWAKU
  6
CONTINUOUS
 62
     7
100
AcDbLine
 10
106.5463728456568
 20
-130.6694543431024
 30
0.0
 11
117.9463728456568
 21
-130.6694543431024
 31
0.0
  0
LINE
  5
D6
330
50
100
AcDbEntity
  8
ZUWAKU
  6
CONTINUOUS
 62
     7
100
AcDbLine
 10
106.5463728456568
 20
-130.1694543431024
 30
0.0
 11
117.9463728456568
 21
-130.1694543431024
 31
0.0
  0
LINE
  5
D7
330
50
100
AcDbEntity
  8
ZUWAKU
  6
CONTINUOUS
 62
     7
100
AcDbLine
 10
106.5463728456568
 20
-131.1694543431024
 30
0.0
 11
117.9463728456568
 21
-131.1694543431024
 31
0.0
  0
ENDBLK
  5
52
330
50
100
AcDbEntity
  8
0
100
AcDbBlockEnd
  0
BLOCK
  5
54
330
53
100
AcDbEntity
  8
0
100
AcDbBlockBegin
  2
DC_GROUP_4
 70
     0
 71
     0
 10
0.0
 20
0.0
 30
0.0
  3
DC_GROUP_4
  1

  0
LINE
  5
D8
330
53
100
AcDbEntity
  8
ZUWAKU
  6
CONTINUOUS
 62
     7
100
AcDbLine
 10
120.3762688606991
 20
-131.55
 30
0.0
 11
122.9463728456568
 21
-131.55
 31
0.0
  0
LINE
  5
D9
330
53
100
AcDbEntity
  8
ZUWAKU
  6
CONTINUOUS
 62
     7
100
AcDbLine
 10
123.4880098163495
 20
-131.55
 30
0.0
 11
124.1463728456568
 21
-131.55
 31
0.0
  0
LINE
  5
DA
330
53
100
AcDbEntity
  8
ZUWAKU
  6
CONTINUOUS
 62
     7
100
AcDbLine
 10
120.5401914483943
 20
-131.05
 30
0.0
 11
124.1463728456568
 21
-131.05
 31
0.0
  0
LINE
  5
DB
330
53
100
AcDbEntity
  8
ZUWAKU
  6
CONTINUOUS
 62
     7
100
AcDbLine
 10
120.6573329194075
 20
-130.55
 30
0.0
 11
123.9671913310034
 21
-130.55
 31
0.0
  0
LINE
  5
DC
330
53
100
AcDbEntity
  8
ZUWAKU
  6
CONTINUOUS
 62
     7
100
AcDbLine
 10
120.7304485357685
 20
-130.05
 30
0.0
 11
123.2171913310033
 21
-130.05
 31
0.0
  0
LINE
  5
DD
330
53
100
AcDbEntity
  8
ZUWAKU
  6
CONTINUOUS
 62
     7
100
AcDbLine
 10
119.4463728456568
 20
-129.55
 30
0.0
 11
124.1463728456568
 21
-129.55
 31
0.0
  0
LINE
  5
DE
330
53
100
AcDbEntity
  8
ZUWAKU
  6
CONTINUOUS
 62
     7
100
AcDbLine
 10
119.4463728456568
 20
-129.05
 30
0.0
 11
124.1463728456568
 21
-129.05
 31
0.0
  0
LINE
  5
DF
330
53
100
AcDbEntity
  8
ZUWAKU
  6
CONTINUOUS
 62
     7
100
AcDbLine
 10
121.5463728456568
 20
-128.55
 30
0.0
 11
122.9463728456568
 21
-128.55
 31
0.0
  0
LINE
  5
E0
330
53
100
AcDbEntity
  8
ZUWAKU
  6
CONTINUOUS
 62
     7
100
AcDbLine
 10
121.5463728456568
 20
-128.05
 30
0.0
 11
122.9463728456568
 21
-128.05
 31
0.0
  0
LINE
  5
E1
330
53
100
AcDbEntity
  8
ZUWAKU
  6
CONTINUOUS
 62
     7
100
AcDbLine
 10
120.1613057869596
 20
-132.05
 30
0.0
 11
122.9463728456568
 21
-132.05
 31
0.0
  0
LINE
  5
E2
330
53
100
AcDbEntity
  8
ZUWAKU
  6
CONTINUOUS
 62
     7
100
AcDbLine
 10
119.8888857047598
 20
-132.55
 30
0.0
 11
122.9463728456568
 21
-132.55
 31
0.0
  0
LINE
  5
E3
330
53
100
AcDbEntity
  8
ZUWAKU
  6
CONTINUOUS
 62
     7
100
AcDbLine
 10
119.5492091213338
 20
-133.05
 30
0.0
 11
122.9463728456568
 21
-133.05
 31
0.0
  0
LINE
  5
E4
330
53
100
AcDbEntity
  8
ZUWAKU
  6
CONTINUOUS
 62
     7
100
AcDbLine
 10
119.3463728456568
 20
-133.55
 30
0.0
 11
120.5627654424019
 21
-133.55
 31
0.0
  0
LINE
  5
E5
330
53
100
AcDbEntity
  8
ZUWAKU
  6
CONTINUOUS
 62
     7
100
AcDbLine
 10
121.3463728456568
 20
-133.55
 30
0.0
 11
122.9463728456568
 21
-133.55
 31
0.0
  0
LINE
  5
E6
330
53
100
AcDbEntity
  8
ZUWAKU
  6
CONTINUOUS
 62
     7
100
AcDbLine
 10
119.3463728456568
 20
-134.05
 30
0.0
 11
120.0135150512066
 21
-134.05
 31
0.0
  0
LINE
  5
E7
330
53
100
AcDbEntity
  8
ZUWAKU
  6
CONTINUOUS
 62
     7
100
AcDbLine
 10
121.3463728456568
 20
-134.05
 30
0.0
 11
122.9463728456568
 21
-134.05
 31
0.0
  0
LINE
  5
E8
330
53
100
AcDbEntity
  8
ZUWAKU
  6
CONTINUOUS
 62
     7
100
AcDbLine
 10
121.3463728456568
 20
-134.55
 30
0.0
 11
122.9463728456568
 21
-134.55
 31
0.0
  0
LINE
  5
E9
330
53
100
AcDbEntity
  8
ZUWAKU
  6
CONTINUOUS
 62
     7
100
AcDbLine
 10
121.3463728456568
 20
-135.05
 30
0.0
 11
122.9463728456568
 21
-135.05
 31
0.0
  0
ENDBLK
  5
55
330
53
100
AcDbEntity
  8
0
100
AcDbBlockEnd
  0
BLOCK
  5
57
330
56
100
AcDbEntity
  8
0
100
AcDbBlockBegin
  2
DC_GROUP_5
 70
     0
 71
     0
 10
0.0
 20
0.0
 30
0.0
  3
DC_GROUP_5
  1

  0
LINE
  5
EA
330
56
100
AcDbEntity
  8
ZUWAKU
  6
CONTINUOUS
 62
     7
100
AcDbLine
 10
124.6463728456568
 20
-131.55
 30
0.0
 11
131.7463728456568
 21
-131.55
 31
0.0
  0
LINE
  5
EB
330
56
100
AcDbEntity
  8
ZUWAKU
  6
CONTINUOUS
 62
     7
100
AcDbLine
 10
124.6463728456568
 20
-131.05
 30
0.0
 11
131.7463728456568
 21
-131.05
 31
0.0
  0
LINE
  5
EC
330
56
100
AcDbEntity
  8
ZUWAKU
  6
CONTINUOUS
 62
     7
100
AcDbLine
 10
127.1463728456568
 20
-130.55
 30
0.0
 11
128.9463728456568
 21
-130.55
 31
0.0
  0
LINE
  5
ED
330
56
100
AcDbEntity
  8
ZUWAKU
  6
CONTINUOUS
 62
     7
100
AcDbLine
 10
127.1463728456568
 20
-130.05
 30
0.0
 11
128.9463728456568
 21
-130.05
 31
0.0
  0
LINE
  5
EE
330
56
100
AcDbEntity
  8
ZUWAKU
  6
CONTINUOUS
 62
     7
100
AcDbLine
 10
124.6463728456568
 20
-129.55
 30
0.0
 11
131.5463728456568
 21
-129.55
 31
0.0
  0
LINE
  5
EF
330
56
100
AcDbEntity
  8
ZUWAKU
  6
CONTINUOUS
 62
     7
100
AcDbLine
 10
124.6463728456568
 20
-129.05
 30
0.0
 11
131.5463728456568
 21
-129.05
 31
0.0
  0
LINE
  5
F0
330
56
100
AcDbEntity
  8
ZUWAKU
  6
CONTINUOUS
 62
     7
100
AcDbLine
 10
124.6463728456568
 20
-128.55
 30
0.0
 11
126.2063728456568
 21
-128.55
 31
0.0
  0
LINE
  5
F1
330
56
100
AcDbEntity
  8
ZUWAKU
  6
CONTINUOUS
 62
     7
100
AcDbLine
 10
127.1463728456568
 20
-128.55
 30
0.0
 11
128.9463728456568
 21
-128.55
 31
0.0
  0
LINE
  5
F2
330
56
100
AcDbEntity
  8
ZUWAKU
  6
CONTINUOUS
 62
     7
100
AcDbLine
 10
124.6463728456568
 20
-128.05
 30
0.0
 11
126.2063728456568
 21
-128.05
 31
0.0
  0
LINE
  5
F3
330
56
100
AcDbEntity
  8
ZUWAKU
  6
CONTINUOUS
 62
     7
100
AcDbLine
 10
127.1463728456568
 20
-128.05
 30
0.0
 11
128.9463728456568
 21
-128.05
 31
0.0
  0
LINE
  5
F4
330
56
100
AcDbEntity
  8
ZUWAKU
  6
CONTINUOUS
 62
     7
100
AcDbLine
 10
125.8786611924532
 20
-132.05
 30
0.0
 11
130.4774938194927
 21
-132.05
 31
0.0
  0
LINE
  5
F5
330
56
100
AcDbEntity
  8
ZUWAKU
  6
CONTINUOUS
 62
     7
100
AcDbLine
 10
125.7022203023616
 20
-132.55
 30
0.0
 11
130.5839164239199
 21
-132.55
 31
0.0
  0
LINE
  5
F6
330
56
100
AcDbEntity
  8
ZUWAKU
  6
CONTINUOUS
 62
     7
100
AcDbLine
 10
125.4444907322737
 20
-133.05
 30
0.0
 11
130.7607865985839
 21
-133.05
 31
0.0
  0
LINE
  5
F7
330
56
100
AcDbEntity
  8
ZUWAKU
  6
CONTINUOUS
 62
     7
100
AcDbLine
 10
125.0849898652322
 20
-133.55
 30
0.0
 11
127.0512574302935
 21
-133.55
 31
0.0
  0
LINE
  5
F8
330
56
100
AcDbEntity
  8
ZUWAKU
  6
CONTINUOUS
 62
     7
100
AcDbLine
 10
127.1463728456568
 20
-133.55
 30
0.0
 11
131.019029431235
 21
-133.55
 31
0.0
  0
LINE
  5
F9
330
56
100
AcDbEntity
  8
ZUWAKU
  6
CONTINUOUS
 62
     7
100
AcDbLine
 10
124.5811039379163
 20
-134.05
 30
0.0
 11
126.5931405813734
 21
-134.05
 31
0.0
  0
LINE
  5
FA
330
56
100
AcDbEntity
  8
ZUWAKU
  6
CONTINUOUS
 62
     7
100
AcDbLine
 10
127.1463728456568
 20
-134.05
 30
0.0
 11
128.9463728456568
 21
-134.05
 31
0.0
  0
LINE
  5
FB
330
56
100
AcDbEntity
  8
ZUWAKU
  6
CONTINUOUS
 62
     7
100
AcDbLine
 10
129.2557665128225
 20
-134.05
 30
0.0
 11
131.3792055022369
 21
-134.05
 31
0.0
  0
LINE
  5
FC
330
56
100
AcDbEntity
  8
ZUWAKU
  6
CONTINUOUS
 62
     7
100
AcDbLine
 10
124.3463728456568
 20
-134.55
 30
0.0
 11
126.0096133195874
 21
-134.55
 31
0.0
  0
LINE
  5
FD
330
56
100
AcDbEntity
  8
ZUWAKU
  6
CONTINUOUS
 62
     7
100
AcDbLine
 10
127.1463728456568
 20
-134.55
 30
0.0
 11
128.9463728456568
 21
-134.55
 31
0.0
  0
LINE
  5
FE
330
56
100
AcDbEntity
  8
ZUWAKU
  6
CONTINUOUS
 62
     7
100
AcDbLine
 10
129.7599871032927
 20
-134.55
 30
0.0
 11
131.7463728456568
 21
-134.55
 31
0.0
  0
LINE
  5
FF
330
56
100
AcDbEntity
  8
ZUWAKU
  6
CONTINUOUS
 62
     7
100
AcDbLine
 10
124.3463728456568
 20
-135.05
 30
0.0
 11
125.2238286865397
 21
-135.05
 31
0.0
  0
LINE
  5
100
330
56
100
AcDbEntity
  8
ZUWAKU
  6
CONTINUOUS
 62
     7
100
AcDbLine
 10
127.1463728456568
 20
-135.05
 30
0.0
 11
128.9463728456568
 21
-135.05
 31
0.0
  0
LINE
  5
101
330
56
100
AcDbEntity
  8
ZUWAKU
  6
CONTINUOUS
 62
     7
100
AcDbLine
 10
130.5271619874551
 20
-135.05
 30
0.0
 11
131.7463728456568
 21
-135.05
 31
0.0
  0
ENDBLK
  5
58
330
56
100
AcDbEntity
  8
0
100
AcDbBlockEnd
  0
BLOCK
  5
5A
330
59
100
AcDbEntity
  8
0
100
AcDbBlockBegin
  2
DC_GROUP_6
 70
     0
 71
     0
 10
0.0
 20
0.0
 30
0.0
  3
DC_GROUP_6
  1

  0
LINE
  5
102
330
59
100
AcDbEntity
  8
ZUWAKU
  6
CONTINUOUS
 62
     7
100
AcDbLine
 10
140.6463728456568
 20
-131.55
 30
0.0
 11
142.7963728456568
 21
-131.55
 31
0.0
  0
LINE
  5
103
330
59
100
AcDbEntity
  8
ZUWAKU
  6
CONTINUOUS
 62
     7
100
AcDbLine
 10
140.6463728456568
 20
-131.05
 30
0.0
 11
142.7963728456568
 21
-131.05
 31
0.0
  0
LINE
  5
104
330
59
100
AcDbEntity
  8
ZUWAKU
  6
CONTINUOUS
 62
     7
100
AcDbLine
 10
140.6463728456568
 20
-130.55
 30
0.0
 11
142.7963728456568
 21
-130.55
 31
0.0
  0
LINE
  5
105
330
59
100
AcDbEntity
  8
ZUWAKU
  6
CONTINUOUS
 62
     7
100
AcDbLine
 10
140.6463728456568
 20
-130.05
 30
0.0
 11
142.7963728456568
 21
-130.05
 31
0.0
  0
LINE
  5
106
330
59
100
AcDbEntity
  8
ZUWAKU
  6
CONTINUOUS
 62
     7
100
AcDbLine
 10
133.1463728456568
 20
-129.55
 30
0.0
 11
145.7163728456568
 21
-129.55
 31
0.0
  0
LINE
  5
107
330
59
100
AcDbEntity
  8
ZUWAKU
  6
CONTINUOUS
 62
     7
100
AcDbLine
 10
133.1463728456568
 20
-129.05
 30
0.0
 11
145.7163728456568
 21
-129.05
 31
0.0
  0
LINE
  5
108
330
59
100
AcDbEntity
  8
ZUWAKU
  6
CONTINUOUS
 62
     7
100
AcDbLine
 10
140.6463728456568
 20
-128.55
 30
0.0
 11
142.7963728456568
 21
-128.55
 31
0.0
  0
LINE
  5
109
330
59
100
AcDbEntity
  8
ZUWAKU
  6
CONTINUOUS
 62
     7
100
AcDbLine
 10
144.1963728456568
 20
-128.55
 30
0.0
 11
145.7163728456568
 21
-128.55
 31
0.0
  0
LINE
  5
10A
330
59
100
AcDbEntity
  8
ZUWAKU
  6
CONTINUOUS
 62
     7
100
AcDbLine
 10
140.6463728456568
 20
-128.05
 30
0.0
 11
142.7963728456568
 21
-128.05
 31
0.0
  0
LINE
  5
10B
330
59
100
AcDbEntity
  8
ZUWAKU
  6
CONTINUOUS
 62
     7
100
AcDbLine
 10
144.1963728456568
 20
-128.05
 30
0.0
 11
145.7163728456568
 21
-128.05
 31
0.0
  0
LINE
  5
10C
330
59
100
AcDbEntity
  8
ZUWAKU
  6
CONTINUOUS
 62
     7
100
AcDbLine
 10
140.6463728456568
 20
-132.05
 30
0.0
 11
142.7963728456568
 21
-132.05
 31
0.0
  0
LINE
  5
10D
330
59
100
AcDbEntity
  8
ZUWAKU
  6
CONTINUOUS
 62
     7
100
AcDbLine
 10
140.6463728456568
 20
-132.55
 30
0.0
 11
142.7963728456568
 21
-132.55
 31
0.0
  0
LINE
  5
10E
330
59
100
AcDbEntity
  8
ZUWAKU
  6
CONTINUOUS
 62
     7
100
AcDbLine
 10
140.6463728456568
 20
-133.05
 30
0.0
 11
142.7963728456568
 21
-133.05
 31
0.0
  0
LINE
  5
10F
330
59
100
AcDbEntity
  8
ZUWAKU
  6
CONTINUOUS
 62
     7
100
AcDbLine
 10
144.1358445034737
 20
-133.05
 30
0.0
 11
145.5814320923754
 21
-133.05
 31
0.0
  0
LINE
  5
110
330
59
100
AcDbEntity
  8
ZUWAKU
  6
CONTINUOUS
 62
     7
100
AcDbLine
 10
140.6463728456568
 20
-133.55
 30
0.0
 11
142.7963728456568
 21
-133.55
 31
0.0
  0
LINE
  5
111
330
59
100
AcDbEntity
  8
ZUWAKU
  6
CONTINUOUS
 62
     7
100
AcDbLine
 10
143.9214609952618
 20
-133.55
 30
0.0
 11
145.3352302649021
 21
-133.55
 31
0.0
  0
LINE
  5
112
330
59
100
AcDbEntity
  8
ZUWAKU
  6
CONTINUOUS
 62
     7
100
AcDbLine
 10
140.6463728456568
 20
-134.05
 30
0.0
 11
142.7963728456568
 21
-134.05
 31
0.0
  0
LINE
  5
113
330
59
100
AcDbEntity
  8
ZUWAKU
  6
CONTINUOUS
 62
     7
100
AcDbLine
 10
143.4946600818465
 20
-134.05
 30
0.0
 11
144.990775923055
 21
-134.05
 31
0.0
  0
LINE
  5
114
330
59
100
AcDbEntity
  8
ZUWAKU
  6
CONTINUOUS
 62
     7
100
AcDbLine
 10
140.6463728456568
 20
-134.55
 30
0.0
 11
144.5097616138391
 21
-134.55
 31
0.0
  0
LINE
  5
115
330
59
100
AcDbEntity
  8
ZUWAKU
  6
CONTINUOUS
 62
     7
100
AcDbLine
 10
140.6463728456568
 20
-135.05
 30
0.0
 11
143.7918248912179
 21
-135.05
 31
0.0
  0
ENDBLK
  5
5B
330
59
100
AcDbEntity
  8
0
100
AcDbBlockEnd
  0
BLOCK
  5
5D
330
5C
100
AcDbEntity
  8
0
100
AcDbBlockBegin
  2
DC_GROUP_7
 70
     0
 71
     0
 10
0.0
 20
0.0
 30
0.0
  3
DC_GROUP_7
  1

  0
LINE
  5
116
330
5C
100
AcDbEntity
  8
ZUWAKU
  6
CONTINUOUS
 62
     7
100
AcDbLine
 10
135.8463728456568
 20
-133.25
 30
0.0
 11
137.9463728456568
 21
-133.25
 31
0.0
  0
LINE
  5
117
330
5C
100
AcDbEntity
  8
ZUWAKU
  6
CONTINUOUS
 62
     7
100
AcDbLine
 10
135.8463728456568
 20
-132.75
 30
0.0
 11
137.9463728456568
 21
-132.75
 31
0.0
  0
LINE
  5
118
330
5C
100
AcDbEntity
  8
ZUWAKU
  6
CONTINUOUS
 62
     7
100
AcDbLine
 10
135.8463728456568
 20
-132.25
 30
0.0
 11
137.9463728456568
 21
-132.25
 31
0.0
  0
LINE
  5
119
330
5C
100
AcDbEntity
  8
ZUWAKU
  6
CONTINUOUS
 62
     7
100
AcDbLine
 10
133.1463728456568
 20
-131.75
 30
0.0
 11
139.7463728456568
 21
-131.75
 31
0.0
  0
LINE
  5
11A
330
5C
100
AcDbEntity
  8
ZUWAKU
  6
CONTINUOUS
 62
     7
100
AcDbLine
 10
133.1463728456568
 20
-131.25
 30
0.0
 11
139.7463728456568
 21
-131.25
 31
0.0
  0
LINE
  5
11B
330
5C
100
AcDbEntity
  8
ZUWAKU
  6
CONTINUOUS
 62
     7
100
AcDbLine
 10
133.1463728456568
 20
-133.75
 30
0.0
 11
139.7463728456568
 21
-133.75
 31
0.0
  0
LINE
  5
11C
330
5C
100
AcDbEntity
  8
ZUWAKU
  6
CONTINUOUS
 62
     7
100
AcDbLine
 10
133.1463728456568
 20
-134.25
 30
0.0
 11
139.7463728456568
 21
-134.25
 31
0.0
  0
LINE
  5
11D
330
5C
100
AcDbEntity
  8
ZUWAKU
  6
CONTINUOUS
 62
     7
100
AcDbLine
 10
133.1463728456568
 20
-134.75
 30
0.0
 11
139.3256932440106
 21
-134.75
 31
0.0
  0
LINE
  5
11E
330
5C
100
AcDbEntity
  8
ZUWAKU
  6
CONTINUOUS
 62
     7
100
AcDbLine
 10
133.1463728456568
 20
-135.25
 30
0.0
 11
136.9087996408371
 21
-135.25
 31
0.0
  0
ENDBLK
  5
5E
330
5C
100
AcDbEntity
  8
0
100
AcDbBlockEnd
  0
BLOCK
  5
60
330
5F
100
AcDbEntity
  8
0
100
AcDbBlockBegin
  2
DC_GROUP_8
 70
     0
 71
     0
 10
0.0
 20
0.0
 30
0.0
  3
DC_GROUP_8
  1

  0
LINE
  5
11F
330
5F
100
AcDbEntity
  8
ZUWAKU
  6
CONTINUOUS
 62
     7
100
AcDbLine
 10
168.4163728456568
 20
-131.55
 30
0.0
 11
170.3163728456568
 21
-131.55
 31
0.0
  0
LINE
  5
120
330
5F
100
AcDbEntity
  8
ZUWAKU
  6
CONTINUOUS
 62
     7
100
AcDbLine
 10
168.4163728456568
 20
-131.05
 30
0.0
 11
170.3163728456568
 21
-131.05
 31
0.0
  0
LINE
  5
121
330
5F
100
AcDbEntity
  8
ZUWAKU
  6
CONTINUOUS
 62
     7
100
AcDbLine
 10
168.4163728456568
 20
-130.55
 30
0.0
 11
170.3163728456568
 21
-130.55
 31
0.0
  0
LINE
  5
122
330
5F
100
AcDbEntity
  8
ZUWAKU
  6
CONTINUOUS
 62
     7
100
AcDbLine
 10
166.6163728456568
 20
-130.05
 30
0.0
 11
171.9163728456568
 21
-130.05
 31
0.0
  0
LINE
  5
123
330
5F
100
AcDbEntity
  8
ZUWAKU
  6
CONTINUOUS
 62
     7
100
AcDbLine
 10
166.6163728456568
 20
-129.55
 30
0.0
 11
171.9163728456568
 21
-129.55
 31
0.0
  0
LINE
  5
124
330
5F
100
AcDbEntity
  8
ZUWAKU
  6
CONTINUOUS
 62
     7
100
AcDbLine
 10
166.6163728456568
 20
-129.05
 30
0.0
 11
171.9163728456568
 21
-129.05
 31
0.0
  0
LINE
  5
125
330
5F
100
AcDbEntity
  8
ZUWAKU
  6
CONTINUOUS
 62
     7
100
AcDbLine
 10
168.4163728456568
 20
-128.55
 30
0.0
 11
170.3163728456568
 21
-128.55
 31
0.0
  0
LINE
  5
126
330
5F
100
AcDbEntity
  8
ZUWAKU
  6
CONTINUOUS
 62
     7
100
AcDbLine
 10
168.4163728456568
 20
-128.05
 30
0.0
 11
170.3163728456568
 21
-128.05
 31
0.0
  0
LINE
  5
127
330
5F
100
AcDbEntity
  8
ZUWAKU
  6
CONTINUOUS
 62
     7
100
AcDbLine
 10
168.4163728456568
 20
-132.05
 30
0.0
 11
170.3163728456568
 21
-132.05
 31
0.0
  0
LINE
  5
128
330
5F
100
AcDbEntity
  8
ZUWAKU
  6
CONTINUOUS
 62
     7
100
AcDbLine
 10
168.4163728456568
 20
-132.55
 30
0.0
 11
170.3163728456568
 21
-132.55
 31
0.0
  0
LINE
  5
129
330
5F
100
AcDbEntity
  8
ZUWAKU
  6
CONTINUOUS
 62
     7
100
AcDbLine
 10
168.4163728456568
 20
-133.05
 30
0.0
 11
170.3163728456568
 21
-133.05
 31
0.0
  0
LINE
  5
12A
330
5F
100
AcDbEntity
  8
ZUWAKU
  6
CONTINUOUS
 62
     7
100
AcDbLine
 10
166.4163728456568
 20
-133.55
 30
0.0
 11
172.4163728456568
 21
-133.55
 31
0.0
  0
LINE
  5
12B
330
5F
100
AcDbEntity
  8
ZUWAKU
  6
CONTINUOUS
 62
     7
100
AcDbLine
 10
166.4163728456568
 20
-134.05
 30
0.0
 11
172.4163728456568
 21
-134.05
 31
0.0
  0
LINE
  5
12C
330
5F
100
AcDbEntity
  8
ZUWAKU
  6
CONTINUOUS
 62
     7
100
AcDbLine
 10
166.4163728456568
 20
-134.55
 30
0.0
 11
172.4163728456568
 21
-134.55
 31
0.0
  0
LINE
  5
12D
330
5F
100
AcDbEntity
  8
ZUWAKU
  6
CONTINUOUS
 62
     7
100
AcDbLine
 10
166.4163728456568
 20
-135.05
 30
0.0
 11
172.4163728456568
 21
-135.05
 31
0.0
  0
ENDBLK
  5
61
330
5F
100
AcDbEntity
  8
0
100
AcDbBlockEnd
  0
BLOCK
  5
63
330
62
100
AcDbEntity
  8
0
100
AcDbBlockBegin
  2
DC_GROUP_9
 70
     0
 71
     0
 10
0.0
 20
0.0
 30
0.0
  3
DC_GROUP_9
  1

  0
LINE
  5
12E
330
62
100
AcDbEntity
  8
ZUWAKU
  6
CONTINUOUS
 62
     7
100
AcDbLine
 10
148.53659593608
 20
-129.1512995588781
 30
0.0
 11
152.6827745314139
 21
-129.1512995588781
 31
0.0
  0
LINE
  5
12F
330
62
100
AcDbEntity
  8
ZUWAKU
  6
CONTINUOUS
 62
     7
100
AcDbLine
 10
152.7537677038454
 20
-129.1512995588781
 30
0.0
 11
156.919704031706
 21
-129.1512995588781
 31
0.0
  0
LINE
  5
130
330
62
100
AcDbEntity
  8
ZUWAKU
  6
CONTINUOUS
 62
     7
100
AcDbLine
 10
149.647730764762
 20
-128.6512995588781
 30
0.0
 11
155.7936103080192
 21
-128.6512995588781
 31
0.0
  0
LINE
  5
131
330
62
100
AcDbEntity
  8
ZUWAKU
  6
CONTINUOUS
 62
     7
100
AcDbLine
 10
150.3808204717105
 20
-128.1512995588781
 30
0.0
 11
155.0550444732114
 21
-128.1512995588781
 31
0.0
  0
LINE
  5
132
330
62
100
AcDbEntity
  8
ZUWAKU
  6
CONTINUOUS
 62
     7
100
AcDbLine
 10
147.2163728456568
 20
-129.6512995588781
 30
0.0
 11
151.7655682998408
 21
-129.6512995588781
 31
0.0
  0
LINE
  5
133
330
62
100
AcDbEntity
  8
ZUWAKU
  6
CONTINUOUS
 62
     7
100
AcDbLine
 10
153.7687259431705
 20
-129.6512995588781
 30
0.0
 11
159.2163728456568
 21
-129.6512995588781
 31
0.0
  0
LINE
  5
134
330
62
100
AcDbEntity
  8
ZUWAKU
  6
CONTINUOUS
 62
     7
100
AcDbLine
 10
147.2163728456568
 20
-130.1512995588781
 30
0.0
 11
150.5110681543286
 21
-130.1512995588781
 31
0.0
  0
LINE
  5
135
330
62
100
AcDbEntity
  8
ZUWAKU
  6
CONTINUOUS
 62
     7
100
AcDbLine
 10
155.1396032344489
 20
-130.1512995588781
 30
0.0
 11
159.2163728456568
 21
-130.1512995588781
 31
0.0
  0
ENDBLK
  5
64
330
62
100
AcDbEntity
  8
0
100
AcDbBlockEnd
  0
BLOCK
  5
66
330
65
100
AcDbEntity
  8
0
100
AcDbBlockBegin
  2
DC_GROUP_10
 70
     0
 71
     0
 10
0.0
 20
0.0
 30
0.0
  3
DC_GROUP_10
  1

  0
LINE
  5
136
330
65
100
AcDbEntity
  8
ZUWAKU
  6
CONTINUOUS
 62
     7
100
AcDbLine
 10
162.4372031523923
 20
-131.55
 30
0.0
 11
165.0309087734352
 21
-131.55
 31
0.0
  0
LINE
  5
137
330
65
100
AcDbEntity
  8
ZUWAKU
  6
CONTINUOUS
 62
     7
100
AcDbLine
 10
163.0235540538986
 20
-131.05
 30
0.0
 11
165.2616456754909
 21
-131.05
 31
0.0
  0
LINE
  5
138
330
65
100
AcDbEntity
  8
ZUWAKU
  6
CONTINUOUS
 62
     7
100
AcDbLine
 10
163.3899766640403
 20
-130.55
 30
0.0
 11
165.5505367479891
 21
-130.55
 31
0.0
  0
LINE
  5
139
330
65
100
AcDbEntity
  8
ZUWAKU
  6
CONTINUOUS
 62
     7
100
AcDbLine
 10
160.6163728456568
 20
-130.05
 30
0.0
 11
165.7631269437853
 21
-130.05
 31
0.0
  0
LINE
  5
13A
330
65
100
AcDbEntity
  8
ZUWAKU
  6
CONTINUOUS
 62
     7
100
AcDbLine
 10
160.6163728456568
 20
-129.55
 30
0.0
 11
165.9102932726119
 21
-129.55
 31
0.0
  0
LINE
  5
13B
330
65
100
AcDbEntity
  8
ZUWAKU
  6
CONTINUOUS
 62
     7
100
AcDbLine
 10
160.6163728456568
 20
-129.05
 30
0.0
 11
165.9983642039967
 21
-129.05
 31
0.0
  0
LINE
  5
13C
330
65
100
AcDbEntity
  8
ZUWAKU
  6
CONTINUOUS
 62
     7
100
AcDbLine
 10
162.6163728456568
 20
-128.55
 30
0.0
 11
164.2163728456568
 21
-128.55
 31
0.0
  0
LINE
  5
13D
330
65
100
AcDbEntity
  8
ZUWAKU
  6
CONTINUOUS
 62
     7
100
AcDbLine
 10
162.6163728456568
 20
-128.05
 30
0.0
 11
164.2163728456568
 21
-128.05
 31
0.0
  0
LINE
  5
13E
330
65
100
AcDbEntity
  8
ZUWAKU
  6
CONTINUOUS
 62
     7
100
AcDbLine
 10
160.6163728456568
 20
-132.05
 30
0.0
 11
166.0163728456568
 21
-132.05
 31
0.0
  0
LINE
  5
13F
330
65
100
AcDbEntity
  8
ZUWAKU
  6
CONTINUOUS
 62
     7
100
AcDbLine
 10
160.6163728456568
 20
-132.55
 30
0.0
 11
164.2163728456568
 21
-132.55
 31
0.0
  0
LINE
  5
140
330
65
100
AcDbEntity
  8
ZUWAKU
  6
CONTINUOUS
 62
     7
100
AcDbLine
 10
164.4937661375371
 20
-132.55
 30
0.0
 11
166.0163728456568
 21
-132.55
 31
0.0
  0
LINE
  5
141
330
65
100
AcDbEntity
  8
ZUWAKU
  6
CONTINUOUS
 62
     7
100
AcDbLine
 10
160.6163728456568
 20
-133.05
 30
0.0
 11
161.2391757382088
 21
-133.05
 31
0.0
  0
LINE
  5
142
330
65
100
AcDbEntity
  8
ZUWAKU
  6
CONTINUOUS
 62
     7
100
AcDbLine
 10
162.6163728456568
 20
-133.05
 30
0.0
 11
164.2163728456568
 21
-133.05
 31
0.0
  0
LINE
  5
143
330
65
100
AcDbEntity
  8
ZUWAKU
  6
CONTINUOUS
 62
     7
100
AcDbLine
 10
162.6163728456568
 20
-133.55
 30
0.0
 11
164.2163728456568
 21
-133.55
 31
0.0
  0
LINE
  5
144
330
65
100
AcDbEntity
  8
ZUWAKU
  6
CONTINUOUS
 62
     7
100
AcDbLine
 10
162.6163728456568
 20
-134.05
 30
0.0
 11
164.2163728456568
 21
-134.05
 31
0.0
  0
LINE
  5
145
330
65
100
AcDbEntity
  8
ZUWAKU
  6
CONTINUOUS
 62
     7
100
AcDbLine
 10
162.6163728456568
 20
-134.55
 30
0.0
 11
164.2163728456568
 21
-134.55
 31
0.0
  0
LINE
  5
146
330
65
100
AcDbEntity
  8
ZUWAKU
  6
CONTINUOUS
 62
     7
100
AcDbLine
 10
162.6163728456568
 20
-135.05
 30
0.0
 11
164.2163728456568
 21
-135.05
 31
0.0
  0
ENDBLK
  5
67
330
65
100
AcDbEntity
  8
0
100
AcDbBlockEnd
  0
BLOCK
  5
69
330
68
100
AcDbEntity
  8
0
100
AcDbBlockBegin
  2
DC_GROUP_11
 70
     0
 71
     0
 10
0.0
 20
0.0
 30
0.0
  3
DC_GROUP_11
  1

  0
LINE
  5
147
330
68
100
AcDbEntity
  8
ZUWAKU
  6
CONTINUOUS
 62
     7
100
AcDbLine
 10
160.6163728456568
 20
-132.0361668241051
 30
0.0
 11
160.7999359294301
 21
-132.0361668241051
 31
0.0
  0
LINE
  5
148
330
68
100
AcDbEntity
  8
ZUWAKU
  6
CONTINUOUS
 62
     7
100
AcDbLine
 10
160.6163728456568
 20
-133.0524216486367
 30
0.0
 11
161.0835787514163
 21
-133.0524216486367
 31
0.0
  0
LINE
  5
149
330
68
100
AcDbEntity
  8
ZUWAKU
  6
CONTINUOUS
 62
     7
100
AcDbLine
 10
160.6163728456568
 20
-128.8694543431024
 30
0.0
 11
160.6163728456568
 21
-130.0694543431024
 31
0.0
  0
LINE
  5
14A
330
68
100
AcDbEntity
  8
ZUWAKU
  6
CONTINUOUS
 62
     7
100
AcDbLine
 10
164.2163728456568
 20
-127.6694543431024
 30
0.0
 11
164.2163728456568
 21
-128.8694543431024
 31
0.0
  0
LINE
  5
14B
330
68
100
AcDbEntity
  8
ZUWAKU
  6
CONTINUOUS
 62
     7
100
AcDbLine
 10
166.4163728456568
 20
-135.4305456568976
 30
0.0
 11
172.4163728456568
 21
-135.4305456568976
 31
0.0
  0
LINE
  5
14C
330
68
100
AcDbEntity
  8
ZUWAKU
  6
CONTINUOUS
 62
     7
100
AcDbLine
 10
162.6163728456568
 20
-132.8116802321412
 30
0.0
 11
162.6163728456568
 21
-135.4305456568976
 31
0.0
  0
LINE
  5
14D
330
68
100
AcDbEntity
  8
ZUWAKU
  6
CONTINUOUS
 62
     7
100
AcDbLine
 10
160.6163728456568
 20
-130.0694543431024
 30
0.0
 11
163.6163728456568
 21
-130.0694543431024
 31
0.0
  0
LINE
  5
14E
330
68
100
AcDbEntity
  8
ZUWAKU
  6
CONTINUOUS
 62
     7
100
AcDbLine
 10
164.2163728456568
 20
-128.8694543431024
 30
0.0
 11
166.0163728456568
 21
-128.8694543431024
 31
0.0
  0
LINE
  5
14F
330
68
100
AcDbEntity
  8
ZUWAKU
  6
CONTINUOUS
 62
     7
100
AcDbLine
 10
160.6163728456568
 20
-128.8694543431024
 30
0.0
 11
162.6163728456568
 21
-128.8694543431024
 31
0.0
  0
LINE
  5
150
330
68
100
AcDbEntity
  8
ZUWAKU
  6
CONTINUOUS
 62
     7
100
AcDbLine
 10
170.3163728456568
 20
-130.0694543431024
 30
0.0
 11
171.9163728456568
 21
-130.0694543431024
 31
0.0
  0
LINE
  5
151
330
68
100
AcDbEntity
  8
ZUWAKU
  6
CONTINUOUS
 62
     7
100
AcDbLine
 10
170.3163728456568
 20
-128.8694543431024
 30
0.0
 11
171.9163728456568
 21
-128.8694543431024
 31
0.0
  0
LINE
  5
152
330
68
100
AcDbEntity
  8
ZUWAKU
  6
CONTINUOUS
 62
     7
100
AcDbLine
 10
170.3163728456568
 20
-130.0694543431024
 30
0.0
 11
170.3163728456568
 21
-133.4694543431024
 31
0.0
  0
LINE
  5
153
330
68
100
AcDbEntity
  8
ZUWAKU
  6
CONTINUOUS
 62
     7
100
AcDbLine
 10
170.3163728456568
 20
-133.4694543431024
 30
0.0
 11
172.4163728456568
 21
-133.4694543431024
 31
0.0
  0
LINE
  5
154
330
68
100
AcDbEntity
  8
ZUWAKU
  6
CONTINUOUS
 62
     7
100
AcDbLine
 10
162.6163728456568
 20
-127.6694543431024
 30
0.0
 11
164.2163728456568
 21
-127.6694543431024
 31
0.0
  0
LINE
  5
155
330
68
100
AcDbEntity
  8
ZUWAKU
  6
CONTINUOUS
 62
     7
100
AcDbLine
 10
166.4163728456568
 20
-133.4694543431024
 30
0.0
 11
168.4163728456568
 21
-133.4694543431024
 31
0.0
  0
LINE
  5
156
330
68
100
AcDbEntity
  8
ZUWAKU
  6
CONTINUOUS
 62
     7
100
AcDbLine
 10
168.4163728456568
 20
-130.0694543431024
 30
0.0
 11
168.4163728456568
 21
-133.4694543431024
 31
0.0
  0
LINE
  5
157
330
68
100
AcDbEntity
  8
ZUWAKU
  6
CONTINUOUS
 62
     7
100
AcDbLine
 10
166.6163728456568
 20
-130.0694543431024
 30
0.0
 11
168.4163728456568
 21
-130.0694543431024
 31
0.0
  0
LINE
  5
158
330
68
100
AcDbEntity
  8
ZUWAKU
  6
CONTINUOUS
 62
     7
100
AcDbLine
 10
168.4163728456568
 20
-127.6694543431024
 30
0.0
 11
170.3163728456568
 21
-127.6694543431024
 31
0.0
  0
LINE
  5
159
330
68
100
AcDbEntity
  8
ZUWAKU
  6
CONTINUOUS
 62
     7
100
AcDbLine
 10
166.6163728456568
 20
-128.8694543431024
 30
0.0
 11
168.4163728456568
 21
-128.8694543431024
 31
0.0
  0
LINE
  5
15A
330
68
100
AcDbEntity
  8
ZUWAKU
  6
CONTINUOUS
 62
     7
100
AcDbLine
 10
162.6163728456568
 20
-135.4305456568976
 30
0.0
 11
164.2163728456568
 21
-135.4305456568976
 31
0.0
  0
LINE
  5
15B
330
68
100
AcDbEntity
  8
ZUWAKU
  6
CONTINUOUS
 62
     7
100
AcDbLine
 10
172.4163728456568
 20
-133.4694543431024
 30
0.0
 11
172.4163728456568
 21
-135.4305456568976
 31
0.0
  0
LINE
  5
15C
330
68
100
AcDbEntity
  8
ZUWAKU
  6
CONTINUOUS
 62
     7
100
AcDbLine
 10
155.0163728456568
 20
-133.8305456568976
 30
0.0
 11
154.8163728456569
 21
-133.6305456568977
 31
0.0
  0
LINE
  5
15D
330
68
100
AcDbEntity
  8
ZUWAKU
  6
CONTINUOUS
 62
     7
100
AcDbLine
 10
170.3163728456568
 20
-127.6694543431024
 30
0.0
 11
170.3163728456568
 21
-128.8694543431024
 31
0.0
  0
LINE
  5
15E
330
68
100
AcDbEntity
  8
ZUWAKU
  6
CONTINUOUS
 62
     7
100
AcDbLine
 10
171.9163728456568
 20
-128.8694543431024
 30
0.0
 11
171.9163728456568
 21
-130.0694543431024
 31
0.0
  0
LINE
  5
15F
330
68
100
AcDbEntity
  8
ZUWAKU
  6
CONTINUOUS
 62
     7
100
AcDbLine
 10
166.4163728456568
 20
-133.4694543431024
 30
0.0
 11
166.4163728456568
 21
-135.4305456568976
 31
0.0
  0
LINE
  5
160
330
68
100
AcDbEntity
  8
ZUWAKU
  6
CONTINUOUS
 62
     7
100
AcDbLine
 10
159.2163728456568
 20
-134.6305456568976
 30
0.0
 11
159.2163728456568
 21
-135.4305456568976
 31
0.0
  0
LINE
  5
161
330
68
100
AcDbEntity
  8
ZUWAKU
  6
CONTINUOUS
 62
     7
100
AcDbLine
 10
168.4163728456568
 20
-127.6694543431024
 30
0.0
 11
168.4163728456568
 21
-128.8694543431024
 31
0.0
  0
LINE
  5
162
330
68
100
AcDbEntity
  8
ZUWAKU
  6
CONTINUOUS
 62
     7
100
AcDbLine
 10
151.6163728456567
 20
-133.6305456568975
 30
0.0
 11
151.2163728456567
 21
-134.4305456568976
 31
0.0
  0
LINE
  5
163
330
68
100
AcDbEntity
  8
ZUWAKU
  6
CONTINUOUS
 62
     7
100
AcDbLine
 10
151.6163728456568
 20
-133.6305456568976
 30
0.0
 11
154.8163728456568
 21
-133.6305456568976
 31
0.0
  0
LINE
  5
164
330
68
100
AcDbEntity
  8
ZUWAKU
  6
CONTINUOUS
 62
     7
100
AcDbLine
 10
157.4163728456568
 20
-133.6305456568976
 30
0.0
 11
159.2163728456568
 21
-133.6305456568976
 31
0.0
  0
LINE
  5
165
330
68
100
AcDbEntity
  8
ZUWAKU
  6
CONTINUOUS
 62
     7
100
AcDbLine
 10
149.2163728456567
 20
-133.6305456568975
 30
0.0
 11
148.2163728456567
 21
-135.4305456568975
 31
0.0
  0
LINE
  5
166
330
68
100
AcDbEntity
  8
ZUWAKU
  6
CONTINUOUS
 62
     7
100
AcDbLine
 10
166.6163728456568
 20
-128.8694543431024
 30
0.0
 11
166.6163728456568
 21
-130.0694543431024
 31
0.0
  0
LINE
  5
167
330
68
100
AcDbEntity
  8
ZUWAKU
  6
CONTINUOUS
 62
     7
100
AcDbLine
 10
159.2163728456568
 20
-129.4305456568976
 30
0.0
 11
159.2163728456568
 21
-130.6331447746538
 31
0.0
  0
LINE
  5
168
330
68
100
AcDbEntity
  8
ZUWAKU
  6
CONTINUOUS
 62
     7
100
AcDbLine
 10
147.2163728456568
 20
-129.4305456568976
 30
0.0
 11
147.2163728456568
 21
-130.6331447746538
 31
0.0
  0
LINE
  5
169
330
68
100
AcDbEntity
  8
ZUWAKU
  6
CONTINUOUS
 62
     7
100
AcDbLine
 10
166.0163728456568
 20
-132.0305456568976
 30
0.0
 11
166.0163728456568
 21
-133.0305456568976
 31
0.0
  0
LINE
  5
16A
330
68
100
AcDbEntity
  8
ZUWAKU
  6
CONTINUOUS
 62
     7
100
AcDbLine
 10
162.6163728456568
 20
-127.6694543431024
 30
0.0
 11
162.6163728456568
 21
-128.8694543431024
 31
0.0
  0
LINE
  5
16B
330
68
100
AcDbEntity
  8
ZUWAKU
  6
CONTINUOUS
 62
     7
100
AcDbLine
 10
147.2163728456568
 20
-130.6331447746538
 30
0.0
 11
147.4443544232267
 21
-130.6331447746538
 31
0.0
  0
LINE
  5
16C
330
68
100
AcDbEntity
  8
ZUWAKU
  6
CONTINUOUS
 62
     7
100
AcDbLine
 10
164.2163728456568
 20
-132.5305456568976
 30
0.0
 11
164.2163728456568
 21
-135.4305456568976
 31
0.0
  0
LINE
  5
16D
330
68
100
AcDbEntity
  8
ZUWAKU
  6
CONTINUOUS
 62
     7
100
AcDbLine
 10
151.2163728456568
 20
-134.4305456568976
 30
0.0
 11
152.9092420950863
 21
-134.4305456568976
 31
0.0
  0
LINE
  5
16E
330
68
100
AcDbEntity
  8
ZUWAKU
  6
CONTINUOUS
 62
     7
100
AcDbLine
 10
147.2163728456568
 20
-133.6305456568976
 30
0.0
 11
149.2163728456568
 21
-133.6305456568976
 31
0.0
  0
LINE
  5
16F
330
68
100
AcDbEntity
  8
ZUWAKU
  6
CONTINUOUS
 62
     7
100
AcDbLine
 10
147.2163728456568
 20
-132.6305456568976
 30
0.0
 11
159.2163728456568
 21
-132.6305456568976
 31
0.0
  0
LINE
  5
170
330
68
100
AcDbEntity
  8
ZUWAKU
  6
CONTINUOUS
 62
     7
100
AcDbLine
 10
148.6163728456568
 20
-132.0305456568976
 30
0.0
 11
157.2163728456568
 21
-132.0305456568976
 31
0.0
  0
LINE
  5
171
330
68
100
AcDbEntity
  8
ZUWAKU
  6
CONTINUOUS
 62
     7
100
AcDbLine
 10
157.9495181016829
 20
-130.6331447746538
 30
0.0
 11
159.2163728456568
 21
-130.6331447746538
 31
0.0
  0
LINE
  5
172
330
68
100
AcDbEntity
  8
ZUWAKU
  6
CONTINUOUS
 62
     7
100
AcDbLine
 10
148.6163728456568
 20
-131.0305456568976
 30
0.0
 11
157.2163728456568
 21
-131.0305456568976
 31
0.0
  0
LINE
  5
173
330
68
100
AcDbEntity
  8
ZUWAKU
  6
CONTINUOUS
 62
     7
100
AcDbLine
 10
157.2163728456568
 20
-131.0305456568976
 30
0.0
 11
157.2163728456568
 21
-132.0305456568976
 31
0.0
  0
LINE
  5
174
330
68
100
AcDbEntity
  8
ZUWAKU
  6
CONTINUOUS
 62
     7
100
AcDbLine
 10
148.6163728456568
 20
-131.0305456568976
 30
0.0
 11
148.6163728456568
 21
-132.0305456568976
 31
0.0
  0
LINE
  5
175
330
68
100
AcDbEntity
  8
ZUWAKU
  6
CONTINUOUS
 62
     7
100
AcDbLine
 10
159.2163728456568
 20
-132.6305456568976
 30
0.0
 11
159.2163728456568
 21
-133.6305456568976
 31
0.0
  0
LINE
  5
176
330
68
100
AcDbEntity
  8
ZUWAKU
  6
CONTINUOUS
 62
     7
100
AcDbLine
 10
147.2163728456568
 20
-132.6305456568976
 30
0.0
 11
147.2163728456568
 21
-133.6305456568976
 31
0.0
  0
LINE
  5
177
330
68
100
AcDbEntity
  8
ZUWAKU
  6
CONTINUOUS
 62
     7
100
AcDbLine
 10
158.7786428876944
 20
-129.4465342528391
 30
0.0
 11
159.2163728456568
 21
-129.4465342528391
 31
0.0
  0
LINE
  5
178
330
68
100
AcDbEntity
  8
ZUWAKU
  6
CONTINUOUS
 62
     7
100
AcDbLine
 10
150.9163728456568
 20
-127.6694543431024
 30
0.0
 11
154.5163728456568
 21
-127.6694543431024
 31
0.0
  0
LINE
  5
179
330
68
100
AcDbEntity
  8
ZUWAKU
  6
CONTINUOUS
 62
     7
100
AcDbLine
 10
121.3463728456568
 20
-135.4305456568976
 30
0.0
 11
122.9463728456568
 21
-135.4305456568976
 31
0.0
  0
LINE
  5
17A
330
68
100
AcDbEntity
  8
ZUWAKU
  6
CONTINUOUS
 62
     7
100
AcDbLine
 10
127.1463728456568
 20
-135.4305456568976
 30
0.0
 11
128.9463728456568
 21
-135.4305456568976
 31
0.0
  0
LINE
  5
17B
330
68
100
AcDbEntity
  8
ZUWAKU
  6
CONTINUOUS
 62
     7
100
AcDbLine
 10
144.1963728456568
 20
-132.7305456568976
 30
0.0
 11
145.6963728456568
 21
-132.7305456568976
 31
0.0
  0
LINE
  5
17C
330
68
100
AcDbEntity
  8
ZUWAKU
  6
CONTINUOUS
 62
     7
100
AcDbLine
 10
142.7963728456568
 20
-129.8694543431024
 30
0.0
 11
145.7163728456568
 21
-129.8694543431024
 31
0.0
  0
LINE
  5
17D
330
68
100
AcDbEntity
  8
ZUWAKU
  6
CONTINUOUS
 62
     7
100
AcDbLine
 10
144.1963728456568
 20
-127.6694543431024
 30
0.0
 11
145.7163728456568
 21
-127.6694543431024
 31
0.0
  0
LINE
  5
17E
330
68
100
AcDbEntity
  8
ZUWAKU
  6
CONTINUOUS
 62
     7
100
AcDbLine
 10
137.9463728456568
 20
-131.9694543431024
 30
0.0
 11
139.7463728456568
 21
-131.9694543431024
 31
0.0
  0
LINE
  5
17F
330
68
100
AcDbEntity
  8
ZUWAKU
  6
CONTINUOUS
 62
     7
100
AcDbLine
 10
133.1463728456568
 20
-131.9694543431024
 30
0.0
 11
135.8463728456568
 21
-131.9694543431024
 31
0.0
  0
LINE
  5
180
330
68
100
AcDbEntity
  8
ZUWAKU
  6
CONTINUOUS
 62
     7
100
AcDbLine
 10
133.1463728456568
 20
-129.8694543431024
 30
0.0
 11
133.1463728456568
 21
-128.8694543431024
 31
0.0
  0
LINE
  5
181
330
68
100
AcDbEntity
  8
ZUWAKU
  6
CONTINUOUS
 62
     7
100
AcDbLine
 10
140.6463728456568
 20
-135.4305456568976
 30
0.0
 11
142.7963728456568
 21
-135.4305456568976
 31
0.0
  0
LINE
  5
182
330
68
100
AcDbEntity
  8
ZUWAKU
  6
CONTINUOUS
 62
     7
100
AcDbLine
 10
137.9463728456568
 20
-133.3694543431024
 30
0.0
 11
139.7463728456568
 21
-133.3694543431024
 31
0.0
  0
LINE
  5
183
330
68
100
AcDbEntity
  8
ZUWAKU
  6
CONTINUOUS
 62
     7
100
AcDbLine
 10
133.1463728456568
 20
-133.3694543431024
 30
0.0
 11
133.1463728456568
 21
-135.4305456568976
 31
0.0
  0
LINE
  5
184
330
68
100
AcDbEntity
  8
ZUWAKU
  6
CONTINUOUS
 62
     7
100
AcDbLine
 10
140.6463728456568
 20
-129.8694543431024
 30
0.0
 11
140.6463728456568
 21
-135.4305456568976
 31
0.0
  0
LINE
  5
185
330
68
100
AcDbEntity
  8
ZUWAKU
  6
CONTINUOUS
 62
     7
100
AcDbLine
 10
133.1463728456568
 20
-133.3694543431024
 30
0.0
 11
135.8463728456568
 21
-133.3694543431024
 31
0.0
  0
LINE
  5
186
330
68
100
AcDbEntity
  8
ZUWAKU
  6
CONTINUOUS
 62
     7
100
AcDbLine
 10
139.7463728456568
 20
-133.3694543431024
 30
0.0
 11
139.7463728456568
 21
-134.6305456568976
 31
0.0
  0
LINE
  5
187
330
68
100
AcDbEntity
  8
ZUWAKU
  6
CONTINUOUS
 62
     7
100
AcDbLine
 10
142.7963728456568
 20
-129.8694543431024
 30
0.0
 11
142.7963728456568
 21
-134.4305456568976
 31
0.0
  0
LINE
  5
188
330
68
100
AcDbEntity
  8
ZUWAKU
  6
CONTINUOUS
 62
     7
100
AcDbLine
 10
137.9463728456568
 20
-131.9694543431024
 30
0.0
 11
137.9463728456568
 21
-133.3694543431024
 31
0.0
  0
LINE
  5
189
330
68
100
AcDbEntity
  8
ZUWAKU
  6
CONTINUOUS
 62
     7
100
AcDbLine
 10
135.8463728456568
 20
-131.9694543431024
 30
0.0
 11
135.8463728456568
 21
-133.3694543431024
 31
0.0
  0
LINE
  5
18A
330
68
100
AcDbEntity
  8
ZUWAKU
  6
CONTINUOUS
 62
     7
100
AcDbLine
 10
142.7963728456568
 20
-128.8694543431024
 30
0.0
 11
144.1963728456568
 21
-128.8694543431024
 31
0.0
  0
LINE
  5
18B
330
68
100
AcDbEntity
  8
ZUWAKU
  6
CONTINUOUS
 62
     7
100
AcDbLine
 10
131.7463728456568
 20
-130.6694543431024
 30
0.0
 11
131.7463728456568
 21
-131.7694543431024
 31
0.0
  0
LINE
  5
18C
330
68
100
AcDbEntity
  8
ZUWAKU
  6
CONTINUOUS
 62
     7
100
AcDbLine
 10
133.1463728456568
 20
-131.0694543431024
 30
0.0
 11
133.1463728456568
 21
-131.9694543431024
 31
0.0
  0
LINE
  5
18D
330
68
100
AcDbEntity
  8
ZUWAKU
  6
CONTINUOUS
 62
     7
100
AcDbLine
 10
148.2163728456568
 20
-135.4305456568976
 30
0.0
 11
151.6971892572037
 21
-135.4305456568976
 31
0.0
  0
LINE
  5
18E
330
68
100
AcDbEntity
  8
ZUWAKU
  6
CONTINUOUS
 62
     7
100
AcDbLine
 10
133.1463728456568
 20
-131.0694543431024
 30
0.0
 11
139.7463728456568
 21
-131.0694543431024
 31
0.0
  0
LINE
  5
18F
330
68
100
AcDbEntity
  8
ZUWAKU
  6
CONTINUOUS
 62
     7
100
AcDbLine
 10
121.3463728456568
 20
-133.0569023297954
 30
0.0
 11
121.3463728456568
 21
-135.4305456568976
 31
0.0
  0
LINE
  5
190
330
68
100
AcDbEntity
  8
ZUWAKU
  6
CONTINUOUS
 62
     7
100
AcDbLine
 10
131.7463728456568
 20
-134.4305456568976
 30
0.0
 11
131.7463728456568
 21
-135.4305456568976
 31
0.0
  0
LINE
  5
191
330
68
100
AcDbEntity
  8
ZUWAKU
  6
CONTINUOUS
 62
     7
100
AcDbLine
 10
124.3463728456568
 20
-134.2305456568976
 30
0.0
 11
124.3463728456568
 21
-135.4305456568976
 31
0.0
  0
LINE
  5
192
330
68
100
AcDbEntity
  8
ZUWAKU
  6
CONTINUOUS
 62
     7
100
AcDbLine
 10
119.3463728456568
 20
-133.3038225185832
 30
0.0
 11
119.3463728456568
 21
-134.4569023297954
 31
0.0
  0
LINE
  5
193
330
68
100
AcDbEntity
  8
ZUWAKU
  6
CONTINUOUS
 62
     7
100
AcDbLine
 10
122.9463728456568
 20
-129.8694543431024
 30
0.0
 11
124.1463728456568
 21
-129.8694543431024
 31
0.0
  0
LINE
  5
194
330
68
100
AcDbEntity
  8
ZUWAKU
  6
CONTINUOUS
 62
     7
100
AcDbLine
 10
128.9463728456568
 20
-129.8694543431024
 30
0.0
 11
131.5463728456568
 21
-129.8694543431024
 31
0.0
  0
LINE
  5
195
330
68
100
AcDbEntity
  8
ZUWAKU
  6
CONTINUOUS
 62
     7
100
AcDbLine
 10
130.4463728456568
 20
-131.7694543431024
 30
0.0
 11
131.7463728456568
 21
-131.7694543431024
 31
0.0
  0
LINE
  5
196
330
68
100
AcDbEntity
  8
ZUWAKU
  6
CONTINUOUS
 62
     7
100
AcDbLine
 10
128.9463728456568
 20
-130.6694543431024
 30
0.0
 11
131.7463728456568
 21
-130.6694543431024
 31
0.0
  0
LINE
  5
197
330
68
100
AcDbEntity
  8
ZUWAKU
  6
CONTINUOUS
 62
     7
100
AcDbLine
 10
128.9463728456568
 20
-133.6305456568976
 30
0.0
 11
128.9463728456568
 21
-135.4305456568976
 31
0.0
  0
LINE
  5
198
330
68
100
AcDbEntity
  8
ZUWAKU
  6
CONTINUOUS
 62
     7
100
AcDbLine
 10
127.1463728456568
 20
-133.4305456568976
 30
0.0
 11
127.1463728456568
 21
-135.4305456568976
 31
0.0
  0
LINE
  5
199
330
68
100
AcDbEntity
  8
ZUWAKU
  6
CONTINUOUS
 62
     7
100
AcDbLine
 10
124.6463728456568
 20
-130.6694543431024
 30
0.0
 11
124.6463728456568
 21
-131.7694543431024
 31
0.0
  0
LINE
  5
19A
330
68
100
AcDbEntity
  8
ZUWAKU
  6
CONTINUOUS
 62
     7
100
AcDbLine
 10
122.9463728456568
 20
-131.3694543431024
 30
0.0
 11
122.9463728456568
 21
-135.4305456568976
 31
0.0
  0
LINE
  5
19B
330
68
100
AcDbEntity
  8
ZUWAKU
  6
CONTINUOUS
 62
     7
100
AcDbLine
 10
120.9463728456568
 20
-133.0569023297954
 30
0.0
 11
121.3463728456568
 21
-133.0569023297954
 31
0.0
  0
LINE
  5
19C
330
68
100
AcDbEntity
  8
ZUWAKU
  6
CONTINUOUS
 62
     7
100
AcDbLine
 10
124.1463728456568
 20
-130.6694543431024
 30
0.0
 11
124.1463728456568
 21
-131.7694543431024
 31
0.0
  0
LINE
  5
19D
330
68
100
AcDbEntity
  8
ZUWAKU
  6
CONTINUOUS
 62
     7
100
AcDbLine
 10
124.6463728456568
 20
-129.8694543431024
 30
0.0
 11
127.1463728456568
 21
-129.8694543431024
 31
0.0
  0
LINE
  5
19E
330
68
100
AcDbEntity
  8
ZUWAKU
  6
CONTINUOUS
 62
     7
100
AcDbLine
 10
128.9463728456568
 20
-128.8694543431024
 30
0.0
 11
131.5463728456568
 21
-128.8694543431024
 31
0.0
  0
LINE
  5
19F
330
68
100
AcDbEntity
  8
ZUWAKU
  6
CONTINUOUS
 62
     7
100
AcDbLine
 10
126.2063728456568
 20
-128.8694543431024
 30
0.0
 11
127.1463728456568
 21
-128.8694543431024
 31
0.0
  0
LINE
  5
1A0
330
68
100
AcDbEntity
  8
ZUWAKU
  6
CONTINUOUS
 62
     7
100
AcDbLine
 10
127.1463728456568
 20
-127.6694543431024
 30
0.0
 11
128.9463728456568
 21
-127.6694543431024
 31
0.0
  0
LINE
  5
1A1
330
68
100
AcDbEntity
  8
ZUWAKU
  6
CONTINUOUS
 62
     7
100
AcDbLine
 10
122.9463728456568
 20
-128.8694543431024
 30
0.0
 11
124.1463728456568
 21
-128.8694543431024
 31
0.0
  0
LINE
  5
1A2
330
68
100
AcDbEntity
  8
ZUWAKU
  6
CONTINUOUS
 62
     7
100
AcDbLine
 10
122.9463728456568
 20
-131.3694543431025
 30
0.0
 11
124.1463728456568
 21
-131.7694543431024
 31
0.0
  0
LINE
  5
1A3
330
68
100
AcDbEntity
  8
ZUWAKU
  6
CONTINUOUS
 62
     7
100
AcDbLine
 10
122.9463728456569
 20
-129.8694543431023
 30
0.0
 11
124.1463728456568
 21
-130.6694543431023
 31
0.0
  0
LINE
  5
1A4
330
68
100
AcDbEntity
  8
ZUWAKU
  6
CONTINUOUS
 62
     7
100
AcDbLine
 10
128.9463728456568
 20
-129.8694543431024
 30
0.0
 11
128.9463728456568
 21
-130.6694543431024
 31
0.0
  0
LINE
  5
1A5
330
68
100
AcDbEntity
  8
ZUWAKU
  6
CONTINUOUS
 62
     7
100
AcDbLine
 10
124.6463728456568
 20
-127.6694543431024
 30
0.0
 11
124.6463728456568
 21
-129.8694543431024
 31
0.0
  0
LINE
  5
1A6
330
68
100
AcDbEntity
  8
ZUWAKU
  6
CONTINUOUS
 62
     7
100
AcDbLine
 10
133.1463728456568
 20
-135.4305456568976
 30
0.0
 11
135.0000668278699
 21
-135.4305456568976
 31
0.0
  0
LINE
  5
1A7
330
68
100
AcDbEntity
  8
ZUWAKU
  6
CONTINUOUS
 62
     7
100
AcDbLine
 10
140.6463728456568
 20
-127.6694543431024
 30
0.0
 11
142.7963728456568
 21
-127.6694543431024
 31
0.0
  0
LINE
  5
1A8
330
68
100
AcDbEntity
  8
ZUWAKU
  6
CONTINUOUS
 62
     7
100
AcDbLine
 10
140.6463728456568
 20
-127.6694543431024
 30
0.0
 11
140.6463728456568
 21
-128.8694543431024
 31
0.0
  0
LINE
  5
1A9
330
68
100
AcDbEntity
  8
ZUWAKU
  6
CONTINUOUS
 62
     7
100
AcDbLine
 10
124.6463728456568
 20
-131.7694543431024
 30
0.0
 11
125.9463728456568
 21
-131.7694543431024
 31
0.0
  0
LINE
  5
1AA
330
68
100
AcDbEntity
  8
ZUWAKU
  6
CONTINUOUS
 62
     7
100
AcDbLine
 10
124.6463728456568
 20
-130.6694543431024
 30
0.0
 11
127.1463728456568
 21
-130.6694543431024
 31
0.0
  0
LINE
  5
1AB
330
68
100
AcDbEntity
  8
ZUWAKU
  6
CONTINUOUS
 62
     7
100
AcDbLine
 10
127.1463728456568
 20
-129.8694543431024
 30
0.0
 11
127.1463728456568
 21
-130.6694543431024
 31
0.0
  0
LINE
  5
1AC
330
68
100
AcDbEntity
  8
ZUWAKU
  6
CONTINUOUS
 62
     7
100
AcDbLine
 10
145.7163728456568
 20
-127.6694543431024
 30
0.0
 11
145.7163728456568
 21
-129.8694543431024
 31
0.0
  0
LINE
  5
1AD
330
68
100
AcDbEntity
  8
ZUWAKU
  6
CONTINUOUS
 62
     7
100
AcDbLine
 10
144.1963728456568
 20
-127.6694543431024
 30
0.0
 11
144.1963728456568
 21
-128.8694543431024
 31
0.0
  0
LINE
  5
1AE
330
68
100
AcDbEntity
  8
ZUWAKU
  6
CONTINUOUS
 62
     7
100
AcDbLine
 10
142.7963728456568
 20
-127.6694543431024
 30
0.0
 11
142.7963728456568
 21
-128.8694543431024
 31
0.0
  0
LINE
  5
1AF
330
68
100
AcDbEntity
  8
ZUWAKU
  6
CONTINUOUS
 62
     7
100
AcDbLine
 10
133.1463728456568
 20
-128.8694543431024
 30
0.0
 11
140.6463728456568
 21
-128.8694543431024
 31
0.0
  0
LINE
  5
1B0
330
68
100
AcDbEntity
  8
ZUWAKU
  6
CONTINUOUS
 62
     7
100
AcDbLine
 10
133.1463728456568
 20
-129.8694543431024
 30
0.0
 11
140.6463728456568
 21
-129.8694543431024
 31
0.0
  0
LINE
  5
1B1
330
68
100
AcDbEntity
  8
ZUWAKU
  6
CONTINUOUS
 62
     7
100
AcDbLine
 10
133.1463728456568
 20
-131.9694543431024
 30
0.0
 11
135.8463728456568
 21
-131.9694543431024
 31
0.0
  0
LINE
  5
1B2
330
68
100
AcDbEntity
  8
ZUWAKU
  6
CONTINUOUS
 62
     7
100
AcDbLine
 10
131.5463728456568
 20
-128.8694543431024
 30
0.0
 11
131.5463728456568
 21
-129.8694543431024
 31
0.0
  0
LINE
  5
1B3
330
68
100
AcDbEntity
  8
ZUWAKU
  6
CONTINUOUS
 62
     7
100
AcDbLine
 10
160.6163728456568
 20
-132.0305456568976
 30
0.0
 11
160.6163728456568
 21
-133.0524216486367
 31
0.0
  0
LINE
  5
1B4
330
68
100
AcDbEntity
  8
ZUWAKU
  6
CONTINUOUS
 62
     7
100
AcDbLine
 10
121.5463728456568
 20
-127.6694543431024
 30
0.0
 11
122.9463728456568
 21
-127.6694543431024
 31
0.0
  0
LINE
  5
1B5
330
68
100
AcDbEntity
  8
ZUWAKU
  6
CONTINUOUS
 62
     7
100
AcDbLine
 10
126.2063728456568
 20
-127.6694543431024
 30
0.0
 11
126.2063728456568
 21
-128.8694543431024
 31
0.0
  0
LINE
  5
1B6
330
68
100
AcDbEntity
  8
ZUWAKU
  6
CONTINUOUS
 62
     7
100
AcDbLine
 10
124.6463728456568
 20
-127.6694543431024
 30
0.0
 11
126.2063728456568
 21
-127.6694543431024
 31
0.0
  0
LINE
  5
1B7
330
68
100
AcDbEntity
  8
ZUWAKU
  6
CONTINUOUS
 62
     7
100
AcDbLine
 10
127.1463728456568
 20
-127.6694543431024
 30
0.0
 11
127.1463728456568
 21
-128.8694543431024
 31
0.0
  0
LINE
  5
1B8
330
68
100
AcDbEntity
  8
ZUWAKU
  6
CONTINUOUS
 62
     7
100
AcDbLine
 10
128.9463728456568
 20
-127.6694543431024
 30
0.0
 11
128.9463728456568
 21
-128.8694543431024
 31
0.0
  0
LINE
  5
1B9
330
68
100
AcDbEntity
  8
ZUWAKU
  6
CONTINUOUS
 62
     7
100
AcDbLine
 10
124.1463728456568
 20
-128.8694543431024
 30
0.0
 11
124.1463728456568
 21
-129.8694543431024
 31
0.0
  0
LINE
  5
1BA
330
68
100
AcDbEntity
  8
ZUWAKU
  6
CONTINUOUS
 62
     7
100
AcDbLine
 10
119.4463728456568
 20
-129.8694543431024
 30
0.0
 11
120.7463728456568
 21
-129.8694543431024
 31
0.0
  0
LINE
  5
1BB
330
68
100
AcDbEntity
  8
ZUWAKU
  6
CONTINUOUS
 62
     7
100
AcDbLine
 10
92.44637284565681
 20
-131.0694543431024
 30
0.0
 11
95.80134639299502
 21
-131.0694543431024
 31
0.0
  0
LINE
  5
1BC
330
68
100
AcDbEntity
  8
ZUWAKU
  6
CONTINUOUS
 62
     7
100
AcDbLine
 10
98.44637284565681
 20
-127.6694543431024
 30
0.0
 11
104.5463728456568
 21
-127.6694543431024
 31
0.0
  0
LINE
  5
1BD
330
68
100
AcDbEntity
  8
ZUWAKU
  6
CONTINUOUS
 62
     7
100
AcDbLine
 10
92.44637284565681
 20
-131.0694543431023
 30
0.0
 11
92.44637284565681
 21
-132.8694543431024
 31
0.0
  0
LINE
  5
1BE
330
68
100
AcDbEntity
  8
ZUWAKU
  6
CONTINUOUS
 62
     7
100
AcDbLine
 10
119.4463728456568
 20
-128.8694543431024
 30
0.0
 11
121.5463728456568
 21
-128.8694543431024
 31
0.0
  0
LINE
  5
1BF
330
68
100
AcDbEntity
  8
ZUWAKU
  6
CONTINUOUS
 62
     7
100
AcDbLine
 10
92.44637284565681
 20
-132.8694543431024
 30
0.0
 11
94.75184431632226
 21
-132.8694543431024
 31
0.0
  0
LINE
  5
1C0
330
68
100
AcDbEntity
  8
ZUWAKU
  6
CONTINUOUS
 62
     7
100
AcDbLine
 10
100.4463728456568
 20
-131.0694543431024
 30
0.0
 11
100.4463728456568
 21
-132.8694543431024
 31
0.0
  0
LINE
  5
1C1
330
68
100
AcDbEntity
  8
ZUWAKU
  6
CONTINUOUS
 62
     7
100
AcDbLine
 10
98.50714767707265
 20
-129.2694543431024
 30
0.0
 11
102.1463728456568
 21
-129.2694543431024
 31
0.0
  0
LINE
  5
1C2
330
68
100
AcDbEntity
  8
ZUWAKU
  6
CONTINUOUS
 62
     7
100
AcDbLine
 10
139.7463728456568
 20
-131.0694543431024
 30
0.0
 11
139.7463728456568
 21
-131.9694543431024
 31
0.0
  0
LINE
  5
1C3
330
68
100
AcDbEntity
  8
ZUWAKU
  6
CONTINUOUS
 62
     7
100
AcDbLine
 10
122.9463728456568
 20
-127.6694543431024
 30
0.0
 11
122.9463728456568
 21
-128.8694543431024
 31
0.0
  0
LINE
  5
1C4
330
68
100
AcDbEntity
  8
ZUWAKU
  6
CONTINUOUS
 62
     7
100
AcDbLine
 10
110.7463728456568
 20
-132.2694543431024
 30
0.0
 11
113.9463728456568
 21
-132.2694543431024
 31
0.0
  0
LINE
  5
1C5
330
68
100
AcDbEntity
  8
ZUWAKU
  6
CONTINUOUS
 62
     7
100
AcDbLine
 10
106.5463728456568
 20
-131.6694543431024
 30
0.0
 11
117.9463728456568
 21
-131.6694543431024
 31
0.0
  0
LINE
  5
1C6
330
68
100
AcDbEntity
  8
ZUWAKU
  6
CONTINUOUS
 62
     7
100
AcDbLine
 10
106.5463728456568
 20
-129.6694543431024
 30
0.0
 11
117.9463728456568
 21
-129.6694543431024
 31
0.0
  0
LINE
  5
1C7
330
68
100
AcDbEntity
  8
ZUWAKU
  6
CONTINUOUS
 62
     7
100
AcDbLine
 10
117.9463728456568
 20
-129.6694543431024
 30
0.0
 11
117.9463728456568
 21
-131.6694543431024
 31
0.0
  0
LINE
  5
1C8
330
68
100
AcDbEntity
  8
ZUWAKU
  6
CONTINUOUS
 62
     7
100
AcDbLine
 10
106.5463728456568
 20
-129.6694543431024
 30
0.0
 11
106.5463728456568
 21
-131.6694543431024
 31
0.0
  0
LINE
  5
1C9
330
68
100
AcDbEntity
  8
ZUWAKU
  6
CONTINUOUS
 62
     7
100
AcDbLine
 10
104.5463728456568
 20
-127.6694543431024
 30
0.0
 11
104.5463728456568
 21
-134.4694543431024
 31
0.0
  0
LINE
  5
1CA
330
68
100
AcDbEntity
  8
ZUWAKU
  6
CONTINUOUS
 62
     7
100
AcDbLine
 10
102.1463728456568
 20
-129.2694543431024
 30
0.0
 11
102.1463728456568
 21
-134.8694543431024
 31
0.0
  0
LINE
  5
1CB
330
68
100
AcDbEntity
  8
ZUWAKU
  6
CONTINUOUS
 62
     7
100
AcDbLine
 10
90.58362715434316
 20
-129.2694543431024
 30
0.0
 11
96.04637284565683
 21
-129.2694543431024
 31
0.0
  0
LINE
  5
1CC
330
68
100
AcDbEntity
  8
ZUWAKU
  6
CONTINUOUS
 62
     7
100
AcDbLine
 10
96.04637284565683
 20
-126.0694543431023
 30
0.0
 11
96.04637284565683
 21
-127.6694543431024
 31
0.0
  0
LINE
  5
1CD
330
68
100
AcDbEntity
  8
ZUWAKU
  6
CONTINUOUS
 62
     7
100
AcDbLine
 10
98.44637284565681
 20
-126.0694543431023
 30
0.0
 11
98.44637284565681
 21
-127.6694543431024
 31
0.0
  0
LINE
  5
1CE
330
68
100
AcDbEntity
  8
ZUWAKU
  6
CONTINUOUS
 62
     7
100
AcDbLine
 10
96.04637284565683
 20
-126.0694543431024
 30
0.0
 11
98.44637284565681
 21
-126.0694543431024
 31
0.0
  0
LINE
  5
1CF
330
68
100
AcDbEntity
  8
ZUWAKU
  6
CONTINUOUS
 62
     7
100
AcDbLine
 10
90.58362715434316
 20
-127.6694543431024
 30
0.0
 11
90.58362715434316
 21
-129.2694543431024
 31
0.0
  0
LINE
  5
1D0
330
68
100
AcDbEntity
  8
ZUWAKU
  6
CONTINUOUS
 62
     7
100
AcDbLine
 10
90.58362715434316
 20
-127.6694543431024
 30
0.0
 11
96.04637284565683
 21
-127.6694543431024
 31
0.0
  0
LINE
  5
1D1
330
68
100
AcDbEntity
  8
ZUWAKU
  6
CONTINUOUS
 62
     7
100
AcDbLine
 10
98.03121405164808
 20
-131.0694543431024
 30
0.0
 11
100.4463728456568
 21
-131.0694543431024
 31
0.0
  0
LINE
  5
1D2
330
68
100
AcDbEntity
  8
ZUWAKU
  6
CONTINUOUS
 62
     7
100
AcDbLine
 10
121.5463728456568
 20
-127.6694543431024
 30
0.0
 11
121.5463728456568
 21
-128.8694543431024
 31
0.0
  0
LINE
  5
1D3
330
68
100
AcDbEntity
  8
ZUWAKU
  6
CONTINUOUS
 62
     7
100
AcDbLine
 10
119.4463728456568
 20
-128.8694543431024
 30
0.0
 11
119.4463728456568
 21
-129.8694543431024
 31
0.0
  0
LINE
  5
1D4
330
68
100
AcDbEntity
  8
ZUWAKU
  6
CONTINUOUS
 62
     7
100
AcDbLine
 10
96.98692822066201
 20
-132.8694543431024
 30
0.0
 11
100.4463728456568
 21
-132.8694543431024
 31
0.0
  0
LINE
  5
1D5
330
68
100
AcDbEntity
  8
ZUWAKU
  6
CONTINUOUS
 62
     7
100
AcDbLine
 10
157.2163728456568
 20
-135.4305456568976
 30
0.0
 11
159.2163728456568
 21
-135.4305456568976
 31
0.0
  0
LINE
  5
1D6
330
68
100
AcDbEntity
  8
ZUWAKU
  6
CONTINUOUS
 62
     7
100
AcDbLine
 10
90.58362715434316
 20
-134.4842821983328
 30
0.0
 11
90.58362715434316
 21
-135.6694543431024
 31
0.0
  0
ARC
  5
1D7
330
68
100
AcDbEntity
  8
ZUWAKU
  6
CONTINUOUS
 62
     7
100
AcDbCircle
 10
164.0753964745717
 20
-136.5280605928041
 30
0.0
 40
4.0
100
AcDbArc
 50
60.9715340609843
 51
87.98024394550768
  0
ARC
  5
1D8
330
68
100
AcDbEntity
  8
ZUWAKU
  6
CONTINUOUS
 62
     7
100
AcDbCircle
 10
161.4309728961217
 20
-128.5032477036166
 30
0.0
 40
4.6
100
AcDbArc
 50
318.8442436704028
 51
355.4338431265014
  0
ARC
  5
1D9
330
68
100
AcDbEntity
  8
ZUWAKU
  6
CONTINUOUS
 62
     7
100
AcDbCircle
 10
164.6806138811
 20
-133.5190845339868
 30
0.0
 40
2.0
100
AcDbArc
 50
48.09638755561873
 51
83.86317369123302
  0
ARC
  5
1DA
330
68
100
AcDbEntity
  8
ZUWAKU
  6
CONTINUOUS
 62
     7
100
AcDbCircle
 10
161.0835787514163
 20
-128.0524216486367
 30
0.0
 40
5.0
100
AcDbArc
 50
270.0
 51
287.8519707863945
  0
ARC
  5
1DB
330
68
100
AcDbEntity
  8
ZUWAKU
  6
CONTINUOUS
 62
     7
100
AcDbCircle
 10
160.7999359294301
 20
-129.0361668241051
 30
0.0
 40
3.0
100
AcDbArc
 50
270.0
 51
339.8530457328942
  0
ARC
  5
1DC
330
68
100
AcDbEntity
  8
ZUWAKU
  6
CONTINUOUS
 62
     7
100
AcDbCircle
 10
152.9092420950863
 20
-130.4305456568976
 30
0.0
 40
4.0
100
AcDbArc
 50
270.0
 51
301.7883306170518
  0
ARC
  5
1DD
330
68
100
AcDbEntity
  8
ZUWAKU
  6
CONTINUOUS
 62
     7
100
AcDbCircle
 10
159.1490770106609
 20
-132.6316781598903
 30
0.0
 40
2.0
100
AcDbArc
 50
209.9625441683634
 51
271.9282476334827
  0
ARC
  5
1DE
330
68
100
AcDbEntity
  8
ZUWAKU
  6
CONTINUOUS
 62
     7
100
AcDbCircle
 10
151.6971892572037
 20
-125.4305456568976
 30
0.0
 40
10.0
100
AcDbArc
 50
270.0
 51
293.073918065631
  0
ARC
  5
1DF
330
68
100
AcDbEntity
  8
ZUWAKU
  6
CONTINUOUS
 62
     7
100
AcDbCircle
 10
157.2163728456568
 20
-133.4305456568976
 30
0.0
 40
2.0
100
AcDbArc
 50
216.8698976458439
 51
270.0
  0
ARC
  5
1E0
330
68
100
AcDbEntity
  8
ZUWAKU
  6
CONTINUOUS
 62
     7
100
AcDbCircle
 10
146.6427444155
 20
-123.4580294012382
 30
0.0
 40
6.0
100
AcDbArc
 50
275.4861271989983
 51
315.4200248778122
  0
ARC
  5
1E1
330
68
100
AcDbEntity
  8
ZUWAKU
  6
CONTINUOUS
 62
     7
100
AcDbCircle
 10
158.7786428876944
 20
-123.4465342528391
 30
0.0
 40
6.0
100
AcDbArc
 50
224.7342935204538
 51
270.0
  0
ARC
  5
1E2
330
68
100
AcDbEntity
  8
ZUWAKU
  6
CONTINUOUS
 62
     7
100
AcDbCircle
 10
158.5583602832044
 20
-118.6486000941914
 30
0.0
 40
12.0
100
AcDbArc
 50
240.8674112692758
 51
267.0917440539539
  0
ARC
  5
1E3
330
68
100
AcDbEntity
  8
ZUWAKU
  6
CONTINUOUS
 62
     7
100
AcDbCircle
 10
147.4443544232267
 20
-120.6331447746538
 30
0.0
 40
10.0
100
AcDbArc
 50
270.0
 51
301.8165888069296
  0
ARC
  5
1E4
330
68
100
AcDbEntity
  8
ZUWAKU
  6
CONTINUOUS
 62
     7
100
AcDbCircle
 10
141.8785047405764
 20
-131.5372799144038
 30
0.0
 40
4.0
100
AcDbArc
 50
283.265695396094
 51
342.6434876261313
  0
ARC
  5
1E5
330
68
100
AcDbEntity
  8
ZUWAKU
  6
CONTINUOUS
 62
     7
100
AcDbCircle
 10
142.2075729563648
 20
-132.5191810421865
 30
0.0
 40
2.0
100
AcDbArc
 50
287.1215589227386
 51
353.9335213805733
  0
ARC
  5
1E6
330
68
100
AcDbEntity
  8
ZUWAKU
  6
CONTINUOUS
 62
     7
100
AcDbCircle
 10
134.0732198367634
 20
-115.4520333335269
 30
0.0
 40
20.0
100
AcDbArc
 50
272.6561723599371
 51
286.4786265979867
  0
ARC
  5
1E7
330
68
100
AcDbEntity
  8
ZUWAKU
  6
CONTINUOUS
 62
     7
100
AcDbCircle
 10
134.4350708718812
 20
-131.4689746339814
 30
0.0
 40
4.0
100
AcDbArc
 50
184.3081130703794
 51
227.7648830848148
  0
ARC
  5
1E8
330
68
100
AcDbEntity
  8
ZUWAKU
  6
CONTINUOUS
 62
     7
100
AcDbCircle
 10
132.3132740533973
 20
-131.470921555968
 30
0.0
 40
4.0
100
AcDbArc
 50
212.6772418063084
 51
261.8523056494763
  0
ARC
  5
1E9
330
68
100
AcDbEntity
  8
ZUWAKU
  6
CONTINUOUS
 62
     7
100
AcDbCircle
 10
122.0267019278491
 20
-130.9718454815092
 30
0.0
 40
4.0
100
AcDbArc
 50
305.4447563754824
 51
348.4979955985226
  0
ARC
  5
1EA
330
68
100
AcDbEntity
  8
ZUWAKU
  6
CONTINUOUS
 62
     7
100
AcDbCircle
 10
117.607071150831
 20
-130.8548432499945
 30
0.0
 40
4.0
100
AcDbArc
 50
295.7741858394136
 51
326.5976644920056
  0
ARC
  5
1EB
330
68
100
AcDbEntity
  8
ZUWAKU
  6
CONTINUOUS
 62
     7
100
AcDbCircle
 10
122.4053906304749
 20
-129.7531705556429
 30
0.0
 40
6.0
100
AcDbArc
 50
288.8745432034554
 51
322.2008123804935
  0
ARC
  5
1EC
330
68
100
AcDbEntity
  8
ZUWAKU
  6
CONTINUOUS
 62
     7
100
AcDbCircle
 10
114.7622963094578
 20
-129.4326156899224
 30
0.0
 40
6.0
100
AcDbArc
 50
319.8192422116139
 51
355.8248039544737
  0
ARC
  5
1ED
330
68
100
AcDbEntity
  8
ZUWAKU
  6
CONTINUOUS
 62
     7
100
AcDbCircle
 10
91.05198398637199
 20
-129.5062663407956
 30
0.0
 40
5.0
100
AcDbArc
 50
264.6251462956196
 51
317.7290360759776
  0
ARC
  5
1EE
330
68
100
AcDbEntity
  8
ZUWAKU
  6
CONTINUOUS
 62
     7
100
AcDbCircle
 10
106.1802438133988
 20
-125.1000995043927
 30
0.0
 40
10.56940911068407
100
AcDbArc
 50
247.5637467185126
 51
317.2881390123424
  0
ARC
  5
1EF
330
68
100
AcDbEntity
  8
ZUWAKU
  6
CONTINUOUS
 62
     7
100
AcDbCircle
 10
104.4883680238249
 20
-124.4696225724852
 30
0.0
 40
10.0
100
AcDbArc
 50
270.3323450119129
 51
308.7409648643439
  0
ARC
  5
1F0
330
68
100
AcDbEntity
  8
ZUWAKU
  6
CONTINUOUS
 62
     7
100
AcDbCircle
 10
91.17187081666828
 20
-128.2928718421244
 30
0.0
 40
7.4
100
AcDbArc
 50
337.9624692219032
 51
352.416518898312
  0
ARC
  5
1F1
330
68
100
AcDbEntity
  8
ZUWAKU
  6
CONTINUOUS
 62
     7
100
AcDbCircle
 10
91.05198398637199
 20
-129.5062663407956
 30
0.0
 40
5.0
100
AcDbArc
 50
341.7817433502872
 51
362.7146811743762
  0
ARC
  5
1F2
330
68
100
AcDbEntity
  8
ZUWAKU
  6
CONTINUOUS
 62
     7
100
AcDbCircle
 10
91.17187081666828
 20
-128.2928718421244
 30
0.0
 40
7.4
100
AcDbArc
 50
265.4406112814197
 51
321.7964493072675
  0
ENDBLK
  5
6A
330
68
100
AcDbEntity
  8
0
100
AcDbBlockEnd
  0
BLOCK
  5
6C
330
6B
100
AcDbEntity
  8
0
100
AcDbBlockBegin
  2
DC_GROUP_12
 70
     0
 71
     0
 10
0.0
 20
0.0
 30
0.0
  3
DC_GROUP_12
  1

  0
LINE
  5
1F3
330
6B
100
AcDbEntity
  8
ZUWAKU
  6
CONTINUOUS
 62
     7
100
AcDbLine
 10
148.9941506234345
 20
-134.0305456568976
 30
0.0
 11
151.4163728456568
 21
-134.0305456568976
 31
0.0
  0
LINE
  5
1F4
330
6B
100
AcDbEntity
  8
ZUWAKU
  6
CONTINUOUS
 62
     7
100
AcDbLine
 10
154.6528016725025
 20
-134.0305456568976
 30
0.0
 11
157.7196821296652
 21
-134.0305456568976
 31
0.0
  0
LINE
  5
1F5
330
6B
100
AcDbEntity
  8
ZUWAKU
  6
CONTINUOUS
 62
     7
100
AcDbLine
 10
147.2163728456568
 20
-133.5305456568976
 30
0.0
 11
159.2163728456568
 21
-133.5305456568976
 31
0.0
  0
LINE
  5
1F6
330
6B
100
AcDbEntity
  8
ZUWAKU
  6
CONTINUOUS
 62
     7
100
AcDbLine
 10
147.2163728456568
 20
-133.0305456568976
 30
0.0
 11
159.2163728456568
 21
-133.0305456568976
 31
0.0
  0
LINE
  5
1F7
330
6B
100
AcDbEntity
  8
ZUWAKU
  6
CONTINUOUS
 62
     7
100
AcDbLine
 10
148.7163728456567
 20
-134.5305456568976
 30
0.0
 11
158.521142118487
 21
-134.5305456568976
 31
0.0
  0
LINE
  5
1F8
330
6B
100
AcDbEntity
  8
ZUWAKU
  6
CONTINUOUS
 62
     7
100
AcDbLine
 10
148.4385950678789
 20
-135.0305456568976
 30
0.0
 11
154.4971892572037
 21
-135.0305456568976
 31
0.0
  0
LINE
  5
1F9
330
6B
100
AcDbEntity
  8
ZUWAKU
  6
CONTINUOUS
 62
     7
100
AcDbLine
 10
156.0163728456568
 20
-135.0305456568976
 30
0.0
 11
159.2163728456568
 21
-135.0305456568976
 31
0.0
  0
ENDBLK
  5
6D
330
6B
100
AcDbEntity
  8
0
100
AcDbBlockEnd
  0
BLOCK
  5
6F
330
6E
100
AcDbEntity
  8
0
100
AcDbBlockBegin
  2
DC_GROUP_13
 70
     0
 71
     0
 10
0.0
 20
0.0
 30
0.0
  3
DC_GROUP_13
  1

  0
LINE
  5
1FA
330
6E
100
AcDbEntity
  8
ZUWAKU
  6
CONTINUOUS
 62
     7
100
AcDbLine
 10
12.50000047683716
 20
-124.5
 30
0.0
 11
70.5
 21
-124.5
 31
0.0
  0
LINE
  5
1FB
330
6E
100
AcDbEntity
  8
ZUWAKU
  6
CONTINUOUS
 62
     7
100
AcDbLine
 10
7.5
 20
-128.5000000000001
 30
0.0
 11
70.5
 21
-128.5000000000001
 31
0.0
  0
LINE
  5
1FC
330
6E
100
AcDbEntity
  8
ZUWAKU
  6
CONTINUOUS
 62
     7
100
AcDbLine
 10
12.50000047683716
 20
-108.5000002384186
 30
0.0
 11
70.5
 21
-108.5000002384186
 31
0.0
  0
LINE
  5
1FD
330
6E
100
AcDbEntity
  8
ZUWAKU
  6
CONTINUOUS
 62
     7
100
AcDbLine
 10
12.50000047683716
 20
-112.5000004768372
 30
0.0
 11
70.5
 21
-112.5000004768372
 31
0.0
  0
LINE
  5
1FE
330
6E
100
AcDbEntity
  8
ZUWAKU
  6
CONTINUOUS
 62
     7
100
AcDbLine
 10
12.50000047683716
 20
-96.50000000000003
 30
0.0
 11
12.50000047683716
 21
-128.5000000000001
 31
0.0
  0
LINE
  5
1FF
330
6E
100
AcDbEntity
  8
ZUWAKU
  6
CONTINUOUS
 62
     7
100
AcDbLine
 10
37.5
 20
-100.5000004768372
 30
0.0
 11
37.5
 21
-128.5000000000001
 31
0.0
  0
LINE
  5
200
330
6E
100
AcDbEntity
  8
ZUWAKU
  6
CONTINUOUS
 62
     7
100
AcDbLine
 10
7.5
 20
-96.50000000000001
 30
0.0
 11
70.5
 21
-96.50000000000001
 31
0.0
  0
LINE
  5
201
330
6E
100
AcDbEntity
  8
ZUWAKU
  6
CONTINUOUS
 62
     7
100
AcDbLine
 10
59.5
 20
-100.5000004768372
 30
0.0
 11
59.5
 21
-128.5000000000001
 31
0.0
  0
LINE
  5
202
330
6E
100
AcDbEntity
  8
ZUWAKU
  6
CONTINUOUS
 62
     7
100
AcDbLine
 10
12.50000047683716
 20
-120.5
 30
0.0
 11
70.5
 21
-120.5
 31
0.0
  0
LINE
  5
203
330
6E
100
AcDbEntity
  8
ZUWAKU
  6
CONTINUOUS
 62
     7
100
AcDbLine
 10
48.5
 20
-100.5000004768372
 30
0.0
 11
48.5
 21
-128.5000000000001
 31
0.0
  0
LINE
  5
204
330
6E
100
AcDbEntity
  8
ZUWAKU
  6
CONTINUOUS
 62
     7
100
AcDbLine
 10
12.50000047683716
 20
-104.5000003576279
 30
0.0
 11
70.5
 21
-104.5000003576279
 31
0.0
  0
LINE
  5
205
330
6E
100
AcDbEntity
  8
ZUWAKU
  6
CONTINUOUS
 62
     7
100
AcDbLine
 10
12.50000047683716
 20
-116.5
 30
0.0
 11
70.5
 21
-116.5
 31
0.0
  0
LINE
  5
206
330
6E
100
AcDbEntity
  8
ZUWAKU
  6
CONTINUOUS
 62
     7
100
AcDbLine
 10
12.50000014946971
 20
-100.5000004768372
 30
0.0
 11
70.5
 21
-100.5000004768372
 31
0.0
  0
LINE
  5
207
330
6E
100
AcDbEntity
  8
ZUWAKU
  6
CONTINUOUS
 62
     7
100
AcDbLine
 10
12.50000014946971
 20
-100.5000003191013
 30
0.0
 11
37.50000026287731
 21
-104.500000261793
 31
0.0
  0
TEXT
  5
209
330
6E
100
AcDbEntity
  8
ZUWAKU
 62
     7
100
AcDbText
 10
8.777757525444031
 20
-107.7508988380432
 30
0.0
 40
3.200000047683716
  1
脂
 41
0.5952383613302554
  7
FDASTYLE0
 72
     5
 11
11.06347286701202
 21
-107.7508988380432
 31
0.0
100
AcDbText
  0
TEXT
  5
20A
330
6E
100
AcDbEntity
  8
ZUWAKU
 62
     7
100
AcDbText
 10
12.96710532903671
 20
-104.098942220211
 30
0.0
 40
1.600000023841858
  1
呼び寸法の区分
 41
0.6638419652258267
  7
FDASTYLE0
 72
     5
 11
23.70996314287186
 21
-104.098942220211
 31
0.0
100
AcDbText
  0
TEXT
  5
20B
330
6E
100
AcDbEntity
  8
ZUWAKU
 62
     7
100
AcDbText
 10
30.85905784368515
 20
-102.6675861477852
 30
0.0
 40
1.600000023841858
  1
等　級
 41
0.6506851076699728
  7
FDASTYLE0
 72
     5
 11
35.20191556215286
 21
-102.6675861477852
 31
0.0
100
AcDbText
  0
TEXT
  5
20C
330
6E
100
AcDbEntity
  8
ZUWAKU
 62
     7
100
AcDbText
 10
12.6282947063446
 20
-127.654494047165
 30
0.0
 40
2.099999904632568
  1
６００を越え１２００以下
 41
0.6677525546183235
  7
FDASTYLE0
 72
     5
 11
37.22829282283783
 21
-127.654494047165
 31
0.0
100
AcDbText
  0
TEXT
  5
20D
330
6E
100
AcDbEntity
  8
ZUWAKU
 62
     7
100
AcDbText
 10
38.85077750682831
 20
-127.9675613641739
 30
0.0
 40
3.200000047683716
  1
2.0
 41
0.7600002253055942
  7
FDASTYLE0
 72
     5
 11
47.53649294376373
 21
-127.9675613641739
 31
0.0
100
AcDbText
  0
TEXT
  5
20E
330
6E
100
AcDbEntity
  8
ZUWAKU
 62
     7
100
AcDbText
 10
49.74964034557343
 20
-127.9675613641739
 30
0.0
 40
3.200000047683716
  1
4.0
 41
0.7600002253055942
  7
FDASTYLE0
 72
     5
 11
58.43535578250885
 21
-127.9675613641739
 31
0.0
100
AcDbText
  0
TEXT
  5
20F
330
6E
100
AcDbEntity
  8
ZUWAKU
 62
     7
100
AcDbText
 10
60.80646026134491
 20
-127.9675613641739
 30
0.0
 40
3.200000047683716
  1
8.0
 41
0.7600002253055942
  7
FDASTYLE0
 72
     5
 11
69.49217569828033
 21
-127.9675613641739
 31
0.0
100
AcDbText
  0
TEXT
  5
210
330
6E
100
AcDbEntity
  8
ZUWAKU
 62
     7
100
AcDbText
 10
14.68170392513275
 20
-123.5476748943329
 30
0.0
 40
2.099999904632568
  1
３００を越え６００以下
 41
0.6672599764882174
  7
FDASTYLE0
 72
     5
 11
37.18170487880707
 21
-123.5476748943329
 31
0.0
100
AcDbText
  0
TEXT
  5
211
330
6E
100
AcDbEntity
  8
ZUWAKU
 62
     7
100
AcDbText
 10
14.68170392513275
 20
-119.5988118648529
 30
0.0
 40
2.099999904632568
  1
１２０を越え３００以下
 41
0.6672599764882174
  7
FDASTYLE0
 72
     5
 11
37.18170487880707
 21
-119.5988118648529
 31
0.0
100
AcDbText
  0
TEXT
  5
212
330
6E
100
AcDbEntity
  8
ZUWAKU
 62
     7
100
AcDbText
 10
16.81409023236483
 20
-115.5709712505341
 30
0.0
 40
2.099999904632568
  1
３０を越え１２０以下
 41
0.6666668575574051
  7
FDASTYLE0
 72
     5
 11
37.21409116219729
 21
-115.5709712505341
 31
0.0
100
AcDbText
  0
TEXT
  5
213
330
6E
100
AcDbEntity
  8
ZUWAKU
 62
     7
100
AcDbText
 10
20.99988567829132
 20
-111.6221077442169
 30
0.0
 40
2.099999904632568
  1
６を越え３０以下
 41
0.665024823877213
  7
FDASTYLE0
 72
     5
 11
37.19988656044006
 21
-111.6221077442169
 31
0.0
100
AcDbText
  0
TEXT
  5
214
330
6E
100
AcDbEntity
  8
ZUWAKU
 62
     7
100
AcDbText
 10
31.50386297702789
 20
-107.7522212266922
 30
0.0
 40
2.099999904632568
  1
６以下
 41
0.6506851468173462
  7
FDASTYLE0
 72
     5
 11
37.20386373996735
 21
-107.7522212266922
 31
0.0
100
AcDbText
  0
TEXT
  5
215
330
6E
100
AcDbEntity
  8
ZUWAKU
 62
     7
100
AcDbText
 10
60.80646026134491
 20
-123.9397217035294
 30
0.0
 40
3.200000047683716
  1
4.0
 41
0.7600002253055942
  7
FDASTYLE0
 72
     5
 11
69.49217569828033
 21
-123.9397217035294
 31
0.0
100
AcDbText
  0
TEXT
  5
216
330
6E
100
AcDbEntity
  8
ZUWAKU
 62
     7
100
AcDbText
 10
60.80646026134491
 20
-119.9908577203751
 30
0.0
 40
3.200000047683716
  1
2.0
 41
0.7600002253055942
  7
FDASTYLE0
 72
     5
 11
69.49217569828033
 21
-119.9908577203751
 31
0.0
100
AcDbText
  0
TEXT
  5
217
330
6E
100
AcDbEntity
  8
ZUWAKU
 62
     7
100
AcDbText
 10
60.80646026134491
 20
-116.0419937372208
 30
0.0
 40
3.200000047683716
  1
0.8
 41
0.7600002253055942
  7
FDASTYLE0
 72
     5
 11
69.49217569828033
 21
-116.0419937372208
 31
0.0
100
AcDbText
  0
TEXT
  5
218
330
6E
100
AcDbEntity
  8
ZUWAKU
 62
     7
100
AcDbText
 10
60.78546798229218
 20
-112.0026160478592
 30
0.0
 40
3.200000047683716
  1
0.4
 41
0.7600002253055942
  7
FDASTYLE0
 72
     5
 11
69.4711834192276
 21
-112.0026160478592
 31
0.0
100
AcDbText
  0
TEXT
  5
219
330
6E
100
AcDbEntity
  8
ZUWAKU
 62
     7
100
AcDbText
 10
60.78546798229218
 20
-108.0474480390549
 30
0.0
 40
3.200000047683716
  1
0.2
 41
0.7600002253055942
  7
FDASTYLE0
 72
     5
 11
69.4711834192276
 21
-108.0474480390549
 31
0.0
100
AcDbText
  0
TEXT
  5
21A
330
6E
100
AcDbEntity
  8
ZUWAKU
 62
     7
100
AcDbText
 10
49.74964034557343
 20
-124.0186992883683
 30
0.0
 40
3.200000047683716
  1
2.0
 41
0.7600002253055942
  7
FDASTYLE0
 72
     5
 11
58.43535578250885
 21
-124.0186992883683
 31
0.0
100
AcDbText
  0
TEXT
  5
21B
330
6E
100
AcDbEntity
  8
ZUWAKU
 62
     7
100
AcDbText
 10
49.74964034557343
 20
-120.069835305214
 30
0.0
 40
3.200000047683716
  1
0.8
 41
0.7600002253055942
  7
FDASTYLE0
 72
     5
 11
58.43535578250885
 21
-120.069835305214
 31
0.0
100
AcDbText
  0
TEXT
  5
21C
330
6E
100
AcDbEntity
  8
ZUWAKU
 62
     7
100
AcDbText
 10
49.74927413463593
 20
-116.0215774774552
 30
0.0
 40
3.200000047683716
  1
0.4
 41
0.7600002253055942
  7
FDASTYLE0
 72
     5
 11
58.43498957157135
 21
-116.0215774774552
 31
0.0
100
AcDbText
  0
TEXT
  5
21D
330
6E
100
AcDbEntity
  8
ZUWAKU
 62
     7
100
AcDbText
 10
49.74927413463593
 20
-112.0664092302323
 30
0.0
 40
3.200000047683716
  1
0.2
 41
0.7600002253055942
  7
FDASTYLE0
 72
     5
 11
58.43498957157135
 21
-112.0664092302323
 31
0.0
100
AcDbText
  0
TEXT
  5
21E
330
6E
100
AcDbEntity
  8
ZUWAKU
 62
     7
100
AcDbText
 10
49.74964034557343
 20
-108.1442667245865
 30
0.0
 40
3.200000047683716
  1
0.1
 41
0.7600002253055942
  7
FDASTYLE0
 72
     5
 11
58.43535578250885
 21
-108.1442667245865
 31
0.0
100
AcDbText
  0
TEXT
  5
21F
330
6E
100
AcDbEntity
  8
ZUWAKU
 62
     7
100
AcDbText
 10
38.85077750682831
 20
-123.9397217035294
 30
0.0
 40
3.200000047683716
  1
0.8
 41
0.7600002253055942
  7
FDASTYLE0
 72
     5
 11
47.53649294376373
 21
-123.9397217035294
 31
0.0
100
AcDbText
  0
TEXT
  5
220
330
6E
100
AcDbEntity
  8
ZUWAKU
 62
     7
100
AcDbText
 10
38.85077750682831
 20
-119.9908577203751
 30
0.0
 40
3.200000047683716
  1
0.4
 41
0.7600002253055942
  7
FDASTYLE0
 72
     5
 11
47.53649294376373
 21
-119.9908577203751
 31
0.0
100
AcDbText
  0
TEXT
  5
221
330
6E
100
AcDbEntity
  8
ZUWAKU
 62
     7
100
AcDbText
 10
38.84066665172577
 20
-116.0853697061539
 30
0.0
 40
3.200000047683716
  1
0.2
 41
0.7600002253055942
  7
FDASTYLE0
 72
     5
 11
47.52638208866119
 21
-116.0853697061539
 31
0.0
100
AcDbText
  0
TEXT
  5
222
330
6E
100
AcDbEntity
  8
ZUWAKU
 62
     7
100
AcDbText
 10
38.84066665172577
 20
-112.2577883005142
 30
0.0
 40
3.200000047683716
  1
0.1
 41
0.7600002253055942
  7
FDASTYLE0
 72
     5
 11
47.52638208866119
 21
-112.2577883005142
 31
0.0
100
AcDbText
  0
TEXT
  5
223
330
6E
100
AcDbEntity
  8
ZUWAKU
 62
     7
100
AcDbText
 10
38.30168396234512
 20
-108.1194936037064
 30
0.0
 40
3.200000047683716
  1
0.05
 41
0.632674924363115
  7
FDASTYLE0
 72
     5
 11
47.78441882133484
 21
-108.1194936037064
 31
0.0
100
AcDbText
  0
TEXT
  5
224
330
6E
100
AcDbEntity
  8
ZUWAKU
 62
     7
100
AcDbText
 10
60.5940922498703
 20
-104.0284868478775
 30
0.0
 40
3.200000047683716
  1
C(
 41
0.7500002444722064
  7
FDASTYLE0
 72
     5
 11
66.07980763912201
 21
-104.0284868478775
 31
0.0
100
AcDbText
  0
TEXT
  5
225
330
6E
100
AcDbEntity
  8
ZUWAKU
 62
     7
100
AcDbText
 10
65.97765859732537
 20
-102.0284867882729
 30
0.0
 40
1.600000023841858
  1
+
 41
0.7142860335963065
  7
FDASTYLE0
 72
     5
 11
67.12051626810937
 21
-102.0284867882729
 31
0.0
100
AcDbText
  0
TEXT
  5
226
330
6E
100
AcDbEntity
  8
ZUWAKU
 62
     7
100
AcDbText
 10
65.97765859732537
 20
-104.4284868836403
 30
0.0
 40
1.600000023841858
  1
-
 41
0.7142860335963065
  7
FDASTYLE0
 72
     5
 11
67.12051626810937
 21
-104.4284868836403
 31
0.0
100
AcDbText
  0
TEXT
  5
227
330
6E
100
AcDbEntity
  8
ZUWAKU
 62
     7
100
AcDbText
 10
67.00622978577523
 20
-104.0284868478775
 30
0.0
 40
3.200000047683716
  1
)
 41
0.7142860335963065
  7
FDASTYLE0
 72
     5
 11
69.29194512734323
 21
-104.0284868478775
 31
0.0
100
AcDbText
  0
TEXT
  5
228
330
6E
100
AcDbEntity
  8
ZUWAKU
 62
     7
100
AcDbText
 10
8.713964343070984
 20
-111.7060667276383
 30
0.0
 40
3.200000047683716
  1
成
 41
0.5952383613302554
  7
FDASTYLE0
 72
     5
 11
10.99967968463898
 21
-111.7060667276383
 31
0.0
100
AcDbText
  0
TEXT
  5
229
330
6E
100
AcDbEntity
  8
ZUWAKU
 62
     7
100
AcDbText
 10
8.777757525444031
 20
-116.1715790033341
 30
0.0
 40
3.200000047683716
  1
形
 41
0.5952383613302554
  7
FDASTYLE0
 72
     5
 11
11.06347286701202
 21
-116.1715790033341
 31
0.0
100
AcDbText
  0
TEXT
  5
22A
330
6E
100
AcDbEntity
  8
ZUWAKU
 62
     7
100
AcDbText
 10
8.650171160697937
 20
-120.318126320839
 30
0.0
 40
3.200000047683716
  1
加
 41
0.5952383613302554
  7
FDASTYLE0
 72
     5
 11
10.93588650226593
 21
-120.318126320839
 31
0.0
100
AcDbText
  0
TEXT
  5
22B
330
6E
100
AcDbEntity
  8
ZUWAKU
 62
     7
100
AcDbText
 10
8.650171160697937
 20
-124.5284668207169
 30
0.0
 40
3.200000047683716
  1
工
 41
0.5952383613302554
  7
FDASTYLE0
 72
     5
 11
10.93588650226593
 21
-124.5284668207169
 31
0.0
100
AcDbText
  0
TEXT
  5
22C
330
6E
100
AcDbEntity
  8
ZUWAKU
 62
     7
100
AcDbText
 10
15.53212922811508
 20
-99.98029613494875
 30
0.0
 40
3.0
  1
普　通　寸　法　規　格：単位（ｍｍ）
 41
0.6695465203665082
  7
FDASTYLE0
 72
     5
 11
68.67498296499252
 21
-99.98029613494875
 31
0.0
100
AcDbText
  0
TEXT
  5
22D
330
6E
100
AcDbEntity
  8
ZUWAKU
 62
     7
100
AcDbText
 10
38.58549392223358
 20
-104.2198659181595
 30
0.0
 40
3.200000047683716
  1
A(
 41
0.7500002444722064
  7
FDASTYLE0
 72
     5
 11
44.07120931148529
 21
-104.2198659181595
 31
0.0
100
AcDbText
  0
TEXT
  5
22E
330
6E
100
AcDbEntity
  8
ZUWAKU
 62
     7
100
AcDbText
 10
43.96906026968865
 20
-102.2198658585549
 30
0.0
 40
1.600000023841858
  1
+
 41
0.7142860335963065
  7
FDASTYLE0
 72
     5
 11
45.11191794047265
 21
-102.2198658585549
 31
0.0
100
AcDbText
  0
TEXT
  5
22F
330
6E
100
AcDbEntity
  8
ZUWAKU
 62
     7
100
AcDbText
 10
43.96906026968865
 20
-104.6198659539223
 30
0.0
 40
1.600000023841858
  1
-
 41
0.7142860335963065
  7
FDASTYLE0
 72
     5
 11
45.11191794047265
 21
-104.6198659539223
 31
0.0
100
AcDbText
  0
TEXT
  5
230
330
6E
100
AcDbEntity
  8
ZUWAKU
 62
     7
100
AcDbText
 10
44.99763145813851
 20
-104.2198659181595
 30
0.0
 40
3.200000047683716
  1
)
 41
0.7142860335963065
  7
FDASTYLE0
 72
     5
 11
47.28334679970651
 21
-104.2198659181595
 31
0.0
100
AcDbText
  0
TEXT
  5
231
330
6E
100
AcDbEntity
  8
ZUWAKU
 62
     7
100
AcDbText
 10
49.68548095226288
 20
-104.2198659181595
 30
0.0
 40
3.200000047683716
  1
B(
 41
0.7500002444722064
  7
FDASTYLE0
 72
     5
 11
55.17119634151459
 21
-104.2198659181595
 31
0.0
100
AcDbText
  0
TEXT
  5
232
330
6E
100
AcDbEntity
  8
ZUWAKU
 62
     7
100
AcDbText
 10
55.06904729971795
 20
-102.2198658585549
 30
0.0
 40
1.600000023841858
  1
+
 41
0.7142860335963065
  7
FDASTYLE0
 72
     5
 11
56.21190497050195
 21
-102.2198658585549
 31
0.0
100
AcDbText
  0
TEXT
  5
233
330
6E
100
AcDbEntity
  8
ZUWAKU
 62
     7
100
AcDbText
 10
55.06904729971795
 20
-104.6198659539223
 30
0.0
 40
1.600000023841858
  1
-
 41
0.7142860335963065
  7
FDASTYLE0
 72
     5
 11
56.21190497050195
 21
-104.6198659539223
 31
0.0
100
AcDbText
  0
TEXT
  5
234
330
6E
100
AcDbEntity
  8
ZUWAKU
 62
     7
100
AcDbText
 10
56.09761848816781
 20
-104.2198659181595
 30
0.0
 40
3.200000047683716
  1
)
 41
0.7142860335963065
  7
FDASTYLE0
 72
     5
 11
58.3833338297358
 21
-104.2198659181595
 31
0.0
100
AcDbText
  0
TEXT
  5
235
330
6E
100
AcDbEntity
  8
ZUWAKU
 62
     7
100
AcDbText
 10
8.713964343070984
 20
-103.8595238924027
 30
0.0
 40
3.200000047683716
  1
樹
 41
0.5952383613302554
  7
FDASTYLE0
 72
     5
 11
10.99967968463898
 21
-103.8595238924027
 31
0.0
100
AcDbText
  0
ENDBLK
  5
70
330
6E
100
AcDbEntity
  8
0
100
AcDbBlockEnd
  0
BLOCK
  5
72
330
71
100
AcDbEntity
  8
0
100
AcDbBlockBegin
  2
DC_GROUP_14
 70
     0
 71
     0
 10
0.0
 20
0.0
 30
0.0
  3
DC_GROUP_14
  1

  0
POINT
  5
236
330
71
100
AcDbEntity
  8
ZUWAKU
  6
CONTINUOUS
 62
     2
100
AcDbPoint
 10
160.8498749022663
 20
-98.00367813482338
 30
0.0
  0
POINT
  5
237
330
71
100
AcDbEntity
  8
ZUWAKU
  6
CONTINUOUS
 62
     2
100
AcDbPoint
 10
73.38564909702789
 20
-84.93222661659917
 30
0.0
  0
POINT
  5
238
330
71
100
AcDbEntity
  8
ZUWAKU
  6
CONTINUOUS
 62
     2
100
AcDbPoint
 10
142.3008962095693
 20
-119.9148407864637
 30
0.0
  0
POINT
  5
239
330
71
100
AcDbEntity
  8
ZUWAKU
  6
CONTINUOUS
 62
     2
100
AcDbPoint
 10
94.554127092407
 20
-96.12814592659269
 30
0.0
  0
POINT
  5
23A
330
71
100
AcDbEntity
  8
ZUWAKU
  6
CONTINUOUS
 62
     2
100
AcDbPoint
 10
94.554127092407
 20
-107.2602879620249
 30
0.0
  0
POINT
  5
23B
330
71
100
AcDbEntity
  8
ZUWAKU
  6
CONTINUOUS
 62
     2
100
AcDbPoint
 10
161.0193620275377
 20
-87.26949353429845
 30
0.0
  0
POINT
  5
23C
330
71
100
AcDbEntity
  8
ZUWAKU
  6
CONTINUOUS
 62
     2
100
AcDbPoint
 10
162.145474507651
 20
-119.9080450954827
 30
0.0
  0
POINT
  5
23D
330
71
100
AcDbEntity
  8
ZUWAKU
  6
CONTINUOUS
 62
     2
100
AcDbPoint
 10
169.0941648737996
 20
-108.7969250144304
 30
0.0
  0
ENDBLK
  5
73
330
71
100
AcDbEntity
  8
0
100
AcDbBlockEnd
  0
BLOCK
  5
75
330
74
100
AcDbEntity
  8
0
100
AcDbBlockBegin
  2
DC_GROUP_15
 70
     0
 71
     0
 10
0.0
 20
0.0
 30
0.0
  3
DC_GROUP_15
  1

  0
LINE
  5
23E
330
74
100
AcDbEntity
  8
ZUWAKU
  6
CONTINUOUS
 62
     4
100
AcDbLine
 10
-192.5
 20
-131.5
 30
0.0
 11
-189.0358983848622
 21
-125.5
 31
0.0
  0
LINE
  5
23F
330
74
100
AcDbEntity
  8
ZUWAKU
  6
CONTINUOUS
 62
     4
100
AcDbLine
 10
-189.0358983848622
 20
-125.5
 30
0.0
 11
-185.5717967697245
 21
-131.5
 31
0.0
  0
LINE
  5
240
330
74
100
AcDbEntity
  8
ZUWAKU
  6
CONTINUOUS
 62
     4
100
AcDbLine
 10
-192.5
 20
-131.5
 30
0.0
 11
-185.5717967697245
 21
-131.5
 31
0.0
  0
TEXT
  5
241
330
74
100
AcDbEntity
  8
ZUWAKU
 62
     7
100
AcDbText
 10
-190.2358983848622
 20
-131.0
 30
0.0
 40
3.0
  1
1
 41
0.7999999999999924
  7
FDASTYLE0
 72
     5
 11
-187.8358983848623
 21
-131.0
 31
0.0
100
AcDbText
  0
ENDBLK
  5
76
330
74
100
AcDbEntity
  8
0
100
AcDbBlockEnd
  0
BLOCK
  5
78
330
77
100
AcDbEntity
  8
0
100
AcDbBlockBegin
  2
DC_GROUP_16
 70
     0
 71
     0
 10
0.0
 20
0.0
 30
0.0
  3
DC_GROUP_16
  1

  0
LINE
  5
242
330
77
100
AcDbEntity
  8
ZUWAKU
  6
CONTINUOUS
 62
     4
100
AcDbLine
 10
-192.5
 20
-124.5
 30
0.0
 11
-189.0358983848622
 21
-118.5
 31
0.0
  0
LINE
  5
243
330
77
100
AcDbEntity
  8
ZUWAKU
  6
CONTINUOUS
 62
     4
100
AcDbLine
 10
-189.0358983848622
 20
-118.5
 30
0.0
 11
-185.5717967697245
 21
-124.5
 31
0.0
  0
LINE
  5
244
330
77
100
AcDbEntity
  8
ZUWAKU
  6
CONTINUOUS
 62
     4
100
AcDbLine
 10
-192.5
 20
-124.5
 30
0.0
 11
-185.5717967697245
 21
-124.5
 31
0.0
  0
TEXT
  5
245
330
77
100
AcDbEntity
  8
ZUWAKU
 62
     7
100
AcDbText
 10
-190.2358983848622
 20
-124.0
 30
0.0
 40
3.0
  1
2
 41
0.7999999999999924
  7
FDASTYLE0
 72
     5
 11
-187.8358983848623
 21
-124.0
 31
0.0
100
AcDbText
  0
ENDBLK
  5
79
330
77
100
AcDbEntity
  8
0
100
AcDbBlockEnd
  0
BLOCK
  5
7B
330
7A
100
AcDbEntity
  8
0
100
AcDbBlockBegin
  2
DC_GROUP_17
 70
     0
 71
     0
 10
0.0
 20
0.0
 30
0.0
  3
DC_GROUP_17
  1

  0
LINE
  5
246
330
7A
100
AcDbEntity
  8
ZUWAKU
  6
CONTINUOUS
 62
     4
100
AcDbLine
 10
-192.5
 20
-117.5
 30
0.0
 11
-189.0358983848622
 21
-111.5
 31
0.0
  0
LINE
  5
247
330
7A
100
AcDbEntity
  8
ZUWAKU
  6
CONTINUOUS
 62
     4
100
AcDbLine
 10
-189.0358983848622
 20
-111.5
 30
0.0
 11
-185.5717967697245
 21
-117.5
 31
0.0
  0
LINE
  5
248
330
7A
100
AcDbEntity
  8
ZUWAKU
  6
CONTINUOUS
 62
     4
100
AcDbLine
 10
-192.5
 20
-117.5
 30
0.0
 11
-185.5717967697245
 21
-117.5
 31
0.0
  0
TEXT
  5
249
330
7A
100
AcDbEntity
  8
ZUWAKU
 62
     7
100
AcDbText
 10
-190.2358983848622
 20
-117.0
 30
0.0
 40
3.0
  1
3
 41
0.7999999999999924
  7
FDASTYLE0
 72
     5
 11
-187.8358983848623
 21
-117.0
 31
0.0
100
AcDbText
  0
ENDBLK
  5
7C
330
7A
100
AcDbEntity
  8
0
100
AcDbBlockEnd
  0
BLOCK
  5
7E
330
7D
100
AcDbEntity
  8
0
100
AcDbBlockBegin
  2
DC_GROUP_18
 70
     0
 71
     0
 10
0.0
 20
0.0
 30
0.0
  3
DC_GROUP_18
  1

  0
LINE
  5
24A
330
7D
100
AcDbEntity
  8
ZUWAKU
  6
CONTINUOUS
 62
     4
100
AcDbLine
 10
-192.5
 20
-110.5
 30
0.0
 11
-189.0358983848622
 21
-104.5
 31
0.0
  0
LINE
  5
24B
330
7D
100
AcDbEntity
  8
ZUWAKU
  6
CONTINUOUS
 62
     4
100
AcDbLine
 10
-189.0358983848622
 20
-104.5
 30
0.0
 11
-185.5717967697245
 21
-110.5
 31
0.0
  0
LINE
  5
24C
330
7D
100
AcDbEntity
  8
ZUWAKU
  6
CONTINUOUS
 62
     4
100
AcDbLine
 10
-192.5
 20
-110.5
 30
0.0
 11
-185.5717967697245
 21
-110.5
 31
0.0
  0
TEXT
  5
24D
330
7D
100
AcDbEntity
  8
ZUWAKU
 62
     7
100
AcDbText
 10
-190.2358983848622
 20
-110.0
 30
0.0
 40
3.0
  1
4
 41
0.7999999999999924
  7
FDASTYLE0
 72
     5
 11
-187.8358983848623
 21
-110.0
 31
0.0
100
AcDbText
  0
ENDBLK
  5
7F
330
7D
100
AcDbEntity
  8
0
100
AcDbBlockEnd
  0
BLOCK
  5
81
330
80
100
AcDbEntity
  8
0
100
AcDbBlockBegin
  2
DC_GROUP_19
 70
     0
 71
     0
 10
0.0
 20
0.0
 30
0.0
  3
DC_GROUP_19
  1

  0
LINE
  5
24E
330
80
100
AcDbEntity
  8
ZUWAKU
  6
CONTINUOUS
 62
     4
100
AcDbLine
 10
-192.5
 20
-103.5
 30
0.0
 11
-189.0358983848622
 21
-97.50000000000003
 31
0.0
  0
LINE
  5
24F
330
80
100
AcDbEntity
  8
ZUWAKU
  6
CONTINUOUS
 62
     4
100
AcDbLine
 10
-189.0358983848622
 20
-97.50000000000003
 30
0.0
 11
-185.5717967697245
 21
-103.5
 31
0.0
  0
LINE
  5
250
330
80
100
AcDbEntity
  8
ZUWAKU
  6
CONTINUOUS
 62
     4
100
AcDbLine
 10
-192.5
 20
-103.5
 30
0.0
 11
-185.5717967697245
 21
-103.5
 31
0.0
  0
TEXT
  5
251
330
80
100
AcDbEntity
  8
ZUWAKU
 62
     7
100
AcDbText
 10
-190.2358983848622
 20
-103.0
 30
0.0
 40
3.0
  1
5
 41
0.7999999999999924
  7
FDASTYLE0
 72
     5
 11
-187.8358983848623
 21
-103.0
 31
0.0
100
AcDbText
  0
ENDBLK
  5
82
330
80
100
AcDbEntity
  8
0
100
AcDbBlockEnd
  0
BLOCK
  5
84
330
83
100
AcDbEntity
  8
0
100
AcDbBlockBegin
  2
DA_IMAGEDIMGROUP_1
 70
     0
 71
     0
 10
0.0
 20
0.0
 30
0.0
  3
DA_IMAGEDIMGROUP_1
  1

  0
LINE
  5
252
330
83
100
AcDbEntity
  8
LAYER0014
  6
CONTINUOUS
 62
     7
100
AcDbLine
 10
6.240569694544549
 20
63.93088414663194
 30
0.0
 11
51.32958605638024
 21
63.93088414663194
 31
0.0
  0
LINE
  5
253
330
83
100
AcDbEntity
  8
LAYER0014
  6
CONTINUOUS
 62
     7
100
AcDbLine
 10
6.240569694544549
 20
45.93088414663194
 30
0.0
 11
51.32958605638024
 21
45.93088414663194
 31
0.0
  0
LINE
  5
254
330
83
100
AcDbEntity
  8
LAYER0014
  6
CONTINUOUS
 62
     7
100
AcDbLine
 10
49.04358675828453
 20
63.93088414663194
 30
0.0
 11
49.04358675828453
 21
45.93088414663194
 31
0.0
  0
INSERT
  5
25B
330
83
100
AcDbEntity
  8
LAYER0014
 62
     7
100
AcDbBlockReference
  2
_OPEN30
 10
49.04358675828453
 20
63.93088414663194
 30
0.0
 41
3.000002787824364
 42
2.999989273978464
 50
90.0
  0
INSERT
  5
25C
330
83
100
AcDbEntity
  8
LAYER0014
 62
     7
100
AcDbBlockReference
  2
_OPEN30
 10
49.04358675828453
 20
45.93088414663194
 30
0.0
 41
3.000002787824364
 42
2.999989273978464
 50
270.0
  0
TEXT
  5
25D
330
83
100
AcDbEntity
  8
LAYER0014
 62
     7
100
AcDbText
 10
48.24358668675896
 20
52.18802645200609
 30
0.0
 40
3.0
  1
18
 50
90.0
  7
FDASTYLE0
 72
     5
 11
48.24358668675896
 21
58.18802645200609
 31
0.0
100
AcDbText
  0
ENDBLK
  5
85
330
83
100
AcDbEntity
  8
0
100
AcDbBlockEnd
  0
BLOCK
  5
87
330
86
100
AcDbEntity
  8
0
100
AcDbBlockBegin
  2
DA_IMAGEDIMGROUP_2
 70
     0
 71
     0
 10
0.0
 20
0.0
 30
0.0
  3
DA_IMAGEDIMGROUP_2
  1

  0
LINE
  5
25E
330
86
100
AcDbEntity
  8
LAYER0014
  6
CONTINUOUS
 62
     7
100
AcDbLine
 10
-48.73656753030652
 20
-40.52572806734405
 30
0.0
 11
-145.8600866303034
 21
-40.52572806734405
 31
0.0
  0
LINE
  5
25F
330
86
100
AcDbEntity
  8
LAYER0014
  6
CONTINUOUS
 62
     7
100
AcDbLine
 10
-38.54780794446172
 20
-65.52572806734403
 30
0.0
 11
-145.8600866303034
 21
-65.52572806734403
 31
0.0
  0
LINE
  5
260
330
86
100
AcDbEntity
  8
LAYER0014
  6
CONTINUOUS
 62
     7
100
AcDbLine
 10
-143.5740866303034
 20
-40.52572806734405
 30
0.0
 11
-143.5740866303034
 21
-65.52572806734403
 31
0.0
  0
INSERT
  5
261
330
86
100
AcDbEntity
  8
LAYER0014
 62
     7
100
AcDbBlockReference
  2
_OPEN30
 10
-143.5740866303034
 20
-40.52572806734405
 30
0.0
 41
3.000002787824364
 42
2.999989273978464
 50
90.0
  0
INSERT
  5
262
330
86
100
AcDbEntity
  8
LAYER0014
 62
     7
100
AcDbBlockReference
  2
_OPEN30
 10
-143.5740866303034
 20
-65.52572806734403
 30
0.0
 41
3.000002787824364
 42
2.999989273978464
 50
270.0
  0
TEXT
  5
263
330
86
100
AcDbEntity
  8
LAYER0014
 62
     7
100
AcDbText
 10
-144.3740866422244
 20
-55.7687280680593
 30
0.0
 40
3.0
  1
25
 50
90.0
  7
FDASTYLE0
 72
     5
 11
-144.3740866422244
 21
-49.7687280680593
 31
0.0
100
AcDbText
  0
ENDBLK
  5
88
330
86
100
AcDbEntity
  8
0
100
AcDbBlockEnd
  0
BLOCK
  5
8A
330
89
100
AcDbEntity
  8
0
100
AcDbBlockBegin
  2
DA_IMAGEDIMGROUP_3
 70
     0
 71
     0
 10
0.0
 20
0.0
 30
0.0
  3
DA_IMAGEDIMGROUP_3
  1

  0
LINE
  5
264
330
89
100
AcDbEntity
  8
LAYER0014
  6
CONTINUOUS
 62
     7
100
AcDbLine
 10
-115.8070769990397
 20
-75.36640840510056
 30
0.0
 11
18.39292300096034
 21
-75.36640840510056
 31
0.0
  0
INSERT
  5
265
330
89
100
AcDbEntity
  8
LAYER0014
 62
     7
100
AcDbBlockReference
  2
_OPEN30
 10
-115.8070769990397
 20
-75.36640840510056
 30
0.0
 41
3.000002787824364
 42
2.999989273978464
 50
180.0
  0
INSERT
  5
266
330
89
100
AcDbEntity
  8
LAYER0014
 62
     7
100
AcDbBlockReference
  2
_OPEN30
 10
18.39292300096034
 20
-75.36640840510056
 30
0.0
 41
3.000002787824364
 42
2.999989273978464
 50
360.0
  0
LINE
  5
267
330
89
100
AcDbEntity
  8
LAYER0014
  6
CONTINUOUS
 62
     7
100
AcDbLine
 10
-115.8070769990397
 20
-60.08848560367275
 30
0.0
 11
-115.8070769990397
 21
-76.36640840510056
 31
0.0
  0
LINE
  5
268
330
89
100
AcDbEntity
  8
LAYER0014
  6
CONTINUOUS
 62
     7
100
AcDbLine
 10
18.39292300096034
 20
-59.98547613937708
 30
0.0
 11
18.39292300096034
 21
-76.36640840510056
 31
0.0
  0
TEXT
  5
269
330
89
100
AcDbEntity
  8
LAYER0014
 62
     7
100
AcDbText
 10
-57.85007697591308
 20
-74.56640839317963
 30
0.0
 40
3.0
  1
φ134.2
 41
0.9677419354838709
  7
FDASTYLE0
 72
     5
 11
-39.85007697591308
 21
-74.56640839317963
 31
0.0
100
AcDbText
  0
ENDBLK
  5
8B
330
89
100
AcDbEntity
  8
0
100
AcDbBlockEnd
  0
BLOCK
  5
8D
330
8C
100
AcDbEntity
  8
0
100
AcDbBlockBegin
  2
DA_IMAGEDIMGROUP_4
 70
     0
 71
     0
 10
0.0
 20
0.0
 30
0.0
  3
DA_IMAGEDIMGROUP_4
  1

  0
LINE
  5
26A
330
8C
100
AcDbEntity
  8
LAYER0014
  6
CONTINUOUS
 62
     7
100
AcDbLine
 10
-128.2070769990397
 20
-32.12986098754239
 30
0.0
 11
30.79292300096032
 21
-32.12986098754239
 31
0.0
  0
INSERT
  5
26B
330
8C
100
AcDbEntity
  8
LAYER0014
 62
     7
100
AcDbBlockReference
  2
_OPEN30
 10
-128.2070769990397
 20
-32.12986098754239
 30
0.0
 41
3.000002787824364
 42
2.999989273978464
 50
180.0
  0
INSERT
  5
26C
330
8C
100
AcDbEntity
  8
LAYER0014
 62
     7
100
AcDbBlockReference
  2
_OPEN30
 10
30.79292300096032
 20
-32.12986098754239
 30
0.0
 41
3.000002787824364
 42
2.999989273978464
 50
360.0
  0
LINE
  5
26D
330
8C
100
AcDbEntity
  8
LAYER0014
  6
CONTINUOUS
 62
     7
100
AcDbLine
 10
-128.2070769990397
 20
-49.99573272370094
 30
0.0
 11
-128.2070769990397
 21
-31.12986098754239
 31
0.0
  0
LINE
  5
26E
330
8C
100
AcDbEntity
  8
LAYER0014
  6
CONTINUOUS
 62
     7
100
AcDbLine
 10
30.79292300096032
 20
-50.0864570192541
 30
0.0
 11
30.79292300096032
 21
-31.12986098754239
 31
0.0
  0
TEXT
  5
26F
330
8C
100
AcDbEntity
  8
LAYER0014
 62
     7
100
AcDbText
 10
-54.65007698783401
 20
-31.32986097562147
 30
0.0
 40
3.0
  1
φ159
 41
0.9523809523809524
  7
FDASTYLE0
 72
     5
 11
-42.65007698783401
 21
-31.32986097562147
 31
0.0
100
AcDbText
  0
ENDBLK
  5
8E
330
8C
100
AcDbEntity
  8
0
100
AcDbBlockEnd
  0
BLOCK
  5
90
330
8F
100
AcDbEntity
  8
0
100
AcDbBlockBegin
  2
DA_IMAGEDIMGROUP_5
 70
     0
 71
     0
 10
0.0
 20
0.0
 30
0.0
  3
DA_IMAGEDIMGROUP_5
  1

  0
LINE
  5
270
330
8F
100
AcDbEntity
  8
LAYER0014
  6
CONTINUOUS
 62
     7
100
AcDbLine
 10
-120.7070769990397
 20
-82.59904280034488
 30
0.0
 11
23.2929230009603
 21
-82.59904280034488
 31
0.0
  0
INSERT
  5
271
330
8F
100
AcDbEntity
  8
LAYER0014
 62
     7
100
AcDbBlockReference
  2
_OPEN30
 10
-120.7070769990397
 20
-82.59904280034488
 30
0.0
 41
3.000002787824364
 42
2.999989273978464
 50
180.0
  0
INSERT
  5
272
330
8F
100
AcDbEntity
  8
LAYER0014
 62
     7
100
AcDbBlockReference
  2
_OPEN30
 10
23.2929230009603
 20
-82.59904280034488
 30
0.0
 41
3.000002787824364
 42
2.999989273978464
 50
360.0
  0
LINE
  5
273
330
8F
100
AcDbEntity
  8
LAYER0014
  6
CONTINUOUS
 62
     7
100
AcDbLine
 10
-120.7070769990397
 20
-57.14252651279538
 30
0.0
 11
-120.7070769990397
 21
-83.59904280034488
 31
0.0
  0
LINE
  5
274
330
8F
100
AcDbEntity
  8
LAYER0014
  6
CONTINUOUS
 62
     7
100
AcDbLine
 10
23.2929230009603
 20
-56.739146643814
 30
0.0
 11
23.2929230009603
 21
-83.59904280034488
 31
0.0
  0
TEXT
  5
275
330
8F
100
AcDbEntity
  8
LAYER0014
 62
     7
100
AcDbText
 10
-57.85007697591308
 20
-81.79904278842395
 30
0.0
 40
3.0
  1
(φ144)
 41
0.9677419354838709
  7
FDASTYLE0
 72
     5
 11
-39.85007697591308
 21
-81.79904278842395
 31
0.0
100
AcDbText
  0
ENDBLK
  5
91
330
8F
100
AcDbEntity
  8
0
100
AcDbBlockEnd
  0
BLOCK
  5
93
330
92
100
AcDbEntity
  8
0
100
AcDbBlockBegin
  2
DA_IMAGEDIMGROUP_6
 70
     0
 71
     0
 10
0.0
 20
0.0
 30
0.0
  3
DA_IMAGEDIMGROUP_6
  1

  0
LINE
  5
276
330
92
100
AcDbEntity
  8
LAYER0014
  6
CONTINUOUS
 62
     7
100
AcDbLine
 10
-76.94016445280069
 20
60.93088414663194
 30
0.0
 11
-86.96451091561582
 21
60.93088414663194
 31
0.0
  0
LINE
  5
277
330
92
100
AcDbEntity
  8
LAYER0014
  6
CONTINUOUS
 62
     7
100
AcDbLine
 10
-76.94016445280077
 20
48.93088414663194
 30
0.0
 11
-86.96451091561582
 21
48.93088414663194
 31
0.0
  0
LINE
  5
278
330
92
100
AcDbEntity
  8
LAYER0014
  6
CONTINUOUS
 62
     7
100
AcDbLine
 10
-84.67851091561582
 20
60.93088414663194
 30
0.0
 11
-84.67851091561582
 21
48.93088414663194
 31
0.0
  0
INSERT
  5
279
330
92
100
AcDbEntity
  8
LAYER0014
 62
     7
100
AcDbBlockReference
  2
_OPEN30
 10
-84.67851091561582
 20
60.93088414663194
 30
0.0
 41
3.000002787824364
 42
2.999989273978464
 50
90.0
  0
INSERT
  5
27A
330
92
100
AcDbEntity
  8
LAYER0014
 62
     7
100
AcDbBlockReference
  2
_OPEN30
 10
-84.67851091561582
 20
48.93088414663194
 30
0.0
 41
3.000002787824364
 42
2.999989273978464
 50
270.0
  0
TEXT
  5
27B
330
92
100
AcDbEntity
  8
LAYER0014
 62
     7
100
AcDbText
 10
-85.47851092753675
 20
48.98788415783761
 30
0.0
 40
3.0
  1
(12)
 50
90.0
  7
FDASTYLE0
 72
     5
 11
-85.47851092753675
 21
60.98788415783761
 31
0.0
100
AcDbText
  0
ENDBLK
  5
94
330
92
100
AcDbEntity
  8
0
100
AcDbBlockEnd
  0
BLOCK
  5
96
330
95
100
AcDbEntity
  8
0
100
AcDbBlockBegin
  2
DA_IMAGEDIMGROUP_7
 70
     0
 71
     0
 10
0.0
 20
0.0
 30
0.0
  3
DA_IMAGEDIMGROUP_7
  1

  0
LINE
  5
27C
330
95
100
AcDbEntity
  8
LAYER0014
  6
CONTINUOUS
 62
     7
100
AcDbLine
 10
-121.4070769990397
 20
-89.10841375606478
 30
0.0
 11
23.9929230009603
 21
-89.10841375606478
 31
0.0
  0
INSERT
  5
27D
330
95
100
AcDbEntity
  8
LAYER0014
 62
     7
100
AcDbBlockReference
  2
_OPEN30
 10
-121.4070769990397
 20
-89.10841375606478
 30
0.0
 41
3.000002787824364
 42
2.999989273978464
 50
180.0
  0
INSERT
  5
27E
330
95
100
AcDbEntity
  8
LAYER0014
 62
     7
100
AcDbBlockReference
  2
_OPEN30
 10
23.9929230009603
 20
-89.10841375606478
 30
0.0
 41
3.000002787824364
 42
2.999989273978464
 50
360.0
  0
LINE
  5
27F
330
95
100
AcDbEntity
  8
LAYER0014
  6
CONTINUOUS
 62
     7
100
AcDbLine
 10
-121.4070769990397
 20
-59.42572682557039
 30
0.0
 11
-121.4070769990397
 21
-90.10841375606478
 31
0.0
  0
LINE
  5
280
330
95
100
AcDbEntity
  8
LAYER0014
  6
CONTINUOUS
 62
     7
100
AcDbLine
 10
23.9929230009603
 20
-59.72572682557039
 30
0.0
 11
23.9929230009603
 21
-90.10841375606478
 31
0.0
  0
TEXT
  5
281
330
95
100
AcDbEntity
  8
LAYER0014
 62
     7
100
AcDbText
 10
-57.8500769759131
 20
-88.30841374414385
 30
0.0
 40
3.0
  1
φ145.4
 41
0.9677419354838709
  7
FDASTYLE0
 72
     5
 11
-39.8500769759131
 21
-88.30841374414385
 31
0.0
100
AcDbText
  0
ENDBLK
  5
97
330
95
100
AcDbEntity
  8
0
100
AcDbBlockEnd
  0
BLOCK
  5
99
330
98
100
AcDbEntity
  8
0
100
AcDbBlockBegin
  2
DA_IMAGEDIMGROUP_8
 70
     0
 71
     0
 10
0.0
 20
0.0
 30
0.0
  3
DA_IMAGEDIMGROUP_8
  1

  0
LINE
  5
282
330
98
100
AcDbEntity
  8
LAYER0014
  6
CONTINUOUS
 62
     7
100
AcDbLine
 10
45.68801325556071
 20
-59.72572682557039
 30
0.0
 11
45.68801325556071
 21
-57.72572682557039
 31
0.0
  0
LINE
  5
283
330
98
100
AcDbEntity
  8
LAYER0014
  6
CONTINUOUS
 62
     7
100
AcDbLine
 10
45.68801325556071
 20
-51.72572806734404
 30
0.0
 11
45.68801325556071
 21
-49.72572806734409
 31
0.0
  0
LINE
  5
284
330
98
100
AcDbEntity
  8
LAYER0014
  6
CONTINUOUS
 62
     7
100
AcDbLine
 10
45.68801325556071
 20
-41.52572797334641
 30
0.0
 11
45.68801325556071
 21
-40.52572806798672
 31
0.0
  0
LINE
  5
285
330
98
100
AcDbEntity
  8
LAYER0014
  6
CONTINUOUS
 62
     7
100
AcDbLine
 10
28.85224803787787
 20
-59.72572682557039
 30
0.0
 11
46.68801325556071
 21
-59.72572682557039
 31
0.0
  0
LINE
  5
286
330
98
100
AcDbEntity
  8
LAYER0014
  6
CONTINUOUS
 62
     7
100
AcDbLine
 10
24.3101240098789
 20
-57.72572682557039
 30
0.0
 11
46.68801325556071
 21
-57.72572682557039
 31
0.0
  0
LINE
  5
287
330
98
100
AcDbEntity
  8
LAYER0014
  6
CONTINUOUS
 62
     7
100
AcDbLine
 10
30.50143721093142
 20
-51.72572806734404
 30
0.0
 11
46.68801325556071
 21
-51.72572806734404
 31
0.0
  0
LINE
  5
288
330
98
100
AcDbEntity
  8
LAYER0014
  6
CONTINUOUS
 62
     7
100
AcDbLine
 10
30.79292300096032
 20
-49.72572806734409
 30
0.0
 11
46.68801325556071
 21
-49.72572806734409
 31
0.0
  0
LINE
  5
289
330
98
100
AcDbEntity
  8
LAYER0014
  6
CONTINUOUS
 62
     7
100
AcDbLine
 10
-36.35629476791825
 20
-41.52572797334641
 30
0.0
 11
46.68801325556071
 21
-41.52572797334641
 31
0.0
  0
LINE
  5
28A
330
98
100
AcDbEntity
  8
LAYER0014
  6
CONTINUOUS
 62
     7
100
AcDbLine
 10
-48.73656753030652
 20
-40.52572806734405
 30
0.0
 11
46.68801325556071
 21
-40.52572806798672
 31
0.0
  0
LINE
  5
28B
330
98
100
AcDbEntity
  8
LAYER0014
  6
CONTINUOUS
 62
     7
100
AcDbLine
 10
45.68801325556071
 20
-57.72572682557039
 30
0.0
 11
45.68801325556071
 21
-51.72572806734404
 31
0.0
  0
INSERT
  5
28C
330
98
100
AcDbEntity
  8
LAYER0014
 62
     7
100
AcDbBlockReference
  2
_OPEN30
 10
45.68801325556071
 20
-57.72572682557039
 30
0.0
 41
3.000002787824364
 42
2.999989273978464
 50
270.0
  0
INSERT
  5
28D
330
98
100
AcDbEntity
  8
LAYER0014
 62
     7
100
AcDbBlockReference
  2
_OPEN30
 10
45.68801325556071
 20
-51.72572806734404
 30
0.0
 41
3.000002787824364
 42
2.999989273978464
 50
90.0
  0
LINE
  5
28E
330
98
100
AcDbEntity
  8
LAYER0014
  6
CONTINUOUS
 62
     7
100
AcDbLine
 10
45.68801325556071
 20
-49.72572806734409
 30
0.0
 11
45.68801325556071
 21
-41.52572797334641
 31
0.0
  0
INSERT
  5
28F
330
98
100
AcDbEntity
  8
LAYER0014
 62
     7
100
AcDbBlockReference
  2
_OPEN30
 10
45.68801325556071
 20
-49.72572806734409
 30
0.0
 41
3.000002787824364
 42
2.999989273978464
 50
270.0
  0
INSERT
  5
290
330
98
100
AcDbEntity
  8
LAYER0014
 62
     7
100
AcDbBlockReference
  2
_OPEN30
 10
45.68801325556071
 20
-41.52572797334641
 30
0.0
 41
3.000002787824364
 42
2.999989273978464
 50
90.0
  0
LINE
  5
291
330
98
100
AcDbEntity
  8
LAYER0014
  6
CONTINUOUS
 62
     7
100
AcDbLine
 10
45.68801325556071
 20
-26.62794806798672
 30
0.0
 11
45.68801325556071
 21
-40.52572806798672
 31
0.0
  0
INSERT
  5
292
330
98
100
AcDbEntity
  8
LAYER0014
 62
     7
100
AcDbBlockReference
  2
_OPEN30
 10
45.68801325556071
 20
-40.52572806798672
 30
0.0
 41
3.000002787824364
 42
2.999989273978464
 50
270.0
  0
LINE
  5
293
330
98
100
AcDbEntity
  8
LAYER0014
  6
CONTINUOUS
 62
     7
100
AcDbLine
 10
45.68801325556071
 20
-73.62350682557039
 30
0.0
 11
45.68801325556071
 21
-59.72572682557039
 31
0.0
  0
INSERT
  5
294
330
98
100
AcDbEntity
  8
LAYER0014
 62
     7
100
AcDbBlockReference
  2
_OPEN30
 10
45.68801325556071
 20
-59.72572682557039
 30
0.0
 41
3.000002787824364
 42
2.999989273978464
 50
90.0
  0
TEXT
  5
295
330
98
100
AcDbEntity
  8
LAYER0014
 62
     7
100
AcDbText
 10
44.68801325556071
 20
-72.62350682557039
 30
0.0
 40
3.0
  1
(2)
 50
90.0
  7
FDASTYLE0
 72
     5
 11
44.68801325556071
 21
-63.62350682557039
 31
0.0
100
AcDbText
  0
TEXT
  5
296
330
98
100
AcDbEntity
  8
LAYER0014
 62
     7
100
AcDbText
 10
44.68801325556071
 20
-59.22572744645721
 30
0.0
 40
3.0
  1
(6)
 50
90.0
  7
FDASTYLE0
 72
     5
 11
44.68801325556071
 21
-50.22572744645721
 31
0.0
100
AcDbText
  0
TEXT
  5
297
330
98
100
AcDbEntity
  8
LAYER0014
 62
     7
100
AcDbText
 10
53.68801325556071
 20
-55.22572806734407
 30
0.0
 40
3.0
  1
(2)
 50
90.0
  7
FDASTYLE0
 72
     5
 11
53.68801325556071
 21
-46.22572806734407
 31
0.0
100
AcDbText
  0
TEXT
  5
298
330
98
100
AcDbEntity
  8
LAYER0014
 62
     7
100
AcDbText
 10
44.68801325556071
 20
-50.12572802034525
 30
0.0
 40
3.0
  1
8.2
 50
90.0
  7
FDASTYLE0
 72
     5
 11
44.68801325556071
 21
-41.12572802034525
 31
0.0
100
AcDbText
  0
TEXT
  5
299
330
98
100
AcDbEntity
  8
LAYER0014
 62
     7
100
AcDbText
 10
44.68801325556071
 20
-36.62794806798672
 30
0.0
 40
3.0
  1
(1)
 50
90.0
  7
FDASTYLE0
 72
     5
 11
44.68801325556071
 21
-27.62794806798672
 31
0.0
100
AcDbText
  0
ENDBLK
  5
9A
330
98
100
AcDbEntity
  8
0
100
AcDbBlockEnd
  0
BLOCK
  5
9C
330
9B
100
AcDbEntity
  8
0
100
AcDbBlockBegin
  2
DA_IMAGEDIMGROUP_9
 70
     0
 71
     0
 10
0.0
 20
0.0
 30
0.0
  3
DA_IMAGEDIMGROUP_9
  1

  0
LINE
  5
29A
330
9B
100
AcDbEntity
  8
LAYER0014
  6
CONTINUOUS
 62
     7
100
AcDbLine
 10
-47.73656753030652
 20
-40.52572806734405
 30
0.0
 11
64.75327916087136
 21
-40.52572806734405
 31
0.0
  0
LINE
  5
29B
330
9B
100
AcDbEntity
  8
LAYER0014
  6
CONTINUOUS
 62
     7
100
AcDbLine
 10
24.04273142534965
 20
-59.72572682557039
 30
0.0
 11
64.75327916087136
 21
-59.72572682557039
 31
0.0
  0
LINE
  5
29C
330
9B
100
AcDbEntity
  8
LAYER0014
  6
CONTINUOUS
 62
     7
100
AcDbLine
 10
63.75327916087135
 20
-59.72572682557039
 30
0.0
 11
63.75327916087135
 21
-40.52572806734405
 31
0.0
  0
INSERT
  5
29D
330
9B
100
AcDbEntity
  8
LAYER0014
 62
     7
100
AcDbBlockReference
  2
_OPEN30
 10
63.75327916087135
 20
-59.72572682557039
 30
0.0
 41
3.000002787824364
 42
2.999989273978464
 50
270.0
  0
INSERT
  5
29E
330
9B
100
AcDbEntity
  8
LAYER0014
 62
     7
100
AcDbBlockReference
  2
_OPEN30
 10
63.75327916087135
 20
-40.52572806734405
 30
0.0
 41
3.000002787824364
 42
2.999989273978464
 50
90.0
  0
TEXT
  5
29F
330
9B
100
AcDbEntity
  8
LAYER0014
 62
     7
100
AcDbText
 10
62.75327916087135
 20
-56.12572744645722
 30
0.0
 40
3.0
  1
19.2
 50
90.0
 41
1.000000000000001
  7
FDASTYLE0
 72
     5
 11
62.75327916087135
 21
-44.12572744645721
 31
0.0
100
AcDbText
  0
ENDBLK
  5
9D
330
9B
100
AcDbEntity
  8
0
100
AcDbBlockEnd
  0
BLOCK
  5
9F
330
9E
100
AcDbEntity
  8
0
100
AcDbBlockBegin
  2
DC_GROUP_20
 70
     0
 71
     0
 10
0.0
 20
0.0
 30
0.0
  3
DC_GROUP_20
  1

  0
LINE
  5
2A0
330
9E
100
AcDbEntity
  8
ZUWAKU
  6
CONTINUOUS
 62
     4
100
AcDbLine
 10
-164.2106930950021
 20
-14.98162790611657
 30
0.0
 11
-160.7465914798644
 21
-8.981627906116572
 31
0.0
  0
LINE
  5
2A1
330
9E
100
AcDbEntity
  8
ZUWAKU
  6
CONTINUOUS
 62
     4
100
AcDbLine
 10
-160.7465914798644
 20
-8.981627906116572
 30
0.0
 11
-157.2824898647266
 21
-14.98162790611657
 31
0.0
  0
LINE
  5
2A2
330
9E
100
AcDbEntity
  8
ZUWAKU
  6
CONTINUOUS
 62
     4
100
AcDbLine
 10
-164.2106930950021
 20
-14.98162790611657
 30
0.0
 11
-157.2824898647266
 21
-14.98162790611657
 31
0.0
  0
TEXT
  5
2A3
330
9E
100
AcDbEntity
  8
ZUWAKU
 62
     7
100
AcDbText
 10
-161.9465914798643
 20
-14.48162790611657
 30
0.0
 40
3.0
  1
1
 41
0.7999999999999924
  7
FDASTYLE0
 72
     5
 11
-159.5465914798644
 21
-14.48162790611657
 31
0.0
100
AcDbText
  0
ENDBLK
  5
A0
330
9E
100
AcDbEntity
  8
0
100
AcDbBlockEnd
  0
BLOCK
  5
A2
330
A1
100
AcDbEntity
  8
0
100
AcDbBlockBegin
  2
DC_GROUP_21
 70
     0
 71
     0
 10
0.0
 20
0.0
 30
0.0
  3
DC_GROUP_21
  1

  0
LINE
  5
2A4
330
A1
100
AcDbEntity
  8
ZUWAKU
  6
CONTINUOUS
 62
     4
100
AcDbLine
 10
131.1815321553402
 20
-68.12491272365269
 30
0.0
 11
134.6456337704779
 21
-62.12491272365269
 31
0.0
  0
LINE
  5
2A5
330
A1
100
AcDbEntity
  8
ZUWAKU
  6
CONTINUOUS
 62
     4
100
AcDbLine
 10
134.6456337704779
 20
-62.12491272365269
 30
0.0
 11
138.1097353856157
 21
-68.12491272365269
 31
0.0
  0
LINE
  5
2A6
330
A1
100
AcDbEntity
  8
ZUWAKU
  6
CONTINUOUS
 62
     4
100
AcDbLine
 10
131.1815321553402
 20
-68.12491272365269
 30
0.0
 11
138.1097353856157
 21
-68.12491272365269
 31
0.0
  0
TEXT
  5
2A7
330
A1
100
AcDbEntity
  8
ZUWAKU
 62
     7
100
AcDbText
 10
133.4456337704779
 20
-67.62491272365269
 30
0.0
 40
3.0
  1
1
 41
0.7999999999999924
  7
FDASTYLE0
 72
     5
 11
135.8456337704779
 21
-67.62491272365269
 31
0.0
100
AcDbText
  0
ENDBLK
  5
A3
330
A1
100
AcDbEntity
  8
0
100
AcDbBlockEnd
  0
BLOCK
  5
256
330
255
100
AcDbEntity
  8
0
100
AcDbBlockBegin
  2
_OPEN30
 70
     0
 71
     0
 10
0.0
 20
0.0
 30
0.0
  3
_OPEN30
  1

  0
LINE
  5
258
330
255
100
AcDbEntity
  8
0
  6
BYBLOCK
 62
     0
100
AcDbLine
 10
-1.0
 20
0.267949
 30
0.0
 11
0.0
 21
0.0
 31
0.0
  0
LINE
  5
259
330
255
100
AcDbEntity
  8
0
  6
BYBLOCK
 62
     0
100
AcDbLine
 10
0.0
 20
0.0
 30
0.0
 11
-1.0
 21
-0.267949
 31
0.0
  0
LINE
  5
25A
330
255
100
AcDbEntity
  8
0
  6
BYBLOCK
 62
     0
100
AcDbLine
 10
0.0
 20
0.0
 30
0.0
 11
-1.0
 21
0.0
 31
0.0
  0
ENDBLK
  5
257
330
255
100
AcDbEntity
  8
0
100
AcDbBlockEnd
  0
ENDSEC
  0
SECTION
  2
ENTITIES
  0
LINE
  5
2A8
330
1F
100
AcDbEntity
  8
ZUWAKU
  6
CONTINUOUS
 62
     7
100
AcDbLine
 10
-192.5
 20
-138.5
 30
0.0
 11
192.5
 21
-138.5
 31
0.0
  0
LINE
  5
2A9
330
1F
100
AcDbEntity
  8
ZUWAKU
  6
CONTINUOUS
 62
     7
100
AcDbLine
 10
-192.5
 20
138.5
 30
0.0
 11
192.5
 21
138.5
 31
0.0
  0
LINE
  5
2AA
330
1F
100
AcDbEntity
  8
ZUWAKU
  6
CONTINUOUS
 62
     7
100
AcDbLine
 10
-192.5
 20
-138.5
 30
0.0
 11
-192.5
 21
138.5
 31
0.0
  0
LINE
  5
2AB
330
1F
100
AcDbEntity
  8
ZUWAKU
  6
CONTINUOUS
 62
     7
100
AcDbLine
 10
192.5
 20
-138.5
 30
0.0
 11
192.5
 21
138.5
 31
0.0
  0
LINE
  5
2AC
330
1F
100
AcDbEntity
  8
ZUWAKU
  6
CONTINUOUS
 62
     7
100
AcDbLine
 10
90.5
 20
-90.5
 30
0.0
 11
90.5
 21
-112.5
 31
0.0
  0
LINE
  5
2AD
330
1F
100
AcDbEntity
  8
ZUWAKU
  6
CONTINUOUS
 62
     7
100
AcDbLine
 10
0.0
 20
-148.5
 30
0.0
 11
0.0
 21
-138.5
 31
0.0
  0
LINE
  5
2AE
330
1F
100
AcDbEntity
  8
ZUWAKU
  6
CONTINUOUS
 62
     7
100
AcDbLine
 10
-210.0
 20
0.0
 30
0.0
 11
-192.5
 21
0.0
 31
0.0
  0
LINE
  5
2AF
330
1F
100
AcDbEntity
  8
ZUWAKU
  6
CONTINUOUS
 62
     7
100
AcDbLine
 10
0.0
 20
138.5
 30
0.0
 11
0.0
 21
148.5
 31
0.0
  0
LINE
  5
2B0
330
1F
100
AcDbEntity
  8
ZUWAKU
  6
CONTINUOUS
 62
     7
100
AcDbLine
 10
192.5
 20
0.0
 30
0.0
 11
210.0
 21
0.0
 31
0.0
  0
LINE
  5
2B1
330
1F
100
AcDbEntity
  8
ZUWAKU
  6
CONTINUOUS
 62
     7
100
AcDbLine
 10
7.5
 20
-96.50000000000003
 30
0.0
 11
7.5
 21
-128.5000000000001
 31
0.0
  0
LINE
  5
2B2
330
1F
100
AcDbEntity
  8
ZUWAKU
  6
CONTINUOUS
 62
     7
100
AcDbLine
 10
-9.5
 20
-96.50000000000003
 30
0.0
 11
-9.5
 21
-138.5
 31
0.0
  0
LINE
  5
2B3
330
1F
100
AcDbEntity
  8
ZUWAKU
  6
CONTINUOUS
 62
     7
100
AcDbLine
 10
-26.5
 20
-96.50000000000003
 30
0.0
 11
-26.5
 21
-138.5
 31
0.0
  0
LINE
  5
2B4
330
1F
100
AcDbEntity
  8
ZUWAKU
  6
CONTINUOUS
 62
     7
100
AcDbLine
 10
-43.5
 20
-96.50000000000003
 30
0.0
 11
-43.5
 21
-138.5
 31
0.0
  0
LINE
  5
2B5
330
1F
100
AcDbEntity
  8
ZUWAKU
  6
CONTINUOUS
 62
     7
100
AcDbLine
 10
-60.5
 20
-96.50000000000003
 30
0.0
 11
-60.5
 21
-138.5
 31
0.0
  0
LINE
  5
2B6
330
1F
100
AcDbEntity
  8
ZUWAKU
  6
CONTINUOUS
 62
     7
100
AcDbLine
 10
70.5
 20
-79.5
 30
0.0
 11
192.5
 21
-79.5
 31
0.0
  0
LINE
  5
2B7
330
1F
100
AcDbEntity
  8
ZUWAKU
  6
CONTINUOUS
 62
     7
100
AcDbLine
 10
70.5
 20
-79.5
 30
0.0
 11
70.5
 21
-138.5
 31
0.0
  0
LINE
  5
2B8
330
1F
100
AcDbEntity
  8
ZUWAKU
  6
CONTINUOUS
 62
     7
100
AcDbLine
 10
70.5
 20
-101.5
 30
0.0
 11
192.5
 21
-101.5
 31
0.0
  0
LINE
  5
2B9
330
1F
100
AcDbEntity
  8
ZUWAKU
  6
CONTINUOUS
 62
     7
100
AcDbLine
 10
70.5
 20
-90.5
 30
0.0
 11
192.5
 21
-90.5
 31
0.0
  0
LINE
  5
2BA
330
1F
100
AcDbEntity
  8
ZUWAKU
  6
CONTINUOUS
 62
     7
100
AcDbLine
 10
70.5
 20
-112.5
 30
0.0
 11
192.5
 21
-112.5
 31
0.0
  0
LINE
  5
2BB
330
1F
100
AcDbEntity
  8
ZUWAKU
  6
CONTINUOUS
 62
     7
100
AcDbLine
 10
70.5
 20
-123.5
 30
0.0
 11
192.5
 21
-123.5
 31
0.0
  0
LINE
  5
2BC
330
1F
100
AcDbEntity
  8
ZUWAKU
  6
CONTINUOUS
 62
     7
100
AcDbLine
 10
158.5
 20
-79.5
 30
0.0
 11
158.5
 21
-123.5
 31
0.0
  0
LINE
  5
2BD
330
1F
100
AcDbEntity
  8
ZUWAKU
  6
CONTINUOUS
 62
     7
100
AcDbLine
 10
114.5
 20
-112.5
 30
0.0
 11
114.5
 21
-123.5
 31
0.0
  0
LINE
  5
2BE
330
1F
100
AcDbEntity
  8
ZUWAKU
  6
CONTINUOUS
 62
     7
100
AcDbLine
 10
136.5
 20
-112.5
 30
0.0
 11
136.5
 21
-123.5
 31
0.0
  0
LINE
  5
2BF
330
1F
100
AcDbEntity
  8
ZUWAKU
  6
CONTINUOUS
 62
     7
100
AcDbLine
 10
92.5
 20
-112.5
 30
0.0
 11
92.5
 21
-123.5
 31
0.0
  0
LINE
  5
2C0
330
1F
100
AcDbEntity
  8
ZUWAKU
  6
CONTINUOUS
 62
     7
100
AcDbLine
 10
-192.5
 20
-96.50000000000003
 30
0.0
 11
7.5
 21
-96.50000000000003
 31
0.0
  0
LINE
  5
2C1
330
1F
100
AcDbEntity
  8
ZUWAKU
  6
CONTINUOUS
 62
     7
100
AcDbLine
 10
-192.5
 20
-103.5
 30
0.0
 11
7.5
 21
-103.5
 31
0.0
  0
LINE
  5
2C2
330
1F
100
AcDbEntity
  8
ZUWAKU
  6
CONTINUOUS
 62
     7
100
AcDbLine
 10
-192.5
 20
-110.5
 30
0.0
 11
7.5
 21
-110.5
 31
0.0
  0
LINE
  5
2C3
330
1F
100
AcDbEntity
  8
ZUWAKU
  6
CONTINUOUS
 62
     7
100
AcDbLine
 10
-185.5
 20
-96.50000000000003
 30
0.0
 11
-185.5
 21
-138.5
 31
0.0
  0
LINE
  5
2C4
330
1F
100
AcDbEntity
  8
ZUWAKU
  6
CONTINUOUS
 62
     7
100
AcDbLine
 10
-192.5
 20
-131.5
 30
0.0
 11
7.5
 21
-131.5
 31
0.0
  0
LINE
  5
2C5
330
1F
100
AcDbEntity
  8
ZUWAKU
  6
CONTINUOUS
 62
     7
100
AcDbLine
 10
-192.5
 20
-124.5
 30
0.0
 11
7.5
 21
-124.5
 31
0.0
  0
LINE
  5
2C6
330
1F
100
AcDbEntity
  8
ZUWAKU
  6
CONTINUOUS
 62
     7
100
AcDbLine
 10
-192.0
 20
-117.5
 30
0.0
 11
7.5
 21
-117.5
 31
0.0
  0
LINE
  5
2C7
330
1F
100
AcDbEntity
  8
ZUWAKU
  6
CONTINUOUS
 62
     7
100
AcDbLine
 10
-155.5
 20
-96.50000000000003
 30
0.0
 11
-155.5
 21
-138.5
 31
0.0
  0
LINE
  5
2C8
330
1F
100
AcDbEntity
  8
ZUWAKU
  6
CONTINUOUS
 62
     7
100
AcDbLine
 10
7.5
 20
-96.50000000000003
 30
0.0
 11
7.5
 21
-138.5
 31
0.0
  0
LINE
  5
2C9
330
1F
100
AcDbEntity
  8
ZUWAKU
  6
CENTER
 62
     7
100
AcDbLine
 10
180.7113630049175
 20
-140.9999737700873
 30
0.0
 11
191.8113538549173
 21
-140.9999737700873
 31
0.0
  0
LINE
  5
2CA
330
1F
100
AcDbEntity
  8
ZUWAKU
  6
CENTER
 62
     7
100
AcDbLine
 10
183.0113431749173
 20
-138.6999859800873
 30
0.0
 11
183.0113431749173
 21
-143.2999768300873
 31
0.0
  0
TEXT
  5
2CB
330
1F
100
AcDbEntity
  8
ZUWAKU
 62
     7
100
AcDbText
 10
158.6520598751473
 20
-82.43445270859417
 30
0.0
 40
2.299999952316284
  1
設計図番
 41
0.8404558677421614
  7
FDASTYLE0
 72
     5
 11
170.4520600658822
 21
-82.43445270859417
 31
0.0
100
AcDbText
  0
TEXT
  5
2CC
330
1F
100
AcDbEntity
  8
ZUWAKU
 62
     7
100
AcDbText
 10
158.7325933361632
 20
-93.22593648471417
 30
0.0
 40
2.299999952316284
  1
図面番号
 41
0.8404558677421614
  7
FDASTYLE0
 72
     5
 11
170.532593526898
 21
-93.22593648471417
 31
0.0
100
AcDbText
  0
TEXT
  5
2CD
330
1F
100
AcDbEntity
  8
ZUWAKU
 62
     7
100
AcDbText
 10
158.813126797179
 20
-115.2921048030491
 30
0.0
 40
2.299999952316284
  1
設計年月日
 41
0.8426966561525857
  7
FDASTYLE0
 72
     5
 11
173.8131270355976
 21
-115.2921048030491
 31
0.0
100
AcDbText
  0
TEXT
  5
2CE
330
1F
100
AcDbEntity
  8
ZUWAKU
 62
     7
100
AcDbText
 10
31.10472754811019
 20
-136.008337619557
 30
0.0
 40
5.0
  1
等級Ｂ
 41
0.8333333333333335
  7
FDASTYLE0
 72
     5
 11
46.10472754811019
 21
-136.008337619557
 31
0.0
100
AcDbText
  0
TEXT
  5
2CF
330
1F
100
AcDbEntity
  8
ZUWAKU
 62
     7
100
AcDbText
 10
73.07690631808279
 20
-98.92331154684119
 30
0.0
 40
5.0
  1
材　質
 41
0.8333333333333334
  7
FDASTYLE0
 72
     5
 11
88.07690631808279
 21
-98.92331154684119
 31
0.0
100
AcDbText
  0
TEXT
  5
2D0
330
1F
100
AcDbEntity
  8
ZUWAKU
 62
     7
100
AcDbText
 10
72.9235294117647
 20
-109.1803921568629
 30
0.0
 40
5.0
  1
色　調
 41
0.8333333333333334
  7
FDASTYLE0
 72
     5
 11
87.9235294117647
 21
-109.1803921568629
 31
0.0
100
AcDbText
  0
TEXT
  5
2D1
330
1F
100
AcDbEntity
  8
ZUWAKU
 62
     7
100
AcDbText
 10
149.2318473015103
 20
-142.5
 30
0.0
 40
3.0
  1
Ａ３　　単位：ｍｍ
 41
0.8333333333333334
  7
FDASTYLE0
 72
     5
 11
176.2318473015103
 21
-142.5
 31
0.0
100
AcDbText
  0
TEXT
  5
2D2
330
1F
100
AcDbEntity
  8
ZUWAKU
 62
     7
100
AcDbText
 10
136.8245420290309
 20
-115.3968693113115
 30
0.0
 40
2.299999952316284
  1
製図
 41
0.8282208880597839
  7
FDASTYLE0
 72
     5
 11
142.2245421243984
 21
-115.3968693113115
 31
0.0
100
AcDbText
  0
TEXT
  5
2D3
330
1F
100
AcDbEntity
  8
ZUWAKU
 62
     7
100
AcDbText
 10
92.80004210336084
 20
-115.3122068114545
 30
0.0
 40
2.299999952316284
  1
検図
 41
0.8282208880597839
  7
FDASTYLE0
 72
     5
 11
98.20004219872827
 21
-115.3122068114545
 31
0.0
100
AcDbText
  0
TEXT
  5
2D4
330
1F
100
AcDbEntity
  8
ZUWAKU
 62
     7
100
AcDbText
 10
71.66392216239117
 20
-115.3615687050939
 30
0.0
 40
2.299999952316284
  1
承認
 41
0.8282208880597839
  7
FDASTYLE0
 72
     5
 11
77.06392225775861
 21
-115.3615687050939
 31
0.0
100
AcDbText
  0
TEXT
  5
2D5
330
1F
100
AcDbEntity
  8
ZUWAKU
 62
     7
100
AcDbText
 10
114.8000421033608
 20
-115.3122068114545
 30
0.0
 40
2.299999952316284
  1
確認
 41
0.8282208880597839
  7
FDASTYLE0
 72
     5
 11
120.2000421987283
 21
-115.3122068114545
 31
0.0
100
AcDbText
  0
TEXT
  5
2D6
330
1F
100
AcDbEntity
  8
ZUWAKU
 62
     7
100
AcDbText
 10
158.6520598751473
 20
-104.1784871828658
 30
0.0
 40
2.299999952316284
  1
尺　　度
 41
0.8404558677421614
  7
FDASTYLE0
 72
     5
 11
170.4520600658822
 21
-104.1784871828658
 31
0.0
100
AcDbText
  0
TEXT
  5
2D7
330
1F
100
AcDbEntity
  8
ZUWAKU
 62
     7
100
AcDbText
 10
-39.34299945831299
 20
-136.6000000238419
 30
0.0
 40
3.200000047683716
  1
確 認
 41
0.7364760850881585
  7
FDASTYLE0
 72
     5
 11
-30.65700054168701
 21
-136.6000000238419
 31
0.0
100
AcDbText
  0
TEXT
  5
2D8
330
1F
100
AcDbEntity
  8
ZUWAKU
 62
     7
100
AcDbText
 10
-124.0859980583191
 20
-136.6000000238419
 30
0.0
 40
3.200000047683716
  1
変  更  履  歴
 41
0.742405348260007
  7
FDASTYLE0
 72
     5
 11
-93.00000214576721
 21
-136.6000000238419
 31
0.0
100
AcDbText
  0
TEXT
  5
2D9
330
1F
100
AcDbEntity
  8
ZUWAKU
 62
     7
100
AcDbText
 10
-5.342999458312988
 20
-136.6000000238419
 30
0.0
 40
3.200000047683716
  1
承 認
 41
0.7364760850881585
  7
FDASTYLE0
 72
     5
 11
3.342999458312988
 21
-136.6000000238419
 31
0.0
100
AcDbText
  0
TEXT
  5
2DA
330
1F
100
AcDbEntity
  8
ZUWAKU
 62
     7
100
AcDbText
 10
-181.2429986000061
 20
-136.6000000238419
 30
0.0
 40
3.200000047683716
  1
年  月  日
 41
0.7437174693459515
  7
FDASTYLE0
 72
     5
 11
-159.7570013999939
 21
-136.6000000238419
 31
0.0
100
AcDbText
  0
TEXT
  5
2DB
330
1F
100
AcDbEntity
  8
ZUWAKU
 62
     7
100
AcDbText
 10
-22.34299945831299
 20
-136.6000000238419
 30
0.0
 40
3.200000047683716
  1
検　図
 41
0.6507341227548625
  7
FDASTYLE0
 72
     5
 11
-13.65700054168701
 21
-136.6000000238419
 31
0.0
100
AcDbText
  0
TEXT
  5
2DC
330
1F
100
AcDbEntity
  8
ZUWAKU
 62
     7
100
AcDbText
 10
-56.34299945831299
 20
-136.6000000238419
 30
0.0
 40
3.200000047683716
  1
変 更
 41
0.7364760850881585
  7
FDASTYLE0
 72
     5
 11
-47.65700054168701
 21
-136.6000000238419
 31
0.0
100
AcDbText
  0
LINE
  5
2DD
330
1F
100
AcDbEntity
  8
ZUWAKU
  6
CONTINUOUS
 62
     7
100
AcDbLine
 10
187.0113889449171
 20
-140.2499966600873
 30
0.0
 11
191.0113889449171
 21
-139.4999814000873
 31
0.0
  0
LINE
  5
2DE
330
1F
100
AcDbEntity
  8
ZUWAKU
  6
CONTINUOUS
 62
     7
100
AcDbLine
 10
191.0113660549173
 20
-142.5000042900873
 30
0.0
 11
187.0113660549172
 21
-141.7499890300873
 31
0.0
  0
CIRCLE
  5
2DF
330
1F
100
AcDbEntity
  8
ZUWAKU
  6
CONTINUOUS
 62
     7
100
AcDbCircle
 10
183.0113431749173
 20
-140.9999737700873
 30
0.0
 40
0.75
  0
LINE
  5
2E0
330
1F
100
AcDbEntity
  8
ZUWAKU
  6
CONTINUOUS
 62
     7
100
AcDbLine
 10
187.0113431749173
 20
-140.2499737700873
 30
0.0
 11
187.0113431749173
 21
-141.7499890300873
 31
0.0
  0
LINE
  5
2E1
330
1F
100
AcDbEntity
  8
ZUWAKU
  6
CONTINUOUS
 62
     7
100
AcDbLine
 10
191.0113431749173
 20
-139.4999737700873
 30
0.0
 11
191.0113431749173
 21
-142.4999890300873
 31
0.0
  0
CIRCLE
  5
2E2
330
1F
100
AcDbEntity
  8
ZUWAKU
  6
CONTINUOUS
 62
     7
100
AcDbCircle
 10
183.0113431749173
 20
-140.9999737700873
 30
0.0
 40
1.5
  0
INSERT
  5
2E3
330
1F
100
AcDbEntity
  8
0
  6
CONTINUOUS
100
AcDbBlockReference
  2
DC_GROUP_1
 10
0.0
 20
0.0
 30
0.0
  0
INSERT
  5
2E4
330
1F
100
AcDbEntity
  8
ZUWAKU
  6
CONTINUOUS
100
AcDbBlockReference
  2
DC_GROUP_13
 10
0.0
 20
0.0
 30
0.0
  0
INSERT
  5
2E5
330
1F
100
AcDbEntity
  8
ZUWAKU
  6
CONTINUOUS
100
AcDbBlockReference
  2
DC_GROUP_14
 10
0.0
 20
0.0
 30
0.0
  0
INSERT
  5
2E6
330
1F
100
AcDbEntity
  8
ZUWAKU
  6
CONTINUOUS
100
AcDbBlockReference
  2
DC_GROUP_15
 10
0.0
 20
0.0
 30
0.0
  0
INSERT
  5
2E7
330
1F
100
AcDbEntity
  8
ZUWAKU
  6
CONTINUOUS
100
AcDbBlockReference
  2
DC_GROUP_16
 10
0.0
 20
0.0
 30
0.0
  0
INSERT
  5
2E8
330
1F
100
AcDbEntity
  8
ZUWAKU
  6
CONTINUOUS
100
AcDbBlockReference
  2
DC_GROUP_17
 10
0.0
 20
0.0
 30
0.0
  0
INSERT
  5
2E9
330
1F
100
AcDbEntity
  8
ZUWAKU
  6
CONTINUOUS
100
AcDbBlockReference
  2
DC_GROUP_18
 10
0.0
 20
0.0
 30
0.0
  0
INSERT
  5
2EA
330
1F
100
AcDbEntity
  8
ZUWAKU
  6
CONTINUOUS
100
AcDbBlockReference
  2
DC_GROUP_19
 10
0.0
 20
0.0
 30
0.0
  0
INSERT
  5
2EB
330
1F
100
AcDbEntity
  8
ZUWAKU
  6
CONTINUOUS
100
AcDbBlockReference
  2
DC_GROUP_20
 10
0.0
 20
0.0
 30
0.0
  0
INSERT
  5
2EC
330
1F
100
AcDbEntity
  8
ZUWAKU
  6
CONTINUOUS
100
AcDbBlockReference
  2
DC_GROUP_21
 10
0.0
 20
0.0
 30
0.0
  0
TEXT
  5
2ED
330
1F
100
AcDbEntity
  8
LAYER0015
 62
     7
100
AcDbText
 10
158.3498749022663
 20
-100.0036781348234
 30
0.0
 40
5.0
  1
15532A
  7
FDASTYLE0
 72
     5
 11
188.3498749022663
 21
-100.0036781348234
 31
0.0
100
AcDbText
  0
TEXT
  5
2EE
330
1F
100
AcDbEntity
  8
LAYER0015
 62
     7
100
AcDbText
 10
70.88564909702789
 20
-86.93222661659917
 30
0.0
 40
5.0
  1
新止水プレートＰＫＰ
 41
0.8333333333333334
  7
FDASTYLE0
 72
     5
 11
120.8856490970279
 21
-86.93222661659917
 31
0.0
100
AcDbText
  0
TEXT
  5
2EF
330
1F
100
AcDbEntity
  8
LAYER0015
 62
     7
100
AcDbText
 10
139.8008962095693
 20
-121.9148407864637
 30
0.0
 40
5.0
  1
平田
 41
0.8333333333333334
  7
FDASTYLE0
 72
     5
 11
149.8008962095693
 21
-121.9148407864637
 31
0.0
100
AcDbText
  0
TEXT
  5
2F0
330
1F
100
AcDbEntity
  8
LAYER0015
 62
     7
100
AcDbText
 10
92.054127092407
 20
-98.12814592659269
 30
0.0
 40
5.0
  1
ＰＰ、エラストマー
 41
0.833333333333333
  7
FDASTYLE0
 72
     5
 11
137.054127092407
 21
-98.12814592659269
 31
0.0
100
AcDbText
  0
TEXT
  5
2F1
330
1F
100
AcDbEntity
  8
LAYER0015
 62
     7
100
AcDbText
 10
92.054127092407
 20
-109.2602879620249
 30
0.0
 40
5.0
  1
グレー、コーヒーブラウン
 41
0.8333333333333332
  7
FDASTYLE0
 72
     5
 11
152.054127092407
 21
-109.2602879620249
 31
0.0
100
AcDbText
  0
TEXT
  5
2F2
330
1F
100
AcDbEntity
  8
LAYER0015
 62
     7
100
AcDbText
 10
160.645474507651
 20
-120.9080450954827
 30
0.0
 40
3.0
  1
１９９８．１．１９
 41
0.8333333333333334
  7
FDASTYLE0
 72
     5
 11
187.645474507651
 21
-120.9080450954827
 31
0.0
100
AcDbText
  0
TEXT
  5
2F3
330
1F
100
AcDbEntity
  8
LAYER0015
 62
     7
100
AcDbText
 10
166.5941648737996
 20
-110.7969250144304
 30
0.0
 40
5.0
  1
１／１
 41
0.8333333333333334
  7
FDASTYLE0
 72
     5
 11
181.5941648737996
 21
-110.7969250144304
 31
0.0
100
AcDbText
  0
TEXT
  5
2F4
330
1F
100
AcDbEntity
  8
LAYER0015
 62
     7
100
AcDbText
 10
95.52225332187487
 20
-121.9683065336246
 30
0.0
 40
5.0
  1
大西
 41
0.8333333333333334
  7
FDASTYLE0
 72
     5
 11
105.5222533218749
 21
-121.9683065336246
 31
0.0
100
AcDbText
  0
TEXT
  5
2F5
330
1F
100
AcDbEntity
  8
LAYER0015
 62
     7
100
AcDbText
 10
73.52225332187487
 20
-121.9683065336246
 30
0.0
 40
5.0
  1
伊藤
 41
0.8333333333333334
  7
FDASTYLE0
 72
     5
 11
83.52225332187487
 21
-121.9683065336246
 31
0.0
100
AcDbText
  0
TEXT
  5
2F6
330
1F
100
AcDbEntity
  8
LAYER0015
 62
     7
100
AcDbText
 10
-184.1650163334236
 20
-129.3027596909698
 30
0.0
 40
3.0
  1
1999.6.19
  7
FDASTYLE0
 72
     5
 11
-157.1650163334236
 21
-129.3027596909698
 31
0.0
100
AcDbText
  0
TEXT
  5
2F7
330
1F
100
AcDbEntity
  8
LAYER0015
 62
     7
100
AcDbText
 10
-154.594184613727
 20
-129.5282453358913
 30
0.0
 40
3.0
  1
材質表示追加・抗菌剤仕様追加
 41
0.8333333333333334
  7
FDASTYLE0
 72
     5
 11
-112.594184613727
 21
-129.5282453358913
 31
0.0
100
AcDbText
  0
TEXT
  5
2F8
330
1F
100
AcDbEntity
  8
LAYER0015
 62
     7
100
AcDbText
 10
159.5193620275377
 20
-88.26949353429845
 30
0.0
 40
3.0
  1
S3-1168Ａ
 41
0.975609756097561
  7
FDASTYLE0
 72
     5
 11
183.5193620275377
 21
-88.26949353429845
 31
0.0
100
AcDbText
  0
LINE
  5
2F9
330
1F
100
AcDbEntity
  8
0
  6
CONTINUOUS
 62
     7
100
AcDbLine
 10
136.5
 20
-112.5
 30
0.0
 11
114.5
 21
-123.5
 31
0.0
  0
LINE
  5
2FA
330
1F
100
AcDbEntity
  8
0
  6
CONTINUOUS
 62
     7
100
AcDbLine
 10
-60.5
 20
-131.5
 30
0.0
 11
-43.5
 21
-124.5
 31
0.0
  0
LINE
  5
2FB
330
1F
100
AcDbEntity
  8
0
  6
CONTINUOUS
 62
     7
100
AcDbLine
 10
-43.5
 20
-131.5
 30
0.0
 11
-26.5
 21
-124.5
 31
0.0
  0
LINE
  5
2FC
330
1F
100
AcDbEntity
  8
0
  6
CONTINUOUS
 62
     7
100
AcDbLine
 10
-26.5
 20
-131.5
 30
0.0
 11
-9.5
 21
-124.5
 31
0.0
  0
LINE
  5
2FD
330
1F
100
AcDbEntity
  8
0
  6
CONTINUOUS
 62
     7
100
AcDbLine
 10
-9.5
 20
-131.5
 30
0.0
 11
7.5
 21
-124.5
 31
0.0
  0
LINE
  5
2FE
330
1F
100
AcDbEntity
  8
0
  6
CONTINUOUS
 62
     7
100
AcDbLine
 10
-128.2070769990397
 20
-50.46193995064093
 30
0.0
 11
-128.2070769990397
 21
-50.72572806734404
 31
0.0
  0
LINE
  5
2FF
330
1F
100
AcDbEntity
  8
0
  6
CONTINUOUS
 62
     7
100
AcDbLine
 10
-108.9010992158366
 20
-15.33328252003473
 30
0.0
 11
-167.2490989745569
 21
-15.33328252003473
 31
0.0
  0
LINE
  5
300
330
1F
100
AcDbEntity
  8
0
  6
CONTINUOUS
 62
     7
100
AcDbLine
 10
129.8854095498741
 20
-68.76845813404071
 30
0.0
 11
171.4166663002089
 21
-68.76845813404071
 31
0.0
  0
LINE
  5
301
330
1F
100
AcDbEntity
  8
0
  6
CONTINUOUS
 62
     7
100
AcDbLine
 10
-76.0944325491699
 20
49.39338414663195
 30
0.0
 11
-108.9010992158366
 21
-15.33328252003474
 31
0.0
  0
INSERT
  5
302
330
1F
100
AcDbEntity
  8
0
 62
     7
100
AcDbBlockReference
  2
_OPEN30
 10
-76.0944325491699
 20
49.39338414663195
 30
0.0
 41
3.000002787824364
 42
2.999989273978464
 50
63.12186024790135
  0
LINE
  5
303
330
1F
100
AcDbEntity
  8
0
  6
CENTER
 62
    41
100
AcDbLine
 10
-135.4560617390629
 20
54.93088414663194
 30
0.0
 11
42.76393826093712
 21
54.93088414663194
 31
0.0
  0
LINE
  5
304
330
1F
100
AcDbEntity
  8
0
  6
CENTER
 62
    41
100
AcDbLine
 10
-90.38325006432676
 20
127.1161333607427
 30
0.0
 11
-7.237805564528358
 21
-16.89600093080639
 31
0.0
  0
LINE
  5
305
330
1F
100
AcDbEntity
  8
0
  6
DASHED2
 62
    41
100
AcDbLine
 10
-40.26642987379555
 20
47.93088414663194
 30
0.0
 11
-3.340625735611951
 21
47.93088414663194
 31
0.0
  0
LINE
  5
306
330
1F
100
AcDbEntity
  8
0
  6
DASHED2
 62
    41
100
AcDbLine
 10
-40.26642987379555
 20
61.93088414663194
 30
0.0
 11
-3.340625735611951
 21
61.93088414663194
 31
0.0
  0
LINE
  5
307
330
1F
100
AcDbEntity
  8
0
  6
DASHED2
 62
    41
100
AcDbLine
 10
-117.3029770222918
 20
55.68088414663198
 30
0.0
 11
-115.7954329186775
 21
56.18088414663198
 31
0.0
  0
LINE
  5
308
330
1F
100
AcDbEntity
  8
0
  6
DASHED2
 62
    41
100
AcDbLine
 10
-115.7954329186775
 20
53.68088414663195
 30
0.0
 11
-117.3029770222918
 21
54.18088414663195
 31
0.0
  0
LINE
  5
309
330
1F
100
AcDbEntity
  8
0
  6
DASHED2
 62
    41
100
AcDbLine
 10
-81.16872320412807
 20
-3.79433637790649
 30
0.0
 11
-82.35550795782746
 21
-4.849907868961928
 31
0.0
  0
LINE
  5
30A
330
1F
100
AcDbEntity
  8
0
  6
DASHED2
 62
    41
100
AcDbLine
 10
-83.6545460635041
 20
-4.099907868961957
 30
0.0
 11
-83.33378671358916
 21
-2.544336377906515
 31
0.0
  0
LINE
  5
30B
330
1F
100
AcDbEntity
  8
0
  6
DASHED2
 62
    41
100
AcDbLine
 10
-15.05864604025201
 20
-4.849907868961992
 30
0.0
 11
-16.24543079395139
 21
-3.79433637790655
 31
0.0
  0
LINE
  5
30C
330
1F
100
AcDbEntity
  8
0
  6
DASHED2
 62
    41
100
AcDbLine
 10
-14.08036728449028
 20
-2.544336377906522
 30
0.0
 11
-13.75960793457534
 21
-4.099907868961964
 31
0.0
  0
LINE
  5
30D
330
1F
100
AcDbEntity
  8
0
  6
DASHED2
 62
    41
100
AcDbLine
 10
18.38127892059809
 20
56.18088414663193
 30
0.0
 11
19.88882302421241
 21
55.68088414663193
 31
0.0
  0
LINE
  5
30E
330
1F
100
AcDbEntity
  8
0
  6
DASHED2
 62
    41
100
AcDbLine
 10
19.88882302421243
 20
54.18088414663191
 30
0.0
 11
18.38127892059811
 21
53.68088414663191
 31
0.0
  0
LINE
  5
30F
330
1F
100
AcDbEntity
  8
0
  6
DASHED2
 62
    41
100
AcDbLine
 10
-16.24543079395133
 20
113.6561046711704
 30
0.0
 11
-15.05864604025195
 21
114.7116761622258
 31
0.0
  0
LINE
  5
310
330
1F
100
AcDbEntity
  8
0
  6
DASHED2
 62
    41
100
AcDbLine
 10
-13.7596079345753
 20
113.9616761622258
 30
0.0
 11
-14.08036728449024
 21
112.4061046711704
 31
0.0
  0
LINE
  5
311
330
1F
100
AcDbEntity
  8
0
  6
DASHED2
 62
    41
100
AcDbLine
 10
-83.33378671358909
 20
112.4061046711704
 30
0.0
 11
-83.65454606350404
 21
113.9616761622258
 31
0.0
  0
LINE
  5
312
330
1F
100
AcDbEntity
  8
0
  6
DASHED2
 62
    41
100
AcDbLine
 10
-82.35550795782737
 20
114.7116761622259
 30
0.0
 11
-81.16872320412799
 21
113.6561046711704
 31
0.0
  0
ARC
  5
313
330
1F
100
AcDbEntity
  8
0
  6
DASHED2
 62
    41
100
AcDbCircle
 10
-40.26642987379555
 20
42.93088414663194
 30
0.0
 40
5.0
100
AcDbArc
 50
90.00000250447816
 51
174.6624443990231
  0
ARC
  5
314
330
1F
100
AcDbEntity
  8
0
  6
DASHED2
 62
    41
100
AcDbCircle
 10
-3.340625735611951
 20
42.93088414663194
 30
0.0
 40
5.0
100
AcDbArc
 50
0.0
 51
90.00000250447816
  0
ARC
  5
315
330
1F
100
AcDbEntity
  8
0
  6
DASHED2
 62
    41
100
AcDbCircle
 10
-40.26642987379555
 20
66.93088414663194
 30
0.0
 40
5.0
100
AcDbArc
 50
185.3375556009769
 51
269.9999974955218
  0
ARC
  5
316
330
1F
100
AcDbEntity
  8
0
  6
DASHED2
 62
    41
100
AcDbCircle
 10
-3.340625735611951
 20
66.93088414663194
 30
0.0
 40
5.0
100
AcDbArc
 50
269.9999974955218
 51
360.0
  0
ARC
  5
317
330
1F
100
AcDbEntity
  8
0
  6
DASHED2
 62
    41
100
AcDbCircle
 10
-48.70707699903969
 20
54.93088414663194
 30
0.0
 40
67.09999999999999
100
AcDbArc
 50
178.9325802163955
 51
181.0674197836046
  0
ARC
  5
318
330
1F
100
AcDbEntity
  8
0
  6
DASHED2
 62
    41
100
AcDbCircle
 10
-48.70707699903969
 20
54.93088414663194
 30
0.0
 40
68.59999999999999
100
AcDbArc
 50
180.6264240633565
 51
239.3735759366435
  0
CIRCLE
  5
319
330
1F
100
AcDbEntity
  8
0
  6
DASHED2
 62
    41
100
AcDbCircle
 10
-48.70707699903969
 20
54.93088414663194
 30
0.0
 40
70.2
  0
ARC
  5
31A
330
1F
100
AcDbEntity
  8
0
  6
DASHED2
 62
    41
100
AcDbCircle
 10
-48.70707699903969
 20
54.93088414663194
 30
0.0
 40
67.09999999999999
100
AcDbArc
 50
238.9325802163955
 51
241.0674197836046
  0
ARC
  5
31B
330
1F
100
AcDbEntity
  8
0
  6
DASHED2
 62
    41
100
AcDbCircle
 10
-48.70707699903969
 20
54.93088414663194
 30
0.0
 40
67.09999999999999
100
AcDbArc
 50
298.9325802163954
 51
301.0674197836046
  0
ARC
  5
31C
330
1F
100
AcDbEntity
  8
0
  6
DASHED2
 62
    41
100
AcDbCircle
 10
-48.70707699903969
 20
54.93088414663194
 30
0.0
 40
67.09999999999999
100
AcDbArc
 50
358.9325802163954
 51
361.0674197836046
  0
ARC
  5
31D
330
1F
100
AcDbEntity
  8
0
  6
DASHED2
 62
    41
100
AcDbCircle
 10
-48.70707699903969
 20
54.93088414663194
 30
0.0
 40
67.09999999999999
100
AcDbArc
 50
58.93258021639544
 51
61.06741978360456
  0
ARC
  5
31E
330
1F
100
AcDbEntity
  8
0
  6
DASHED2
 62
    41
100
AcDbCircle
 10
-48.70707699903969
 20
54.93088414663194
 30
0.0
 40
67.09999999999999
100
AcDbArc
 50
118.9325802163954
 51
121.0674197836046
  0
ARC
  5
31F
330
1F
100
AcDbEntity
  8
0
  6
DASHED2
 62
    41
100
AcDbCircle
 10
-48.70707699903969
 20
54.93088414663194
 30
0.0
 40
68.59999999999999
100
AcDbArc
 50
120.6264240633564
 51
179.3735759366435
  0
ARC
  5
320
330
1F
100
AcDbEntity
  8
0
  6
DASHED2
 62
    41
100
AcDbCircle
 10
-48.70707699903969
 20
54.93088414663194
 30
0.0
 40
68.59999999999999
100
AcDbArc
 50
60.62642406335644
 51
119.3735759366435
  0
ARC
  5
321
330
1F
100
AcDbEntity
  8
0
  6
DASHED2
 62
    41
100
AcDbCircle
 10
-48.70707699903969
 20
54.93088414663194
 30
0.0
 40
68.59999999999999
100
AcDbArc
 50
0.6264240633564522
 51
59.37357593664348
  0
ARC
  5
322
330
1F
100
AcDbEntity
  8
0
  6
DASHED2
 62
    41
100
AcDbCircle
 10
-48.70707699903969
 20
54.93088414663194
 30
0.0
 40
68.59999999999999
100
AcDbArc
 50
300.6264240633564
 51
359.3735759366435
  0
ARC
  5
323
330
1F
100
AcDbEntity
  8
0
  6
DASHED2
 62
    41
100
AcDbCircle
 10
-48.70707699903969
 20
54.93088414663194
 30
0.0
 40
68.59999999999999
100
AcDbArc
 50
240.6264240633565
 51
299.3735759366435
  0
LINE
  5
324
330
1F
100
AcDbEntity
  8
0
  6
CONTINUOUS
 62
     7
100
AcDbLine
 10
-41.84101102003578
 20
63.93088414663194
 30
0.0
 11
4.481263188033068
 21
63.93088414663194
 31
0.0
  0
LINE
  5
325
330
1F
100
AcDbEntity
  8
0
  6
CONTINUOUS
 62
     7
100
AcDbLine
 10
-41.84101102003578
 20
45.93088414663194
 30
0.0
 11
4.481263188033068
 21
45.93088414663194
 31
0.0
  0
LINE
  5
326
330
1F
100
AcDbEntity
  8
0
  6
CONTINUOUS
 62
     7
100
AcDbLine
 10
-61.20708462843417
 20
-42.74923796626677
 30
0.0
 11
-41.9097564298256
 21
-63.60104988377884
 31
0.0
  0
LINE
  5
327
330
1F
100
AcDbEntity
  8
0
  6
CONTINUOUS
 62
     7
100
AcDbLine
 10
-47.71667229088322
 20
-43.38986531435332
 30
0.0
 11
-40.32283596283946
 21
-63.55833573015954
 31
0.0
  0
LINE
  5
328
330
1F
100
AcDbEntity
  8
0
  6
CONTINUOUS
 62
     7
100
AcDbLine
 10
8.335708085547012
 20
-47.70198009176028
 30
0.0
 11
-36.40715812894171
 21
-65.31718243598121
 31
0.0
  0
LINE
  5
329
330
1F
100
AcDbEntity
  8
0
  6
CONTINUOUS
 62
     7
100
AcDbLine
 10
23.2929230009603
 20
-51.72572806734404
 30
0.0
 11
29.79292300096032
 21
-51.72572806734404
 31
0.0
  0
LINE
  5
32A
330
1F
100
AcDbEntity
  8
0
  6
CONTINUOUS
 62
     7
100
AcDbLine
 10
-48.41581873007731
 20
-40.80876711556997
 30
0.0
 11
-47.96405294867185
 21
-41.24777270294335
 31
0.0
  0
LINE
  5
32B
330
1F
100
AcDbEntity
  8
0
  6
CONTINUOUS
 62
     7
100
AcDbLine
 10
-48.41662728720507
 20
-42.79939378303059
 30
0.0
 11
-47.92951346275032
 21
-43.25834706460309
 31
0.0
  0
LINE
  5
32C
330
1F
100
AcDbEntity
  8
0
  6
CONTINUOUS
 62
     7
100
AcDbLine
 10
-118.4070769990397
 20
-58.22572806734404
 30
0.0
 11
-117.8070769990397
 21
-58.22572806734404
 31
0.0
  0
LINE
  5
32D
330
1F
100
AcDbEntity
  8
0
  6
CONTINUOUS
 62
     7
100
AcDbLine
 10
-83.33378671358911
 20
-53.57798442535901
 30
0.0
 11
-81.168723204128
 21
-53.57798442535901
 31
0.0
  0
LINE
  5
32E
330
1F
100
AcDbEntity
  8
0
  6
CONTINUOUS
 62
     7
100
AcDbLine
 10
-118.9070769990397
 20
-49.90904858251869
 30
0.0
 11
-118.9070769990397
 21
-57.72572806734404
 31
0.0
  0
LINE
  5
32F
330
1F
100
AcDbEntity
  8
0
  6
CONTINUOUS
 62
     7
100
AcDbLine
 10
-117.3070769990397
 20
-53.57798442535901
 30
0.0
 11
-117.3070769990397
 21
-57.72572806734404
 31
0.0
  0
LINE
  5
330
330
1F
100
AcDbEntity
  8
0
  6
CONTINUOUS
 62
     7
100
AcDbLine
 10
20.99292300096033
 20
-58.22572806734404
 30
0.0
 11
20.39292300096034
 21
-58.22572806734404
 31
0.0
  0
LINE
  5
331
330
1F
100
AcDbEntity
  8
0
  6
CONTINUOUS
 62
     7
100
AcDbLine
 10
18.39292300096034
 20
-49.42568408209817
 30
0.0
 11
18.39292300096034
 21
-58.72572682557039
 31
0.0
  0
LINE
  5
332
330
1F
100
AcDbEntity
  8
0
  6
CONTINUOUS
 62
     7
100
AcDbLine
 10
21.49292300096033
 20
-50.01845774504395
 30
0.0
 11
21.49292300096033
 21
-57.72572806734404
 31
0.0
  0
LINE
  5
333
330
1F
100
AcDbEntity
  8
0
  6
CONTINUOUS
 62
     7
100
AcDbLine
 10
19.89292300096034
 20
-53.57798442535901
 30
0.0
 11
19.89292300096034
 21
-57.72572806734404
 31
0.0
  0
LINE
  5
334
330
1F
100
AcDbEntity
  8
0
  6
CONTINUOUS
 62
     7
100
AcDbLine
 10
-83.33378671358911
 20
-49.27471660565786
 30
0.0
 11
-83.33378671358911
 21
-53.57798442535901
 31
0.0
  0
LINE
  5
335
330
1F
100
AcDbEntity
  8
0
  6
CONTINUOUS
 62
     7
100
AcDbLine
 10
-81.168723204128
 20
-49.27471660565786
 30
0.0
 11
-81.168723204128
 21
-53.57798442535901
 31
0.0
  0
LINE
  5
336
330
1F
100
AcDbEntity
  8
0
  6
CONTINUOUS
 62
     7
100
AcDbLine
 10
-127.2070769990397
 20
-51.72572806734404
 30
0.0
 11
-120.7070769990397
 21
-51.72572806734404
 31
0.0
  0
LINE
  5
337
330
1F
100
AcDbEntity
  8
0
  6
CONTINUOUS
 62
     7
100
AcDbLine
 10
23.2929230009603
 20
-51.59972650682775
 30
0.0
 11
23.2929230009603
 21
-55.46519591447893
 31
0.0
  0
LINE
  5
338
330
1F
100
AcDbEntity
  8
0
  6
CONTINUOUS
 62
     7
100
AcDbLine
 10
23.9929230009603
 20
-57.72572682557039
 30
0.0
 11
23.9929230009603
 21
-59.42572682557039
 31
0.0
  0
LINE
  5
339
330
1F
100
AcDbEntity
  8
0
  6
CONTINUOUS
 62
     7
100
AcDbLine
 10
-22.2047808055305
 20
-59.72572682557039
 30
0.0
 11
23.69292300096031
 21
-59.72572682557039
 31
0.0
  0
LINE
  5
33A
330
1F
100
AcDbEntity
  8
0
  6
CONTINUOUS
 62
     7
100
AcDbLine
 10
-45.49617765910395
 20
-59.72572682557039
 30
0.0
 11
-121.1070769990397
 21
-59.72572682557039
 31
0.0
  0
LINE
  5
33B
330
1F
100
AcDbEntity
  8
0
  6
CONTINUOUS
 62
     7
100
AcDbLine
 10
-115.8070769990397
 20
-49.27471660565786
 30
0.0
 11
-115.8070769990397
 21
-58.72572682557039
 31
0.0
  0
LINE
  5
33C
330
1F
100
AcDbEntity
  8
0
  6
CONTINUOUS
 62
     7
100
AcDbLine
 10
-120.7070769990397
 20
-51.59972650682775
 30
0.0
 11
-120.7070769990397
 21
-55.46519591447893
 31
0.0
  0
LINE
  5
33D
330
1F
100
AcDbEntity
  8
0
  6
CONTINUOUS
 62
     7
100
AcDbLine
 10
-121.4070769990397
 20
-57.72572682557039
 30
0.0
 11
-121.4070769990397
 21
-59.42572682557039
 31
0.0
  0
LINE
  5
33E
330
1F
100
AcDbEntity
  8
0
  6
CONTINUOUS
 62
     7
100
AcDbLine
 10
-115.8070769990397
 20
-49.27471660565786
 30
0.0
 11
-55.16807451960121
 21
-49.27471660565786
 31
0.0
  0
LINE
  5
33F
330
1F
100
AcDbEntity
  8
0
  6
CONTINUOUS
 62
     7
100
AcDbLine
 10
3.957475265623089
 20
-49.42568408209817
 30
0.0
 11
18.39292300096034
 21
-49.42568408209817
 31
0.0
  0
ARC
  5
340
330
1F
100
AcDbEntity
  8
0
  6
CONTINUOUS
 62
     7
100
AcDbCircle
 10
-48.70708462843422
 20
54.93088414663194
 30
0.0
 40
60.0
100
AcDbArc
 50
14.74665333317162
 51
97.83748065252772
  0
ARC
  5
341
330
1F
100
AcDbEntity
  8
0
  6
CONTINUOUS
 62
     7
100
AcDbCircle
 10
-168.7070769990397
 20
54.93088414663194
 30
0.0
 40
120.0
100
AcDbArc
 50
0.0
 51
25.84193193228403
  0
ARC
  5
342
330
1F
100
AcDbEntity
  8
0
  6
CONTINUOUS
 62
     7
100
AcDbCircle
 10
-168.7070769990397
 20
54.93088414663194
 30
0.0
 40
120.0
100
AcDbArc
 50
334.158068067716
 51
360.0
  0
ARC
  5
343
330
1F
100
AcDbEntity
  8
0
  6
CONTINUOUS
 62
     7
100
AcDbCircle
 10
-56.20708462843422
 20
109.4171207188976
 30
0.0
 40
5.0
100
AcDbArc
 50
97.83748065252772
 51
205.8419301110512
  0
ARC
  5
344
330
1F
100
AcDbEntity
  8
0
  6
CONTINUOUS
 62
     7
100
AcDbCircle
 10
-56.20708462843422
 20
0.4446475743663143
 30
0.0
 40
5.0
100
AcDbArc
 50
154.1580662464831
 51
262.1625225351958
  0
ARC
  5
345
330
1F
100
AcDbEntity
  8
0
  6
CONTINUOUS
 62
     7
100
AcDbCircle
 10
-41.84101102003578
 20
71.93088414663194
 30
0.0
 40
8.0
100
AcDbArc
 50
187.6321439922643
 51
269.9999974955218
  0
ARC
  5
346
330
1F
100
AcDbEntity
  8
0
  6
CONTINUOUS
 62
     7
100
AcDbCircle
 10
-41.84101102003578
 20
37.93088414663194
 30
0.0
 40
8.0
100
AcDbArc
 50
90.00000250447816
 51
172.3678560077357
  0
ARC
  5
347
330
1F
100
AcDbEntity
  8
0
  6
CONTINUOUS
 62
     7
100
AcDbCircle
 10
4.481263188033068
 20
68.93088414663194
 30
0.0
 40
5.0
100
AcDbArc
 50
269.9999974955218
 51
374.7466533331716
  0
ARC
  5
348
330
1F
100
AcDbEntity
  8
0
  6
CONTINUOUS
 62
     7
100
AcDbCircle
 10
4.481263188033068
 20
40.93088414663194
 30
0.0
 40
5.0
100
AcDbArc
 50
345.2533466668284
 51
450.0000025044782
  0
ARC
  5
349
330
1F
100
AcDbEntity
  8
0
  6
CONTINUOUS
 62
     7
100
AcDbCircle
 10
-37.50614971572303
 20
-59.52572806734399
 30
0.0
 40
6.0
100
AcDbArc
 50
222.7827447540199
 51
270.0
  0
ARC
  5
34A
330
1F
100
AcDbEntity
  8
0
  6
CONTINUOUS
 62
     7
100
AcDbCircle
 10
-37.50614971572303
 20
-62.52572806734399
 30
0.0
 40
3.0
100
AcDbArc
 50
200.1331243228395
 51
291.4894886872656
  0
ARC
  5
34B
330
1F
100
AcDbEntity
  8
0
  6
CONTINUOUS
 62
     7
100
AcDbCircle
 10
-48.70708462843422
 20
54.93088414663194
 30
0.0
 40
60.0
100
AcDbArc
 50
262.1625225351958
 51
345.2533583922884
  0
ARC
  5
34C
330
1F
100
AcDbEntity
  8
0
  6
CONTINUOUS
 62
     7
100
AcDbCircle
 10
-48.73656753030652
 20
-390.5257268255704
 30
0.0
 40
350.0
100
AcDbArc
 50
90.06175423392988
 51
102.993697134765
  0
ARC
  5
34D
330
1F
100
AcDbEntity
  8
0
  6
CONTINUOUS
 62
     7
100
AcDbCircle
 10
-118.4070769990397
 20
-57.72572806734404
 30
0.0
 40
0.5
100
AcDbArc
 50
180.0
 51
270.0
  0
ARC
  5
34E
330
1F
100
AcDbEntity
  8
0
  6
CONTINUOUS
 62
     7
100
AcDbCircle
 10
-117.8070769990397
 20
-57.72572806734404
 30
0.0
 40
0.5
100
AcDbArc
 50
270.0
 51
360.0
  0
ARC
  5
34F
330
1F
100
AcDbEntity
  8
0
  6
CONTINUOUS
 62
     7
100
AcDbCircle
 10
20.39292300096034
 20
-57.72572806734404
 30
0.0
 40
0.5
100
AcDbArc
 50
180.0000000000001
 51
270.0000000000001
  0
ARC
  5
350
330
1F
100
AcDbEntity
  8
0
  6
CONTINUOUS
 62
     7
100
AcDbCircle
 10
20.99292300096033
 20
-57.72572806734404
 30
0.0
 40
0.5
100
AcDbArc
 50
270.0000000000001
 51
360.0000000000001
  0
ARC
  5
351
330
1F
100
AcDbEntity
  8
0
  6
CONTINUOUS
 62
     7
100
AcDbCircle
 10
29.79292300096032
 20
-50.72572806734404
 30
0.0
 40
1.0
100
AcDbArc
 50
257.555258855687
 51
360.0
  0
ARC
  5
352
330
1F
100
AcDbEntity
  8
0
  6
CONTINUOUS
 62
     7
100
AcDbCircle
 10
-45.41585308268557
 20
-391.5257280673441
 30
0.0
 40
348.0
100
AcDbArc
 50
77.5552588556871
 51
78.91491009696686
  0
ARC
  5
353
330
1F
100
AcDbEntity
  8
0
  6
CONTINUOUS
 62
     7
100
AcDbCircle
 10
-45.41585308268557
 20
-391.5257280673441
 30
0.0
 40
350.0
100
AcDbArc
 50
77.5552588556871
 51
90.30219889877834
  0
ARC
  5
354
330
1F
100
AcDbEntity
  8
0
  6
CONTINUOUS
 62
     7
100
AcDbCircle
 10
29.79292300096032
 20
-50.72572806734402
 30
0.0
 40
1.0
100
AcDbArc
 50
0.0
 51
77.55525885568714
  0
ARC
  5
355
330
1F
100
AcDbEntity
  8
0
  6
CONTINUOUS
 62
     7
100
AcDbCircle
 10
-127.2070769990397
 20
-50.72572806734404
 30
0.0
 40
1.0
100
AcDbArc
 50
180.0
 51
283.1862005102742
  0
ARC
  5
356
330
1F
100
AcDbEntity
  8
0
  6
CONTINUOUS
 62
     7
100
AcDbCircle
 10
-47.59446024337515
 20
-390.5239494477917
 30
0.0
 40
348.0
100
AcDbArc
 50
90.24898519543625
 51
101.3039218775544
  0
ARC
  5
357
330
1F
100
AcDbEntity
  8
0
  6
CONTINUOUS
 62
     7
100
AcDbCircle
 10
-127.2070769990397
 20
-50.46193995064093
 30
0.0
 40
1.0
100
AcDbArc
 50
102.993697134765
 51
180.0
  0
ARC
  5
358
330
1F
100
AcDbEntity
  8
0
  6
CONTINUOUS
 62
     7
100
AcDbCircle
 10
-49.10238267017719
 20
-43.52722587542887
 30
0.0
 40
1.0
100
AcDbArc
 50
46.70495726937478
 51
90.24898519543642
  0
ARC
  5
359
330
1F
100
AcDbEntity
  8
0
  6
CONTINUOUS
 62
     7
100
AcDbCircle
 10
-47.2437580797783
 20
-42.53051497220487
 30
0.0
 40
1.0
100
AcDbArc
 50
226.7049572693749
 51
270.3000908897428
  0
ARC
  5
35A
330
1F
100
AcDbEntity
  8
0
  6
CONTINUOUS
 62
     7
100
AcDbCircle
 10
-49.11272479096112
 20
-41.52592953950423
 30
0.0
 40
1.0
100
AcDbArc
 50
45.82069910130083
 51
90.06175423392975
  0
ARC
  5
35B
330
1F
100
AcDbEntity
  8
0
  6
CONTINUOUS
 62
     7
100
AcDbCircle
 10
-47.26714688778795
 20
-40.53061027900898
 30
0.0
 40
1.0
100
AcDbArc
 50
225.8206991013008
 51
270.3021988987783
  0
ARC
  5
35C
330
1F
100
AcDbEntity
  8
0
  6
CONTINUOUS
 62
     7
100
AcDbCircle
 10
-47.59446024337515
 20
-390.5239494477917
 30
0.0
 40
348.0
100
AcDbArc
 50
101.8248927982435
 51
103.1862005102747
  0
ARC
  5
35D
330
1F
100
AcDbEntity
  8
0
  6
CONTINUOUS
 62
     7
100
AcDbCircle
 10
-45.41585308268557
 20
-391.5257280673441
 30
0.0
 40
348.0
100
AcDbArc
 50
79.43455257380033
 51
90.30009088974281
  0
ARC
  5
35E
330
1F
100
AcDbEntity
  8
0
  6
CONTINUOUS
 62
     7
100
AcDbCircle
 10
24.2929230009603
 20
-51.59972650682775
 30
0.0
 40
1.0
100
AcDbArc
 50
78.41100046046446
 51
180.0
  0
ARC
  5
35F
330
1F
100
AcDbEntity
  8
0
  6
CONTINUOUS
 62
     7
100
AcDbCircle
 10
19.39292300096034
 20
-58.72572682557039
 30
0.0
 40
1.0
100
AcDbArc
 50
180.0
 51
270.0
  0
ARC
  5
360
330
1F
100
AcDbEntity
  8
0
  6
CONTINUOUS
 62
     7
100
AcDbCircle
 10
27.2929230009603
 20
-55.46519591447893
 30
0.0
 40
4.0
100
AcDbArc
 50
180.0
 51
214.4115086697695
  0
ARC
  5
361
330
1F
100
AcDbEntity
  8
0
  6
CONTINUOUS
 62
     7
100
AcDbCircle
 10
-116.8070769990397
 20
-58.72572682557039
 30
0.0
 40
1.0
100
AcDbArc
 50
270.0000000000001
 51
360.0000000000001
  0
ARC
  5
362
330
1F
100
AcDbEntity
  8
0
  6
CONTINUOUS
 62
     7
100
AcDbCircle
 10
-121.7070769990397
 20
-51.59972650682775
 30
0.0
 40
1.0
100
AcDbArc
 50
0.0000000000000509
 51
101.5889995395356
  0
ARC
  5
363
330
1F
100
AcDbEntity
  8
0
  6
CONTINUOUS
 62
     7
100
AcDbCircle
 10
-124.7070769990397
 20
-55.46519591447893
 30
0.0
 40
4.0
100
AcDbArc
 50
325.5884913302306
 51
360.0000000000001
  0
ARC
  5
364
330
1F
100
AcDbEntity
  8
0
  6
CONTINUOUS
 62
     7
100
AcDbCircle
 10
-121.1070769990397
 20
-59.42572682557039
 30
0.0
 40
0.3
100
AcDbArc
 50
180.0000000000001
 51
270.0000000000001
  0
ARC
  5
365
330
1F
100
AcDbEntity
  8
0
  6
CONTINUOUS
 62
     7
100
AcDbCircle
 10
23.69292300096029
 20
-59.42572682557039
 30
0.0
 40
0.3
100
AcDbArc
 50
270.0
 51
360.0
  0
CIRCLE
  5
366
330
1F
100
AcDbEntity
  8
0
  6
CONTINUOUS
 62
     7
100
AcDbCircle
 10
-48.70707699903969
 20
54.93088414663194
 30
0.0
 40
79.5
  0
LINE
  5
367
330
1F
100
AcDbEntity
  8
0
  6
DASHED2
 62
     7
100
AcDbLine
 10
-117.3070769990397
 20
-49.57798442535901
 30
0.0
 11
-117.3070769990397
 21
-53.57798442535901
 31
0.0
  0
LINE
  5
368
330
1F
100
AcDbEntity
  8
0
  6
DASHED2
 62
     7
100
AcDbLine
 10
19.89292300096034
 20
-49.70887101307849
 30
0.0
 11
19.89292300096034
 21
-53.57798442535901
 31
0.0
  0
LINE
  5
369
330
1F
100
AcDbEntity
  8
0
  6
DASHED2
 62
     7
100
AcDbLine
 10
-117.3070769990397
 20
-53.57798442535901
 30
0.0
 11
-115.8070769990397
 21
-53.57798442535901
 31
0.0
  0
LINE
  5
36A
330
1F
100
AcDbEntity
  8
0
  6
DASHED2
 62
     7
100
AcDbLine
 10
-71.55536646288712
 20
60.93088414663194
 30
0.0
 11
-71.55536646288712
 21
48.93088414663194
 31
0.0
  0
LINE
  5
36B
330
1F
100
AcDbEntity
  8
0
  6
DASHED2
 62
     7
100
AcDbLine
 10
-76.55536646288712
 20
60.93088414663194
 30
0.0
 11
-76.55536646288712
 21
48.93088414663194
 31
0.0
  0
LINE
  5
36C
330
1F
100
AcDbEntity
  8
0
  6
DASHED2
 62
     7
100
AcDbLine
 10
-76.55536646288712
 20
60.93088414663194
 30
0.0
 11
-71.55536646288712
 21
60.93088414663194
 31
0.0
  0
LINE
  5
36D
330
1F
100
AcDbEntity
  8
0
  6
DASHED2
 62
     7
100
AcDbLine
 10
-76.55536646288712
 20
48.93088414663194
 30
0.0
 11
-71.55536646288712
 21
48.93088414663194
 31
0.0
  0
ARC
  5
36E
330
1F
100
AcDbEntity
  8
0
  6
DASHED2
 62
     7
100
AcDbCircle
 10
-47.59446024337515
 20
-390.5239494477917
 30
0.0
 40
348.0
100
AcDbArc
 50
101.3039218775544
 51
101.5558835771867
  0
ARC
  5
36F
330
1F
100
AcDbEntity
  8
0
  6
DASHED2
 62
     7
100
AcDbCircle
 10
-45.41585308268557
 20
-391.5257280673441
 30
0.0
 40
348.0
100
AcDbArc
 50
79.1832251644812
 51
79.43455257380033
  0
LINE
  5
370
330
1F
100
AcDbEntity
  8
0
  6
DASHED2
 62
    31
100
AcDbLine
 10
18.39292300096034
 20
-53.57798442535901
 30
0.0
 11
19.89292300096034
 21
-53.57798442535901
 31
0.0
  0
TEXT
  5
371
330
1F
100
AcDbEntity
  8
0
 62
     7
100
AcDbText
 10
-75.55536646288712
 20
60.47388418907045
 30
0.0
 40
3.0
  1
>PP<
 50
-90.0
  7
FDASTYLE0
 72
     5
 11
-75.55536646288712
 21
48.47388418907045
 31
0.0
100
AcDbText
  0
TEXT
  5
372
330
1F
100
AcDbEntity
  8
0
 62
     7
100
AcDbText
 10
-162.2210992158366
 20
-14.5332825081138
 30
0.0
 40
3.0
  1
　 裏面に>PP<の材質表示あり
 41
0.8791208791208791
  7
FDASTYLE0
 72
     5
 11
-114.2210992158366
 21
-14.5332825081138
 31
0.0
100
AcDbText
  0
TEXT
  5
373
330
1F
100
AcDbEntity
  8
0
 62
     7
100
AcDbText
 10
132.3670918413158
 20
-68.26910616618311
 30
0.0
 40
5.0
  1
　　抗菌剤入あり
 41
0.8333333333333334
  7
FDASTYLE0
 72
     5
 11
172.3670918413158
 21
-68.26910616618311
 31
0.0
100
AcDbText
  0
LINE
  5
374
330
1F
100
AcDbEntity
  8
LAYER0014
  6
CONTINUOUS
 62
     7
100
AcDbLine
 10
-109.1316827556106
 20
-48.00800785458692
 30
0.0
 11
-107.2720206936438
 21
-58.55467549725154
 31
0.0
  0
LINE
  5
375
330
1F
100
AcDbEntity
  8
LAYER0014
  6
CONTINUOUS
 62
     7
100
AcDbLine
 10
-109.5134297137322
 20
-45.84301327129759
 30
0.0
 11
-109.1316827556106
 21
-48.00800785458694
 31
0.0
  0
LINE
  5
376
330
1F
100
AcDbEntity
  8
LAYER0014
  6
CONTINUOUS
 62
     7
100
AcDbLine
 10
-71.55536646288712
 20
68.11467553736041
 30
0.0
 11
-59.83501423211931
 21
68.11467553736041
 31
0.0
  0
LINE
  5
377
330
1F
100
AcDbEntity
  8
LAYER0014
  6
CONTINUOUS
 62
     7
100
AcDbLine
 10
-76.55536646288712
 20
68.11467553736041
 30
0.0
 11
-71.55536646288712
 21
68.11467553736041
 31
0.0
  0
LINE
  5
378
330
1F
100
AcDbEntity
  8
LAYER0014
  6
CONTINUOUS
 62
     7
100
AcDbLine
 10
-76.55536646288712
 20
61.25568939940195
 30
0.0
 11
-76.55536646288712
 21
70.40067553736041
 31
0.0
  0
LINE
  5
379
330
1F
100
AcDbEntity
  8
LAYER0014
  6
CONTINUOUS
 62
     7
100
AcDbLine
 10
-71.55536646288712
 20
61.33705653634845
 30
0.0
 11
-71.55536646288712
 21
70.40067553736041
 31
0.0
  0
LINE
  5
37A
330
1F
100
AcDbEntity
  8
LAYER0014
  6
CONTINUOUS
 62
     7
100
AcDbLine
 10
-109.5134297137322
 20
-45.84301327129759
 30
0.0
 11
-110.8157910462342
 21
-38.45695512370604
 31
0.0
  0
INSERT
  5
37B
330
1F
100
AcDbEntity
  8
LAYER0014
 62
     7
100
AcDbBlockReference
  2
_OPEN30
 10
-109.5134297137322
 20
-45.84301327129759
 30
0.0
 41
3.000002787824364
 42
2.999989273978464
 50
280.0000000000001
  0
LINE
  5
37C
330
1F
100
AcDbEntity
  8
LAYER0014
  6
CONTINUOUS
 62
     7
100
AcDbLine
 10
-76.55536646288712
 20
68.11467553736041
 30
0.0
 11
-84.05536646288712
 21
68.11467553736041
 31
0.0
  0
INSERT
  5
37D
330
1F
100
AcDbEntity
  8
LAYER0014
 62
     7
100
AcDbBlockReference
  2
_OPEN30
 10
-76.55536646288712
 20
68.11467553736041
 30
0.0
 41
3.000002787824364
 42
2.999989273978464
 50
360.0
  0
LINE
  5
37E
330
1F
100
AcDbEntity
  8
LAYER0014
  6
CONTINUOUS
 62
     7
100
AcDbLine
 10
-107.8293214231086
 20
-55.39406600217849
 30
0.0
 11
-109.1316827556106
 21
-48.00800785458694
 31
0.0
  0
INSERT
  5
37F
330
1F
100
AcDbEntity
  8
LAYER0014
 62
     7
100
AcDbBlockReference
  2
_OPEN30
 10
-109.1316827556106
 20
-48.00800785458694
 30
0.0
 41
3.000002787824364
 42
2.999989273978464
 50
100.0000000000001
  0
LINE
  5
380
330
1F
100
AcDbEntity
  8
LAYER0014
  6
CONTINUOUS
 62
     7
100
AcDbLine
 10
-64.05536646288712
 20
68.11467553736041
 30
0.0
 11
-71.55536646288712
 21
68.11467553736041
 31
0.0
  0
INSERT
  5
381
330
1F
100
AcDbEntity
  8
LAYER0014
 62
     7
100
AcDbBlockReference
  2
_OPEN30
 10
-71.55536646288712
 20
68.11467553736041
 30
0.0
 41
3.000002787824364
 42
2.999989273978464
 50
180.0
  0
TEXT
  5
382
330
1F
100
AcDbEntity
  8
LAYER0014
 62
     7
100
AcDbText
 10
-107.9924825488876
 20
-49.86171682071496
 30
0.0
 40
3.0
  1
(2)
 50
-80.00000000000003
 41
0.9999999999999998
  7
FDASTYLE0
 72
     5
 11
-106.4296489498852
 21
-58.72498659782483
 31
0.0
100
AcDbText
  0
TEXT
  5
383
330
1F
100
AcDbEntity
  8
LAYER0014
 62
     7
100
AcDbText
 10
-68.52101422162889
 20
68.91467554928134
 30
0.0
 40
3.0
  1
(5)
  7
FDASTYLE0
 72
     5
 11
-59.52101422162889
 21
68.91467554928134
 31
0.0
100
AcDbText
  0
INSERT
  5
384
330
1F
100
AcDbEntity
  8
LAYER0014
  6
CONTINUOUS
100
AcDbBlockReference
  2
DA_IMAGEDIMGROUP_1
 10
0.0
 20
0.0
 30
0.0
  0
INSERT
  5
385
330
1F
100
AcDbEntity
  8
LAYER0014
  6
CONTINUOUS
100
AcDbBlockReference
  2
DA_IMAGEDIMGROUP_2
 10
0.0
 20
0.0
 30
0.0
  0
INSERT
  5
386
330
1F
100
AcDbEntity
  8
LAYER0014
  6
CONTINUOUS
100
AcDbBlockReference
  2
DA_IMAGEDIMGROUP_3
 10
0.0
 20
0.0
 30
0.0
  0
INSERT
  5
387
330
1F
100
AcDbEntity
  8
LAYER0014
  6
CONTINUOUS
100
AcDbBlockReference
  2
DA_IMAGEDIMGROUP_4
 10
0.0
 20
0.0
 30
0.0
  0
INSERT
  5
388
330
1F
100
AcDbEntity
  8
LAYER0014
  6
CONTINUOUS
100
AcDbBlockReference
  2
DA_IMAGEDIMGROUP_5
 10
0.0
 20
0.0
 30
0.0
  0
INSERT
  5
389
330
1F
100
AcDbEntity
  8
LAYER0014
  6
CONTINUOUS
100
AcDbBlockReference
  2
DA_IMAGEDIMGROUP_6
 10
0.0
 20
0.0
 30
0.0
  0
INSERT
  5
38A
330
1F
100
AcDbEntity
  8
LAYER0014
  6
CONTINUOUS
100
AcDbBlockReference
  2
DA_IMAGEDIMGROUP_7
 10
0.0
 20
0.0
 30
0.0
  0
INSERT
  5
38B
330
1F
100
AcDbEntity
  8
LAYER0014
  6
CONTINUOUS
100
AcDbBlockReference
  2
DA_IMAGEDIMGROUP_8
 10
0.0
 20
0.0
 30
0.0
  0
INSERT
  5
38C
330
1F
100
AcDbEntity
  8
LAYER0014
  6
CONTINUOUS
100
AcDbBlockReference
  2
DA_IMAGEDIMGROUP_9
 10
0.0
 20
0.0
 30
0.0
  0
VIEWPORT
  5
49
330
1B
100
AcDbEntity
 67
     1
  8
0
100
AcDbViewport
 10
0.0
 20
0.0
 30
0.0
 40
1260.0
 41
891.0
 68
     1
 69
     1
1001
ACAD
1000
MVIEW
1002
{
1070
    16
1010
0.0
1020
0.0
1030
0.0
1010
0.0
1020
0.0
1030
1.0
1040
0.0
1040
891.0
1040
0.0
1040
0.0
1040
50.0
1040
0.0
1040
0.0
1070
     0
1070
   100
1070
     0
1070
     1
1070
     0
1070
     0
1070
     0
1070
     0
1040
0.0
1040
0.0
1040
0.0
1040
0.5
1040
0.5
1040
0.0
1040
0.0
1070
     0
1002
{
1002
}
1002
}
  0
ENDSEC
  0
SECTION
  2
OBJECTS
  0
DICTIONARY
  5
C
330
0
100
AcDbDictionary
  3
ACAD_GROUP
350
D
  3
ACAD_LAYOUT
350
1A
  3
ACAD_MLINESTYLE
350
17
  3
ACAD_PLOTSETTINGS
350
19
  3
ACDBHEADERROUNDTRIPXREC
350
38D
  0
DICTIONARY
  5
D
102
{ACAD_REACTORS
330
C
102
}
330
C
100
AcDbDictionary
  0
DICTIONARY
  5
1A
102
{ACAD_REACTORS
330
C
102
}
330
C
100
AcDbDictionary
  0
DICTIONARY
  5
17
102
{ACAD_REACTORS
330
C
102
}
330
C
100
AcDbDictionary
  3
STANDARD
350
18
  0
DICTIONARY
  5
19
102
{ACAD_REACTORS
330
C
102
}
330
C
100
AcDbDictionary
  0
DICTIONARY
  5
38D
102
{ACAD_REACTORS
330
C
102
}
330
C
100
AcDbDictionary
  3
CEPSNTYPE
350
396
  3
DIMSTYLEDATA
350
3AC
  3
FINGERPRINTGUID
350
397
  3
HYPERLINKBASE
350
390
  3
INSUNITS
350
395
  3
LAYOUTDICT
350
392
  3
LWETCUNION
350
394
  3
PLOTSETDICT
350
393
  3
PSVPSCALE
350
399
  3
PUCSBASE
350
39C
  3
PUCSORGBACK
350
3A2
  3
PUCSORGBOTTOM
350
39E
  3
PUCSORGFRONT
350
3A1
  3
PUCSORGLEFT
350
39F
  3
PUCSORGRIGHT
350
3A0
  3
PUCSORGTOP
350
39D
  3
PUCSORTHOREF
350
39A
  3
PUCSORTHOVIEW
350
39B
  3
STYLESHEET
350
391
  3
TSTACKALIGN
350
38E
  3
TSTACKSIZE
350
38F
  3
UCSBASE
350
3A5
  3
UCSORGBACK
350
3AB
  3
UCSORGBOTTOM
350
3A7
  3
UCSORGFRONT
350
3AA
  3
UCSORGLEFT
350
3A8
  3
UCSORGRIGHT
350
3A9
  3
UCSORGTOP
350
3A6
  3
UCSORTHOREF
350
3A3
  3
UCSORTHOVIEW
350
3A4
  3
VERSIONGUID
350
398
  0
MLINESTYLE
  5
18
102
{ACAD_REACTORS
330
17
102
}
330
17
100
AcDbMlineStyle
  2
Standard
 70
     0
  3

 62
   256
 51
90.0
 52
90.0
 71
     2
 49
0.5
 62
   256
  6
BYLAYER
 49
-0.5
 62
   256
  6
BYLAYER
  0
XRECORD
  5
396
102
{ACAD_REACTORS
330
38D
102
}
330
38D
100
AcDbXrecord
 90
        0
  0
XRECORD
  5
3AC
102
{ACAD_REACTORS
330
38D
102
}
330
38D
100
AcDbXrecord
1000
DSTYLE
1002
{
1070
   171
 70
     2
1070
   143
 40
25.4
1070
   274
 70
     2
1070
   141
 40
0.09
1070
   271
 70
     4
1070
    43
 40
0.38
1070
    44
 40
0.18
1070
   278
 70
    46
1070
    42
 40
0.0625
1070
   147
 40
0.09
1070
    77
 70
     3
1070
   272
 70
     4
1070
    73
 70
     1
1070
   172
 70
     0
1070
    74
 70
     1
1070
   283
 70
     1
1070
   340
340
11
1070
   140
 40
0.18
1070
   284
 70
     0
1070
    78
 70
     0
1002
}
  0
XRECORD
  5
397
102
{ACAD_REACTORS
330
38D
102
}
330
38D
100
AcDbXrecord
  1
{D8E1A1BC-2BAE-4442-90F6-3BE0B0934FAF}
  0
XRECORD
  5
390
102
{ACAD_REACTORS
330
38D
102
}
330
38D
100
AcDbXrecord
  1

  0
XRECORD
  5
395
102
{ACAD_REACTORS
330
38D
102
}
330
38D
100
AcDbXrecord
 90
        4
  0
XRECORD
  5
392
102
{ACAD_REACTORS
330
38D
102
}
330
38D
100
AcDbXrecord
340
1A
  0
XRECORD
  5
394
102
{ACAD_REACTORS
330
38D
102
}
330
38D
100
AcDbXrecord
 90
    10781
  0
XRECORD
  5
393
102
{ACAD_REACTORS
330
38D
102
}
330
38D
100
AcDbXrecord
340
19
  0
XRECORD
  5
399
102
{ACAD_REACTORS
330
38D
102
}
330
38D
100
AcDbXrecord
 40
0.0
  0
XRECORD
  5
39C
102
{ACAD_REACTORS
330
38D
102
}
330
38D
100
AcDbXrecord
340
0
  0
XRECORD
  5
3A2
102
{ACAD_REACTORS
330
38D
102
}
330
38D
100
AcDbXrecord
 10
0.0
 20
0.0
 30
0.0
  0
XRECORD
  5
39E
102
{ACAD_REACTORS
330
38D
102
}
330
38D
100
AcDbXrecord
 10
0.0
 20
0.0
 30
0.0
  0
XRECORD
  5
3A1
102
{ACAD_REACTORS
330
38D
102
}
330
38D
100
AcDbXrecord
 10
0.0
 20
0.0
 30
0.0
  0
XRECORD
  5
39F
102
{ACAD_REACTORS
330
38D
102
}
330
38D
100
AcDbXrecord
 10
0.0
 20
0.0
 30
0.0
  0
XRECORD
  5
3A0
102
{ACAD_REACTORS
330
38D
102
}
330
38D
100
AcDbXrecord
 10
0.0
 20
0.0
 30
0.0
  0
XRECORD
  5
39D
102
{ACAD_REACTORS
330
38D
102
}
330
38D
100
AcDbXrecord
 10
0.0
 20
0.0
 30
0.0
  0
XRECORD
  5
39A
102
{ACAD_REACTORS
330
38D
102
}
330
38D
100
AcDbXrecord
340
0
  0
XRECORD
  5
39B
102
{ACAD_REACTORS
330
38D
102
}
330
38D
100
AcDbXrecord
 70
     0
  0
XRECORD
  5
391
102
{ACAD_REACTORS
330
38D
102
}
330
38D
100
AcDbXrecord
  1

  0
XRECORD
  5
38E
102
{ACAD_REACTORS
330
38D
102
}
330
38D
100
AcDbXrecord
 90
        1
  0
XRECORD
  5
38F
102
{ACAD_REACTORS
330
38D
102
}
330
38D
100
AcDbXrecord
 90
       70
  0
XRECORD
  5
3A5
102
{ACAD_REACTORS
330
38D
102
}
330
38D
100
AcDbXrecord
340
0
  0
XRECORD
  5
3AB
102
{ACAD_REACTORS
330
38D
102
}
330
38D
100
AcDbXrecord
 10
0.0
 20
0.0
 30
0.0
  0
XRECORD
  5
3A7
102
{ACAD_REACTORS
330
38D
102
}
330
38D
100
AcDbXrecord
 10
0.0
 20
0.0
 30
0.0
  0
XRECORD
  5
3AA
102
{ACAD_REACTORS
330
38D
102
}
330
38D
100
AcDbXrecord
 10
0.0
 20
0.0
 30
0.0
  0
XRECORD
  5
3A8
102
{ACAD_REACTORS
330
38D
102
}
330
38D
100
AcDbXrecord
 10
0.0
 20
0.0
 30
0.0
  0
XRECORD
  5
3A9
102
{ACAD_REACTORS
330
38D
102
}
330
38D
100
AcDbXrecord
 10
0.0
 20
0.0
 30
0.0
  0
XRECORD
  5
3A6
102
{ACAD_REACTORS
330
38D
102
}
330
38D
100
AcDbXrecord
 10
0.0
 20
0.0
 30
0.0
  0
XRECORD
  5
3A3
102
{ACAD_REACTORS
330
38D
102
}
330
38D
100
AcDbXrecord
340
0
  0
XRECORD
  5
3A4
102
{ACAD_REACTORS
330
38D
102
}
330
38D
100
AcDbXrecord
 70
     0
  0
XRECORD
  5
398
102
{ACAD_REACTORS
330
38D
102
}
330
38D
100
AcDbXrecord
  1
{FAEB1C32-E019-11D5-929B-00C0DF256EC4}
  0
ENDSEC
  0
EOF
